  0
SECTION
  2
HEADER
  9
$ACADVER
  1
AC1009
  9
$INSBASE
 10
0.0
 20
0.0
 30
0.0
  9
$EXTMIN
 10
-572.4
 20
-660.1
 30
0.0
  9
$EXTMAX
 10
1587.057738
 20
2322.388672
 30
0.0
  9
$LIMMIN
 10
0.0
 20
0.0
  9
$LIMMAX
 10
12.0
 20
9.0
  9
$ORTHOMODE
 70
     0
  9
$REGENMODE
 70
     1
  9
$FILLMODE
 70
     1
  9
$QTEXTMODE
 70
     0
  9
$MIRRTEXT
 70
     1
  9
$DRAGMODE
 70
     2
  9
$LTSCALE
 40
1.0
  9
$OSMODE
 70
     0
  9
$ATTMODE
 70
     1
  9
$TEXTSIZE
 40
7.0
  9
$TRACEWID
 40
0.05
  9
$TEXTSTYLE
  7
STANDARD1
  9
$CLAYER
  8
0
  9
$CELTYPE
  6
CONTINUOUS
  9
$CECOLOR
 62
   256
  9
$DIMSCALE
 40
1.0
  9
$DIMASZ
 40
10.0
  9
$DIMEXO
 40
10.0
  9
$DIMDLI
 40
8.0
  9
$DIMRND
 40
0.0
  9
$DIMDLE
 40
0.0
  9
$DIMEXE
 40
12.5
  9
$DIMTP
 40
0.0
  9
$DIMTM
 40
0.0
  9
$DIMTXT
 40
30.0
  9
$DIMCEN
 40
2.5
  9
$DIMTSZ
 40
0.0
  9
$DIMTOL
 70
     0
  9
$DIMLIM
 70
     0
  9
$DIMTIH
 70
     0
  9
$DIMTOH
 70
     0
  9
$DIMSE1
 70
     0
  9
$DIMSE2
 70
     0
  9
$DIMTAD
 70
     3
  9
$DIMZIN
 70
    12
  9
$DIMBLK
  1

  9
$DIMASO
 70
     1
  9
$DIMSHO
 70
     1
  9
$DIMPOST
  1

  9
$DIMAPOST
  1

  9
$DIMALT
 70
     0
  9
$DIMALTD
 70
     4
  9
$DIMALTF
 40
25.4
  9
$DIMLFAC
 40
1.0
  9
$DIMTOFL
 70
     1
  9
$DIMTVP
 40
0.0
  9
$DIMTIX
 70
     0
  9
$DIMSOXD
 70
     0
  9
$DIMSAH
 70
     1
  9
$DIMBLK1
  1
_ORIGIN
  9
$DIMBLK2
  1
_ORIGIN
  9
$DIMSTYLE
  2
STANDARD
  9
$DIMCLRD
 70
     0
  9
$DIMCLRE
 70
     0
  9
$DIMCLRT
 70
     0
  9
$DIMTFAC
 40
1.0
  9
$DIMGAP
 40
0.09
  9
$LUNITS
 70
     2
  9
$LUPREC
 70
     3
  9
$SKETCHINC
 40
0.1
  9
$FILLETRAD
 40
0.0
  9
$AUNITS
 70
     0
  9
$AUPREC
 70
     0
  9
$MENU
  1
acad
  9
$ELEVATION
 40
0.0
  9
$PELEVATION
 40
0.0
  9
$THICKNESS
 40
0.0
  9
$LIMCHECK
 70
     0
  9
$BLIPMODE
 70
     0
  9
$CHAMFERA
 40
0.0
  9
$CHAMFERB
 40
0.0
  9
$SKPOLY
 70
     0
  9
$TDCREATE
 40
2452583.411458
  9
$TDUPDATE
 40
2452583.411458
  9
$TDINDWG
 40
0.0
  9
$TDUSRTIMER
 40
0.0
  9
$USRTIMER
 70
     1
  9
$ANGBASE
 50
0.0
  9
$ANGDIR
 70
     0
  9
$PDMODE
 70
     0
  9
$PDSIZE
 40
0.0
  9
$PLINEWID
 40
0.0
  9
$COORDS
 70
     1
  9
$SPLFRAME
 70
     0
  9
$SPLINETYPE
 70
     6
  9
$SPLINESEGS
 70
     8
  9
$ATTDIA
 70
     0
  9
$ATTREQ
 70
     1
  9
$HANDLING
 70
     1
  9
$HANDSEED
  5
559
  9
$SURFTAB1
 70
     6
  9
$SURFTAB2
 70
     6
  9
$SURFTYPE
 70
     6
  9
$SURFU
 70
     6
  9
$SURFV
 70
     6
  9
$UCSNAME
  2

  9
$UCSORG
 10
0.0
 20
0.0
 30
0.0
  9
$UCSXDIR
 10
1.0
 20
0.0
 30
0.0
  9
$UCSYDIR
 10
0.0
 20
1.0
 30
0.0
  9
$PUCSNAME
  2

  9
$PUCSORG
 10
0.0
 20
0.0
 30
0.0
  9
$PUCSXDIR
 10
1.0
 20
0.0
 30
0.0
  9
$PUCSYDIR
 10
0.0
 20
1.0
 30
0.0
  9
$USERI1
 70
     0
  9
$USERI2
 70
     0
  9
$USERI3
 70
     0
  9
$USERI4
 70
     0
  9
$USERI5
 70
     0
  9
$USERR1
 40
0.0
  9
$USERR2
 40
0.0
  9
$USERR3
 40
0.0
  9
$USERR4
 40
0.0
  9
$USERR5
 40
0.0
  9
$WORLDVIEW
 70
     1
  9
$SHADEDGE
 70
     3
  9
$SHADEDIF
 70
    70
  9
$TILEMODE
 70
     1
  9
$MAXACTVP
 70
    48
  9
$PLIMCHECK
 70
     0
  9
$PEXTMIN
 10
1.000000E+020
 20
1.000000E+020
 30
1.000000E+020
  9
$PEXTMAX
 10
-1.000000E+020
 20
-1.000000E+020
 30
-1.000000E+020
  9
$PLIMMIN
 10
0.0
 20
0.0
  9
$PLIMMAX
 10
12.0
 20
9.0
  9
$UNITMODE
 70
     0
  9
$VISRETAIN
 70
     1
  9
$PLINEGEN
 70
     0
  9
$PSLTSCALE
 70
     1
  0
ENDSEC
  0
SECTION
  2
TABLES
  0
TABLE
  2
VPORT
 70
     2
  0
VPORT
  2
*ACTIVE
 70
     0
 10
0.0
 20
0.0
 11
1.0
 21
1.0
 12
507.328869
 22
831.144336
 13
0.0
 23
0.0
 14
1.0
 24
1.0
 15
0.0
 25
0.0
 16
0.0
 26
0.0
 36
1.0
 17
0.0
 27
0.0
 37
0.0
 40
3039.478901
 41
2.827476
 42
50.0
 43
0.0
 44
0.0
 50
0.0
 51
0.0
 71
     0
 72
   100
 73
     1
 74
     1
 75
     0
 76
     0
 77
     0
 78
     0
  0
ENDTAB
  0
TABLE
  2
LTYPE
 70
     4
  0
LTYPE
  2
CONTINUOUS
 70
     0
  3
Solid line
 72
    65
 73
     0
 40
0.0
  0
LTYPE
  2
DASHED
 70
     0
  3
-- -- -- -- -- -- -- -- -- -- -- -- -- -- --
 72
    65
 73
     2
 40
0.75
 49
0.5
 49
-0.25
  0
LTYPE
  2
DASHDOT
 70
     0
  3
__ . __ . __ . __ . __ . __ . __ . __ . __ . __
 72
    65
 73
     4
 40
125.0
 49
80.0
 49
-20.0
 49
5.0
 49
-20.0
  0
LTYPE
  2
DIVIDE
 70
     0
  3
__ . . __ . . __ . . __ . . __ . . __ . . __
 72
    65
 73
     6
 40
1.25
 49
0.5
 49
-0.25
 49
0.0
 49
-0.25
 49
0.0
 49
-0.25
  0
ENDTAB
  0
TABLE
  2
LAYER
 70
    12
  0
LAYER
  2
0
 70
     0
 62
     3
  6
CONTINUOUS
  0
LAYER
  2
OUTLINE
 70
     0
 62
     3
  6
CONTINUOUS
  0
LAYER
  2
DETAIL
 70
     0
 62
     5
  6
CONTINUOUS
  0
LAYER
  2
BASIS
 70
     0
 62
     6
  6
CONTINUOUS
  0
LAYER
  2
SIZE
 70
     0
 62
    30
  6
CONTINUOUS
  0
LAYER
  2
NOTE
 70
     0
 62
     4
  6
CONTINUOUS
  0
LAYER
  2
ARRANGE
 70
     0
 62
     1
  6
CONTINUOUS
  0
LAYER
  2
FIX
 70
     0
 62
    11
  6
CONTINUOUS
  0
LAYER
  2
SERVICESPACE
 70
     0
 62
     2
  6
CONTINUOUS
  0
LAYER
  2
ETC
 70
     0
 62
    61
  6
CONTINUOUS
  0
LAYER
  2
SYMBOLLINE
 70
     0
 62
     7
  6
CONTINUOUS
  0
LAYER
  2
DEFPOINTS
 70
     0
 62
     7
  6
CONTINUOUS
  0
ENDTAB
  0
TABLE
  2
STYLE
 70
     5
  0
STYLE
  2
STANDARD
 70
     0
 40
0.0
 41
1.0
 50
0.0
 71
     0
 42
0.2
  3
txt
  4

  0
STYLE
  2
STANDARD1
 70
     0
 40
0.0
 41
1.0
 50
0.0
 71
     0
 42
7.0
  3
MONOTXT
  4
BIGFONT
  0
STYLE
  2
STANDARD2
 70
     4
 40
0.0
 41
1.0
 50
0.0
 71
     0
 42
7.0
  3
MONOTXT
  4
BIGFONT
  0
STYLE
  2
STANDARD3
 70
     0
 40
0.0
 41
1.0
 50
0.0
 71
     0
 42
7.0
  3
MONOTXT
  4

  0
STYLE
  2
STANDARD4
 70
     4
 40
0.0
 41
1.0
 50
0.0
 71
     0
 42
7.0
  3
MONOTXT
  4

  0
ENDTAB
  0
TABLE
  2
VIEW
 70
     0
  0
ENDTAB
  0
TABLE
  2
UCS
 70
     0
  0
ENDTAB
  0
TABLE
  2
APPID
 70
     1
  0
APPID
  2
ACAD
 70
     0
  0
ENDTAB
  0
TABLE
  2
DIMSTYLE
 70
     1
  0
DIMSTYLE
  2
STANDARD
 70
     0
  3

  4

  5

  6

  7

 40
1.0
 41
0.18
 42
0.0625
 43
0.38
 44
0.18
 45
0.0
 46
0.0
 47
0.0
 48
0.0
140
0.18
141
0.09
142
0.0
143
25.4
144
1.0
145
0.0
146
1.0
147
0.09
 71
     0
 72
     0
 73
     1
 74
     1
 75
     0
 76
     0
 77
     0
 78
     0
170
     0
171
     2
172
     0
173
     0
174
     0
175
     0
176
     0
177
     0
178
     0
  0
ENDTAB
  0
ENDSEC
  0
SECTION
  2
BLOCKS
  0
BLOCK
  8
0
  2
$MODEL_SPACE
 70
     0
 10
0.0
 20
0.0
 30
0.0
  3
$MODEL_SPACE
  1

  0
ENDBLK
  5
1A
  8
0
  0
BLOCK
 67
     1
  8
0
  2
$PAPER_SPACE
 70
     0
 10
0.0
 20
0.0
 30
0.0
  3
$PAPER_SPACE
  1

  0
ENDBLK
  5
17
 67
     1
  8
0
  0
BLOCK
  8
SIZE
  2
*D0
 70
     1
 10
0.0
 20
0.0
 30
0.0
  3
*D0
  1

  0
TEXT
  5
35
  8
SIZE
  6
CONTINUOUS
 10
978.999976
 20
81.059998
 30
0.0
 40
2.8
  1
168
 50
90.000005
 41
0.7
  7
STANDARD1
  0
LINE
  5
36
  8
SIZE
  6
CONTINUOUS
 10
697.0
 20
168.0
 30
0.0
 11
982.0
 21
168.0
 31
0.0
  0
LINE
  5
37
  8
SIZE
  6
CONTINUOUS
 10
980.0
 20
168.0
 30
0.0
 11
980.0
 21
0.0
 31
0.0
  0
INSERT
  5
39
  8
SIZE
  2
DOT
 10
980.0
 20
168.0
 30
0.0
 50
90.0
  0
INSERT
  5
3A
  8
SIZE
  2
DOT
 10
980.0
 20
0.0
 30
0.0
 50
270.0
  0
POINT
  5
3B
  8
DEFPOINTS
  6
BYBLOCK
 10
730.0
 20
0.0
 30
0.0
  0
POINT
  5
3C
  8
DEFPOINTS
  6
BYBLOCK
 10
696.0
 20
168.0
 30
0.0
  0
POINT
  5
3D
  8
DEFPOINTS
  6
BYBLOCK
 10
980.0
 20
168.0
 30
0.0
  0
ENDBLK
  5
3E
  8
SIZE
  0
BLOCK
  8
SIZE
  2
DOT
 70
     0
 10
0.0
 20
0.0
 30
0.0
  3
DOT
  1

  0
POLYLINE
  5
40
  8
0
  6
BYBLOCK
 66
     1
 10
0.0
 20
0.0
 30
0.0
 70
     1
 40
0.5
 41
0.5
  0
VERTEX
  5
41
  8
0
  6
BYBLOCK
 10
-0.25
 20
0.0
 30
0.0
 42
1.0
  0
VERTEX
  5
42
  8
0
  6
BYBLOCK
 10
0.25
 20
0.0
 30
0.0
 42
1.0
  0
SEQEND
  5
43
  8
0
  6
BYBLOCK
  0
LINE
  5
44
  8
0
  6
BYBLOCK
 10
-0.5
 20
0.0
 30
0.0
 11
-1.0
 21
0.0
 31
0.0
  0
ENDBLK
  5
45
  8
SIZE
  0
BLOCK
  8
SIZE
  2
*D2
 70
     1
 10
0.0
 20
0.0
 30
0.0
  3
*D2
  1

  0
TEXT
  5
48
  8
SIZE
  6
CONTINUOUS
 10
701.039978
 20
-149.000006
 30
0.0
 40
2.8
  1
54
 50
0.000003
 41
0.7
  7
STANDARD1
  0
LINE
  5
49
  8
SIZE
  6
CONTINUOUS
 10
676.0
 20
147.0
 30
0.0
 11
676.0
 21
-152.0
 31
0.0
  0
LINE
  5
4A
  8
SIZE
  6
CONTINUOUS
 10
730.0
 20
-1.0
 30
0.0
 11
730.0
 21
-152.0
 31
0.0
  0
LINE
  5
4B
  8
SIZE
  6
CONTINUOUS
 10
676.0
 20
-150.0
 30
0.0
 11
730.0
 21
-150.0
 31
0.0
  0
INSERT
  5
4C
  8
SIZE
  2
DOT
 10
676.0
 20
-150.0
 30
0.0
 50
180.0
  0
INSERT
  5
4D
  8
SIZE
  2
DOT
 10
730.0
 20
-150.0
 30
0.0
  0
POINT
  5
4E
  8
DEFPOINTS
  6
BYBLOCK
 10
730.0
 20
0.0
 30
0.0
  0
POINT
  5
4F
  8
DEFPOINTS
  6
BYBLOCK
 10
676.0
 20
148.0
 30
0.0
  0
POINT
  5
50
  8
DEFPOINTS
  6
BYBLOCK
 10
676.0
 20
-150.0
 30
0.0
  0
ENDBLK
  5
51
  8
SIZE
  0
BLOCK
  8
SIZE
  2
*D3
 70
     1
 10
0.0
 20
0.0
 30
0.0
  3
*D3
  1

  0
TEXT
  5
54
  8
SIZE
  6
CONTINUOUS
 10
1178.999976
 20
1734.060059
 30
0.0
 40
2.8
  1
130
 50
90.000005
 41
0.7
  7
STANDARD1
  0
LINE
  5
55
  8
SIZE
  6
CONTINUOUS
 10
728.5
 20
1672.0
 30
0.0
 11
1182.0
 21
1672.0
 31
0.0
  0
LINE
  5
56
  8
SIZE
  6
CONTINUOUS
 10
721.0
 20
1802.0
 30
0.0
 11
1182.0
 21
1802.0
 31
0.0
  0
LINE
  5
57
  8
SIZE
  6
CONTINUOUS
 10
1180.0
 20
1672.0
 30
0.0
 11
1180.0
 21
1802.0
 31
0.0
  0
INSERT
  5
58
  8
SIZE
  2
DOT
 10
1180.0
 20
1672.0
 30
0.0
 50
270.0
  0
INSERT
  5
59
  8
SIZE
  2
DOT
 10
1180.0
 20
1802.0
 30
0.0
 50
90.0
  0
POINT
  5
5A
  8
DEFPOINTS
  6
BYBLOCK
 10
720.0
 20
1802.0
 30
0.0
  0
POINT
  5
5B
  8
DEFPOINTS
  6
BYBLOCK
 10
727.5
 20
1672.0
 30
0.0
  0
POINT
  5
5C
  8
DEFPOINTS
  6
BYBLOCK
 10
1180.0
 20
1672.0
 30
0.0
  0
ENDBLK
  5
5D
  8
SIZE
  0
BLOCK
  8
SIZE
  2
*D4
 70
     1
 10
0.0
 20
0.0
 30
0.0
  3
*D4
  1

  0
TEXT
  5
60
  8
SIZE
  6
CONTINUOUS
 10
1278.999976
 20
832.080017
 30
0.0
 40
2.8
  1
1672
 50
90.000005
 41
0.7
  7
STANDARD1
  0
LINE
  5
61
  8
SIZE
  6
CONTINUOUS
 10
728.5
 20
1672.0
 30
0.0
 11
1282.0
 21
1672.0
 31
0.0
  0
LINE
  5
62
  8
SIZE
  6
CONTINUOUS
 10
1280.0
 20
0.0
 30
0.0
 11
1280.0
 21
1672.0
 31
0.0
  0
INSERT
  5
63
  8
SIZE
  2
DOT
 10
1280.0
 20
0.0
 30
0.0
 50
270.0
  0
INSERT
  5
64
  8
SIZE
  2
DOT
 10
1280.0
 20
1672.0
 30
0.0
 50
90.0
  0
POINT
  5
65
  8
DEFPOINTS
  6
BYBLOCK
 10
727.5
 20
1672.0
 30
0.0
  0
POINT
  5
66
  8
DEFPOINTS
  6
BYBLOCK
 10
1330.0
 20
0.0
 30
0.0
  0
POINT
  5
67
  8
DEFPOINTS
  6
BYBLOCK
 10
1280.0
 20
0.0
 30
0.0
  0
ENDBLK
  5
68
  8
SIZE
  0
BLOCK
  8
SIZE
  2
*D5
 70
     1
 10
0.0
 20
0.0
 30
0.0
  3
*D5
  1

  0
TEXT
  5
6B
  8
SIZE
  6
CONTINUOUS
 10
1178.999976
 20
1177.060059
 30
0.0
 40
2.8
  1
130
 50
90.000005
 41
0.7
  7
STANDARD1
  0
LINE
  5
6C
  8
SIZE
  6
CONTINUOUS
 10
728.5
 20
1115.0
 30
0.0
 11
1182.0
 21
1115.0
 31
0.0
  0
LINE
  5
6D
  8
SIZE
  6
CONTINUOUS
 10
728.5
 20
1245.0
 30
0.0
 11
1182.0
 21
1245.0
 31
0.0
  0
LINE
  5
6E
  8
SIZE
  6
CONTINUOUS
 10
1180.0
 20
1115.0
 30
0.0
 11
1180.0
 21
1245.0
 31
0.0
  0
INSERT
  5
6F
  8
SIZE
  2
DOT
 10
1180.0
 20
1115.0
 30
0.0
 50
270.0
  0
INSERT
  5
70
  8
SIZE
  2
DOT
 10
1180.0
 20
1245.0
 30
0.0
 50
90.0
  0
POINT
  5
71
  8
DEFPOINTS
  6
BYBLOCK
 10
727.5
 20
1245.0
 30
0.0
  0
POINT
  5
72
  8
DEFPOINTS
  6
BYBLOCK
 10
727.5
 20
1115.0
 30
0.0
  0
POINT
  5
73
  8
DEFPOINTS
  6
BYBLOCK
 10
1180.0
 20
1115.0
 30
0.0
  0
ENDBLK
  5
74
  8
SIZE
  0
BLOCK
  8
SIZE
  2
*D6
 70
     1
 10
0.0
 20
0.0
 30
0.0
  3
*D6
  1

  0
TEXT
  5
77
  8
SIZE
  6
CONTINUOUS
 10
1178.999976
 20
406.061798
 30
0.0
 40
2.8
  1
1115
 50
90.000005
 41
0.7
  7
STANDARD1
  0
LINE
  5
78
  8
SIZE
  6
CONTINUOUS
 10
728.5
 20
1115.0
 30
0.0
 11
1182.0
 21
1115.0
 31
0.0
  0
LINE
  5
79
  8
SIZE
  6
CONTINUOUS
 10
1180.0
 20
0.0
 30
0.0
 11
1180.0
 21
1115.0
 31
0.0
  0
INSERT
  5
7A
  8
SIZE
  2
DOT
 10
1180.0
 20
0.0
 30
0.0
 50
270.0
  0
INSERT
  5
7B
  8
SIZE
  2
DOT
 10
1180.0
 20
1115.0
 30
0.0
 50
90.0
  0
POINT
  5
7C
  8
DEFPOINTS
  6
BYBLOCK
 10
727.5
 20
1115.0
 30
0.0
  0
POINT
  5
7D
  8
DEFPOINTS
  6
BYBLOCK
 10
1330.0
 20
0.0
 30
0.0
  0
POINT
  5
7E
  8
DEFPOINTS
  6
BYBLOCK
 10
1180.0
 20
0.0
 30
0.0
  0
ENDBLK
  5
7F
  8
SIZE
  0
BLOCK
  8
SIZE
  2
*D7
 70
     1
 10
0.0
 20
0.0
 30
0.0
  3
*D7
  1

  0
TEXT
  5
82
  8
SIZE
  6
CONTINUOUS
 10
1078.999976
 20
113.559998
 30
0.0
 40
2.8
  1
233
 50
90.000005
 41
0.7
  7
STANDARD1
  0
LINE
  5
83
  8
SIZE
  6
CONTINUOUS
 10
728.5
 20
233.0
 30
0.0
 11
1082.0
 21
233.0
 31
0.0
  0
LINE
  5
84
  8
SIZE
  6
CONTINUOUS
 10
1080.0
 20
0.0
 30
0.0
 11
1080.0
 21
233.0
 31
0.0
  0
INSERT
  5
85
  8
SIZE
  2
DOT
 10
1080.0
 20
0.0
 30
0.0
 50
270.0
  0
INSERT
  5
86
  8
SIZE
  2
DOT
 10
1080.0
 20
233.0
 30
0.0
 50
90.0
  0
POINT
  5
87
  8
DEFPOINTS
  6
BYBLOCK
 10
727.5
 20
233.0
 30
0.0
  0
POINT
  5
88
  8
DEFPOINTS
  6
BYBLOCK
 10
730.0
 20
0.0
 30
0.0
  0
POINT
  5
89
  8
DEFPOINTS
  6
BYBLOCK
 10
1080.0
 20
0.0
 30
0.0
  0
ENDBLK
  5
8A
  8
SIZE
  0
BLOCK
  8
SIZE
  2
*D8
 70
     1
 10
0.0
 20
0.0
 30
0.0
  3
*D8
  1

  0
TEXT
  5
8D
  8
SIZE
  6
CONTINUOUS
 10
1078.999976
 20
295.059998
 30
0.0
 40
2.8
  1
130
 50
90.000005
 41
0.7
  7
STANDARD1
  0
LINE
  5
8E
  8
SIZE
  6
CONTINUOUS
 10
728.5
 20
233.0
 30
0.0
 11
1082.0
 21
233.0
 31
0.0
  0
LINE
  5
8F
  8
SIZE
  6
CONTINUOUS
 10
728.5
 20
363.0
 30
0.0
 11
1082.0
 21
363.0
 31
0.0
  0
LINE
  5
90
  8
SIZE
  6
CONTINUOUS
 10
1080.0
 20
233.0
 30
0.0
 11
1080.0
 21
363.0
 31
0.0
  0
INSERT
  5
91
  8
SIZE
  2
DOT
 10
1080.0
 20
233.0
 30
0.0
 50
270.0
  0
INSERT
  5
92
  8
SIZE
  2
DOT
 10
1080.0
 20
363.0
 30
0.0
 50
90.0
  0
POINT
  5
93
  8
DEFPOINTS
  6
BYBLOCK
 10
727.5
 20
363.0
 30
0.0
  0
POINT
  5
94
  8
DEFPOINTS
  6
BYBLOCK
 10
727.5
 20
233.0
 30
0.0
  0
POINT
  5
95
  8
DEFPOINTS
  6
BYBLOCK
 10
1080.0
 20
233.0
 30
0.0
  0
ENDBLK
  5
96
  8
SIZE
  0
BLOCK
  8
SIZE
  2
*D9
 70
     1
 10
0.0
 20
0.0
 30
0.0
  3
*D9
  1

  0
TEXT
  5
99
  8
SIZE
  6
CONTINUOUS
 10
425.000006
 20
81.349999
 30
0.0
 40
2.8
  1
172.5
 50
90.000005
 41
0.7
  7
STANDARD1
  0
LINE
  5
9A
  8
SIZE
  6
CONTINUOUS
 10
568.0
 20
172.5
 30
0.0
 11
424.0
 21
172.5
 31
0.0
  0
LINE
  5
9B
  8
SIZE
  6
CONTINUOUS
 10
525.0
 20
0.0
 30
0.0
 11
424.0
 21
0.0
 31
0.0
  0
LINE
  5
9C
  8
SIZE
  6
CONTINUOUS
 10
426.0
 20
172.5
 30
0.0
 11
426.0
 21
0.0
 31
0.0
  0
INSERT
  5
9D
  8
SIZE
  2
DOT
 10
426.0
 20
172.5
 30
0.0
 50
90.0
  0
INSERT
  5
9E
  8
SIZE
  2
DOT
 10
426.0
 20
0.0
 30
0.0
 50
270.0
  0
POINT
  5
9F
  8
DEFPOINTS
  6
BYBLOCK
 10
526.0
 20
0.0
 30
0.0
  0
POINT
  5
A0
  8
DEFPOINTS
  6
BYBLOCK
 10
569.0
 20
172.5
 30
0.0
  0
POINT
  5
A1
  8
DEFPOINTS
  6
BYBLOCK
 10
426.0
 20
172.5
 30
0.0
  0
ENDBLK
  5
A2
  8
SIZE
  0
BLOCK
  8
SIZE
  2
*D10
 70
     1
 10
0.0
 20
0.0
 30
0.0
  3
*D10
  1

  0
TEXT
  5
A5
  8
SIZE
  6
CONTINUOUS
 10
685.270508
 20
-349.000006
 30
0.0
 40
2.8
  1
90
 50
0.000003
 41
0.7
  7
STANDARD1
  0
LINE
  5
A6
  8
SIZE
  6
CONTINUOUS
 10
640.0
 20
134.5
 30
0.0
 11
640.0
 21
-352.0
 31
0.0
  0
LINE
  5
A7
  8
SIZE
  6
CONTINUOUS
 10
730.0
 20
-1.0
 30
0.0
 11
730.0
 21
-352.0
 31
0.0
  0
LINE
  5
A8
  8
SIZE
  6
CONTINUOUS
 10
640.0
 20
-350.0
 30
0.0
 11
730.0
 21
-350.0
 31
0.0
  0
INSERT
  5
A9
  8
SIZE
  2
DOT
 10
640.0
 20
-350.0
 30
0.0
 50
180.0
  0
INSERT
  5
AA
  8
SIZE
  2
DOT
 10
730.0
 20
-350.0
 30
0.0
  0
POINT
  5
AB
  8
DEFPOINTS
  6
BYBLOCK
 10
730.0
 20
0.0
 30
0.0
  0
POINT
  5
AC
  8
DEFPOINTS
  6
BYBLOCK
 10
640.0
 20
135.5
 30
0.0
  0
POINT
  5
AD
  8
DEFPOINTS
  6
BYBLOCK
 10
640.0
 20
-350.0
 30
0.0
  0
ENDBLK
  5
AE
  8
SIZE
  0
BLOCK
  8
SIZE
  2
*D11
 70
     1
 10
0.0
 20
0.0
 30
0.0
  3
*D11
  1

  0
TEXT
  5
B1
  8
SIZE
  6
CONTINUOUS
 10
878.999976
 20
72.849999
 30
0.0
 40
2.8
  1
155.5
 50
90.000005
 41
0.7
  7
STANDARD1
  0
LINE
  5
B2
  8
SIZE
  6
CONTINUOUS
 10
653.6875
 20
155.5
 30
0.0
 11
882.0
 21
155.5
 31
0.0
  0
LINE
  5
B3
  8
SIZE
  6
CONTINUOUS
 10
880.0
 20
155.5
 30
0.0
 11
880.0
 21
0.0
 31
0.0
  0
INSERT
  5
B4
  8
SIZE
  2
DOT
 10
880.0
 20
155.5
 30
0.0
 50
90.0
  0
INSERT
  5
B5
  8
SIZE
  2
DOT
 10
880.0
 20
0.0
 30
0.0
 50
270.0
  0
POINT
  5
B6
  8
DEFPOINTS
  6
BYBLOCK
 10
730.0
 20
0.0
 30
0.0
  0
POINT
  5
B7
  8
DEFPOINTS
  6
BYBLOCK
 10
652.6875
 20
155.5
 30
0.0
  0
POINT
  5
B8
  8
DEFPOINTS
  6
BYBLOCK
 10
880.0
 20
155.5
 30
0.0
  0
ENDBLK
  5
B9
  8
SIZE
  0
BLOCK
  8
SIZE
  2
*D12
 70
     1
 10
0.0
 20
0.0
 30
0.0
  3
*D12
  1

  0
TEXT
  5
BC
  8
SIZE
  6
CONTINUOUS
 10
362.059998
 20
2220.999902
 30
0.0
 40
2.8
  1
730
 50
0.000003
 41
0.7
  7
STANDARD1
  0
LINE
  5
BD
  8
SIZE
  6
CONTINUOUS
 10
730.0
 20
2071.0
 30
0.0
 11
730.0
 21
2222.0
 31
0.0
  0
LINE
  5
BE
  8
SIZE
  6
CONTINUOUS
 10
0.0
 20
2071.0
 30
0.0
 11
0.0
 21
2222.0
 31
0.0
  0
LINE
  5
BF
  8
SIZE
  6
CONTINUOUS
 10
730.0
 20
2220.0
 30
0.0
 11
0.0
 21
2220.0
 31
0.0
  0
INSERT
  5
C0
  8
SIZE
  2
DOT
 10
730.0
 20
2220.0
 30
0.0
  0
INSERT
  5
C1
  8
SIZE
  2
DOT
 10
0.0
 20
2220.0
 30
0.0
 50
180.0
  0
POINT
  5
C2
  8
DEFPOINTS
  6
BYBLOCK
 10
0.0
 20
2070.0
 30
0.0
  0
POINT
  5
C3
  8
DEFPOINTS
  6
BYBLOCK
 10
730.0
 20
2070.0
 30
0.0
  0
POINT
  5
C4
  8
DEFPOINTS
  6
BYBLOCK
 10
730.0
 20
2220.0
 30
0.0
  0
ENDBLK
  5
C5
  8
SIZE
  0
BLOCK
  8
SIZE
  2
*D13
 70
     1
 10
0.0
 20
0.0
 30
0.0
  3
*D13
  1

  0
TEXT
  5
C8
  8
SIZE
  6
CONTINUOUS
 10
1027.060059
 20
2220.999902
 30
0.0
 40
2.8
  1
600
 50
0.000003
 41
0.7
  7
STANDARD1
  0
LINE
  5
C9
  8
SIZE
  6
CONTINUOUS
 10
730.0
 20
2071.0
 30
0.0
 11
730.0
 21
2222.0
 31
0.0
  0
LINE
  5
CA
  8
SIZE
  6
CONTINUOUS
 10
1330.0
 20
2071.0
 30
0.0
 11
1330.0
 21
2222.0
 31
0.0
  0
LINE
  5
CB
  8
SIZE
  6
CONTINUOUS
 10
730.0
 20
2220.0
 30
0.0
 11
1330.0
 21
2220.0
 31
0.0
  0
INSERT
  5
CC
  8
SIZE
  2
DOT
 10
730.0
 20
2220.0
 30
0.0
 50
180.0
  0
INSERT
  5
CD
  8
SIZE
  2
DOT
 10
1330.0
 20
2220.0
 30
0.0
  0
POINT
  5
CE
  8
DEFPOINTS
  6
BYBLOCK
 10
1330.0
 20
2070.0
 30
0.0
  0
POINT
  5
CF
  8
DEFPOINTS
  6
BYBLOCK
 10
730.0
 20
2070.0
 30
0.0
  0
POINT
  5
D0
  8
DEFPOINTS
  6
BYBLOCK
 10
730.0
 20
2220.0
 30
0.0
  0
ENDBLK
  5
D1
  8
SIZE
  0
BLOCK
  8
SIZE
  2
*D14
 70
     1
 10
0.0
 20
0.0
 30
0.0
  3
*D14
  1

  0
TEXT
  5
D4
  8
SIZE
  6
CONTINUOUS
 10
53.060001
 20
-548.999976
 30
0.0
 40
2.8
  1
112
 50
0.000003
 41
0.7
  7
STANDARD1
  0
LINE
  5
D5
  8
SIZE
  6
CONTINUOUS
 10
112.0
 20
-21.0
 30
0.0
 11
112.0
 21
-552.0
 31
0.0
  0
LINE
  5
D6
  8
SIZE
  6
CONTINUOUS
 10
0.0
 20
199.0
 30
0.0
 11
0.0
 21
-552.0
 31
0.0
  0
LINE
  5
D7
  8
SIZE
  6
CONTINUOUS
 10
112.0
 20
-550.0
 30
0.0
 11
0.0
 21
-550.0
 31
0.0
  0
INSERT
  5
D8
  8
SIZE
  2
DOT
 10
112.0
 20
-550.0
 30
0.0
  0
INSERT
  5
D9
  8
SIZE
  2
DOT
 10
0.0
 20
-550.0
 30
0.0
 50
180.0
  0
POINT
  5
DA
  8
DEFPOINTS
  6
BYBLOCK
 10
0.0
 20
200.0
 30
0.0
  0
POINT
  5
DB
  8
DEFPOINTS
  6
BYBLOCK
 10
112.0
 20
-20.0
 30
0.0
  0
POINT
  5
DC
  8
DEFPOINTS
  6
BYBLOCK
 10
112.0
 20
-550.0
 30
0.0
  0
ENDBLK
  5
DD
  8
SIZE
  0
BLOCK
  8
SIZE
  2
*D15
 70
     1
 10
0.0
 20
0.0
 30
0.0
  3
*D15
  1

  0
TEXT
  5
E0
  8
SIZE
  6
CONTINUOUS
 10
376.059998
 20
-548.999976
 30
0.0
 40
2.8
  1
534
 50
0.000003
 41
0.7
  7
STANDARD1
  0
LINE
  5
E1
  8
SIZE
  6
CONTINUOUS
 10
646.0
 20
-21.0
 30
0.0
 11
646.0
 21
-552.0
 31
0.0
  0
LINE
  5
E2
  8
SIZE
  6
CONTINUOUS
 10
112.0
 20
-21.0
 30
0.0
 11
112.0
 21
-552.0
 31
0.0
  0
LINE
  5
E3
  8
SIZE
  6
CONTINUOUS
 10
646.0
 20
-550.0
 30
0.0
 11
112.0
 21
-550.0
 31
0.0
  0
INSERT
  5
E4
  8
SIZE
  2
DOT
 10
646.0
 20
-550.0
 30
0.0
  0
INSERT
  5
E5
  8
SIZE
  2
DOT
 10
112.0
 20
-550.0
 30
0.0
 50
180.0
  0
POINT
  5
E6
  8
DEFPOINTS
  6
BYBLOCK
 10
112.0
 20
-20.0
 30
0.0
  0
POINT
  5
E7
  8
DEFPOINTS
  6
BYBLOCK
 10
646.0
 20
-20.0
 30
0.0
  0
POINT
  5
E8
  8
DEFPOINTS
  6
BYBLOCK
 10
646.0
 20
-550.0
 30
0.0
  0
ENDBLK
  5
E9
  8
SIZE
  0
BLOCK
  8
SIZE
  2
*D16
 70
     1
 10
0.0
 20
0.0
 30
0.0
  3
*D16
  1

  0
TEXT
  5
EC
  8
SIZE
  6
CONTINUOUS
 10
686.039978
 20
-548.999976
 30
0.0
 40
2.8
  1
84
 50
0.000003
 41
0.7
  7
STANDARD1
  0
LINE
  5
ED
  8
SIZE
  6
CONTINUOUS
 10
730.0
 20
-1.0
 30
0.0
 11
730.0
 21
-552.0
 31
0.0
  0
LINE
  5
EE
  8
SIZE
  6
CONTINUOUS
 10
646.0
 20
-21.0
 30
0.0
 11
646.0
 21
-552.0
 31
0.0
  0
LINE
  5
EF
  8
SIZE
  6
CONTINUOUS
 10
730.0
 20
-550.0
 30
0.0
 11
646.0
 21
-550.0
 31
0.0
  0
INSERT
  5
F0
  8
SIZE
  2
DOT
 10
730.0
 20
-550.0
 30
0.0
  0
INSERT
  5
F1
  8
SIZE
  2
DOT
 10
646.0
 20
-550.0
 30
0.0
 50
180.0
  0
POINT
  5
F2
  8
DEFPOINTS
  6
BYBLOCK
 10
646.0
 20
-20.0
 30
0.0
  0
POINT
  5
F3
  8
DEFPOINTS
  6
BYBLOCK
 10
730.0
 20
0.0
 30
0.0
  0
POINT
  5
F4
  8
DEFPOINTS
  6
BYBLOCK
 10
730.0
 20
-550.0
 30
0.0
  0
ENDBLK
  5
F5
  8
SIZE
  0
BLOCK
  8
SIZE
  2
*D17
 70
     1
 10
0.0
 20
0.0
 30
0.0
  3
*D17
  1

  0
TEXT
  5
F8
  8
SIZE
  6
CONTINUOUS
 10
358.059998
 20
-449.000006
 30
0.0
 40
2.8
  1
570
 50
0.000003
 41
0.7
  7
STANDARD1
  0
LINE
  5
F9
  8
SIZE
  6
CONTINUOUS
 10
646.0
 20
-21.0
 30
0.0
 11
646.0
 21
-452.0
 31
0.0
  0
LINE
  5
FA
  8
SIZE
  6
CONTINUOUS
 10
76.0
 20
-21.0
 30
0.0
 11
76.0
 21
-452.0
 31
0.0
  0
LINE
  5
FB
  8
SIZE
  6
CONTINUOUS
 10
646.0
 20
-450.0
 30
0.0
 11
76.0
 21
-450.0
 31
0.0
  0
INSERT
  5
FC
  8
SIZE
  2
DOT
 10
646.0
 20
-450.0
 30
0.0
  0
INSERT
  5
FD
  8
SIZE
  2
DOT
 10
76.0
 20
-450.0
 30
0.0
 50
180.0
  0
POINT
  5
FE
  8
DEFPOINTS
  6
BYBLOCK
 10
76.0
 20
-20.0
 30
0.0
  0
POINT
  5
FF
  8
DEFPOINTS
  6
BYBLOCK
 10
646.0
 20
-20.0
 30
0.0
  0
POINT
  5
100
  8
DEFPOINTS
  6
BYBLOCK
 10
646.0
 20
-450.0
 30
0.0
  0
ENDBLK
  5
101
  8
SIZE
  0
BLOCK
  8
SIZE
  2
*D18
 70
     1
 10
0.0
 20
0.0
 30
0.0
  3
*D18
  1

  0
TEXT
  5
104
  8
SIZE
  6
CONTINUOUS
 10
695.539978
 20
-249.000006
 30
0.0
 40
2.8
  1
65
 50
0.000003
 41
0.7
  7
STANDARD1
  0
LINE
  5
105
  8
SIZE
  6
CONTINUOUS
 10
665.0
 20
179.0
 30
0.0
 11
665.0
 21
-252.0
 31
0.0
  0
LINE
  5
106
  8
SIZE
  6
CONTINUOUS
 10
730.0
 20
-1.0
 30
0.0
 11
730.0
 21
-252.0
 31
0.0
  0
LINE
  5
107
  8
SIZE
  6
CONTINUOUS
 10
665.0
 20
-250.0
 30
0.0
 11
730.0
 21
-250.0
 31
0.0
  0
INSERT
  5
108
  8
SIZE
  2
DOT
 10
665.0
 20
-250.0
 30
0.0
 50
180.0
  0
INSERT
  5
109
  8
SIZE
  2
DOT
 10
730.0
 20
-250.0
 30
0.0
  0
POINT
  5
10A
  8
DEFPOINTS
  6
BYBLOCK
 10
730.0
 20
0.0
 30
0.0
  0
POINT
  5
10B
  8
DEFPOINTS
  6
BYBLOCK
 10
665.0
 20
180.0
 30
0.0
  0
POINT
  5
10C
  8
DEFPOINTS
  6
BYBLOCK
 10
665.0
 20
-250.0
 30
0.0
  0
ENDBLK
  5
10D
  8
SIZE
  0
BLOCK
  8
SIZE
  2
*D19
 70
     1
 10
0.0
 20
0.0
 30
0.0
  3
*D19
  1

  0
TEXT
  5
110
  8
SIZE
  6
CONTINUOUS
 10
36.040001
 20
-449.000006
 30
0.0
 40
2.8
  1
76
 50
0.000003
 41
0.7
  7
STANDARD1
  0
LINE
  5
111
  8
SIZE
  6
CONTINUOUS
 10
0.0
 20
199.0
 30
0.0
 11
0.0
 21
-452.0
 31
0.0
  0
LINE
  5
112
  8
SIZE
  6
CONTINUOUS
 10
76.0
 20
-21.0
 30
0.0
 11
76.0
 21
-452.0
 31
0.0
  0
LINE
  5
113
  8
SIZE
  6
CONTINUOUS
 10
0.0
 20
-450.0
 30
0.0
 11
76.0
 21
-450.0
 31
0.0
  0
INSERT
  5
114
  8
SIZE
  2
DOT
 10
0.0
 20
-450.0
 30
0.0
 50
180.0
  0
INSERT
  5
115
  8
SIZE
  2
DOT
 10
76.0
 20
-450.0
 30
0.0
  0
POINT
  5
116
  8
DEFPOINTS
  6
BYBLOCK
 10
76.0
 20
-20.0
 30
0.0
  0
POINT
  5
117
  8
DEFPOINTS
  6
BYBLOCK
 10
0.0
 20
200.0
 30
0.0
  0
POINT
  5
118
  8
DEFPOINTS
  6
BYBLOCK
 10
0.0
 20
-450.0
 30
0.0
  0
ENDBLK
  5
119
  8
SIZE
  0
BLOCK
  8
SIZE
  2
*D20
 70
     1
 10
0.0
 20
0.0
 30
0.0
  3
*D20
  1

  0
TEXT
  5
11C
  8
SIZE
  6
CONTINUOUS
 10
-171.117584
 20
2220.999902
 30
0.0
 40
2.8
  1
最大
 50
0.000003
 41
0.583333
  7
STANDARD1
  0
TEXT
  5
11D
  8
SIZE
  6
CONTINUOUS
 10
-167.197586
 20
2220.999902
 30
0.0
 40
2.8
  1
80
 50
0.000003
 41
0.7
  7
STANDARD1
  0
LINE
  5
11E
  8
SIZE
  6
CONTINUOUS
 10
-80.0
 20
1916.0
 30
0.0
 11
-80.0
 21
2222.0
 31
0.0
  0
LINE
  5
11F
  8
SIZE
  6
CONTINUOUS
 10
-172.517593
 20
2220.0
 30
0.0
 11
5.0
 21
2220.0
 31
0.0
  0
INSERT
  5
120
  8
SIZE
  2
DOT
 10
-80.0
 20
2220.0
 30
0.0
 50
180.0
  0
INSERT
  5
121
  8
SIZE
  2
DOT
 10
0.0
 20
2220.0
 30
0.0
  0
POINT
  5
122
  8
DEFPOINTS
  6
BYBLOCK
 10
0.0
 20
1870.0
 30
0.0
  0
POINT
  5
123
  8
DEFPOINTS
  6
BYBLOCK
 10
-80.0
 20
1915.0
 30
0.0
  0
POINT
  5
124
  8
DEFPOINTS
  6
BYBLOCK
 10
-80.0
 20
2220.0
 30
0.0
  0
ENDBLK
  5
125
  8
SIZE
  0
BLOCK
  8
SIZE
  2
*D21
 70
     1
 10
0.0
 20
0.0
 30
0.0
  3
*D21
  1

  0
TEXT
  5
128
  8
SIZE
  6
CONTINUOUS
 10
-531.000024
 20
1029.855713
 30
0.0
 40
2.8
  1
1915
 50
90.000005
 41
0.7
  7
STANDARD1
  0
LINE
  5
129
  8
SIZE
  6
CONTINUOUS
 10
-81.0
 20
1915.0
 30
0.0
 11
-532.0
 21
1915.0
 31
0.0
  0
LINE
  5
12A
  8
SIZE
  6
CONTINUOUS
 10
55.0
 20
0.0
 30
0.0
 11
-532.0
 21
0.0
 31
0.0
  0
LINE
  5
12B
  8
SIZE
  6
CONTINUOUS
 10
-530.0
 20
1915.0
 30
0.0
 11
-530.0
 21
0.0
 31
0.0
  0
INSERT
  5
12C
  8
SIZE
  2
DOT
 10
-530.0
 20
1915.0
 30
0.0
 50
90.0
  0
INSERT
  5
12D
  8
SIZE
  2
DOT
 10
-530.0
 20
0.0
 30
0.0
 50
270.0
  0
POINT
  5
12E
  8
DEFPOINTS
  6
BYBLOCK
 10
56.0
 20
0.0
 30
0.0
  0
POINT
  5
12F
  8
DEFPOINTS
  6
BYBLOCK
 10
-80.0
 20
1915.0
 30
0.0
  0
POINT
  5
130
  8
DEFPOINTS
  6
BYBLOCK
 10
-530.0
 20
1915.0
 30
0.0
  0
ENDBLK
  5
131
  8
SIZE
  0
BLOCK
  8
SIZE
  2
*D22
 70
     1
 10
0.0
 20
0.0
 30
0.0
  3
*D22
  1

  0
TEXT
  5
134
  8
SIZE
  6
CONTINUOUS
 10
-430.999994
 20
1029.855713
 30
0.0
 40
2.8
  1
1900
 50
90.000005
 41
0.7
  7
STANDARD1
  0
LINE
  5
135
  8
SIZE
  6
CONTINUOUS
 10
55.0
 20
0.0
 30
0.0
 11
-432.0
 21
0.0
 31
0.0
  0
LINE
  5
136
  8
SIZE
  6
CONTINUOUS
 10
169.5
 20
1900.0
 30
0.0
 11
-432.0
 21
1900.0
 31
0.0
  0
LINE
  5
137
  8
SIZE
  6
CONTINUOUS
 10
-430.0
 20
0.0
 30
0.0
 11
-430.0
 21
1900.0
 31
0.0
  0
INSERT
  5
138
  8
SIZE
  2
DOT
 10
-430.0
 20
0.0
 30
0.0
 50
270.0
  0
INSERT
  5
139
  8
SIZE
  2
DOT
 10
-430.0
 20
1900.0
 30
0.0
 50
90.0
  0
POINT
  5
13A
  8
DEFPOINTS
  6
BYBLOCK
 10
170.5
 20
1900.0
 30
0.0
  0
POINT
  5
13B
  8
DEFPOINTS
  6
BYBLOCK
 10
56.0
 20
0.0
 30
0.0
  0
POINT
  5
13C
  8
DEFPOINTS
  6
BYBLOCK
 10
-430.0
 20
0.0
 30
0.0
  0
ENDBLK
  5
13D
  8
SIZE
  0
BLOCK
  8
SIZE
  2
*D23
 70
     1
 10
0.0
 20
0.0
 30
0.0
  3
*D23
  1

  0
TEXT
  5
140
  8
SIZE
  6
CONTINUOUS
 10
-230.999994
 20
97.059998
 30
0.0
 40
2.8
  1
200
 50
90.000005
 41
0.7
  7
STANDARD1
  0
LINE
  5
141
  8
SIZE
  6
CONTINUOUS
 10
-1.0
 20
200.0
 30
0.0
 11
-232.0
 21
200.0
 31
0.0
  0
LINE
  5
142
  8
SIZE
  6
CONTINUOUS
 10
-230.0
 20
200.0
 30
0.0
 11
-230.0
 21
0.0
 31
0.0
  0
INSERT
  5
143
  8
SIZE
  2
DOT
 10
-230.0
 20
200.0
 30
0.0
 50
90.0
  0
INSERT
  5
144
  8
SIZE
  2
DOT
 10
-230.0
 20
0.0
 30
0.0
 50
270.0
  0
POINT
  5
145
  8
DEFPOINTS
  6
BYBLOCK
 10
56.0
 20
0.0
 30
0.0
  0
POINT
  5
146
  8
DEFPOINTS
  6
BYBLOCK
 10
0.0
 20
200.0
 30
0.0
  0
POINT
  5
147
  8
DEFPOINTS
  6
BYBLOCK
 10
-230.0
 20
200.0
 30
0.0
  0
ENDBLK
  5
148
  8
SIZE
  0
BLOCK
  8
SIZE
  2
*D24
 70
     1
 10
0.0
 20
0.0
 30
0.0
  3
*D24
  1

  0
TEXT
  5
14B
  8
SIZE
  6
CONTINUOUS
 10
-330.999994
 20
1030.108887
 30
0.0
 40
2.8
  1
1893
 50
90.000005
 41
0.7
  7
STANDARD1
  0
LINE
  5
14C
  8
SIZE
  6
CONTINUOUS
 10
-101.0
 20
1893.0
 30
0.0
 11
-332.0
 21
1893.0
 31
0.0
  0
LINE
  5
14D
  8
SIZE
  6
CONTINUOUS
 10
55.0
 20
0.0
 30
0.0
 11
-332.0
 21
0.0
 31
0.0
  0
LINE
  5
14E
  8
SIZE
  6
CONTINUOUS
 10
-330.0
 20
1893.0
 30
0.0
 11
-330.0
 21
0.0
 31
0.0
  0
INSERT
  5
14F
  8
SIZE
  2
DOT
 10
-330.0
 20
1893.0
 30
0.0
 50
90.0
  0
INSERT
  5
150
  8
SIZE
  2
DOT
 10
-330.0
 20
0.0
 30
0.0
 50
270.0
  0
POINT
  5
151
  8
DEFPOINTS
  6
BYBLOCK
 10
56.0
 20
0.0
 30
0.0
  0
POINT
  5
152
  8
DEFPOINTS
  6
BYBLOCK
 10
-100.0
 20
1893.0
 30
0.0
  0
POINT
  5
153
  8
DEFPOINTS
  6
BYBLOCK
 10
-330.0
 20
1893.0
 30
0.0
  0
ENDBLK
  5
154
  8
SIZE
  0
BLOCK
  8
SIZE
  2
*D25
 70
     1
 10
0.0
 20
0.0
 30
0.0
  3
*D25
  1

  0
TEXT
  5
157
  8
SIZE
  6
CONTINUOUS
 10
-230.999994
 20
1967.060059
 30
0.0
 40
2.8
  1
200
 50
90.000005
 41
0.7
  7
STANDARD1
  0
LINE
  5
158
  8
SIZE
  6
CONTINUOUS
 10
-1.0
 20
2070.0
 30
0.0
 11
-232.0
 21
2070.0
 31
0.0
  0
LINE
  5
159
  8
SIZE
  6
CONTINUOUS
 10
-1.0
 20
1870.0
 30
0.0
 11
-232.0
 21
1870.0
 31
0.0
  0
LINE
  5
15A
  8
SIZE
  6
CONTINUOUS
 10
-230.0
 20
2070.0
 30
0.0
 11
-230.0
 21
1870.0
 31
0.0
  0
INSERT
  5
15B
  8
SIZE
  2
DOT
 10
-230.0
 20
2070.0
 30
0.0
 50
90.0
  0
INSERT
  5
15C
  8
SIZE
  2
DOT
 10
-230.0
 20
1870.0
 30
0.0
 50
270.0
  0
POINT
  5
15D
  8
DEFPOINTS
  6
BYBLOCK
 10
0.0
 20
1870.0
 30
0.0
  0
POINT
  5
15E
  8
DEFPOINTS
  6
BYBLOCK
 10
0.0
 20
2070.0
 30
0.0
  0
POINT
  5
15F
  8
DEFPOINTS
  6
BYBLOCK
 10
-230.0
 20
2070.0
 30
0.0
  0
ENDBLK
  5
160
  8
SIZE
  0
BLOCK
  8
SIZE
  2
*D26
 70
     1
 10
0.0
 20
0.0
 30
0.0
  3
*D26
  1

  0
TEXT
  5
163
  8
SIZE
  6
CONTINUOUS
 10
-230.999994
 20
1031.079956
 30
0.0
 40
2.8
  1
1670
 50
90.000005
 41
0.7
  7
STANDARD1
  0
LINE
  5
164
  8
SIZE
  6
CONTINUOUS
 10
-1.0
 20
200.0
 30
0.0
 11
-232.0
 21
200.0
 31
0.0
  0
LINE
  5
165
  8
SIZE
  6
CONTINUOUS
 10
-1.0
 20
1870.0
 30
0.0
 11
-232.0
 21
1870.0
 31
0.0
  0
LINE
  5
166
  8
SIZE
  6
CONTINUOUS
 10
-230.0
 20
200.0
 30
0.0
 11
-230.0
 21
1870.0
 31
0.0
  0
INSERT
  5
167
  8
SIZE
  2
DOT
 10
-230.0
 20
200.0
 30
0.0
 50
270.0
  0
INSERT
  5
168
  8
SIZE
  2
DOT
 10
-230.0
 20
1870.0
 30
0.0
 50
90.0
  0
POINT
  5
169
  8
DEFPOINTS
  6
BYBLOCK
 10
0.0
 20
1870.0
 30
0.0
  0
POINT
  5
16A
  8
DEFPOINTS
  6
BYBLOCK
 10
0.0
 20
200.0
 30
0.0
  0
POINT
  5
16B
  8
DEFPOINTS
  6
BYBLOCK
 10
-230.0
 20
200.0
 30
0.0
  0
ENDBLK
  5
16C
  8
SIZE
  0
BLOCK
  8
SIZE
  2
*D27
 70
     1
 10
0.0
 20
0.0
 30
0.0
  3
*D27
  1

  0
TEXT
  5
16F
  8
SIZE
  6
CONTINUOUS
 10
339.500006
 20
1768.068482
 30
0.0
 40
2.8
  1
30
 50
90.000005
 41
0.7
  7
STANDARD1
  0
LINE
  5
170
  8
SIZE
  6
CONTINUOUS
 10
191.5
 20
1900.0
 30
0.0
 11
342.5
 21
1900.0
 31
0.0
  0
LINE
  5
171
  8
SIZE
  6
CONTINUOUS
 10
340.5
 20
1905.0
 30
0.0
 11
340.5
 21
1766.668457
 31
0.0
  0
INSERT
  5
172
  8
SIZE
  2
DOT
 10
340.5
 20
1900.0
 30
0.0
 50
90.0
  0
INSERT
  5
173
  8
SIZE
  2
DOT
 10
340.5
 20
1870.0
 30
0.0
 50
270.0
  0
POINT
  5
174
  8
DEFPOINTS
  6
BYBLOCK
 10
0.0
 20
1870.0
 30
0.0
  0
POINT
  5
175
  8
DEFPOINTS
  6
BYBLOCK
 10
190.5
 20
1900.0
 30
0.0
  0
POINT
  5
176
  8
DEFPOINTS
  6
BYBLOCK
 10
340.5
 20
1900.0
 30
0.0
  0
ENDBLK
  5
177
  8
SIZE
  0
BLOCK
  8
SIZE
  2
*D28
 70
     1
 10
0.0
 20
0.0
 30
0.0
  3
*D28
  1

  0
TEXT
  5
17A
  8
SIZE
  6
CONTINUOUS
 10
1478.999976
 20
1031.079956
 30
0.0
 40
2.8
  1
2070
 50
90.000005
 41
0.7
  7
STANDARD1
  0
LINE
  5
17B
  8
SIZE
  6
CONTINUOUS
 10
1331.0
 20
2070.0
 30
0.0
 11
1482.0
 21
2070.0
 31
0.0
  0
LINE
  5
17C
  8
SIZE
  6
CONTINUOUS
 10
1331.0
 20
0.0
 30
0.0
 11
1482.0
 21
0.0
 31
0.0
  0
LINE
  5
17D
  8
SIZE
  6
CONTINUOUS
 10
1480.0
 20
2070.0
 30
0.0
 11
1480.0
 21
0.0
 31
0.0
  0
INSERT
  5
17E
  8
SIZE
  2
DOT
 10
1480.0
 20
2070.0
 30
0.0
 50
90.0
  0
INSERT
  5
17F
  8
SIZE
  2
DOT
 10
1480.0
 20
0.0
 30
0.0
 50
270.0
  0
POINT
  5
180
  8
DEFPOINTS
  6
BYBLOCK
 10
1330.0
 20
0.0
 30
0.0
  0
POINT
  5
181
  8
DEFPOINTS
  6
BYBLOCK
 10
1330.0
 20
2070.0
 30
0.0
  0
POINT
  5
182
  8
DEFPOINTS
  6
BYBLOCK
 10
1480.0
 20
2070.0
 30
0.0
  0
ENDBLK
  5
183
  8
SIZE
  0
BLOCK
  8
SIZE
  2
*D29
 70
     1
 10
0.0
 20
0.0
 30
0.0
  3
*D29
  1

  0
TEXT
  5
186
  8
SIZE
  6
CONTINUOUS
 10
361.803803
 20
-648.999976
 30
0.0
 40
2.8
  1
730
 50
0.000003
 41
0.7
  7
STANDARD1
  0
LINE
  5
187
  8
SIZE
  6
CONTINUOUS
 10
730.0
 20
-1.0
 30
0.0
 11
730.0
 21
-652.0
 31
0.0
  0
LINE
  5
188
  8
SIZE
  6
CONTINUOUS
 10
0.0
 20
199.0
 30
0.0
 11
0.0
 21
-652.0
 31
0.0
  0
LINE
  5
189
  8
SIZE
  6
CONTINUOUS
 10
730.0
 20
-650.0
 30
0.0
 11
0.0
 21
-650.0
 31
0.0
  0
INSERT
  5
18A
  8
SIZE
  2
DOT
 10
730.0
 20
-650.0
 30
0.0
  0
INSERT
  5
18B
  8
SIZE
  2
DOT
 10
0.0
 20
-650.0
 30
0.0
 50
180.0
  0
POINT
  5
18C
  8
DEFPOINTS
  6
BYBLOCK
 10
0.0
 20
200.0
 30
0.0
  0
POINT
  5
18D
  8
DEFPOINTS
  6
BYBLOCK
 10
730.0
 20
0.0
 30
0.0
  0
POINT
  5
18E
  8
DEFPOINTS
  6
BYBLOCK
 10
730.0
 20
-650.0
 30
0.0
  0
ENDBLK
  5
18F
  8
SIZE
  0
BLOCK
  8
0
  2
_ORIGIN
 70
     0
 10
0.0
 20
0.0
 30
0.0
  3
_ORIGIN
  1

  0
CIRCLE
  5
192
  8
0
  6
BYBLOCK
 62
     0
 10
0.0
 20
0.0
 30
0.0
 40
0.5
  0
LINE
  5
193
  8
0
  6
BYBLOCK
 62
     0
 10
0.0
 20
0.0
 30
0.0
 11
-1.0
 21
0.0
 31
0.0
  0
ENDBLK
  5
194
  8
0
  0
BLOCK
  8
0
  2
*D31
 70
     1
 10
0.0
 20
0.0
 30
0.0
  3
*D31
  1

  0
LINE
  5
197
  8
0
  6
BYBLOCK
 62
     0
 10
0.0
 20
190.0
 30
0.0
 11
0.0
 21
-660.1
 31
0.0
  0
LINE
  5
198
  8
0
  6
BYBLOCK
 62
     0
 10
730.0
 20
-10.0
 30
0.0
 11
730.0
 21
-660.1
 31
0.0
  0
LINE
  5
199
  8
0
  6
BYBLOCK
 62
     0
 10
10.0
 20
-647.6
 30
0.0
 11
720.0
 21
-647.6
 31
0.0
  0
INSERT
  5
19A
  8
0
  6
BYBLOCK
 62
     0
  2
_ORIGIN
 10
0.0
 20
-647.6
 30
0.0
 41
10.0
 42
10.0
 43
10.0
 50
180.0
  0
INSERT
  5
19B
  8
0
  6
BYBLOCK
 62
     0
  2
_ORIGIN
 10
730.0
 20
-647.6
 30
0.0
 41
10.0
 42
10.0
 43
10.0
  0
TEXT
  5
19C
  8
0
  6
BYBLOCK
 62
     0
 10
327.243805
 20
-637.6
 30
0.0
 40
30.0
  1
730
 72
     1
 11
364.743805
 21
-637.6
 31
0.0
  0
POINT
  5
19D
  8
DEFPOINTS
  6
BYBLOCK
 62
     0
 10
0.0
 20
200.0
 30
0.0
  0
POINT
  5
19E
  8
DEFPOINTS
  6
BYBLOCK
 62
     0
 10
730.0
 20
0.0
 30
0.0
  0
POINT
  5
19F
  8
DEFPOINTS
  6
BYBLOCK
 62
     0
 10
730.0
 20
-647.6
 30
0.0
  0
ENDBLK
  5
1A0
  8
0
  0
BLOCK
  8
0
  2
*D32
 70
     1
 10
0.0
 20
0.0
 30
0.0
  3
*D32
  1

  0
LINE
  5
1A3
  8
0
  6
BYBLOCK
 62
     0
 10
1340.0
 20
0.0
 30
0.0
 11
1490.1
 21
0.0
 31
0.0
  0
LINE
  5
1A4
  8
0
  6
BYBLOCK
 62
     0
 10
1340.0
 20
2070.0
 30
0.0
 11
1490.1
 21
2070.0
 31
0.0
  0
LINE
  5
1A5
  8
0
  6
BYBLOCK
 62
     0
 10
1477.6
 20
10.0
 30
0.0
 11
1477.6
 21
2060.0
 31
0.0
  0
INSERT
  5
1A6
  8
0
  6
BYBLOCK
 62
     0
  2
_ORIGIN
 10
1477.6
 20
0.0
 30
0.0
 41
10.0
 42
10.0
 43
10.0
 50
270.0
  0
INSERT
  5
1A7
  8
0
  6
BYBLOCK
 62
     0
  2
_ORIGIN
 10
1477.6
 20
2070.0
 30
0.0
 41
10.0
 42
10.0
 43
10.0
 50
90.0
  0
TEXT
  5
1A8
  8
0
  6
BYBLOCK
 62
     0
 10
1467.6
 20
985.0
 30
0.0
 40
30.0
  1
2070
 50
90.0
 72
     1
 11
1467.6
 21
1035.0
 31
0.0
  0
POINT
  5
1A9
  8
DEFPOINTS
  6
BYBLOCK
 62
     0
 10
1330.0
 20
0.0
 30
0.0
  0
POINT
  5
1AA
  8
DEFPOINTS
  6
BYBLOCK
 62
     0
 10
1330.0
 20
2070.0
 30
0.0
  0
POINT
  5
1AB
  8
DEFPOINTS
  6
BYBLOCK
 62
     0
 10
1477.6
 20
2070.0
 30
0.0
  0
ENDBLK
  5
1AC
  8
0
  0
BLOCK
  8
0
  2
*D33
 70
     1
 10
0.0
 20
0.0
 30
0.0
  3
*D33
  1

  0
LINE
  5
1AF
  8
0
  6
BYBLOCK
 62
     0
 10
10.0
 20
1870.0
 30
0.0
 11
350.6
 21
1870.0
 31
0.0
  0
LINE
  5
1B0
  8
0
  6
BYBLOCK
 62
     0
 10
200.5
 20
1900.0
 30
0.0
 11
350.6
 21
1900.0
 31
0.0
  0
LINE
  5
1B1
  8
0
  6
BYBLOCK
 62
     0
 10
338.1
 20
1910.0
 30
0.0
 11
338.1
 21
1920.0
 31
0.0
  0
LINE
  5
1B2
  8
0
  6
BYBLOCK
 62
     0
 10
338.1
 20
1860.0
 30
0.0
 11
338.1
 21
1737.528481
 31
0.0
  0
LINE
  5
1B3
  8
0
  6
BYBLOCK
 62
     0
 10
338.1
 20
1900.0
 30
0.0
 11
338.1
 21
1870.0
 31
0.0
  0
INSERT
  5
1B4
  8
0
  6
BYBLOCK
 62
     0
  2
_ORIGIN
 10
338.1
 20
1900.0
 30
0.0
 41
10.0
 42
10.0
 43
10.0
 50
270.0
  0
INSERT
  5
1B5
  8
0
  6
BYBLOCK
 62
     0
  2
_ORIGIN
 10
338.1
 20
1870.0
 30
0.0
 41
10.0
 42
10.0
 43
10.0
 50
90.0
  0
TEXT
  5
1B6
  8
0
  6
BYBLOCK
 62
     0
 10
328.1
 20
1747.528481
 30
0.0
 40
30.0
  1
30
 50
90.0
 72
     1
 11
328.1
 21
1770.028481
 31
0.0
  0
POINT
  5
1B7
  8
DEFPOINTS
  6
BYBLOCK
 62
     0
 10
0.0
 20
1870.0
 30
0.0
  0
POINT
  5
1B8
  8
DEFPOINTS
  6
BYBLOCK
 62
     0
 10
190.5
 20
1900.0
 30
0.0
  0
POINT
  5
1B9
  8
DEFPOINTS
  6
BYBLOCK
 62
     0
 10
338.1
 20
1900.0
 30
0.0
  0
ENDBLK
  5
1BA
  8
0
  0
BLOCK
  8
0
  2
*D34
 70
     1
 10
0.0
 20
0.0
 30
0.0
  3
*D34
  1

  0
LINE
  5
1BD
  8
0
  6
BYBLOCK
 62
     0
 10
-10.0
 20
1870.0
 30
0.0
 11
-244.9
 21
1870.0
 31
0.0
  0
LINE
  5
1BE
  8
0
  6
BYBLOCK
 62
     0
 10
-10.0
 20
200.0
 30
0.0
 11
-244.9
 21
200.0
 31
0.0
  0
LINE
  5
1BF
  8
0
  6
BYBLOCK
 62
     0
 10
-232.4
 20
1860.0
 30
0.0
 11
-232.4
 21
210.0
 31
0.0
  0
INSERT
  5
1C0
  8
0
  6
BYBLOCK
 62
     0
  2
_ORIGIN
 10
-232.4
 20
1870.0
 30
0.0
 41
10.0
 42
10.0
 43
10.0
 50
90.0
  0
INSERT
  5
1C1
  8
0
  6
BYBLOCK
 62
     0
  2
_ORIGIN
 10
-232.4
 20
200.0
 30
0.0
 41
10.0
 42
10.0
 43
10.0
 50
270.0
  0
TEXT
  5
1C2
  8
0
  6
BYBLOCK
 62
     0
 10
-242.4
 20
987.5
 30
0.0
 40
30.0
  1
1670
 50
90.0
 72
     1
 11
-242.4
 21
1035.0
 31
0.0
  0
POINT
  5
1C3
  8
DEFPOINTS
  6
BYBLOCK
 62
     0
 10
0.0
 20
1870.0
 30
0.0
  0
POINT
  5
1C4
  8
DEFPOINTS
  6
BYBLOCK
 62
     0
 10
0.0
 20
200.0
 30
0.0
  0
POINT
  5
1C5
  8
DEFPOINTS
  6
BYBLOCK
 62
     0
 10
-232.4
 20
200.0
 30
0.0
  0
ENDBLK
  5
1C6
  8
0
  0
BLOCK
  8
0
  2
*D35
 70
     1
 10
0.0
 20
0.0
 30
0.0
  3
*D35
  1

  0
LINE
  5
1C9
  8
0
  6
BYBLOCK
 62
     0
 10
-10.0
 20
1870.0
 30
0.0
 11
-244.9
 21
1870.0
 31
0.0
  0
LINE
  5
1CA
  8
0
  6
BYBLOCK
 62
     0
 10
-10.0
 20
2070.0
 30
0.0
 11
-244.9
 21
2070.0
 31
0.0
  0
LINE
  5
1CB
  8
0
  6
BYBLOCK
 62
     0
 10
-232.4
 20
1880.0
 30
0.0
 11
-232.4
 21
2060.0
 31
0.0
  0
INSERT
  5
1CC
  8
0
  6
BYBLOCK
 62
     0
  2
_ORIGIN
 10
-232.4
 20
1870.0
 30
0.0
 41
10.0
 42
10.0
 43
10.0
 50
270.0
  0
INSERT
  5
1CD
  8
0
  6
BYBLOCK
 62
     0
  2
_ORIGIN
 10
-232.4
 20
2070.0
 30
0.0
 41
10.0
 42
10.0
 43
10.0
 50
90.0
  0
TEXT
  5
1CE
  8
0
  6
BYBLOCK
 62
     0
 10
-242.4
 20
1935.0
 30
0.0
 40
30.0
  1
200
 50
90.0
 72
     1
 11
-242.4
 21
1970.0
 31
0.0
  0
POINT
  5
1CF
  8
DEFPOINTS
  6
BYBLOCK
 62
     0
 10
0.0
 20
1870.0
 30
0.0
  0
POINT
  5
1D0
  8
DEFPOINTS
  6
BYBLOCK
 62
     0
 10
0.0
 20
2070.0
 30
0.0
  0
POINT
  5
1D1
  8
DEFPOINTS
  6
BYBLOCK
 62
     0
 10
-232.4
 20
2070.0
 30
0.0
  0
ENDBLK
  5
1D2
  8
0
  0
BLOCK
  8
0
  2
*D36
 70
     1
 10
0.0
 20
0.0
 30
0.0
  3
*D36
  1

  0
LINE
  5
1D5
  8
0
  6
BYBLOCK
 62
     0
 10
46.0
 20
0.0
 30
0.0
 11
-344.9
 21
0.0
 31
0.0
  0
LINE
  5
1D6
  8
0
  6
BYBLOCK
 62
     0
 10
-110.0
 20
1893.0
 30
0.0
 11
-344.9
 21
1893.0
 31
0.0
  0
LINE
  5
1D7
  8
0
  6
BYBLOCK
 62
     0
 10
-332.4
 20
10.0
 30
0.0
 11
-332.4
 21
1883.0
 31
0.0
  0
INSERT
  5
1D8
  8
0
  6
BYBLOCK
 62
     0
  2
_ORIGIN
 10
-332.4
 20
0.0
 30
0.0
 41
10.0
 42
10.0
 43
10.0
 50
270.0
  0
INSERT
  5
1D9
  8
0
  6
BYBLOCK
 62
     0
  2
_ORIGIN
 10
-332.4
 20
1893.0
 30
0.0
 41
10.0
 42
10.0
 43
10.0
 50
90.0
  0
TEXT
  5
1DA
  8
0
  6
BYBLOCK
 62
     0
 10
-342.4
 20
984.028931
 30
0.0
 40
30.0
  1
1893
 50
90.0
 72
     1
 11
-342.4
 21
1034.028931
 31
0.0
  0
POINT
  5
1DB
  8
DEFPOINTS
  6
BYBLOCK
 62
     0
 10
56.0
 20
0.0
 30
0.0
  0
POINT
  5
1DC
  8
DEFPOINTS
  6
BYBLOCK
 62
     0
 10
-100.0
 20
1893.0
 30
0.0
  0
POINT
  5
1DD
  8
DEFPOINTS
  6
BYBLOCK
 62
     0
 10
-332.4
 20
1893.0
 30
0.0
  0
ENDBLK
  5
1DE
  8
0
  0
BLOCK
  8
0
  2
*D37
 70
     1
 10
0.0
 20
0.0
 30
0.0
  3
*D37
  1

  0
LINE
  5
1E1
  8
0
  6
BYBLOCK
 62
     0
 10
46.0
 20
0.0
 30
0.0
 11
-244.9
 21
0.0
 31
0.0
  0
LINE
  5
1E2
  8
0
  6
BYBLOCK
 62
     0
 10
-10.0
 20
200.0
 30
0.0
 11
-244.9
 21
200.0
 31
0.0
  0
LINE
  5
1E3
  8
0
  6
BYBLOCK
 62
     0
 10
-232.4
 20
10.0
 30
0.0
 11
-232.4
 21
190.0
 31
0.0
  0
INSERT
  5
1E4
  8
0
  6
BYBLOCK
 62
     0
  2
_ORIGIN
 10
-232.4
 20
0.0
 30
0.0
 41
10.0
 42
10.0
 43
10.0
 50
270.0
  0
INSERT
  5
1E5
  8
0
  6
BYBLOCK
 62
     0
  2
_ORIGIN
 10
-232.4
 20
200.0
 30
0.0
 41
10.0
 42
10.0
 43
10.0
 50
90.0
  0
TEXT
  5
1E6
  8
0
  6
BYBLOCK
 62
     0
 10
-242.4
 20
65.0
 30
0.0
 40
30.0
  1
200
 50
90.0
 72
     1
 11
-242.4
 21
100.0
 31
0.0
  0
POINT
  5
1E7
  8
DEFPOINTS
  6
BYBLOCK
 62
     0
 10
56.0
 20
0.0
 30
0.0
  0
POINT
  5
1E8
  8
DEFPOINTS
  6
BYBLOCK
 62
     0
 10
0.0
 20
200.0
 30
0.0
  0
POINT
  5
1E9
  8
DEFPOINTS
  6
BYBLOCK
 62
     0
 10
-232.4
 20
200.0
 30
0.0
  0
ENDBLK
  5
1EA
  8
0
  0
BLOCK
  8
0
  2
*D38
 70
     1
 10
0.0
 20
0.0
 30
0.0
  3
*D38
  1

  0
LINE
  5
1ED
  8
0
  6
BYBLOCK
 62
     0
 10
160.5
 20
1900.0
 30
0.0
 11
-444.9
 21
1900.0
 31
0.0
  0
LINE
  5
1EE
  8
0
  6
BYBLOCK
 62
     0
 10
46.0
 20
0.0
 30
0.0
 11
-444.9
 21
0.0
 31
0.0
  0
LINE
  5
1EF
  8
0
  6
BYBLOCK
 62
     0
 10
-432.4
 20
1890.0
 30
0.0
 11
-432.4
 21
10.0
 31
0.0
  0
INSERT
  5
1F0
  8
0
  6
BYBLOCK
 62
     0
  2
_ORIGIN
 10
-432.4
 20
1900.0
 30
0.0
 41
10.0
 42
10.0
 43
10.0
 50
90.0
  0
INSERT
  5
1F1
  8
0
  6
BYBLOCK
 62
     0
  2
_ORIGIN
 10
-432.4
 20
0.0
 30
0.0
 41
10.0
 42
10.0
 43
10.0
 50
270.0
  0
TEXT
  5
1F2
  8
0
  6
BYBLOCK
 62
     0
 10
-442.4
 20
988.775757
 30
0.0
 40
30.0
  1
1900
 50
90.0
 72
     1
 11
-442.4
 21
1033.775757
 31
0.0
  0
POINT
  5
1F3
  8
DEFPOINTS
  6
BYBLOCK
 62
     0
 10
170.5
 20
1900.0
 30
0.0
  0
POINT
  5
1F4
  8
DEFPOINTS
  6
BYBLOCK
 62
     0
 10
56.0
 20
0.0
 30
0.0
  0
POINT
  5
1F5
  8
DEFPOINTS
  6
BYBLOCK
 62
     0
 10
-432.4
 20
0.0
 30
0.0
  0
ENDBLK
  5
1F6
  8
0
  0
BLOCK
  8
0
  2
*D39
 70
     1
 10
0.0
 20
0.0
 30
0.0
  3
*D39
  1

  0
LINE
  5
1F9
  8
0
  6
BYBLOCK
 62
     0
 10
46.0
 20
0.0
 30
0.0
 11
-544.9
 21
0.0
 31
0.0
  0
LINE
  5
1FA
  8
0
  6
BYBLOCK
 62
     0
 10
-90.0
 20
1915.0
 30
0.0
 11
-544.9
 21
1915.0
 31
0.0
  0
LINE
  5
1FB
  8
0
  6
BYBLOCK
 62
     0
 10
-532.4
 20
10.0
 30
0.0
 11
-532.4
 21
1905.0
 31
0.0
  0
INSERT
  5
1FC
  8
0
  6
BYBLOCK
 62
     0
  2
_ORIGIN
 10
-532.4
 20
0.0
 30
0.0
 41
10.0
 42
10.0
 43
10.0
 50
270.0
  0
INSERT
  5
1FD
  8
0
  6
BYBLOCK
 62
     0
  2
_ORIGIN
 10
-532.4
 20
1915.0
 30
0.0
 41
10.0
 42
10.0
 43
10.0
 50
90.0
  0
TEXT
  5
1FE
  8
0
  6
BYBLOCK
 62
     0
 10
-542.4
 20
988.775757
 30
0.0
 40
30.0
  1
1915
 50
90.0
 72
     1
 11
-542.4
 21
1033.775757
 31
0.0
  0
POINT
  5
1FF
  8
DEFPOINTS
  6
BYBLOCK
 62
     0
 10
56.0
 20
0.0
 30
0.0
  0
POINT
  5
200
  8
DEFPOINTS
  6
BYBLOCK
 62
     0
 10
-80.0
 20
1915.0
 30
0.0
  0
POINT
  5
201
  8
DEFPOINTS
  6
BYBLOCK
 62
     0
 10
-532.4
 20
1915.0
 30
0.0
  0
ENDBLK
  5
202
  8
0
  0
BLOCK
  8
0
  2
*D40
 70
     1
 10
0.0
 20
0.0
 30
0.0
  3
*D40
  1

  0
LINE
  5
205
  8
0
  6
BYBLOCK
 62
     0
 10
0.0
 20
1880.0
 30
0.0
 11
0.0
 21
2234.9
 31
0.0
  0
LINE
  5
206
  8
0
  6
BYBLOCK
 62
     0
 10
-80.0
 20
1925.0
 30
0.0
 11
-80.0
 21
2234.9
 31
0.0
  0
LINE
  5
207
  8
0
  6
BYBLOCK
 62
     0
 10
-10.0
 20
2222.4
 30
0.0
 11
-70.0
 21
2222.4
 31
0.0
  0
LINE
  5
208
  8
0
  6
BYBLOCK
 62
     0
 10
-80.0
 20
2222.4
 30
0.0
 11
-199.697586
 21
2222.4
 31
0.0
  0
INSERT
  5
209
  8
0
  6
BYBLOCK
 62
     0
  2
_ORIGIN
 10
0.0
 20
2222.4
 30
0.0
 41
10.0
 42
10.0
 43
10.0
  0
INSERT
  5
20A
  8
0
  6
BYBLOCK
 62
     0
  2
_ORIGIN
 10
-80.0
 20
2222.4
 30
0.0
 41
10.0
 42
10.0
 43
10.0
 50
180.0
  0
TEXT
  5
20B
  8
0
  6
BYBLOCK
 62
     0
 10
-189.697586
 20
2232.4
 30
0.0
 40
30.0
  1
80
 72
     1
 11
-167.197586
 21
2232.4
 31
0.0
  0
POINT
  5
20C
  8
DEFPOINTS
  6
BYBLOCK
 62
     0
 10
0.0
 20
1870.0
 30
0.0
  0
POINT
  5
20D
  8
DEFPOINTS
  6
BYBLOCK
 62
     0
 10
-80.0
 20
1915.0
 30
0.0
  0
POINT
  5
20E
  8
DEFPOINTS
  6
BYBLOCK
 62
     0
 10
-80.0
 20
2222.4
 30
0.0
  0
ENDBLK
  5
20F
  8
0
  0
BLOCK
  8
0
  2
*D41
 70
     1
 10
0.0
 20
0.0
 30
0.0
  3
*D41
  1

  0
LINE
  5
212
  8
0
  6
BYBLOCK
 62
     0
 10
76.0
 20
-30.0
 30
0.0
 11
76.0
 21
-460.1
 31
0.0
  0
LINE
  5
213
  8
0
  6
BYBLOCK
 62
     0
 10
0.0
 20
190.0
 30
0.0
 11
0.0
 21
-460.1
 31
0.0
  0
LINE
  5
214
  8
0
  6
BYBLOCK
 62
     0
 10
66.0
 20
-447.6
 30
0.0
 11
10.0
 21
-447.6
 31
0.0
  0
INSERT
  5
215
  8
0
  6
BYBLOCK
 62
     0
  2
_ORIGIN
 10
76.0
 20
-447.6
 30
0.0
 41
10.0
 42
10.0
 43
10.0
  0
INSERT
  5
216
  8
0
  6
BYBLOCK
 62
     0
  2
_ORIGIN
 10
0.0
 20
-447.6
 30
0.0
 41
10.0
 42
10.0
 43
10.0
 50
180.0
  0
TEXT
  5
217
  8
0
  6
BYBLOCK
 62
     0
 10
13.0
 20
-437.6
 30
0.0
 40
30.0
  1
76
 72
     1
 11
38.0
 21
-437.6
 31
0.0
  0
POINT
  5
218
  8
DEFPOINTS
  6
BYBLOCK
 62
     0
 10
76.0
 20
-20.0
 30
0.0
  0
POINT
  5
219
  8
DEFPOINTS
  6
BYBLOCK
 62
     0
 10
0.0
 20
200.0
 30
0.0
  0
POINT
  5
21A
  8
DEFPOINTS
  6
BYBLOCK
 62
     0
 10
0.0
 20
-447.6
 30
0.0
  0
ENDBLK
  5
21B
  8
0
  0
BLOCK
  8
0
  2
*D42
 70
     1
 10
0.0
 20
0.0
 30
0.0
  3
*D42
  1

  0
LINE
  5
21E
  8
0
  6
BYBLOCK
 62
     0
 10
730.0
 20
-10.0
 30
0.0
 11
730.0
 21
-260.1
 31
0.0
  0
LINE
  5
21F
  8
0
  6
BYBLOCK
 62
     0
 10
665.0
 20
170.0
 30
0.0
 11
665.0
 21
-260.1
 31
0.0
  0
LINE
  5
220
  8
0
  6
BYBLOCK
 62
     0
 10
720.0
 20
-247.6
 30
0.0
 11
675.0
 21
-247.6
 31
0.0
  0
INSERT
  5
221
  8
0
  6
BYBLOCK
 62
     0
  2
_ORIGIN
 10
730.0
 20
-247.6
 30
0.0
 41
10.0
 42
10.0
 43
10.0
  0
INSERT
  5
222
  8
0
  6
BYBLOCK
 62
     0
  2
_ORIGIN
 10
665.0
 20
-247.6
 30
0.0
 41
10.0
 42
10.0
 43
10.0
 50
180.0
  0
TEXT
  5
223
  8
0
  6
BYBLOCK
 62
     0
 10
672.5
 20
-237.6
 30
0.0
 40
30.0
  1
65
 72
     1
 11
697.5
 21
-237.6
 31
0.0
  0
POINT
  5
224
  8
DEFPOINTS
  6
BYBLOCK
 62
     0
 10
730.0
 20
0.0
 30
0.0
  0
POINT
  5
225
  8
DEFPOINTS
  6
BYBLOCK
 62
     0
 10
665.0
 20
180.0
 30
0.0
  0
POINT
  5
226
  8
DEFPOINTS
  6
BYBLOCK
 62
     0
 10
665.0
 20
-247.6
 30
0.0
  0
ENDBLK
  5
227
  8
0
  0
BLOCK
  8
0
  2
*D43
 70
     1
 10
0.0
 20
0.0
 30
0.0
  3
*D43
  1

  0
LINE
  5
22A
  8
0
  6
BYBLOCK
 62
     0
 10
76.0
 20
-30.0
 30
0.0
 11
76.0
 21
-460.1
 31
0.0
  0
LINE
  5
22B
  8
0
  6
BYBLOCK
 62
     0
 10
646.0
 20
-30.0
 30
0.0
 11
646.0
 21
-460.1
 31
0.0
  0
LINE
  5
22C
  8
0
  6
BYBLOCK
 62
     0
 10
86.0
 20
-447.6
 30
0.0
 11
636.0
 21
-447.6
 31
0.0
  0
INSERT
  5
22D
  8
0
  6
BYBLOCK
 62
     0
  2
_ORIGIN
 10
76.0
 20
-447.6
 30
0.0
 41
10.0
 42
10.0
 43
10.0
 50
180.0
  0
INSERT
  5
22E
  8
0
  6
BYBLOCK
 62
     0
  2
_ORIGIN
 10
646.0
 20
-447.6
 30
0.0
 41
10.0
 42
10.0
 43
10.0
  0
TEXT
  5
22F
  8
0
  6
BYBLOCK
 62
     0
 10
323.5
 20
-437.6
 30
0.0
 40
30.0
  1
570
 72
     1
 11
361.0
 21
-437.6
 31
0.0
  0
POINT
  5
230
  8
DEFPOINTS
  6
BYBLOCK
 62
     0
 10
76.0
 20
-20.0
 30
0.0
  0
POINT
  5
231
  8
DEFPOINTS
  6
BYBLOCK
 62
     0
 10
646.0
 20
-20.0
 30
0.0
  0
POINT
  5
232
  8
DEFPOINTS
  6
BYBLOCK
 62
     0
 10
646.0
 20
-447.6
 30
0.0
  0
ENDBLK
  5
233
  8
0
  0
BLOCK
  8
0
  2
*D44
 70
     1
 10
0.0
 20
0.0
 30
0.0
  3
*D44
  1

  0
LINE
  5
236
  8
0
  6
BYBLOCK
 62
     0
 10
646.0
 20
-30.0
 30
0.0
 11
646.0
 21
-560.1
 31
0.0
  0
LINE
  5
237
  8
0
  6
BYBLOCK
 62
     0
 10
730.0
 20
-10.0
 30
0.0
 11
730.0
 21
-560.1
 31
0.0
  0
LINE
  5
238
  8
0
  6
BYBLOCK
 62
     0
 10
656.0
 20
-547.6
 30
0.0
 11
720.0
 21
-547.6
 31
0.0
  0
INSERT
  5
239
  8
0
  6
BYBLOCK
 62
     0
  2
_ORIGIN
 10
646.0
 20
-547.6
 30
0.0
 41
10.0
 42
10.0
 43
10.0
 50
180.0
  0
INSERT
  5
23A
  8
0
  6
BYBLOCK
 62
     0
  2
_ORIGIN
 10
730.0
 20
-547.6
 30
0.0
 41
10.0
 42
10.0
 43
10.0
  0
TEXT
  5
23B
  8
0
  6
BYBLOCK
 62
     0
 10
663.0
 20
-537.6
 30
0.0
 40
30.0
  1
84
 72
     1
 11
688.0
 21
-537.6
 31
0.0
  0
POINT
  5
23C
  8
DEFPOINTS
  6
BYBLOCK
 62
     0
 10
646.0
 20
-20.0
 30
0.0
  0
POINT
  5
23D
  8
DEFPOINTS
  6
BYBLOCK
 62
     0
 10
730.0
 20
0.0
 30
0.0
  0
POINT
  5
23E
  8
DEFPOINTS
  6
BYBLOCK
 62
     0
 10
730.0
 20
-547.6
 30
0.0
  0
ENDBLK
  5
23F
  8
0
  0
BLOCK
  8
0
  2
*D45
 70
     1
 10
0.0
 20
0.0
 30
0.0
  3
*D45
  1

  0
LINE
  5
242
  8
0
  6
BYBLOCK
 62
     0
 10
112.0
 20
-30.0
 30
0.0
 11
112.0
 21
-560.1
 31
0.0
  0
LINE
  5
243
  8
0
  6
BYBLOCK
 62
     0
 10
646.0
 20
-30.0
 30
0.0
 11
646.0
 21
-560.1
 31
0.0
  0
LINE
  5
244
  8
0
  6
BYBLOCK
 62
     0
 10
122.0
 20
-547.6
 30
0.0
 11
636.0
 21
-547.6
 31
0.0
  0
INSERT
  5
245
  8
0
  6
BYBLOCK
 62
     0
  2
_ORIGIN
 10
112.0
 20
-547.6
 30
0.0
 41
10.0
 42
10.0
 43
10.0
 50
180.0
  0
INSERT
  5
246
  8
0
  6
BYBLOCK
 62
     0
  2
_ORIGIN
 10
646.0
 20
-547.6
 30
0.0
 41
10.0
 42
10.0
 43
10.0
  0
TEXT
  5
247
  8
0
  6
BYBLOCK
 62
     0
 10
339.0
 20
-537.6
 30
0.0
 40
30.0
  1
534
 72
     1
 11
379.0
 21
-537.6
 31
0.0
  0
POINT
  5
248
  8
DEFPOINTS
  6
BYBLOCK
 62
     0
 10
112.0
 20
-20.0
 30
0.0
  0
POINT
  5
249
  8
DEFPOINTS
  6
BYBLOCK
 62
     0
 10
646.0
 20
-20.0
 30
0.0
  0
POINT
  5
24A
  8
DEFPOINTS
  6
BYBLOCK
 62
     0
 10
646.0
 20
-547.6
 30
0.0
  0
ENDBLK
  5
24B
  8
0
  0
BLOCK
  8
0
  2
*D46
 70
     1
 10
0.0
 20
0.0
 30
0.0
  3
*D46
  1

  0
LINE
  5
24E
  8
0
  6
BYBLOCK
 62
     0
 10
0.0
 20
190.0
 30
0.0
 11
0.0
 21
-560.1
 31
0.0
  0
LINE
  5
24F
  8
0
  6
BYBLOCK
 62
     0
 10
112.0
 20
-30.0
 30
0.0
 11
112.0
 21
-560.1
 31
0.0
  0
LINE
  5
250
  8
0
  6
BYBLOCK
 62
     0
 10
10.0
 20
-547.6
 30
0.0
 11
102.0
 21
-547.6
 31
0.0
  0
INSERT
  5
251
  8
0
  6
BYBLOCK
 62
     0
  2
_ORIGIN
 10
0.0
 20
-547.6
 30
0.0
 41
10.0
 42
10.0
 43
10.0
 50
180.0
  0
INSERT
  5
252
  8
0
  6
BYBLOCK
 62
     0
  2
_ORIGIN
 10
112.0
 20
-547.6
 30
0.0
 41
10.0
 42
10.0
 43
10.0
  0
TEXT
  5
253
  8
0
  6
BYBLOCK
 62
     0
 10
26.0
 20
-537.6
 30
0.0
 40
30.0
  1
112
 72
     1
 11
56.0
 21
-537.6
 31
0.0
  0
POINT
  5
254
  8
DEFPOINTS
  6
BYBLOCK
 62
     0
 10
0.0
 20
200.0
 30
0.0
  0
POINT
  5
255
  8
DEFPOINTS
  6
BYBLOCK
 62
     0
 10
112.0
 20
-20.0
 30
0.0
  0
POINT
  5
256
  8
DEFPOINTS
  6
BYBLOCK
 62
     0
 10
112.0
 20
-547.6
 30
0.0
  0
ENDBLK
  5
257
  8
0
  0
BLOCK
  8
0
  2
*D47
 70
     1
 10
0.0
 20
0.0
 30
0.0
  3
*D47
  1

  0
LINE
  5
25A
  8
0
  6
BYBLOCK
 62
     0
 10
1330.0
 20
2080.0
 30
0.0
 11
1330.0
 21
2234.9
 31
0.0
  0
LINE
  5
25B
  8
0
  6
BYBLOCK
 62
     0
 10
730.0
 20
2080.0
 30
0.0
 11
730.0
 21
2234.9
 31
0.0
  0
LINE
  5
25C
  8
0
  6
BYBLOCK
 62
     0
 10
1320.0
 20
2222.4
 30
0.0
 11
740.0
 21
2222.4
 31
0.0
  0
INSERT
  5
25D
  8
0
  6
BYBLOCK
 62
     0
  2
_ORIGIN
 10
1330.0
 20
2222.4
 30
0.0
 41
10.0
 42
10.0
 43
10.0
  0
INSERT
  5
25E
  8
0
  6
BYBLOCK
 62
     0
  2
_ORIGIN
 10
730.0
 20
2222.4
 30
0.0
 41
10.0
 42
10.0
 43
10.0
 50
180.0
  0
TEXT
  5
25F
  8
0
  6
BYBLOCK
 62
     0
 10
995.0
 20
2232.4
 30
0.0
 40
30.0
  1
600
 72
     1
 11
1030.0
 21
2232.4
 31
0.0
  0
POINT
  5
260
  8
DEFPOINTS
  6
BYBLOCK
 62
     0
 10
1330.0
 20
2070.0
 30
0.0
  0
POINT
  5
261
  8
DEFPOINTS
  6
BYBLOCK
 62
     0
 10
730.0
 20
2070.0
 30
0.0
  0
POINT
  5
262
  8
DEFPOINTS
  6
BYBLOCK
 62
     0
 10
730.0
 20
2222.4
 30
0.0
  0
ENDBLK
  5
263
  8
0
  0
BLOCK
  8
0
  2
*D48
 70
     1
 10
0.0
 20
0.0
 30
0.0
  3
*D48
  1

  0
LINE
  5
266
  8
0
  6
BYBLOCK
 62
     0
 10
0.0
 20
2080.0
 30
0.0
 11
0.0
 21
2234.9
 31
0.0
  0
LINE
  5
267
  8
0
  6
BYBLOCK
 62
     0
 10
730.0
 20
2080.0
 30
0.0
 11
730.0
 21
2234.9
 31
0.0
  0
LINE
  5
268
  8
0
  6
BYBLOCK
 62
     0
 10
10.0
 20
2222.4
 30
0.0
 11
720.0
 21
2222.4
 31
0.0
  0
INSERT
  5
269
  8
0
  6
BYBLOCK
 62
     0
  2
_ORIGIN
 10
0.0
 20
2222.4
 30
0.0
 41
10.0
 42
10.0
 43
10.0
 50
180.0
  0
INSERT
  5
26A
  8
0
  6
BYBLOCK
 62
     0
  2
_ORIGIN
 10
730.0
 20
2222.4
 30
0.0
 41
10.0
 42
10.0
 43
10.0
  0
TEXT
  5
26B
  8
0
  6
BYBLOCK
 62
     0
 10
327.5
 20
2232.4
 30
0.0
 40
30.0
  1
730
 72
     1
 11
365.0
 21
2232.4
 31
0.0
  0
POINT
  5
26C
  8
DEFPOINTS
  6
BYBLOCK
 62
     0
 10
0.0
 20
2070.0
 30
0.0
  0
POINT
  5
26D
  8
DEFPOINTS
  6
BYBLOCK
 62
     0
 10
730.0
 20
2070.0
 30
0.0
  0
POINT
  5
26E
  8
DEFPOINTS
  6
BYBLOCK
 62
     0
 10
730.0
 20
2222.4
 30
0.0
  0
ENDBLK
  5
26F
  8
0
  0
BLOCK
  8
0
  2
*D49
 70
     1
 10
0.0
 20
0.0
 30
0.0
  3
*D49
  1

  0
LINE
  5
272
  8
0
  6
BYBLOCK
 62
     0
 10
740.0
 20
0.0
 30
0.0
 11
890.1
 21
0.0
 31
0.0
  0
LINE
  5
273
  8
0
  6
BYBLOCK
 62
     0
 10
662.6875
 20
155.5
 30
0.0
 11
890.1
 21
155.5
 31
0.0
  0
LINE
  5
274
  8
0
  6
BYBLOCK
 62
     0
 10
877.6
 20
10.0
 30
0.0
 11
877.6
 21
145.5
 31
0.0
  0
INSERT
  5
275
  8
0
  6
BYBLOCK
 62
     0
  2
_ORIGIN
 10
877.6
 20
0.0
 30
0.0
 41
10.0
 42
10.0
 43
10.0
 50
270.0
  0
INSERT
  5
276
  8
0
  6
BYBLOCK
 62
     0
  2
_ORIGIN
 10
877.6
 20
155.5
 30
0.0
 41
10.0
 42
10.0
 43
10.0
 50
90.0
  0
TEXT
  5
277
  8
0
  6
BYBLOCK
 62
     0
 10
867.6
 20
42.75
 30
0.0
 40
30.0
  1
156
 50
90.0
 72
     1
 11
867.6
 21
77.75
 31
0.0
  0
POINT
  5
278
  8
DEFPOINTS
  6
BYBLOCK
 62
     0
 10
730.0
 20
0.0
 30
0.0
  0
POINT
  5
279
  8
DEFPOINTS
  6
BYBLOCK
 62
     0
 10
652.6875
 20
155.5
 30
0.0
  0
POINT
  5
27A
  8
DEFPOINTS
  6
BYBLOCK
 62
     0
 10
877.6
 20
155.5
 30
0.0
  0
ENDBLK
  5
27B
  8
0
  0
BLOCK
  8
0
  2
*D50
 70
     1
 10
0.0
 20
0.0
 30
0.0
  3
*D50
  1

  0
LINE
  5
27E
  8
0
  6
BYBLOCK
 62
     0
 10
730.0
 20
-10.0
 30
0.0
 11
730.0
 21
-360.1
 31
0.0
  0
LINE
  5
27F
  8
0
  6
BYBLOCK
 62
     0
 10
640.0
 20
125.5
 30
0.0
 11
640.0
 21
-360.1
 31
0.0
  0
LINE
  5
280
  8
0
  6
BYBLOCK
 62
     0
 10
720.0
 20
-347.6
 30
0.0
 11
650.0
 21
-347.6
 31
0.0
  0
INSERT
  5
281
  8
0
  6
BYBLOCK
 62
     0
  2
_ORIGIN
 10
730.0
 20
-347.6
 30
0.0
 41
10.0
 42
10.0
 43
10.0
  0
INSERT
  5
282
  8
0
  6
BYBLOCK
 62
     0
  2
_ORIGIN
 10
640.0
 20
-347.6
 30
0.0
 41
10.0
 42
10.0
 43
10.0
 50
180.0
  0
TEXT
  5
283
  8
0
  6
BYBLOCK
 62
     0
 10
664.73053
 20
-337.6
 30
0.0
 40
30.0
  1
90
 72
     1
 11
687.23053
 21
-337.6
 31
0.0
  0
POINT
  5
284
  8
DEFPOINTS
  6
BYBLOCK
 62
     0
 10
730.0
 20
0.0
 30
0.0
  0
POINT
  5
285
  8
DEFPOINTS
  6
BYBLOCK
 62
     0
 10
640.0
 20
135.5
 30
0.0
  0
POINT
  5
286
  8
DEFPOINTS
  6
BYBLOCK
 62
     0
 10
640.0
 20
-347.6
 30
0.0
  0
ENDBLK
  5
287
  8
0
  0
BLOCK
  8
0
  2
*D51
 70
     1
 10
0.0
 20
0.0
 30
0.0
  3
*D51
  1

  0
LINE
  5
28A
  8
0
  6
BYBLOCK
 62
     0
 10
516.0
 20
0.0
 30
0.0
 11
411.1
 21
0.0
 31
0.0
  0
LINE
  5
28B
  8
0
  6
BYBLOCK
 62
     0
 10
559.0
 20
172.5
 30
0.0
 11
411.1
 21
172.5
 31
0.0
  0
LINE
  5
28C
  8
0
  6
BYBLOCK
 62
     0
 10
423.6
 20
10.0
 30
0.0
 11
423.6
 21
162.5
 31
0.0
  0
INSERT
  5
28D
  8
0
  6
BYBLOCK
 62
     0
  2
_ORIGIN
 10
423.6
 20
0.0
 30
0.0
 41
10.0
 42
10.0
 43
10.0
 50
270.0
  0
INSERT
  5
28E
  8
0
  6
BYBLOCK
 62
     0
  2
_ORIGIN
 10
423.6
 20
172.5
 30
0.0
 41
10.0
 42
10.0
 43
10.0
 50
90.0
  0
TEXT
  5
28F
  8
0
  6
BYBLOCK
 62
     0
 10
413.6
 20
51.25
 30
0.0
 40
30.0
  1
173
 50
90.0
 72
     1
 11
413.6
 21
86.25
 31
0.0
  0
POINT
  5
290
  8
DEFPOINTS
  6
BYBLOCK
 62
     0
 10
526.0
 20
0.0
 30
0.0
  0
POINT
  5
291
  8
DEFPOINTS
  6
BYBLOCK
 62
     0
 10
569.0
 20
172.5
 30
0.0
  0
POINT
  5
292
  8
DEFPOINTS
  6
BYBLOCK
 62
     0
 10
423.6
 20
172.5
 30
0.0
  0
ENDBLK
  5
293
  8
0
  0
BLOCK
  8
0
  2
*D52
 70
     1
 10
0.0
 20
0.0
 30
0.0
  3
*D52
  1

  0
LINE
  5
296
  8
0
  6
BYBLOCK
 62
     0
 10
737.5
 20
363.0
 30
0.0
 11
1090.1
 21
363.0
 31
0.0
  0
LINE
  5
297
  8
0
  6
BYBLOCK
 62
     0
 10
737.5
 20
233.0
 30
0.0
 11
1090.1
 21
233.0
 31
0.0
  0
LINE
  5
298
  8
0
  6
BYBLOCK
 62
     0
 10
1077.6
 20
353.0
 30
0.0
 11
1077.6
 21
243.0
 31
0.0
  0
INSERT
  5
299
  8
0
  6
BYBLOCK
 62
     0
  2
_ORIGIN
 10
1077.6
 20
363.0
 30
0.0
 41
10.0
 42
10.0
 43
10.0
 50
90.0
  0
INSERT
  5
29A
  8
0
  6
BYBLOCK
 62
     0
  2
_ORIGIN
 10
1077.6
 20
233.0
 30
0.0
 41
10.0
 42
10.0
 43
10.0
 50
270.0
  0
TEXT
  5
29B
  8
0
  6
BYBLOCK
 62
     0
 10
1067.6
 20
265.5
 30
0.0
 40
30.0
  1
130
 50
90.0
 72
     1
 11
1067.6
 21
298.0
 31
0.0
  0
POINT
  5
29C
  8
DEFPOINTS
  6
BYBLOCK
 62
     0
 10
727.5
 20
363.0
 30
0.0
  0
POINT
  5
29D
  8
DEFPOINTS
  6
BYBLOCK
 62
     0
 10
727.5
 20
233.0
 30
0.0
  0
POINT
  5
29E
  8
DEFPOINTS
  6
BYBLOCK
 62
     0
 10
1077.6
 20
233.0
 30
0.0
  0
ENDBLK
  5
29F
  8
0
  0
BLOCK
  8
0
  2
*D53
 70
     1
 10
0.0
 20
0.0
 30
0.0
  3
*D53
  1

  0
LINE
  5
2A2
  8
0
  6
BYBLOCK
 62
     0
 10
737.5
 20
233.0
 30
0.0
 11
1090.1
 21
233.0
 31
0.0
  0
LINE
  5
2A3
  8
0
  6
BYBLOCK
 62
     0
 10
740.0
 20
0.0
 30
0.0
 11
1090.1
 21
0.0
 31
0.0
  0
LINE
  5
2A4
  8
0
  6
BYBLOCK
 62
     0
 10
1077.6
 20
223.0
 30
0.0
 11
1077.6
 21
10.0
 31
0.0
  0
INSERT
  5
2A5
  8
0
  6
BYBLOCK
 62
     0
  2
_ORIGIN
 10
1077.6
 20
233.0
 30
0.0
 41
10.0
 42
10.0
 43
10.0
 50
90.0
  0
INSERT
  5
2A6
  8
0
  6
BYBLOCK
 62
     0
  2
_ORIGIN
 10
1077.6
 20
0.0
 30
0.0
 41
10.0
 42
10.0
 43
10.0
 50
270.0
  0
TEXT
  5
2A7
  8
0
  6
BYBLOCK
 62
     0
 10
1067.6
 20
76.5
 30
0.0
 40
30.0
  1
233
 50
90.0
 72
     1
 11
1067.6
 21
116.5
 31
0.0
  0
POINT
  5
2A8
  8
DEFPOINTS
  6
BYBLOCK
 62
     0
 10
727.5
 20
233.0
 30
0.0
  0
POINT
  5
2A9
  8
DEFPOINTS
  6
BYBLOCK
 62
     0
 10
730.0
 20
0.0
 30
0.0
  0
POINT
  5
2AA
  8
DEFPOINTS
  6
BYBLOCK
 62
     0
 10
1077.6
 20
0.0
 30
0.0
  0
ENDBLK
  5
2AB
  8
0
  0
BLOCK
  8
0
  2
*D54
 70
     1
 10
0.0
 20
0.0
 30
0.0
  3
*D54
  1

  0
LINE
  5
2AE
  8
0
  6
BYBLOCK
 62
     0
 10
737.5
 20
1115.0
 30
0.0
 11
1190.1
 21
1115.0
 31
0.0
  0
LINE
  5
2AF
  8
0
  6
BYBLOCK
 62
     0
 10
1320.0
 20
0.0
 30
0.0
 11
1165.1
 21
0.0
 31
0.0
  0
LINE
  5
2B0
  8
0
  6
BYBLOCK
 62
     0
 10
1177.6
 20
1105.0
 30
0.0
 11
1177.6
 21
10.0
 31
0.0
  0
INSERT
  5
2B1
  8
0
  6
BYBLOCK
 62
     0
  2
_ORIGIN
 10
1177.6
 20
1115.0
 30
0.0
 41
10.0
 42
10.0
 43
10.0
 50
90.0
  0
INSERT
  5
2B2
  8
0
  6
BYBLOCK
 62
     0
  2
_ORIGIN
 10
1177.6
 20
0.0
 30
0.0
 41
10.0
 42
10.0
 43
10.0
 50
270.0
  0
TEXT
  5
2B3
  8
0
  6
BYBLOCK
 62
     0
 10
1167.6
 20
369.981811
 30
0.0
 40
30.0
  1
1115
 50
90.0
 72
     1
 11
1167.6
 21
409.981811
 31
0.0
  0
POINT
  5
2B4
  8
DEFPOINTS
  6
BYBLOCK
 62
     0
 10
727.5
 20
1115.0
 30
0.0
  0
POINT
  5
2B5
  8
DEFPOINTS
  6
BYBLOCK
 62
     0
 10
1330.0
 20
0.0
 30
0.0
  0
POINT
  5
2B6
  8
DEFPOINTS
  6
BYBLOCK
 62
     0
 10
1177.6
 20
0.0
 30
0.0
  0
ENDBLK
  5
2B7
  8
0
  0
BLOCK
  8
0
  2
*D55
 70
     1
 10
0.0
 20
0.0
 30
0.0
  3
*D55
  1

  0
LINE
  5
2BA
  8
0
  6
BYBLOCK
 62
     0
 10
737.5
 20
1245.0
 30
0.0
 11
1190.1
 21
1245.0
 31
0.0
  0
LINE
  5
2BB
  8
0
  6
BYBLOCK
 62
     0
 10
737.5
 20
1115.0
 30
0.0
 11
1190.1
 21
1115.0
 31
0.0
  0
LINE
  5
2BC
  8
0
  6
BYBLOCK
 62
     0
 10
1177.6
 20
1235.0
 30
0.0
 11
1177.6
 21
1125.0
 31
0.0
  0
INSERT
  5
2BD
  8
0
  6
BYBLOCK
 62
     0
  2
_ORIGIN
 10
1177.6
 20
1245.0
 30
0.0
 41
10.0
 42
10.0
 43
10.0
 50
90.0
  0
INSERT
  5
2BE
  8
0
  6
BYBLOCK
 62
     0
  2
_ORIGIN
 10
1177.6
 20
1115.0
 30
0.0
 41
10.0
 42
10.0
 43
10.0
 50
270.0
  0
TEXT
  5
2BF
  8
0
  6
BYBLOCK
 62
     0
 10
1167.6
 20
1147.5
 30
0.0
 40
30.0
  1
130
 50
90.0
 72
     1
 11
1167.6
 21
1180.0
 31
0.0
  0
POINT
  5
2C0
  8
DEFPOINTS
  6
BYBLOCK
 62
     0
 10
727.5
 20
1245.0
 30
0.0
  0
POINT
  5
2C1
  8
DEFPOINTS
  6
BYBLOCK
 62
     0
 10
727.5
 20
1115.0
 30
0.0
  0
POINT
  5
2C2
  8
DEFPOINTS
  6
BYBLOCK
 62
     0
 10
1177.6
 20
1115.0
 30
0.0
  0
ENDBLK
  5
2C3
  8
0
  0
BLOCK
  8
0
  2
*D56
 70
     1
 10
0.0
 20
0.0
 30
0.0
  3
*D56
  1

  0
LINE
  5
2C6
  8
0
  6
BYBLOCK
 62
     0
 10
737.5
 20
1672.0
 30
0.0
 11
1290.1
 21
1672.0
 31
0.0
  0
LINE
  5
2C7
  8
0
  6
BYBLOCK
 62
     0
 10
1320.0
 20
0.0
 30
0.0
 11
1265.1
 21
0.0
 31
0.0
  0
LINE
  5
2C8
  8
0
  6
BYBLOCK
 62
     0
 10
1277.6
 20
1662.0
 30
0.0
 11
1277.6
 21
10.0
 31
0.0
  0
INSERT
  5
2C9
  8
0
  6
BYBLOCK
 62
     0
  2
_ORIGIN
 10
1277.6
 20
1672.0
 30
0.0
 41
10.0
 42
10.0
 43
10.0
 50
90.0
  0
INSERT
  5
2CA
  8
0
  6
BYBLOCK
 62
     0
  2
_ORIGIN
 10
1277.6
 20
0.0
 30
0.0
 41
10.0
 42
10.0
 43
10.0
 50
270.0
  0
TEXT
  5
2CB
  8
0
  6
BYBLOCK
 62
     0
 10
1267.6
 20
786.0
 30
0.0
 40
30.0
  1
1672
 50
90.0
 72
     1
 11
1267.6
 21
836.0
 31
0.0
  0
POINT
  5
2CC
  8
DEFPOINTS
  6
BYBLOCK
 62
     0
 10
727.5
 20
1672.0
 30
0.0
  0
POINT
  5
2CD
  8
DEFPOINTS
  6
BYBLOCK
 62
     0
 10
1330.0
 20
0.0
 30
0.0
  0
POINT
  5
2CE
  8
DEFPOINTS
  6
BYBLOCK
 62
     0
 10
1277.6
 20
0.0
 30
0.0
  0
ENDBLK
  5
2CF
  8
0
  0
BLOCK
  8
0
  2
*D57
 70
     1
 10
0.0
 20
0.0
 30
0.0
  3
*D57
  1

  0
LINE
  5
2D2
  8
0
  6
BYBLOCK
 62
     0
 10
730.0
 20
1802.0
 30
0.0
 11
1190.1
 21
1802.0
 31
0.0
  0
LINE
  5
2D3
  8
0
  6
BYBLOCK
 62
     0
 10
737.5
 20
1672.0
 30
0.0
 11
1190.1
 21
1672.0
 31
0.0
  0
LINE
  5
2D4
  8
0
  6
BYBLOCK
 62
     0
 10
1177.6
 20
1792.0
 30
0.0
 11
1177.6
 21
1682.0
 31
0.0
  0
INSERT
  5
2D5
  8
0
  6
BYBLOCK
 62
     0
  2
_ORIGIN
 10
1177.6
 20
1802.0
 30
0.0
 41
10.0
 42
10.0
 43
10.0
 50
90.0
  0
INSERT
  5
2D6
  8
0
  6
BYBLOCK
 62
     0
  2
_ORIGIN
 10
1177.6
 20
1672.0
 30
0.0
 41
10.0
 42
10.0
 43
10.0
 50
270.0
  0
TEXT
  5
2D7
  8
0
  6
BYBLOCK
 62
     0
 10
1167.6
 20
1704.5
 30
0.0
 40
30.0
  1
130
 50
90.0
 72
     1
 11
1167.6
 21
1737.0
 31
0.0
  0
POINT
  5
2D8
  8
DEFPOINTS
  6
BYBLOCK
 62
     0
 10
720.0
 20
1802.0
 30
0.0
  0
POINT
  5
2D9
  8
DEFPOINTS
  6
BYBLOCK
 62
     0
 10
727.5
 20
1672.0
 30
0.0
  0
POINT
  5
2DA
  8
DEFPOINTS
  6
BYBLOCK
 62
     0
 10
1177.6
 20
1672.0
 30
0.0
  0
ENDBLK
  5
2DB
  8
0
  0
BLOCK
  8
0
  2
*D58
 70
     1
 10
0.0
 20
0.0
 30
0.0
  3
*D58
  1

  0
LINE
  5
2DE
  8
0
  6
BYBLOCK
 62
     0
 10
730.0
 20
-10.0
 30
0.0
 11
730.0
 21
-160.1
 31
0.0
  0
LINE
  5
2DF
  8
0
  6
BYBLOCK
 62
     0
 10
676.0
 20
138.0
 30
0.0
 11
676.0
 21
-160.1
 31
0.0
  0
LINE
  5
2E0
  8
0
  6
BYBLOCK
 62
     0
 10
720.0
 20
-147.6
 30
0.0
 11
686.0
 21
-147.6
 31
0.0
  0
INSERT
  5
2E1
  8
0
  6
BYBLOCK
 62
     0
  2
_ORIGIN
 10
730.0
 20
-147.6
 30
0.0
 41
10.0
 42
10.0
 43
10.0
  0
INSERT
  5
2E2
  8
0
  6
BYBLOCK
 62
     0
  2
_ORIGIN
 10
676.0
 20
-147.6
 30
0.0
 41
10.0
 42
10.0
 43
10.0
 50
180.0
  0
TEXT
  5
2E3
  8
0
  6
BYBLOCK
 62
     0
 10
678.0
 20
-137.6
 30
0.0
 40
30.0
  1
54
 72
     1
 11
703.0
 21
-137.6
 31
0.0
  0
POINT
  5
2E4
  8
DEFPOINTS
  6
BYBLOCK
 62
     0
 10
730.0
 20
0.0
 30
0.0
  0
POINT
  5
2E5
  8
DEFPOINTS
  6
BYBLOCK
 62
     0
 10
676.0
 20
148.0
 30
0.0
  0
POINT
  5
2E6
  8
DEFPOINTS
  6
BYBLOCK
 62
     0
 10
676.0
 20
-147.6
 30
0.0
  0
ENDBLK
  5
2E7
  8
0
  0
BLOCK
  8
0
  2
*D59
 70
     1
 10
0.0
 20
0.0
 30
0.0
  3
*D59
  1

  0
LINE
  5
2EA
  8
0
  6
BYBLOCK
 62
     0
 10
740.0
 20
0.0
 30
0.0
 11
990.1
 21
0.0
 31
0.0
  0
LINE
  5
2EB
  8
0
  6
BYBLOCK
 62
     0
 10
706.0
 20
168.0
 30
0.0
 11
990.1
 21
168.0
 31
0.0
  0
LINE
  5
2EC
  8
0
  6
BYBLOCK
 62
     0
 10
977.6
 20
10.0
 30
0.0
 11
977.6
 21
158.0
 31
0.0
  0
INSERT
  5
2ED
  8
0
  6
BYBLOCK
 62
     0
  2
_ORIGIN
 10
977.6
 20
0.0
 30
0.0
 41
10.0
 42
10.0
 43
10.0
 50
270.0
  0
INSERT
  5
2EE
  8
0
  6
BYBLOCK
 62
     0
  2
_ORIGIN
 10
977.6
 20
168.0
 30
0.0
 41
10.0
 42
10.0
 43
10.0
 50
90.0
  0
TEXT
  5
2EF
  8
0
  6
BYBLOCK
 62
     0
 10
967.6
 20
49.0
 30
0.0
 40
30.0
  1
168
 50
90.0
 72
     1
 11
967.6
 21
84.0
 31
0.0
  0
POINT
  5
2F0
  8
DEFPOINTS
  6
BYBLOCK
 62
     0
 10
730.0
 20
0.0
 30
0.0
  0
POINT
  5
2F1
  8
DEFPOINTS
  6
BYBLOCK
 62
     0
 10
696.0
 20
168.0
 30
0.0
  0
POINT
  5
2F2
  8
DEFPOINTS
  6
BYBLOCK
 62
     0
 10
977.6
 20
168.0
 30
0.0
  0
ENDBLK
  5
2F3
  8
0
  0
ENDSEC
  0
SECTION
  2
ENTITIES
  0
LINE
  5
2F4
  8
OUTLINE
  6
CONTINUOUS
 10
730.0
 20
1843.0
 30
0.0
 11
720.0
 21
1843.0
 31
0.0
  0
LINE
  5
2F5
  8
OUTLINE
  6
CONTINUOUS
 10
630.499682
 20
20.0
 30
0.0
 11
630.499682
 21
155.5
 31
0.0
  0
LINE
  5
2F6
  8
OUTLINE
  6
CONTINUOUS
 10
630.499682
 20
20.0
 30
0.0
 11
656.0
 21
20.0
 31
0.0
  0
LINE
  5
2F7
  8
OUTLINE
  6
CONTINUOUS
 10
526.0
 20
0.0
 30
0.0
 11
666.0
 21
0.0
 31
0.0
  0
LINE
  5
2F8
  8
OUTLINE
  6
CONTINUOUS
 10
666.0
 20
10.0
 30
0.0
 11
666.0
 21
0.0
 31
0.0
  0
ARC
  5
2F9
  8
OUTLINE
  6
CONTINUOUS
 10
656.0
 20
10.0
 30
0.0
 40
10.0
 50
0.0
 51
90.0
  0
LINE
  5
2FA
  8
OUTLINE
  6
CONTINUOUS
 10
570.499682
 20
139.0
 30
0.0
 11
570.499682
 21
20.0
 31
0.0
  0
LINE
  5
2FB
  8
OUTLINE
  6
CONTINUOUS
 10
542.0
 20
20.0
 30
0.0
 11
570.499682
 21
20.0
 31
0.0
  0
ARC
  5
2FC
  8
OUTLINE
  6
CONTINUOUS
 10
542.0
 20
10.0
 30
0.0
 40
10.0
 50
90.0
 51
180.0
  0
LINE
  5
2FD
  8
OUTLINE
  6
CONTINUOUS
 10
526.0
 20
0.0
 30
0.0
 11
526.0
 21
3.2
 31
0.0
  0
LINE
  5
2FE
  8
OUTLINE
  6
CONTINUOUS
 10
526.0
 20
3.2
 30
0.0
 11
531.874682
 21
3.2
 31
0.0
  0
LINE
  5
2FF
  8
OUTLINE
  6
CONTINUOUS
 10
532.0
 20
0.0
 30
0.0
 11
532.0
 21
10.0
 31
0.0
  0
LINE
  5
300
  8
OUTLINE
  6
CONTINUOUS
 10
200.499682
 20
20.0
 30
0.0
 11
200.499682
 21
200.0
 31
0.0
  0
LINE
  5
301
  8
OUTLINE
  6
CONTINUOUS
 10
200.499682
 20
20.0
 30
0.0
 11
226.0
 21
20.0
 31
0.0
  0
LINE
  5
302
  8
OUTLINE
  6
CONTINUOUS
 10
96.0
 20
0.0
 30
0.0
 11
236.0
 21
0.0
 31
0.0
  0
LINE
  5
303
  8
OUTLINE
  6
CONTINUOUS
 10
236.0
 20
10.0
 30
0.0
 11
236.0
 21
0.0
 31
0.0
  0
ARC
  5
304
  8
OUTLINE
  6
CONTINUOUS
 10
226.0
 20
10.0
 30
0.0
 40
10.0
 50
0.0
 51
90.0
  0
LINE
  5
305
  8
OUTLINE
  6
CONTINUOUS
 10
140.499682
 20
200.0
 30
0.0
 11
140.499682
 21
20.0
 31
0.0
  0
LINE
  5
306
  8
OUTLINE
  6
CONTINUOUS
 10
112.0
 20
20.0
 30
0.0
 11
140.499682
 21
20.0
 31
0.0
  0
ARC
  5
307
  8
OUTLINE
  6
CONTINUOUS
 10
112.0
 20
10.0
 30
0.0
 40
10.0
 50
90.0
 51
180.0
  0
LINE
  5
308
  8
OUTLINE
  6
CONTINUOUS
 10
96.0
 20
0.0
 30
0.0
 11
96.0
 21
3.2
 31
0.0
  0
LINE
  5
309
  8
OUTLINE
  6
CONTINUOUS
 10
96.0
 20
3.2
 30
0.0
 11
101.874682
 21
3.2
 31
0.0
  0
LINE
  5
30A
  8
OUTLINE
  6
CONTINUOUS
 10
102.0
 20
0.0
 30
0.0
 11
102.0
 21
10.0
 31
0.0
  0
LINE
  5
30B
  8
OUTLINE
  6
CONTINUOUS
 10
720.0
 20
200.0
 30
0.0
 11
0.0
 21
200.0
 31
0.0
  0
LINE
  5
30C
  8
OUTLINE
  6
CONTINUOUS
 10
720.0
 20
200.0
 30
0.0
 11
720.0
 21
1843.0
 31
0.0
  0
LINE
  5
30D
  8
OUTLINE
  6
CONTINUOUS
 10
0.0
 20
1870.0
 30
0.0
 11
0.0
 21
200.0
 31
0.0
  0
LINE
  5
30E
  8
OUTLINE
  6
CONTINUOUS
 10
730.0
 20
1870.0
 30
0.0
 11
730.0
 21
1843.0
 31
0.0
  0
LINE
  5
30F
  8
OUTLINE
  6
CONTINUOUS
 10
730.0
 20
1870.0
 30
0.0
 11
0.0
 21
1870.0
 31
0.0
  0
LINE
  5
310
  8
DETAIL
  6
CONTINUOUS
 10
665.15
 20
168.0
 30
0.0
 11
665.15
 21
200.0
 31
0.0
  0
LINE
  5
311
  8
DETAIL
  6
CONTINUOUS
 10
665.15
 20
168.0
 30
0.0
 11
665.15
 21
200.0
 31
0.0
  0
LINE
  5
312
  8
DETAIL
  6
CONTINUOUS
 10
665.15
 20
168.0
 30
0.0
 11
686.85
 21
168.0
 31
0.0
  0
LINE
  5
313
  8
DETAIL
  6
CONTINUOUS
 10
686.85
 20
168.0
 30
0.0
 11
686.85
 21
200.0
 31
0.0
  0
LINE
  5
314
  8
DETAIL
  6
CONTINUOUS
 10
686.85
 20
168.0
 30
0.0
 11
686.85
 21
200.0
 31
0.0
  0
LINE
  5
315
  8
DETAIL
  6
CONTINUOUS
 10
665.15
 20
168.0
 30
0.0
 11
686.85
 21
168.0
 31
0.0
  0
LINE
  5
316
  8
DETAIL
  6
CONTINUOUS
 10
720.0
 20
1115.0
 30
0.0
 11
727.5
 21
1115.0
 31
0.0
  0
LINE
  5
317
  8
DETAIL
  6
CONTINUOUS
 10
727.5
 20
1115.0
 30
0.0
 11
727.5
 21
1245.0
 31
0.0
  0
LINE
  5
318
  8
DETAIL
  6
CONTINUOUS
 10
720.0
 20
1245.0
 30
0.0
 11
727.5
 21
1245.0
 31
0.0
  0
LINE
  5
319
  8
DETAIL
  6
CONTINUOUS
 10
727.5
 20
1137.0
 30
0.0
 11
735.0
 21
1137.0
 31
0.0
  0
LINE
  5
31A
  8
DETAIL
  6
CONTINUOUS
 10
727.5
 20
1126.0
 30
0.0
 11
735.0
 21
1126.0
 31
0.0
  0
LINE
  5
31B
  8
DETAIL
  6
CONTINUOUS
 10
735.0
 20
1126.0
 30
0.0
 11
735.0
 21
1137.0
 31
0.0
  0
ARC
  5
31C
  8
DETAIL
  6
CONTINUOUS
 10
585.0
 20
143.0
 30
0.0
 40
4.0
 50
270.0
 51
0.0
  0
LINE
  5
31D
  8
DETAIL
  6
CONTINUOUS
 10
535.0
 20
192.0
 30
0.0
 11
607.0
 21
192.0
 31
0.0
  0
LINE
  5
31E
  8
DETAIL
  6
CONTINUOUS
 10
602.5
 20
188.5
 30
0.0
 11
602.5
 21
192.0
 31
0.0
  0
LINE
  5
31F
  8
DETAIL
  6
CONTINUOUS
 10
602.5
 20
188.5
 30
0.0
 11
539.5
 21
188.5
 31
0.0
  0
LINE
  5
320
  8
DETAIL
  6
CONTINUOUS
 10
589.0
 20
143.0
 30
0.0
 11
589.0
 21
188.5
 31
0.0
  0
LINE
  5
321
  8
DETAIL
  6
CONTINUOUS
 10
590.968
 20
180.37883
 30
0.0
 11
589.0
 21
181.034262
 31
0.0
  0
LINE
  5
322
  8
DETAIL
  6
CONTINUOUS
 10
590.968
 20
164.62117
 30
0.0
 11
589.0
 21
163.965738
 31
0.0
  0
POLYLINE
  5
323
  8
DETAIL
  6
CONTINUOUS
 66
     1
 10
0.0
 20
0.0
 30
0.0
  0
VERTEX
  5
324
  8
DETAIL
  6
CONTINUOUS
 10
590.968
 20
164.62117
 30
0.0
  0
VERTEX
  5
325
  8
DETAIL
  6
CONTINUOUS
 10
592.184995
 20
165.170989
 30
0.0
  0
VERTEX
  5
326
  8
DETAIL
  6
CONTINUOUS
 10
593.294131
 20
165.969003
 30
0.0
  0
VERTEX
  5
327
  8
DETAIL
  6
CONTINUOUS
 10
594.257847
 20
166.988189
 30
0.0
  0
VERTEX
  5
328
  8
DETAIL
  6
CONTINUOUS
 10
595.043507
 20
168.194031
 30
0.0
  0
VERTEX
  5
329
  8
DETAIL
  6
CONTINUOUS
 10
595.624504
 20
169.545695
 30
0.0
  0
VERTEX
  5
32A
  8
DETAIL
  6
CONTINUOUS
 10
595.981164
 20
170.997405
 30
0.0
  0
VERTEX
  5
32B
  8
DETAIL
  6
CONTINUOUS
 10
596.101408
 20
172.5
 30
0.0
  0
VERTEX
  5
32C
  8
DETAIL
  6
CONTINUOUS
 10
595.981164
 20
174.002595
 30
0.0
  0
VERTEX
  5
32D
  8
DETAIL
  6
CONTINUOUS
 10
595.624504
 20
175.454305
 30
0.0
  0
VERTEX
  5
32E
  8
DETAIL
  6
CONTINUOUS
 10
595.043507
 20
176.805969
 30
0.0
  0
VERTEX
  5
32F
  8
DETAIL
  6
CONTINUOUS
 10
594.257847
 20
178.011811
 30
0.0
  0
VERTEX
  5
330
  8
DETAIL
  6
CONTINUOUS
 10
593.294131
 20
179.030997
 30
0.0
  0
VERTEX
  5
331
  8
DETAIL
  6
CONTINUOUS
 10
592.184995
 20
179.829011
 30
0.0
  0
VERTEX
  5
332
  8
DETAIL
  6
CONTINUOUS
 10
590.968
 20
180.37883
 30
0.0
  0
SEQEND
  5
333
  8
DETAIL
  6
CONTINUOUS
  0
POLYLINE
  5
334
  8
DETAIL
  6
CONTINUOUS
 66
     1
 10
0.0
 20
0.0
 30
0.0
  0
VERTEX
  5
335
  8
DETAIL
  6
CONTINUOUS
 10
586.238246
 20
139.196482
 30
0.0
  0
VERTEX
  5
336
  8
DETAIL
  6
CONTINUOUS
 10
587.143017
 20
139.015469
 30
0.0
  0
VERTEX
  5
337
  8
DETAIL
  6
CONTINUOUS
 10
588.061056
 20
139.038289
 30
0.0
  0
VERTEX
  5
338
  8
DETAIL
  6
CONTINUOUS
 10
588.958243
 20
139.264095
 30
0.0
  0
VERTEX
  5
339
  8
DETAIL
  6
CONTINUOUS
 10
589.801234
 20
139.684494
 30
0.0
  0
VERTEX
  5
33A
  8
DETAIL
  6
CONTINUOUS
 10
590.5587
 20
140.283863
 30
0.0
  0
VERTEX
  5
33B
  8
DETAIL
  6
CONTINUOUS
 10
591.202488
 20
141.039926
 30
0.0
  0
VERTEX
  5
33C
  8
DETAIL
  6
CONTINUOUS
 10
591.708672
 20
141.924583
 30
0.0
  0
VERTEX
  5
33D
  8
DETAIL
  6
CONTINUOUS
 10
592.05844
 20
142.904956
 30
0.0
  0
VERTEX
  5
33E
  8
DETAIL
  6
CONTINUOUS
 10
592.238793
 20
143.944609
 30
0.0
  0
VERTEX
  5
33F
  8
DETAIL
  6
CONTINUOUS
 10
592.243027
 20
145.004903
 30
0.0
  0
VERTEX
  5
340
  8
DETAIL
  6
CONTINUOUS
 10
592.070986
 20
146.046433
 30
0.0
  0
VERTEX
  5
341
  8
DETAIL
  6
CONTINUOUS
 10
591.729063
 20
147.030488
 30
0.0
  0
VERTEX
  5
342
  8
DETAIL
  6
CONTINUOUS
 10
591.229966
 20
147.920498
 30
0.0
  0
VERTEX
  5
343
  8
DETAIL
  6
CONTINUOUS
 10
590.592244
 20
148.683385
 30
0.0
  0
VERTEX
  5
344
  8
DETAIL
  6
CONTINUOUS
 10
589.839598
 20
149.290794
 30
0.0
  0
VERTEX
  5
345
  8
DETAIL
  6
CONTINUOUS
 10
589.0
 20
149.720153
 30
0.0
  0
SEQEND
  5
346
  8
DETAIL
  6
CONTINUOUS
  0
LINE
  5
347
  8
DETAIL
  6
CONTINUOUS
 10
553.0
 20
143.0
 30
0.0
 11
553.0
 21
188.5
 31
0.0
  0
LINE
  5
348
  8
DETAIL
  6
CONTINUOUS
 10
539.5
 20
188.5
 30
0.0
 11
539.5
 21
192.0
 31
0.0
  0
ARC
  5
349
  8
DETAIL
  6
CONTINUOUS
 10
557.0
 20
143.0
 30
0.0
 40
4.0
 50
180.0
 51
270.0
  0
LINE
  5
34A
  8
DETAIL
  6
CONTINUOUS
 10
535.0
 20
192.0
 30
0.0
 11
527.0
 21
200.0
 31
0.0
  0
LINE
  5
34B
  8
DETAIL
  6
CONTINUOUS
 10
607.0
 20
192.0
 30
0.0
 11
615.0
 21
200.0
 31
0.0
  0
LINE
  5
34C
  8
DETAIL
  6
CONTINUOUS
 10
585.0
 20
139.0
 30
0.0
 11
557.0
 21
139.0
 31
0.0
  0
LINE
  5
34D
  8
DETAIL
  6
CONTINUOUS
 10
-80.0
 20
1870.0
 30
0.0
 11
-80.0
 21
1915.0
 31
0.0
  0
LINE
  5
34E
  8
DETAIL
  6
CONTINUOUS
 10
-78.8
 20
1915.0
 30
0.0
 11
-80.0
 21
1915.0
 31
0.0
  0
LINE
  5
34F
  8
DETAIL
  6
CONTINUOUS
 10
-78.8
 20
1871.2
 30
0.0
 11
-78.8
 21
1915.0
 31
0.0
  0
LINE
  5
350
  8
DETAIL
  6
CONTINUOUS
 10
62.0
 20
1871.2
 30
0.0
 11
-78.8
 21
1871.2
 31
0.0
  0
LINE
  5
351
  8
DETAIL
  6
CONTINUOUS
 10
62.0
 20
1871.2
 30
0.0
 11
62.0
 21
1870.0
 31
0.0
  0
LINE
  5
352
  8
DETAIL
  6
CONTINUOUS
 10
62.0
 20
1870.0
 30
0.0
 11
-80.0
 21
1870.0
 31
0.0
  0
LINE
  5
353
  8
DETAIL
  6
CONTINUOUS
 10
664.0
 20
200.0
 30
0.0
 11
664.0
 21
189.5
 31
0.0
  0
LINE
  5
354
  8
DETAIL
  6
CONTINUOUS
 10
627.3125
 20
155.5
 30
0.0
 11
626.375
 21
170.5
 31
0.0
  0
LINE
  5
355
  8
DETAIL
  6
CONTINUOUS
 10
627.3125
 20
155.5
 30
0.0
 11
652.6875
 21
155.5
 31
0.0
  0
LINE
  5
356
  8
DETAIL
  6
CONTINUOUS
 10
652.6875
 20
155.5
 30
0.0
 11
653.625
 21
170.5
 31
0.0
  0
LINE
  5
357
  8
DETAIL
  6
CONTINUOUS
 10
622.216945
 20
170.5
 30
0.0
 11
657.783055
 21
170.5
 31
0.0
  0
LINE
  5
358
  8
DETAIL
  6
CONTINUOUS
 10
657.783055
 20
185.0
 30
0.0
 11
657.783055
 21
170.5
 31
0.0
  0
LINE
  5
359
  8
DETAIL
  6
CONTINUOUS
 10
622.216945
 20
185.0
 30
0.0
 11
622.216945
 21
170.5
 31
0.0
  0
ARC
  5
35A
  8
DETAIL
  6
CONTINUOUS
 10
634.181107
 20
171.0
 30
0.0
 40
0.5
 50
180.0
 51
270.0
  0
LINE
  5
35B
  8
DETAIL
  6
CONTINUOUS
 10
616.0
 20
200.0
 30
0.0
 11
616.0
 21
189.5
 31
0.0
  0
LINE
  5
35C
  8
DETAIL
  6
CONTINUOUS
 10
620.0
 20
185.5
 30
0.0
 11
616.0
 21
189.5
 31
0.0
  0
LINE
  5
35D
  8
DETAIL
  6
CONTINUOUS
 10
620.0
 20
185.5
 30
0.0
 11
660.0
 21
185.5
 31
0.0
  0
LINE
  5
35E
  8
DETAIL
  6
CONTINUOUS
 10
660.0
 20
185.5
 30
0.0
 11
664.0
 21
189.5
 31
0.0
  0
LINE
  5
35F
  8
DETAIL
  6
CONTINUOUS
 10
664.0
 20
189.5
 30
0.0
 11
616.0
 21
189.5
 31
0.0
  0
LINE
  5
360
  8
DETAIL
  6
CONTINUOUS
 10
720.0
 20
1843.0
 30
0.0
 11
0.0
 21
1843.0
 31
0.0
  0
LINE
  5
361
  8
DETAIL
  6
CONTINUOUS
 10
700.0
 20
200.0
 30
0.0
 11
700.0
 21
1843.0
 31
0.0
  0
LINE
  5
362
  8
DETAIL
  6
CONTINUOUS
 10
56.0
 20
18.0
 30
0.0
 11
56.0
 21
0.0
 31
0.0
  0
LINE
  5
363
  8
DETAIL
  6
CONTINUOUS
 10
126.0
 20
18.0
 30
0.0
 11
56.0
 21
18.0
 31
0.0
  0
LINE
  5
364
  8
DETAIL
  6
CONTINUOUS
 10
126.0
 20
18.0
 30
0.0
 11
126.0
 21
10.0
 31
0.0
  0
LINE
  5
365
  8
DETAIL
  6
CONTINUOUS
 10
126.0
 20
10.0
 30
0.0
 11
96.0
 21
6.0
 31
0.0
  0
LINE
  5
366
  8
DETAIL
  6
CONTINUOUS
 10
96.0
 20
6.0
 30
0.0
 11
96.0
 21
0.0
 31
0.0
  0
LINE
  5
367
  8
DETAIL
  6
CONTINUOUS
 10
170.5
 20
1870.0
 30
0.0
 11
170.5
 21
1900.0
 31
0.0
  0
LINE
  5
368
  8
DETAIL
  6
CONTINUOUS
 10
190.5
 20
1870.0
 30
0.0
 11
190.5
 21
1900.0
 31
0.0
  0
LINE
  5
369
  8
DETAIL
  6
CONTINUOUS
 10
190.5
 20
1900.0
 30
0.0
 11
170.5
 21
1900.0
 31
0.0
  0
LINE
  5
36A
  8
DETAIL
  6
CONTINUOUS
 10
96.0
 20
3.2
 30
0.0
 11
56.0
 21
3.2
 31
0.0
  0
LINE
  5
36B
  8
DETAIL
  6
CONTINUOUS
 10
96.0
 20
0.0
 30
0.0
 11
56.0
 21
0.0
 31
0.0
  0
LINE
  5
36C
  8
DETAIL
  6
CONTINUOUS
 10
730.0
 20
1870.0
 30
0.0
 11
0.0
 21
1870.0
 31
0.0
  0
LINE
  5
36D
  8
DETAIL
  6
CONTINUOUS
 10
730.0
 20
1870.0
 30
0.0
 11
730.0
 21
1843.0
 31
0.0
  0
LINE
  5
36E
  8
DETAIL
  6
CONTINUOUS
 10
0.0
 20
1870.0
 30
0.0
 11
0.0
 21
200.0
 31
0.0
  0
LINE
  5
36F
  8
DETAIL
  6
CONTINUOUS
 10
720.0
 20
200.0
 30
0.0
 11
720.0
 21
1843.0
 31
0.0
  0
LINE
  5
370
  8
DETAIL
  6
CONTINUOUS
 10
720.0
 20
200.0
 30
0.0
 11
0.0
 21
200.0
 31
0.0
  0
LINE
  5
371
  8
DETAIL
  6
CONTINUOUS
 10
102.0
 20
0.0
 30
0.0
 11
102.0
 21
10.0
 31
0.0
  0
LINE
  5
372
  8
DETAIL
  6
CONTINUOUS
 10
96.0
 20
3.2
 30
0.0
 11
101.874682
 21
3.2
 31
0.0
  0
LINE
  5
373
  8
DETAIL
  6
CONTINUOUS
 10
96.0
 20
0.0
 30
0.0
 11
96.0
 21
3.2
 31
0.0
  0
ARC
  5
374
  8
DETAIL
  6
CONTINUOUS
 10
112.0
 20
10.0
 30
0.0
 40
10.0
 50
90.0
 51
180.0
  0
LINE
  5
375
  8
DETAIL
  6
CONTINUOUS
 10
112.0
 20
20.0
 30
0.0
 11
140.499682
 21
20.0
 31
0.0
  0
LINE
  5
376
  8
DETAIL
  6
CONTINUOUS
 10
140.499682
 20
200.0
 30
0.0
 11
140.499682
 21
20.0
 31
0.0
  0
ARC
  5
377
  8
DETAIL
  6
CONTINUOUS
 10
226.0
 20
10.0
 30
0.0
 40
10.0
 50
0.0
 51
90.0
  0
LINE
  5
378
  8
DETAIL
  6
CONTINUOUS
 10
236.0
 20
10.0
 30
0.0
 11
236.0
 21
0.0
 31
0.0
  0
LINE
  5
379
  8
DETAIL
  6
CONTINUOUS
 10
96.0
 20
0.0
 30
0.0
 11
236.0
 21
0.0
 31
0.0
  0
LINE
  5
37A
  8
DETAIL
  6
CONTINUOUS
 10
200.499682
 20
20.0
 30
0.0
 11
226.0
 21
20.0
 31
0.0
  0
LINE
  5
37B
  8
DETAIL
  6
CONTINUOUS
 10
200.499682
 20
20.0
 30
0.0
 11
200.499682
 21
200.0
 31
0.0
  0
LINE
  5
37C
  8
DETAIL
  6
CONTINUOUS
 10
532.0
 20
0.0
 30
0.0
 11
532.0
 21
10.0
 31
0.0
  0
LINE
  5
37D
  8
DETAIL
  6
CONTINUOUS
 10
526.0
 20
3.2
 30
0.0
 11
531.874682
 21
3.2
 31
0.0
  0
LINE
  5
37E
  8
DETAIL
  6
CONTINUOUS
 10
526.0
 20
0.0
 30
0.0
 11
526.0
 21
3.2
 31
0.0
  0
ARC
  5
37F
  8
DETAIL
  6
CONTINUOUS
 10
542.0
 20
10.0
 30
0.0
 40
10.0
 50
90.0
 51
180.0
  0
LINE
  5
380
  8
DETAIL
  6
CONTINUOUS
 10
542.0
 20
20.0
 30
0.0
 11
570.499682
 21
20.0
 31
0.0
  0
LINE
  5
381
  8
DETAIL
  6
CONTINUOUS
 10
570.499682
 20
139.0
 30
0.0
 11
570.499682
 21
20.0
 31
0.0
  0
ARC
  5
382
  8
DETAIL
  6
CONTINUOUS
 10
656.0
 20
10.0
 30
0.0
 40
10.0
 50
0.0
 51
90.0
  0
LINE
  5
383
  8
DETAIL
  6
CONTINUOUS
 10
666.0
 20
10.0
 30
0.0
 11
666.0
 21
0.0
 31
0.0
  0
LINE
  5
384
  8
DETAIL
  6
CONTINUOUS
 10
526.0
 20
0.0
 30
0.0
 11
666.0
 21
0.0
 31
0.0
  0
LINE
  5
385
  8
DETAIL
  6
CONTINUOUS
 10
630.499682
 20
20.0
 30
0.0
 11
656.0
 21
20.0
 31
0.0
  0
LINE
  5
386
  8
DETAIL
  6
CONTINUOUS
 10
630.499682
 20
20.0
 30
0.0
 11
630.499682
 21
155.5
 31
0.0
  0
LINE
  5
387
  8
DETAIL
  6
CONTINUOUS
 10
730.0
 20
1843.0
 30
0.0
 11
720.0
 21
1843.0
 31
0.0
  0
LINE
  5
388
  8
DETAIL
  6
CONTINUOUS
 10
96.0
 20
0.0
 30
0.0
 11
56.0
 21
0.0
 31
0.0
  0
LINE
  5
389
  8
DETAIL
  6
CONTINUOUS
 10
96.0
 20
3.2
 30
0.0
 11
56.0
 21
3.2
 31
0.0
  0
LINE
  5
38A
  8
DETAIL
  6
CONTINUOUS
 10
190.5
 20
1900.0
 30
0.0
 11
170.5
 21
1900.0
 31
0.0
  0
LINE
  5
38B
  8
DETAIL
  6
CONTINUOUS
 10
190.5
 20
1870.0
 30
0.0
 11
190.5
 21
1900.0
 31
0.0
  0
LINE
  5
38C
  8
DETAIL
  6
CONTINUOUS
 10
170.5
 20
1870.0
 30
0.0
 11
170.5
 21
1900.0
 31
0.0
  0
LINE
  5
38D
  8
DETAIL
  6
CONTINUOUS
 10
727.5
 20
1672.0
 30
0.0
 11
727.5
 21
1802.0
 31
0.0
  0
LINE
  5
38E
  8
DETAIL
  6
CONTINUOUS
 10
735.0
 20
1683.0
 30
0.0
 11
735.0
 21
1694.0
 31
0.0
  0
LINE
  5
38F
  8
DETAIL
  6
CONTINUOUS
 10
727.5
 20
1683.0
 30
0.0
 11
735.0
 21
1683.0
 31
0.0
  0
LINE
  5
390
  8
DETAIL
  6
CONTINUOUS
 10
727.5
 20
1694.0
 30
0.0
 11
735.0
 21
1694.0
 31
0.0
  0
LINE
  5
391
  8
DETAIL
  6
CONTINUOUS
 10
720.0
 20
1802.0
 30
0.0
 11
727.5
 21
1802.0
 31
0.0
  0
LINE
  5
392
  8
DETAIL
  6
CONTINUOUS
 10
720.0
 20
1672.0
 30
0.0
 11
727.5
 21
1672.0
 31
0.0
  0
LINE
  5
393
  8
DETAIL
  6
CONTINUOUS
 10
727.5
 20
233.0
 30
0.0
 11
727.5
 21
363.0
 31
0.0
  0
LINE
  5
394
  8
DETAIL
  6
CONTINUOUS
 10
735.0
 20
244.0
 30
0.0
 11
735.0
 21
255.0
 31
0.0
  0
LINE
  5
395
  8
DETAIL
  6
CONTINUOUS
 10
720.0
 20
233.0
 30
0.0
 11
727.5
 21
233.0
 31
0.0
  0
LINE
  5
396
  8
DETAIL
  6
CONTINUOUS
 10
720.0
 20
363.0
 30
0.0
 11
727.5
 21
363.0
 31
0.0
  0
LINE
  5
397
  8
DETAIL
  6
CONTINUOUS
 10
727.5
 20
255.0
 30
0.0
 11
735.0
 21
255.0
 31
0.0
  0
LINE
  5
398
  8
DETAIL
  6
CONTINUOUS
 10
727.5
 20
244.0
 30
0.0
 11
735.0
 21
244.0
 31
0.0
  0
LINE
  5
399
  8
DETAIL
  6
CONTINUOUS
 10
96.0
 20
6.0
 30
0.0
 11
96.0
 21
0.0
 31
0.0
  0
LINE
  5
39A
  8
DETAIL
  6
CONTINUOUS
 10
126.0
 20
10.0
 30
0.0
 11
96.0
 21
6.0
 31
0.0
  0
LINE
  5
39B
  8
DETAIL
  6
CONTINUOUS
 10
126.0
 20
18.0
 30
0.0
 11
126.0
 21
10.0
 31
0.0
  0
LINE
  5
39C
  8
DETAIL
  6
CONTINUOUS
 10
126.0
 20
18.0
 30
0.0
 11
56.0
 21
18.0
 31
0.0
  0
LINE
  5
39D
  8
DETAIL
  6
CONTINUOUS
 10
56.0
 20
18.0
 30
0.0
 11
56.0
 21
0.0
 31
0.0
  0
LINE
  5
39E
  8
DETAIL
  6
CONTINUOUS
 10
700.0
 20
200.0
 30
0.0
 11
700.0
 21
1843.0
 31
0.0
  0
LINE
  5
39F
  8
DETAIL
  6
CONTINUOUS
 10
720.0
 20
1843.0
 30
0.0
 11
0.0
 21
1843.0
 31
0.0
  0
LINE
  5
3A0
  8
DETAIL
  6
CONTINUOUS
 10
664.0
 20
189.5
 30
0.0
 11
616.0
 21
189.5
 31
0.0
  0
LINE
  5
3A1
  8
DETAIL
  6
CONTINUOUS
 10
660.0
 20
185.5
 30
0.0
 11
664.0
 21
189.5
 31
0.0
  0
LINE
  5
3A2
  8
DETAIL
  6
CONTINUOUS
 10
620.0
 20
185.5
 30
0.0
 11
660.0
 21
185.5
 31
0.0
  0
LINE
  5
3A3
  8
DETAIL
  6
CONTINUOUS
 10
620.0
 20
185.5
 30
0.0
 11
616.0
 21
189.5
 31
0.0
  0
LINE
  5
3A4
  8
DETAIL
  6
CONTINUOUS
 10
616.0
 20
200.0
 30
0.0
 11
616.0
 21
189.5
 31
0.0
  0
ARC
  5
3A5
  8
DETAIL
  6
CONTINUOUS
 10
634.181107
 20
171.0
 30
0.0
 40
0.5
 50
180.0
 51
270.0
  0
LINE
  5
3A6
  8
DETAIL
  6
CONTINUOUS
 10
622.216945
 20
185.0
 30
0.0
 11
622.216945
 21
170.5
 31
0.0
  0
LINE
  5
3A7
  8
DETAIL
  6
CONTINUOUS
 10
657.783055
 20
185.0
 30
0.0
 11
657.783055
 21
170.5
 31
0.0
  0
LINE
  5
3A8
  8
DETAIL
  6
CONTINUOUS
 10
622.216945
 20
170.5
 30
0.0
 11
657.783055
 21
170.5
 31
0.0
  0
LINE
  5
3A9
  8
DETAIL
  6
CONTINUOUS
 10
652.6875
 20
155.5
 30
0.0
 11
653.625
 21
170.5
 31
0.0
  0
LINE
  5
3AA
  8
DETAIL
  6
CONTINUOUS
 10
627.3125
 20
155.5
 30
0.0
 11
652.6875
 21
155.5
 31
0.0
  0
LINE
  5
3AB
  8
DETAIL
  6
CONTINUOUS
 10
627.3125
 20
155.5
 30
0.0
 11
626.375
 21
170.5
 31
0.0
  0
LINE
  5
3AC
  8
DETAIL
  6
CONTINUOUS
 10
664.0
 20
200.0
 30
0.0
 11
664.0
 21
189.5
 31
0.0
  0
LINE
  5
3AD
  8
DETAIL
  6
CONTINUOUS
 10
62.0
 20
1870.0
 30
0.0
 11
-80.0
 21
1870.0
 31
0.0
  0
LINE
  5
3AE
  8
DETAIL
  6
CONTINUOUS
 10
62.0
 20
1871.2
 30
0.0
 11
62.0
 21
1870.0
 31
0.0
  0
LINE
  5
3AF
  8
DETAIL
  6
CONTINUOUS
 10
62.0
 20
1871.2
 30
0.0
 11
-78.8
 21
1871.2
 31
0.0
  0
LINE
  5
3B0
  8
DETAIL
  6
CONTINUOUS
 10
-78.8
 20
1871.2
 30
0.0
 11
-78.8
 21
1915.0
 31
0.0
  0
LINE
  5
3B1
  8
DETAIL
  6
CONTINUOUS
 10
-78.8
 20
1915.0
 30
0.0
 11
-80.0
 21
1915.0
 31
0.0
  0
LINE
  5
3B2
  8
DETAIL
  6
CONTINUOUS
 10
-80.0
 20
1870.0
 30
0.0
 11
-80.0
 21
1915.0
 31
0.0
  0
LINE
  5
3B3
  8
SIZE
  6
CONTINUOUS
 62
    30
 10
740.0
 20
0.0
 30
0.0
 11
990.1
 21
0.0
 31
0.0
  0
LINE
  5
3B4
  8
SIZE
  6
CONTINUOUS
 62
    30
 10
706.0
 20
168.0
 30
0.0
 11
990.1
 21
168.0
 31
0.0
  0
LINE
  5
3B5
  8
SIZE
  6
CONTINUOUS
 62
    30
 10
977.6
 20
10.0
 30
0.0
 11
977.6
 21
158.0
 31
0.0
  0
CIRCLE
  5
3B6
  8
SIZE
  6
CONTINUOUS
 62
    30
 10
977.6
 20
0.0
 30
0.0
 40
5.0
  0
LINE
  5
3B7
  8
SIZE
  6
CONTINUOUS
 62
    30
 10
977.6
 20
0.0
 30
0.0
 11
977.6
 21
10.0
 31
0.0
  0
CIRCLE
  5
3B8
  8
SIZE
  6
CONTINUOUS
 62
    30
 10
977.6
 20
168.0
 30
0.0
 40
5.0
  0
LINE
  5
3B9
  8
SIZE
  6
CONTINUOUS
 62
    30
 10
977.6
 20
168.0
 30
0.0
 11
977.6
 21
158.0
 31
0.0
  0
TEXT
  5
3BA
  8
SIZE
  6
CONTINUOUS
 62
    30
 10
967.6
 20
49.0
 30
0.0
 40
30.0
  1
168
 50
90.0
 72
     1
 11
967.6
 21
84.0
 31
0.0
  0
POINT
  5
3BB
  8
DEFPOINTS
  6
CONTINUOUS
 62
    30
 10
730.0
 20
0.0
 30
0.0
  0
POINT
  5
3BC
  8
DEFPOINTS
  6
CONTINUOUS
 62
    30
 10
696.0
 20
168.0
 30
0.0
  0
POINT
  5
3BD
  8
DEFPOINTS
  6
CONTINUOUS
 62
    30
 10
977.6
 20
168.0
 30
0.0
  0
LINE
  5
3BE
  8
SIZE
  6
CONTINUOUS
 62
    30
 10
730.0
 20
-10.0
 30
0.0
 11
730.0
 21
-160.1
 31
0.0
  0
LINE
  5
3BF
  8
SIZE
  6
CONTINUOUS
 62
    30
 10
676.0
 20
138.0
 30
0.0
 11
676.0
 21
-160.1
 31
0.0
  0
LINE
  5
3C0
  8
SIZE
  6
CONTINUOUS
 62
    30
 10
720.0
 20
-147.6
 30
0.0
 11
686.0
 21
-147.6
 31
0.0
  0
CIRCLE
  5
3C1
  8
SIZE
  6
CONTINUOUS
 62
    30
 10
730.0
 20
-147.6
 30
0.0
 40
5.0
  0
LINE
  5
3C2
  8
SIZE
  6
CONTINUOUS
 62
    30
 10
730.0
 20
-147.6
 30
0.0
 11
720.0
 21
-147.6
 31
0.0
  0
CIRCLE
  5
3C3
  8
SIZE
  6
CONTINUOUS
 62
    30
 10
676.0
 20
-147.6
 30
0.0
 40
5.0
  0
LINE
  5
3C4
  8
SIZE
  6
CONTINUOUS
 62
    30
 10
676.0
 20
-147.6
 30
0.0
 11
686.0
 21
-147.6
 31
0.0
  0
TEXT
  5
3C5
  8
SIZE
  6
CONTINUOUS
 62
    30
 10
678.0
 20
-137.6
 30
0.0
 40
30.0
  1
54
 72
     1
 11
703.0
 21
-137.6
 31
0.0
  0
POINT
  5
3C6
  8
DEFPOINTS
  6
CONTINUOUS
 62
    30
 10
730.0
 20
0.0
 30
0.0
  0
POINT
  5
3C7
  8
DEFPOINTS
  6
CONTINUOUS
 62
    30
 10
676.0
 20
148.0
 30
0.0
  0
POINT
  5
3C8
  8
DEFPOINTS
  6
CONTINUOUS
 62
    30
 10
676.0
 20
-147.6
 30
0.0
  0
LINE
  5
3C9
  8
SIZE
  6
CONTINUOUS
 62
    30
 10
730.0
 20
1802.0
 30
0.0
 11
1190.1
 21
1802.0
 31
0.0
  0
LINE
  5
3CA
  8
SIZE
  6
CONTINUOUS
 62
    30
 10
737.5
 20
1672.0
 30
0.0
 11
1190.1
 21
1672.0
 31
0.0
  0
LINE
  5
3CB
  8
SIZE
  6
CONTINUOUS
 62
    30
 10
1177.6
 20
1792.0
 30
0.0
 11
1177.6
 21
1682.0
 31
0.0
  0
CIRCLE
  5
3CC
  8
SIZE
  6
CONTINUOUS
 62
    30
 10
1177.6
 20
1802.0
 30
0.0
 40
5.0
  0
LINE
  5
3CD
  8
SIZE
  6
CONTINUOUS
 62
    30
 10
1177.6
 20
1802.0
 30
0.0
 11
1177.6
 21
1792.0
 31
0.0
  0
CIRCLE
  5
3CE
  8
SIZE
  6
CONTINUOUS
 62
    30
 10
1177.6
 20
1672.0
 30
0.0
 40
5.0
  0
LINE
  5
3CF
  8
SIZE
  6
CONTINUOUS
 62
    30
 10
1177.6
 20
1672.0
 30
0.0
 11
1177.6
 21
1682.0
 31
0.0
  0
TEXT
  5
3D0
  8
SIZE
  6
CONTINUOUS
 62
    30
 10
1167.6
 20
1704.5
 30
0.0
 40
30.0
  1
130
 50
90.0
 72
     1
 11
1167.6
 21
1737.0
 31
0.0
  0
POINT
  5
3D1
  8
DEFPOINTS
  6
CONTINUOUS
 62
    30
 10
720.0
 20
1802.0
 30
0.0
  0
POINT
  5
3D2
  8
DEFPOINTS
  6
CONTINUOUS
 62
    30
 10
727.5
 20
1672.0
 30
0.0
  0
POINT
  5
3D3
  8
DEFPOINTS
  6
CONTINUOUS
 62
    30
 10
1177.6
 20
1672.0
 30
0.0
  0
LINE
  5
3D4
  8
SIZE
  6
CONTINUOUS
 62
    30
 10
737.5
 20
1672.0
 30
0.0
 11
1290.1
 21
1672.0
 31
0.0
  0
LINE
  5
3D5
  8
SIZE
  6
CONTINUOUS
 62
    30
 10
1320.0
 20
0.0
 30
0.0
 11
1265.1
 21
0.0
 31
0.0
  0
LINE
  5
3D6
  8
SIZE
  6
CONTINUOUS
 62
    30
 10
1277.6
 20
1662.0
 30
0.0
 11
1277.6
 21
10.0
 31
0.0
  0
CIRCLE
  5
3D7
  8
SIZE
  6
CONTINUOUS
 62
    30
 10
1277.6
 20
1672.0
 30
0.0
 40
5.0
  0
LINE
  5
3D8
  8
SIZE
  6
CONTINUOUS
 62
    30
 10
1277.6
 20
1672.0
 30
0.0
 11
1277.6
 21
1662.0
 31
0.0
  0
CIRCLE
  5
3D9
  8
SIZE
  6
CONTINUOUS
 62
    30
 10
1277.6
 20
0.0
 30
0.0
 40
5.0
  0
LINE
  5
3DA
  8
SIZE
  6
CONTINUOUS
 62
    30
 10
1277.6
 20
0.0
 30
0.0
 11
1277.6
 21
10.0
 31
0.0
  0
TEXT
  5
3DB
  8
SIZE
  6
CONTINUOUS
 62
    30
 10
1267.6
 20
786.0
 30
0.0
 40
30.0
  1
1672
 50
90.0
 72
     1
 11
1267.6
 21
836.0
 31
0.0
  0
POINT
  5
3DC
  8
DEFPOINTS
  6
CONTINUOUS
 62
    30
 10
727.5
 20
1672.0
 30
0.0
  0
POINT
  5
3DD
  8
DEFPOINTS
  6
CONTINUOUS
 62
    30
 10
1330.0
 20
0.0
 30
0.0
  0
POINT
  5
3DE
  8
DEFPOINTS
  6
CONTINUOUS
 62
    30
 10
1277.6
 20
0.0
 30
0.0
  0
LINE
  5
3DF
  8
SIZE
  6
CONTINUOUS
 62
    30
 10
737.5
 20
1245.0
 30
0.0
 11
1190.1
 21
1245.0
 31
0.0
  0
LINE
  5
3E0
  8
SIZE
  6
CONTINUOUS
 62
    30
 10
737.5
 20
1115.0
 30
0.0
 11
1190.1
 21
1115.0
 31
0.0
  0
LINE
  5
3E1
  8
SIZE
  6
CONTINUOUS
 62
    30
 10
1177.6
 20
1235.0
 30
0.0
 11
1177.6
 21
1125.0
 31
0.0
  0
CIRCLE
  5
3E2
  8
SIZE
  6
CONTINUOUS
 62
    30
 10
1177.6
 20
1245.0
 30
0.0
 40
5.0
  0
LINE
  5
3E3
  8
SIZE
  6
CONTINUOUS
 62
    30
 10
1177.6
 20
1245.0
 30
0.0
 11
1177.6
 21
1235.0
 31
0.0
  0
CIRCLE
  5
3E4
  8
SIZE
  6
CONTINUOUS
 62
    30
 10
1177.6
 20
1115.0
 30
0.0
 40
5.0
  0
LINE
  5
3E5
  8
SIZE
  6
CONTINUOUS
 62
    30
 10
1177.6
 20
1115.0
 30
0.0
 11
1177.6
 21
1125.0
 31
0.0
  0
TEXT
  5
3E6
  8
SIZE
  6
CONTINUOUS
 62
    30
 10
1167.6
 20
1147.5
 30
0.0
 40
30.0
  1
130
 50
90.0
 72
     1
 11
1167.6
 21
1180.0
 31
0.0
  0
POINT
  5
3E7
  8
DEFPOINTS
  6
CONTINUOUS
 62
    30
 10
727.5
 20
1245.0
 30
0.0
  0
POINT
  5
3E8
  8
DEFPOINTS
  6
CONTINUOUS
 62
    30
 10
727.5
 20
1115.0
 30
0.0
  0
POINT
  5
3E9
  8
DEFPOINTS
  6
CONTINUOUS
 62
    30
 10
1177.6
 20
1115.0
 30
0.0
  0
LINE
  5
3EA
  8
SIZE
  6
CONTINUOUS
 62
    30
 10
737.5
 20
1115.0
 30
0.0
 11
1190.1
 21
1115.0
 31
0.0
  0
LINE
  5
3EB
  8
SIZE
  6
CONTINUOUS
 62
    30
 10
1320.0
 20
0.0
 30
0.0
 11
1165.1
 21
0.0
 31
0.0
  0
LINE
  5
3EC
  8
SIZE
  6
CONTINUOUS
 62
    30
 10
1177.6
 20
1105.0
 30
0.0
 11
1177.6
 21
10.0
 31
0.0
  0
CIRCLE
  5
3ED
  8
SIZE
  6
CONTINUOUS
 62
    30
 10
1177.6
 20
1115.0
 30
0.0
 40
5.0
  0
LINE
  5
3EE
  8
SIZE
  6
CONTINUOUS
 62
    30
 10
1177.6
 20
1115.0
 30
0.0
 11
1177.6
 21
1105.0
 31
0.0
  0
CIRCLE
  5
3EF
  8
SIZE
  6
CONTINUOUS
 62
    30
 10
1177.6
 20
0.0
 30
0.0
 40
5.0
  0
LINE
  5
3F0
  8
SIZE
  6
CONTINUOUS
 62
    30
 10
1177.6
 20
0.0
 30
0.0
 11
1177.6
 21
10.0
 31
0.0
  0
TEXT
  5
3F1
  8
SIZE
  6
CONTINUOUS
 62
    30
 10
1167.6
 20
369.981811
 30
0.0
 40
30.0
  1
1115
 50
90.0
 72
     1
 11
1167.6
 21
409.981811
 31
0.0
  0
POINT
  5
3F2
  8
DEFPOINTS
  6
CONTINUOUS
 62
    30
 10
727.5
 20
1115.0
 30
0.0
  0
POINT
  5
3F3
  8
DEFPOINTS
  6
CONTINUOUS
 62
    30
 10
1330.0
 20
0.0
 30
0.0
  0
POINT
  5
3F4
  8
DEFPOINTS
  6
CONTINUOUS
 62
    30
 10
1177.6
 20
0.0
 30
0.0
  0
LINE
  5
3F5
  8
SIZE
  6
CONTINUOUS
 62
    30
 10
737.5
 20
233.0
 30
0.0
 11
1090.1
 21
233.0
 31
0.0
  0
LINE
  5
3F6
  8
SIZE
  6
CONTINUOUS
 62
    30
 10
740.0
 20
0.0
 30
0.0
 11
1090.1
 21
0.0
 31
0.0
  0
LINE
  5
3F7
  8
SIZE
  6
CONTINUOUS
 62
    30
 10
1077.6
 20
223.0
 30
0.0
 11
1077.6
 21
10.0
 31
0.0
  0
CIRCLE
  5
3F8
  8
SIZE
  6
CONTINUOUS
 62
    30
 10
1077.6
 20
233.0
 30
0.0
 40
5.0
  0
LINE
  5
3F9
  8
SIZE
  6
CONTINUOUS
 62
    30
 10
1077.6
 20
233.0
 30
0.0
 11
1077.6
 21
223.0
 31
0.0
  0
CIRCLE
  5
3FA
  8
SIZE
  6
CONTINUOUS
 62
    30
 10
1077.6
 20
0.0
 30
0.0
 40
5.0
  0
LINE
  5
3FB
  8
SIZE
  6
CONTINUOUS
 62
    30
 10
1077.6
 20
0.0
 30
0.0
 11
1077.6
 21
10.0
 31
0.0
  0
TEXT
  5
3FC
  8
SIZE
  6
CONTINUOUS
 62
    30
 10
1067.6
 20
76.5
 30
0.0
 40
30.0
  1
233
 50
90.0
 72
     1
 11
1067.6
 21
116.5
 31
0.0
  0
POINT
  5
3FD
  8
DEFPOINTS
  6
CONTINUOUS
 62
    30
 10
727.5
 20
233.0
 30
0.0
  0
POINT
  5
3FE
  8
DEFPOINTS
  6
CONTINUOUS
 62
    30
 10
730.0
 20
0.0
 30
0.0
  0
POINT
  5
3FF
  8
DEFPOINTS
  6
CONTINUOUS
 62
    30
 10
1077.6
 20
0.0
 30
0.0
  0
LINE
  5
400
  8
SIZE
  6
CONTINUOUS
 62
    30
 10
737.5
 20
363.0
 30
0.0
 11
1090.1
 21
363.0
 31
0.0
  0
LINE
  5
401
  8
SIZE
  6
CONTINUOUS
 62
    30
 10
737.5
 20
233.0
 30
0.0
 11
1090.1
 21
233.0
 31
0.0
  0
LINE
  5
402
  8
SIZE
  6
CONTINUOUS
 62
    30
 10
1077.6
 20
353.0
 30
0.0
 11
1077.6
 21
243.0
 31
0.0
  0
CIRCLE
  5
403
  8
SIZE
  6
CONTINUOUS
 62
    30
 10
1077.6
 20
363.0
 30
0.0
 40
5.0
  0
LINE
  5
404
  8
SIZE
  6
CONTINUOUS
 62
    30
 10
1077.6
 20
363.0
 30
0.0
 11
1077.6
 21
353.0
 31
0.0
  0
CIRCLE
  5
405
  8
SIZE
  6
CONTINUOUS
 62
    30
 10
1077.6
 20
233.0
 30
0.0
 40
5.0
  0
LINE
  5
406
  8
SIZE
  6
CONTINUOUS
 62
    30
 10
1077.6
 20
233.0
 30
0.0
 11
1077.6
 21
243.0
 31
0.0
  0
TEXT
  5
407
  8
SIZE
  6
CONTINUOUS
 62
    30
 10
1067.6
 20
265.5
 30
0.0
 40
30.0
  1
130
 50
90.0
 72
     1
 11
1067.6
 21
298.0
 31
0.0
  0
POINT
  5
408
  8
DEFPOINTS
  6
CONTINUOUS
 62
    30
 10
727.5
 20
363.0
 30
0.0
  0
POINT
  5
409
  8
DEFPOINTS
  6
CONTINUOUS
 62
    30
 10
727.5
 20
233.0
 30
0.0
  0
POINT
  5
40A
  8
DEFPOINTS
  6
CONTINUOUS
 62
    30
 10
1077.6
 20
233.0
 30
0.0
  0
LINE
  5
40B
  8
SIZE
  6
CONTINUOUS
 62
    30
 10
516.0
 20
0.0
 30
0.0
 11
411.1
 21
0.0
 31
0.0
  0
LINE
  5
40C
  8
SIZE
  6
CONTINUOUS
 62
    30
 10
559.0
 20
172.5
 30
0.0
 11
411.1
 21
172.5
 31
0.0
  0
LINE
  5
40D
  8
SIZE
  6
CONTINUOUS
 62
    30
 10
423.6
 20
10.0
 30
0.0
 11
423.6
 21
162.5
 31
0.0
  0
CIRCLE
  5
40E
  8
SIZE
  6
CONTINUOUS
 62
    30
 10
423.6
 20
0.0
 30
0.0
 40
5.0
  0
LINE
  5
40F
  8
SIZE
  6
CONTINUOUS
 62
    30
 10
423.6
 20
0.0
 30
0.0
 11
423.6
 21
10.0
 31
0.0
  0
CIRCLE
  5
410
  8
SIZE
  6
CONTINUOUS
 62
    30
 10
423.6
 20
172.5
 30
0.0
 40
5.0
  0
LINE
  5
411
  8
SIZE
  6
CONTINUOUS
 62
    30
 10
423.6
 20
172.5
 30
0.0
 11
423.6
 21
162.5
 31
0.0
  0
TEXT
  5
412
  8
SIZE
  6
CONTINUOUS
 62
    30
 10
413.6
 20
51.25
 30
0.0
 40
30.0
  1
173
 50
90.0
 72
     1
 11
413.6
 21
86.25
 31
0.0
  0
POINT
  5
413
  8
DEFPOINTS
  6
CONTINUOUS
 62
    30
 10
526.0
 20
0.0
 30
0.0
  0
POINT
  5
414
  8
DEFPOINTS
  6
CONTINUOUS
 62
    30
 10
569.0
 20
172.5
 30
0.0
  0
POINT
  5
415
  8
DEFPOINTS
  6
CONTINUOUS
 62
    30
 10
423.6
 20
172.5
 30
0.0
  0
LINE
  5
416
  8
SIZE
  6
CONTINUOUS
 62
    30
 10
730.0
 20
-10.0
 30
0.0
 11
730.0
 21
-360.1
 31
0.0
  0
LINE
  5
417
  8
SIZE
  6
CONTINUOUS
 62
    30
 10
640.0
 20
125.5
 30
0.0
 11
640.0
 21
-360.1
 31
0.0
  0
LINE
  5
418
  8
SIZE
  6
CONTINUOUS
 62
    30
 10
720.0
 20
-347.6
 30
0.0
 11
650.0
 21
-347.6
 31
0.0
  0
CIRCLE
  5
419
  8
SIZE
  6
CONTINUOUS
 62
    30
 10
730.0
 20
-347.6
 30
0.0
 40
5.0
  0
LINE
  5
41A
  8
SIZE
  6
CONTINUOUS
 62
    30
 10
730.0
 20
-347.6
 30
0.0
 11
720.0
 21
-347.6
 31
0.0
  0
CIRCLE
  5
41B
  8
SIZE
  6
CONTINUOUS
 62
    30
 10
640.0
 20
-347.6
 30
0.0
 40
5.0
  0
LINE
  5
41C
  8
SIZE
  6
CONTINUOUS
 62
    30
 10
640.0
 20
-347.6
 30
0.0
 11
650.0
 21
-347.6
 31
0.0
  0
TEXT
  5
41D
  8
SIZE
  6
CONTINUOUS
 62
    30
 10
664.73053
 20
-337.6
 30
0.0
 40
30.0
  1
90
 72
     1
 11
687.23053
 21
-337.6
 31
0.0
  0
POINT
  5
41E
  8
DEFPOINTS
  6
CONTINUOUS
 62
    30
 10
730.0
 20
0.0
 30
0.0
  0
POINT
  5
41F
  8
DEFPOINTS
  6
CONTINUOUS
 62
    30
 10
640.0
 20
135.5
 30
0.0
  0
POINT
  5
420
  8
DEFPOINTS
  6
CONTINUOUS
 62
    30
 10
640.0
 20
-347.6
 30
0.0
  0
LINE
  5
421
  8
SIZE
  6
CONTINUOUS
 62
    30
 10
740.0
 20
0.0
 30
0.0
 11
890.1
 21
0.0
 31
0.0
  0
LINE
  5
422
  8
SIZE
  6
CONTINUOUS
 62
    30
 10
662.6875
 20
155.5
 30
0.0
 11
890.1
 21
155.5
 31
0.0
  0
LINE
  5
423
  8
SIZE
  6
CONTINUOUS
 62
    30
 10
877.6
 20
10.0
 30
0.0
 11
877.6
 21
145.5
 31
0.0
  0
CIRCLE
  5
424
  8
SIZE
  6
CONTINUOUS
 62
    30
 10
877.6
 20
0.0
 30
0.0
 40
5.0
  0
LINE
  5
425
  8
SIZE
  6
CONTINUOUS
 62
    30
 10
877.6
 20
0.0
 30
0.0
 11
877.6
 21
10.0
 31
0.0
  0
CIRCLE
  5
426
  8
SIZE
  6
CONTINUOUS
 62
    30
 10
877.6
 20
155.5
 30
0.0
 40
5.0
  0
LINE
  5
427
  8
SIZE
  6
CONTINUOUS
 62
    30
 10
877.6
 20
155.5
 30
0.0
 11
877.6
 21
145.5
 31
0.0
  0
TEXT
  5
428
  8
SIZE
  6
CONTINUOUS
 62
    30
 10
867.6
 20
42.75
 30
0.0
 40
30.0
  1
156
 50
90.0
 72
     1
 11
867.6
 21
77.75
 31
0.0
  0
POINT
  5
429
  8
DEFPOINTS
  6
CONTINUOUS
 62
    30
 10
730.0
 20
0.0
 30
0.0
  0
POINT
  5
42A
  8
DEFPOINTS
  6
CONTINUOUS
 62
    30
 10
652.6875
 20
155.5
 30
0.0
  0
POINT
  5
42B
  8
DEFPOINTS
  6
CONTINUOUS
 62
    30
 10
877.6
 20
155.5
 30
0.0
  0
LINE
  5
42C
  8
SIZE
  6
CONTINUOUS
 62
    30
 10
0.0
 20
2080.0
 30
0.0
 11
0.0
 21
2234.9
 31
0.0
  0
LINE
  5
42D
  8
SIZE
  6
CONTINUOUS
 62
    30
 10
730.0
 20
2080.0
 30
0.0
 11
730.0
 21
2234.9
 31
0.0
  0
LINE
  5
42E
  8
SIZE
  6
CONTINUOUS
 62
    30
 10
10.0
 20
2222.4
 30
0.0
 11
720.0
 21
2222.4
 31
0.0
  0
CIRCLE
  5
42F
  8
SIZE
  6
CONTINUOUS
 62
    30
 10
0.0
 20
2222.4
 30
0.0
 40
5.0
  0
LINE
  5
430
  8
SIZE
  6
CONTINUOUS
 62
    30
 10
0.0
 20
2222.4
 30
0.0
 11
10.0
 21
2222.4
 31
0.0
  0
CIRCLE
  5
431
  8
SIZE
  6
CONTINUOUS
 62
    30
 10
730.0
 20
2222.4
 30
0.0
 40
5.0
  0
LINE
  5
432
  8
SIZE
  6
CONTINUOUS
 62
    30
 10
730.0
 20
2222.4
 30
0.0
 11
720.0
 21
2222.4
 31
0.0
  0
TEXT
  5
433
  8
SIZE
  6
CONTINUOUS
 62
    30
 10
327.5
 20
2232.4
 30
0.0
 40
30.0
  1
730
 72
     1
 11
365.0
 21
2232.4
 31
0.0
  0
POINT
  5
434
  8
DEFPOINTS
  6
CONTINUOUS
 62
    30
 10
0.0
 20
2070.0
 30
0.0
  0
POINT
  5
435
  8
DEFPOINTS
  6
CONTINUOUS
 62
    30
 10
730.0
 20
2070.0
 30
0.0
  0
POINT
  5
436
  8
DEFPOINTS
  6
CONTINUOUS
 62
    30
 10
730.0
 20
2222.4
 30
0.0
  0
LINE
  5
437
  8
SIZE
  6
CONTINUOUS
 62
    30
 10
1330.0
 20
2080.0
 30
0.0
 11
1330.0
 21
2234.9
 31
0.0
  0
LINE
  5
438
  8
SIZE
  6
CONTINUOUS
 62
    30
 10
730.0
 20
2080.0
 30
0.0
 11
730.0
 21
2234.9
 31
0.0
  0
LINE
  5
439
  8
SIZE
  6
CONTINUOUS
 62
    30
 10
1320.0
 20
2222.4
 30
0.0
 11
740.0
 21
2222.4
 31
0.0
  0
CIRCLE
  5
43A
  8
SIZE
  6
CONTINUOUS
 62
    30
 10
1330.0
 20
2222.4
 30
0.0
 40
5.0
  0
LINE
  5
43B
  8
SIZE
  6
CONTINUOUS
 62
    30
 10
1330.0
 20
2222.4
 30
0.0
 11
1320.0
 21
2222.4
 31
0.0
  0
CIRCLE
  5
43C
  8
SIZE
  6
CONTINUOUS
 62
    30
 10
730.0
 20
2222.4
 30
0.0
 40
5.0
  0
LINE
  5
43D
  8
SIZE
  6
CONTINUOUS
 62
    30
 10
730.0
 20
2222.4
 30
0.0
 11
740.0
 21
2222.4
 31
0.0
  0
TEXT
  5
43E
  8
SIZE
  6
CONTINUOUS
 62
    30
 10
995.0
 20
2232.4
 30
0.0
 40
30.0
  1
600
 72
     1
 11
1030.0
 21
2232.4
 31
0.0
  0
POINT
  5
43F
  8
DEFPOINTS
  6
CONTINUOUS
 62
    30
 10
1330.0
 20
2070.0
 30
0.0
  0
POINT
  5
440
  8
DEFPOINTS
  6
CONTINUOUS
 62
    30
 10
730.0
 20
2070.0
 30
0.0
  0
POINT
  5
441
  8
DEFPOINTS
  6
CONTINUOUS
 62
    30
 10
730.0
 20
2222.4
 30
0.0
  0
LINE
  5
442
  8
SIZE
  6
CONTINUOUS
 62
    30
 10
0.0
 20
190.0
 30
0.0
 11
0.0
 21
-560.1
 31
0.0
  0
LINE
  5
443
  8
SIZE
  6
CONTINUOUS
 62
    30
 10
112.0
 20
-30.0
 30
0.0
 11
112.0
 21
-560.1
 31
0.0
  0
LINE
  5
444
  8
SIZE
  6
CONTINUOUS
 62
    30
 10
10.0
 20
-547.6
 30
0.0
 11
102.0
 21
-547.6
 31
0.0
  0
CIRCLE
  5
445
  8
SIZE
  6
CONTINUOUS
 62
    30
 10
0.0
 20
-547.6
 30
0.0
 40
5.0
  0
LINE
  5
446
  8
SIZE
  6
CONTINUOUS
 62
    30
 10
0.0
 20
-547.6
 30
0.0
 11
10.0
 21
-547.6
 31
0.0
  0
CIRCLE
  5
447
  8
SIZE
  6
CONTINUOUS
 62
    30
 10
112.0
 20
-547.6
 30
0.0
 40
5.0
  0
LINE
  5
448
  8
SIZE
  6
CONTINUOUS
 62
    30
 10
112.0
 20
-547.6
 30
0.0
 11
102.0
 21
-547.6
 31
0.0
  0
TEXT
  5
449
  8
SIZE
  6
CONTINUOUS
 62
    30
 10
26.0
 20
-537.6
 30
0.0
 40
30.0
  1
112
 72
     1
 11
56.0
 21
-537.6
 31
0.0
  0
POINT
  5
44A
  8
DEFPOINTS
  6
CONTINUOUS
 62
    30
 10
0.0
 20
200.0
 30
0.0
  0
POINT
  5
44B
  8
DEFPOINTS
  6
CONTINUOUS
 62
    30
 10
112.0
 20
-20.0
 30
0.0
  0
POINT
  5
44C
  8
DEFPOINTS
  6
CONTINUOUS
 62
    30
 10
112.0
 20
-547.6
 30
0.0
  0
LINE
  5
44D
  8
SIZE
  6
CONTINUOUS
 62
    30
 10
112.0
 20
-30.0
 30
0.0
 11
112.0
 21
-560.1
 31
0.0
  0
LINE
  5
44E
  8
SIZE
  6
CONTINUOUS
 62
    30
 10
646.0
 20
-30.0
 30
0.0
 11
646.0
 21
-560.1
 31
0.0
  0
LINE
  5
44F
  8
SIZE
  6
CONTINUOUS
 62
    30
 10
122.0
 20
-547.6
 30
0.0
 11
636.0
 21
-547.6
 31
0.0
  0
CIRCLE
  5
450
  8
SIZE
  6
CONTINUOUS
 62
    30
 10
112.0
 20
-547.6
 30
0.0
 40
5.0
  0
LINE
  5
451
  8
SIZE
  6
CONTINUOUS
 62
    30
 10
112.0
 20
-547.6
 30
0.0
 11
122.0
 21
-547.6
 31
0.0
  0
CIRCLE
  5
452
  8
SIZE
  6
CONTINUOUS
 62
    30
 10
646.0
 20
-547.6
 30
0.0
 40
5.0
  0
LINE
  5
453
  8
SIZE
  6
CONTINUOUS
 62
    30
 10
646.0
 20
-547.6
 30
0.0
 11
636.0
 21
-547.6
 31
0.0
  0
TEXT
  5
454
  8
SIZE
  6
CONTINUOUS
 62
    30
 10
339.0
 20
-537.6
 30
0.0
 40
30.0
  1
534
 72
     1
 11
379.0
 21
-537.6
 31
0.0
  0
POINT
  5
455
  8
DEFPOINTS
  6
CONTINUOUS
 62
    30
 10
112.0
 20
-20.0
 30
0.0
  0
POINT
  5
456
  8
DEFPOINTS
  6
CONTINUOUS
 62
    30
 10
646.0
 20
-20.0
 30
0.0
  0
POINT
  5
457
  8
DEFPOINTS
  6
CONTINUOUS
 62
    30
 10
646.0
 20
-547.6
 30
0.0
  0
LINE
  5
458
  8
SIZE
  6
CONTINUOUS
 62
    30
 10
646.0
 20
-30.0
 30
0.0
 11
646.0
 21
-560.1
 31
0.0
  0
LINE
  5
459
  8
SIZE
  6
CONTINUOUS
 62
    30
 10
730.0
 20
-10.0
 30
0.0
 11
730.0
 21
-560.1
 31
0.0
  0
LINE
  5
45A
  8
SIZE
  6
CONTINUOUS
 62
    30
 10
656.0
 20
-547.6
 30
0.0
 11
720.0
 21
-547.6
 31
0.0
  0
CIRCLE
  5
45B
  8
SIZE
  6
CONTINUOUS
 62
    30
 10
646.0
 20
-547.6
 30
0.0
 40
5.0
  0
LINE
  5
45C
  8
SIZE
  6
CONTINUOUS
 62
    30
 10
646.0
 20
-547.6
 30
0.0
 11
656.0
 21
-547.6
 31
0.0
  0
CIRCLE
  5
45D
  8
SIZE
  6
CONTINUOUS
 62
    30
 10
730.0
 20
-547.6
 30
0.0
 40
5.0
  0
LINE
  5
45E
  8
SIZE
  6
CONTINUOUS
 62
    30
 10
730.0
 20
-547.6
 30
0.0
 11
720.0
 21
-547.6
 31
0.0
  0
TEXT
  5
45F
  8
SIZE
  6
CONTINUOUS
 62
    30
 10
663.0
 20
-537.6
 30
0.0
 40
30.0
  1
84
 72
     1
 11
688.0
 21
-537.6
 31
0.0
  0
POINT
  5
460
  8
DEFPOINTS
  6
CONTINUOUS
 62
    30
 10
646.0
 20
-20.0
 30
0.0
  0
POINT
  5
461
  8
DEFPOINTS
  6
CONTINUOUS
 62
    30
 10
730.0
 20
0.0
 30
0.0
  0
POINT
  5
462
  8
DEFPOINTS
  6
CONTINUOUS
 62
    30
 10
730.0
 20
-547.6
 30
0.0
  0
LINE
  5
463
  8
SIZE
  6
CONTINUOUS
 62
    30
 10
76.0
 20
-30.0
 30
0.0
 11
76.0
 21
-460.1
 31
0.0
  0
LINE
  5
464
  8
SIZE
  6
CONTINUOUS
 62
    30
 10
646.0
 20
-30.0
 30
0.0
 11
646.0
 21
-460.1
 31
0.0
  0
LINE
  5
465
  8
SIZE
  6
CONTINUOUS
 62
    30
 10
86.0
 20
-447.6
 30
0.0
 11
636.0
 21
-447.6
 31
0.0
  0
CIRCLE
  5
466
  8
SIZE
  6
CONTINUOUS
 62
    30
 10
76.0
 20
-447.6
 30
0.0
 40
5.0
  0
LINE
  5
467
  8
SIZE
  6
CONTINUOUS
 62
    30
 10
76.0
 20
-447.6
 30
0.0
 11
86.0
 21
-447.6
 31
0.0
  0
CIRCLE
  5
468
  8
SIZE
  6
CONTINUOUS
 62
    30
 10
646.0
 20
-447.6
 30
0.0
 40
5.0
  0
LINE
  5
469
  8
SIZE
  6
CONTINUOUS
 62
    30
 10
646.0
 20
-447.6
 30
0.0
 11
636.0
 21
-447.6
 31
0.0
  0
TEXT
  5
46A
  8
SIZE
  6
CONTINUOUS
 62
    30
 10
323.5
 20
-437.6
 30
0.0
 40
30.0
  1
570
 72
     1
 11
361.0
 21
-437.6
 31
0.0
  0
POINT
  5
46B
  8
DEFPOINTS
  6
CONTINUOUS
 62
    30
 10
76.0
 20
-20.0
 30
0.0
  0
POINT
  5
46C
  8
DEFPOINTS
  6
CONTINUOUS
 62
    30
 10
646.0
 20
-20.0
 30
0.0
  0
POINT
  5
46D
  8
DEFPOINTS
  6
CONTINUOUS
 62
    30
 10
646.0
 20
-447.6
 30
0.0
  0
LINE
  5
46E
  8
SIZE
  6
CONTINUOUS
 62
    30
 10
730.0
 20
-10.0
 30
0.0
 11
730.0
 21
-260.1
 31
0.0
  0
LINE
  5
46F
  8
SIZE
  6
CONTINUOUS
 62
    30
 10
665.0
 20
170.0
 30
0.0
 11
665.0
 21
-260.1
 31
0.0
  0
LINE
  5
470
  8
SIZE
  6
CONTINUOUS
 62
    30
 10
720.0
 20
-247.6
 30
0.0
 11
675.0
 21
-247.6
 31
0.0
  0
CIRCLE
  5
471
  8
SIZE
  6
CONTINUOUS
 62
    30
 10
730.0
 20
-247.6
 30
0.0
 40
5.0
  0
LINE
  5
472
  8
SIZE
  6
CONTINUOUS
 62
    30
 10
730.0
 20
-247.6
 30
0.0
 11
720.0
 21
-247.6
 31
0.0
  0
CIRCLE
  5
473
  8
SIZE
  6
CONTINUOUS
 62
    30
 10
665.0
 20
-247.6
 30
0.0
 40
5.0
  0
LINE
  5
474
  8
SIZE
  6
CONTINUOUS
 62
    30
 10
665.0
 20
-247.6
 30
0.0
 11
675.0
 21
-247.6
 31
0.0
  0
TEXT
  5
475
  8
SIZE
  6
CONTINUOUS
 62
    30
 10
672.5
 20
-237.6
 30
0.0
 40
30.0
  1
65
 72
     1
 11
697.5
 21
-237.6
 31
0.0
  0
POINT
  5
476
  8
DEFPOINTS
  6
CONTINUOUS
 62
    30
 10
730.0
 20
0.0
 30
0.0
  0
POINT
  5
477
  8
DEFPOINTS
  6
CONTINUOUS
 62
    30
 10
665.0
 20
180.0
 30
0.0
  0
POINT
  5
478
  8
DEFPOINTS
  6
CONTINUOUS
 62
    30
 10
665.0
 20
-247.6
 30
0.0
  0
LINE
  5
479
  8
SIZE
  6
CONTINUOUS
 62
    30
 10
76.0
 20
-30.0
 30
0.0
 11
76.0
 21
-460.1
 31
0.0
  0
LINE
  5
47A
  8
SIZE
  6
CONTINUOUS
 62
    30
 10
0.0
 20
190.0
 30
0.0
 11
0.0
 21
-460.1
 31
0.0
  0
LINE
  5
47B
  8
SIZE
  6
CONTINUOUS
 62
    30
 10
66.0
 20
-447.6
 30
0.0
 11
10.0
 21
-447.6
 31
0.0
  0
CIRCLE
  5
47C
  8
SIZE
  6
CONTINUOUS
 62
    30
 10
76.0
 20
-447.6
 30
0.0
 40
5.0
  0
LINE
  5
47D
  8
SIZE
  6
CONTINUOUS
 62
    30
 10
76.0
 20
-447.6
 30
0.0
 11
66.0
 21
-447.6
 31
0.0
  0
CIRCLE
  5
47E
  8
SIZE
  6
CONTINUOUS
 62
    30
 10
0.0
 20
-447.6
 30
0.0
 40
5.0
  0
LINE
  5
47F
  8
SIZE
  6
CONTINUOUS
 62
    30
 10
0.0
 20
-447.6
 30
0.0
 11
10.0
 21
-447.6
 31
0.0
  0
TEXT
  5
480
  8
SIZE
  6
CONTINUOUS
 62
    30
 10
13.0
 20
-437.6
 30
0.0
 40
30.0
  1
76
 72
     1
 11
38.0
 21
-437.6
 31
0.0
  0
POINT
  5
481
  8
DEFPOINTS
  6
CONTINUOUS
 62
    30
 10
76.0
 20
-20.0
 30
0.0
  0
POINT
  5
482
  8
DEFPOINTS
  6
CONTINUOUS
 62
    30
 10
0.0
 20
200.0
 30
0.0
  0
POINT
  5
483
  8
DEFPOINTS
  6
CONTINUOUS
 62
    30
 10
0.0
 20
-447.6
 30
0.0
  0
LINE
  5
484
  8
SIZE
  6
CONTINUOUS
 62
    30
 10
0.0
 20
1880.0
 30
0.0
 11
0.0
 21
2234.9
 31
0.0
  0
LINE
  5
485
  8
SIZE
  6
CONTINUOUS
 62
    30
 10
-80.0
 20
1925.0
 30
0.0
 11
-80.0
 21
2234.9
 31
0.0
  0
LINE
  5
486
  8
SIZE
  6
CONTINUOUS
 62
    30
 10
-10.0
 20
2222.4
 30
0.0
 11
-70.0
 21
2222.4
 31
0.0
  0
LINE
  5
487
  8
SIZE
  6
CONTINUOUS
 62
    30
 10
-80.0
 20
2222.4
 30
0.0
 11
-199.697586
 21
2222.4
 31
0.0
  0
CIRCLE
  5
488
  8
SIZE
  6
CONTINUOUS
 62
    30
 10
0.0
 20
2222.4
 30
0.0
 40
5.0
  0
LINE
  5
489
  8
SIZE
  6
CONTINUOUS
 62
    30
 10
0.0
 20
2222.4
 30
0.0
 11
-10.0
 21
2222.4
 31
0.0
  0
CIRCLE
  5
48A
  8
SIZE
  6
CONTINUOUS
 62
    30
 10
-80.0
 20
2222.4
 30
0.0
 40
5.0
  0
LINE
  5
48B
  8
SIZE
  6
CONTINUOUS
 62
    30
 10
-80.0
 20
2222.4
 30
0.0
 11
-70.0
 21
2222.4
 31
0.0
  0
TEXT
  5
48C
  8
SIZE
  6
CONTINUOUS
 62
    30
 10
-189.697586
 20
2232.4
 30
0.0
 40
30.0
  1
80
 72
     1
 11
-167.197586
 21
2232.4
 31
0.0
  0
POINT
  5
48D
  8
DEFPOINTS
  6
CONTINUOUS
 62
    30
 10
0.0
 20
1870.0
 30
0.0
  0
POINT
  5
48E
  8
DEFPOINTS
  6
CONTINUOUS
 62
    30
 10
-80.0
 20
1915.0
 30
0.0
  0
POINT
  5
48F
  8
DEFPOINTS
  6
CONTINUOUS
 62
    30
 10
-80.0
 20
2222.4
 30
0.0
  0
LINE
  5
490
  8
SIZE
  6
CONTINUOUS
 62
    30
 10
46.0
 20
0.0
 30
0.0
 11
-544.9
 21
0.0
 31
0.0
  0
LINE
  5
491
  8
SIZE
  6
CONTINUOUS
 62
    30
 10
-90.0
 20
1915.0
 30
0.0
 11
-544.9
 21
1915.0
 31
0.0
  0
LINE
  5
492
  8
SIZE
  6
CONTINUOUS
 62
    30
 10
-532.4
 20
10.0
 30
0.0
 11
-532.4
 21
1905.0
 31
0.0
  0
CIRCLE
  5
493
  8
SIZE
  6
CONTINUOUS
 62
    30
 10
-532.4
 20
0.0
 30
0.0
 40
5.0
  0
LINE
  5
494
  8
SIZE
  6
CONTINUOUS
 62
    30
 10
-532.4
 20
0.0
 30
0.0
 11
-532.4
 21
10.0
 31
0.0
  0
CIRCLE
  5
495
  8
SIZE
  6
CONTINUOUS
 62
    30
 10
-532.4
 20
1915.0
 30
0.0
 40
5.0
  0
LINE
  5
496
  8
SIZE
  6
CONTINUOUS
 62
    30
 10
-532.4
 20
1915.0
 30
0.0
 11
-532.4
 21
1905.0
 31
0.0
  0
TEXT
  5
497
  8
SIZE
  6
CONTINUOUS
 62
    30
 10
-542.4
 20
988.775757
 30
0.0
 40
30.0
  1
1915
 50
90.0
 72
     1
 11
-542.4
 21
1033.775757
 31
0.0
  0
POINT
  5
498
  8
DEFPOINTS
  6
CONTINUOUS
 62
    30
 10
56.0
 20
0.0
 30
0.0
  0
POINT
  5
499
  8
DEFPOINTS
  6
CONTINUOUS
 62
    30
 10
-80.0
 20
1915.0
 30
0.0
  0
POINT
  5
49A
  8
DEFPOINTS
  6
CONTINUOUS
 62
    30
 10
-532.4
 20
1915.0
 30
0.0
  0
LINE
  5
49B
  8
SIZE
  6
CONTINUOUS
 62
    30
 10
160.5
 20
1900.0
 30
0.0
 11
-444.9
 21
1900.0
 31
0.0
  0
LINE
  5
49C
  8
SIZE
  6
CONTINUOUS
 62
    30
 10
46.0
 20
0.0
 30
0.0
 11
-444.9
 21
0.0
 31
0.0
  0
LINE
  5
49D
  8
SIZE
  6
CONTINUOUS
 62
    30
 10
-432.4
 20
1890.0
 30
0.0
 11
-432.4
 21
10.0
 31
0.0
  0
CIRCLE
  5
49E
  8
SIZE
  6
CONTINUOUS
 62
    30
 10
-432.4
 20
1900.0
 30
0.0
 40
5.0
  0
LINE
  5
49F
  8
SIZE
  6
CONTINUOUS
 62
    30
 10
-432.4
 20
1900.0
 30
0.0
 11
-432.4
 21
1890.0
 31
0.0
  0
CIRCLE
  5
4A0
  8
SIZE
  6
CONTINUOUS
 62
    30
 10
-432.4
 20
0.0
 30
0.0
 40
5.0
  0
LINE
  5
4A1
  8
SIZE
  6
CONTINUOUS
 62
    30
 10
-432.4
 20
0.0
 30
0.0
 11
-432.4
 21
10.0
 31
0.0
  0
TEXT
  5
4A2
  8
SIZE
  6
CONTINUOUS
 62
    30
 10
-442.4
 20
988.775757
 30
0.0
 40
30.0
  1
1900
 50
90.0
 72
     1
 11
-442.4
 21
1033.775757
 31
0.0
  0
POINT
  5
4A3
  8
DEFPOINTS
  6
CONTINUOUS
 62
    30
 10
170.5
 20
1900.0
 30
0.0
  0
POINT
  5
4A4
  8
DEFPOINTS
  6
CONTINUOUS
 62
    30
 10
56.0
 20
0.0
 30
0.0
  0
POINT
  5
4A5
  8
DEFPOINTS
  6
CONTINUOUS
 62
    30
 10
-432.4
 20
0.0
 30
0.0
  0
LINE
  5
4A6
  8
SIZE
  6
CONTINUOUS
 62
    30
 10
46.0
 20
0.0
 30
0.0
 11
-244.9
 21
0.0
 31
0.0
  0
LINE
  5
4A7
  8
SIZE
  6
CONTINUOUS
 62
    30
 10
-10.0
 20
200.0
 30
0.0
 11
-244.9
 21
200.0
 31
0.0
  0
LINE
  5
4A8
  8
SIZE
  6
CONTINUOUS
 62
    30
 10
-232.4
 20
10.0
 30
0.0
 11
-232.4
 21
190.0
 31
0.0
  0
CIRCLE
  5
4A9
  8
SIZE
  6
CONTINUOUS
 62
    30
 10
-232.4
 20
0.0
 30
0.0
 40
5.0
  0
LINE
  5
4AA
  8
SIZE
  6
CONTINUOUS
 62
    30
 10
-232.4
 20
0.0
 30
0.0
 11
-232.4
 21
10.0
 31
0.0
  0
CIRCLE
  5
4AB
  8
SIZE
  6
CONTINUOUS
 62
    30
 10
-232.4
 20
200.0
 30
0.0
 40
5.0
  0
LINE
  5
4AC
  8
SIZE
  6
CONTINUOUS
 62
    30
 10
-232.4
 20
200.0
 30
0.0
 11
-232.4
 21
190.0
 31
0.0
  0
TEXT
  5
4AD
  8
SIZE
  6
CONTINUOUS
 62
    30
 10
-242.4
 20
65.0
 30
0.0
 40
30.0
  1
200
 50
90.0
 72
     1
 11
-242.4
 21
100.0
 31
0.0
  0
POINT
  5
4AE
  8
DEFPOINTS
  6
CONTINUOUS
 62
    30
 10
56.0
 20
0.0
 30
0.0
  0
POINT
  5
4AF
  8
DEFPOINTS
  6
CONTINUOUS
 62
    30
 10
0.0
 20
200.0
 30
0.0
  0
POINT
  5
4B0
  8
DEFPOINTS
  6
CONTINUOUS
 62
    30
 10
-232.4
 20
200.0
 30
0.0
  0
LINE
  5
4B1
  8
SIZE
  6
CONTINUOUS
 62
    30
 10
46.0
 20
0.0
 30
0.0
 11
-344.9
 21
0.0
 31
0.0
  0
LINE
  5
4B2
  8
SIZE
  6
CONTINUOUS
 62
    30
 10
-110.0
 20
1893.0
 30
0.0
 11
-344.9
 21
1893.0
 31
0.0
  0
LINE
  5
4B3
  8
SIZE
  6
CONTINUOUS
 62
    30
 10
-332.4
 20
10.0
 30
0.0
 11
-332.4
 21
1883.0
 31
0.0
  0
CIRCLE
  5
4B4
  8
SIZE
  6
CONTINUOUS
 62
    30
 10
-332.4
 20
0.0
 30
0.0
 40
5.0
  0
LINE
  5
4B5
  8
SIZE
  6
CONTINUOUS
 62
    30
 10
-332.4
 20
0.0
 30
0.0
 11
-332.4
 21
10.0
 31
0.0
  0
CIRCLE
  5
4B6
  8
SIZE
  6
CONTINUOUS
 62
    30
 10
-332.4
 20
1893.0
 30
0.0
 40
5.0
  0
LINE
  5
4B7
  8
SIZE
  6
CONTINUOUS
 62
    30
 10
-332.4
 20
1893.0
 30
0.0
 11
-332.4
 21
1883.0
 31
0.0
  0
TEXT
  5
4B8
  8
SIZE
  6
CONTINUOUS
 62
    30
 10
-342.4
 20
984.028931
 30
0.0
 40
30.0
  1
1893
 50
90.0
 72
     1
 11
-342.4
 21
1034.028931
 31
0.0
  0
POINT
  5
4B9
  8
DEFPOINTS
  6
CONTINUOUS
 62
    30
 10
56.0
 20
0.0
 30
0.0
  0
POINT
  5
4BA
  8
DEFPOINTS
  6
CONTINUOUS
 62
    30
 10
-100.0
 20
1893.0
 30
0.0
  0
POINT
  5
4BB
  8
DEFPOINTS
  6
CONTINUOUS
 62
    30
 10
-332.4
 20
1893.0
 30
0.0
  0
LINE
  5
4BC
  8
SIZE
  6
CONTINUOUS
 62
    30
 10
-10.0
 20
1870.0
 30
0.0
 11
-244.9
 21
1870.0
 31
0.0
  0
LINE
  5
4BD
  8
SIZE
  6
CONTINUOUS
 62
    30
 10
-10.0
 20
2070.0
 30
0.0
 11
-244.9
 21
2070.0
 31
0.0
  0
LINE
  5
4BE
  8
SIZE
  6
CONTINUOUS
 62
    30
 10
-232.4
 20
1880.0
 30
0.0
 11
-232.4
 21
2060.0
 31
0.0
  0
CIRCLE
  5
4BF
  8
SIZE
  6
CONTINUOUS
 62
    30
 10
-232.4
 20
1870.0
 30
0.0
 40
5.0
  0
LINE
  5
4C0
  8
SIZE
  6
CONTINUOUS
 62
    30
 10
-232.4
 20
1870.0
 30
0.0
 11
-232.4
 21
1880.0
 31
0.0
  0
CIRCLE
  5
4C1
  8
SIZE
  6
CONTINUOUS
 62
    30
 10
-232.4
 20
2070.0
 30
0.0
 40
5.0
  0
LINE
  5
4C2
  8
SIZE
  6
CONTINUOUS
 62
    30
 10
-232.4
 20
2070.0
 30
0.0
 11
-232.4
 21
2060.0
 31
0.0
  0
TEXT
  5
4C3
  8
SIZE
  6
CONTINUOUS
 62
    30
 10
-242.4
 20
1935.0
 30
0.0
 40
30.0
  1
200
 50
90.0
 72
     1
 11
-242.4
 21
1970.0
 31
0.0
  0
POINT
  5
4C4
  8
DEFPOINTS
  6
CONTINUOUS
 62
    30
 10
0.0
 20
1870.0
 30
0.0
  0
POINT
  5
4C5
  8
DEFPOINTS
  6
CONTINUOUS
 62
    30
 10
0.0
 20
2070.0
 30
0.0
  0
POINT
  5
4C6
  8
DEFPOINTS
  6
CONTINUOUS
 62
    30
 10
-232.4
 20
2070.0
 30
0.0
  0
LINE
  5
4C7
  8
SIZE
  6
CONTINUOUS
 62
    30
 10
-10.0
 20
1870.0
 30
0.0
 11
-244.9
 21
1870.0
 31
0.0
  0
LINE
  5
4C8
  8
SIZE
  6
CONTINUOUS
 62
    30
 10
-10.0
 20
200.0
 30
0.0
 11
-244.9
 21
200.0
 31
0.0
  0
LINE
  5
4C9
  8
SIZE
  6
CONTINUOUS
 62
    30
 10
-232.4
 20
1860.0
 30
0.0
 11
-232.4
 21
210.0
 31
0.0
  0
CIRCLE
  5
4CA
  8
SIZE
  6
CONTINUOUS
 62
    30
 10
-232.4
 20
1870.0
 30
0.0
 40
5.0
  0
LINE
  5
4CB
  8
SIZE
  6
CONTINUOUS
 62
    30
 10
-232.4
 20
1870.0
 30
0.0
 11
-232.4
 21
1860.0
 31
0.0
  0
CIRCLE
  5
4CC
  8
SIZE
  6
CONTINUOUS
 62
    30
 10
-232.4
 20
200.0
 30
0.0
 40
5.0
  0
LINE
  5
4CD
  8
SIZE
  6
CONTINUOUS
 62
    30
 10
-232.4
 20
200.0
 30
0.0
 11
-232.4
 21
210.0
 31
0.0
  0
TEXT
  5
4CE
  8
SIZE
  6
CONTINUOUS
 62
    30
 10
-242.4
 20
987.5
 30
0.0
 40
30.0
  1
1670
 50
90.0
 72
     1
 11
-242.4
 21
1035.0
 31
0.0
  0
POINT
  5
4CF
  8
DEFPOINTS
  6
CONTINUOUS
 62
    30
 10
0.0
 20
1870.0
 30
0.0
  0
POINT
  5
4D0
  8
DEFPOINTS
  6
CONTINUOUS
 62
    30
 10
0.0
 20
200.0
 30
0.0
  0
POINT
  5
4D1
  8
DEFPOINTS
  6
CONTINUOUS
 62
    30
 10
-232.4
 20
200.0
 30
0.0
  0
LINE
  5
4D2
  8
SIZE
  6
CONTINUOUS
 62
    30
 10
10.0
 20
1870.0
 30
0.0
 11
350.6
 21
1870.0
 31
0.0
  0
LINE
  5
4D3
  8
SIZE
  6
CONTINUOUS
 62
    30
 10
200.5
 20
1900.0
 30
0.0
 11
350.6
 21
1900.0
 31
0.0
  0
LINE
  5
4D4
  8
SIZE
  6
CONTINUOUS
 62
    30
 10
338.1
 20
1910.0
 30
0.0
 11
338.1
 21
1920.0
 31
0.0
  0
LINE
  5
4D5
  8
SIZE
  6
CONTINUOUS
 62
    30
 10
338.1
 20
1860.0
 30
0.0
 11
338.1
 21
1737.528481
 31
0.0
  0
LINE
  5
4D6
  8
SIZE
  6
CONTINUOUS
 62
    30
 10
338.1
 20
1900.0
 30
0.0
 11
338.1
 21
1870.0
 31
0.0
  0
CIRCLE
  5
4D7
  8
SIZE
  6
CONTINUOUS
 62
    30
 10
338.1
 20
1900.0
 30
0.0
 40
5.0
  0
LINE
  5
4D8
  8
SIZE
  6
CONTINUOUS
 62
    30
 10
338.1
 20
1900.0
 30
0.0
 11
338.1
 21
1910.0
 31
0.0
  0
CIRCLE
  5
4D9
  8
SIZE
  6
CONTINUOUS
 62
    30
 10
338.1
 20
1870.0
 30
0.0
 40
5.0
  0
LINE
  5
4DA
  8
SIZE
  6
CONTINUOUS
 62
    30
 10
338.1
 20
1870.0
 30
0.0
 11
338.1
 21
1860.0
 31
0.0
  0
TEXT
  5
4DB
  8
SIZE
  6
CONTINUOUS
 62
    30
 10
328.1
 20
1747.528481
 30
0.0
 40
30.0
  1
30
 50
90.0
 72
     1
 11
328.1
 21
1770.028481
 31
0.0
  0
POINT
  5
4DC
  8
DEFPOINTS
  6
CONTINUOUS
 62
    30
 10
0.0
 20
1870.0
 30
0.0
  0
POINT
  5
4DD
  8
DEFPOINTS
  6
CONTINUOUS
 62
    30
 10
190.5
 20
1900.0
 30
0.0
  0
POINT
  5
4DE
  8
DEFPOINTS
  6
CONTINUOUS
 62
    30
 10
338.1
 20
1900.0
 30
0.0
  0
LINE
  5
4DF
  8
SIZE
  6
CONTINUOUS
 62
    30
 10
1340.0
 20
0.0
 30
0.0
 11
1490.1
 21
0.0
 31
0.0
  0
LINE
  5
4E0
  8
SIZE
  6
CONTINUOUS
 62
    30
 10
1340.0
 20
2070.0
 30
0.0
 11
1490.1
 21
2070.0
 31
0.0
  0
LINE
  5
4E1
  8
SIZE
  6
CONTINUOUS
 62
    30
 10
1477.6
 20
10.0
 30
0.0
 11
1477.6
 21
2060.0
 31
0.0
  0
CIRCLE
  5
4E2
  8
SIZE
  6
CONTINUOUS
 62
    30
 10
1477.6
 20
0.0
 30
0.0
 40
5.0
  0
LINE
  5
4E3
  8
SIZE
  6
CONTINUOUS
 62
    30
 10
1477.6
 20
0.0
 30
0.0
 11
1477.6
 21
10.0
 31
0.0
  0
CIRCLE
  5
4E4
  8
SIZE
  6
CONTINUOUS
 62
    30
 10
1477.6
 20
2070.0
 30
0.0
 40
5.0
  0
LINE
  5
4E5
  8
SIZE
  6
CONTINUOUS
 62
    30
 10
1477.6
 20
2070.0
 30
0.0
 11
1477.6
 21
2060.0
 31
0.0
  0
TEXT
  5
4E6
  8
SIZE
  6
CONTINUOUS
 62
    30
 10
1467.6
 20
985.0
 30
0.0
 40
30.0
  1
2070
 50
90.0
 72
     1
 11
1467.6
 21
1035.0
 31
0.0
  0
POINT
  5
4E7
  8
DEFPOINTS
  6
CONTINUOUS
 62
    30
 10
1330.0
 20
0.0
 30
0.0
  0
POINT
  5
4E8
  8
DEFPOINTS
  6
CONTINUOUS
 62
    30
 10
1330.0
 20
2070.0
 30
0.0
  0
POINT
  5
4E9
  8
DEFPOINTS
  6
CONTINUOUS
 62
    30
 10
1477.6
 20
2070.0
 30
0.0
  0
LINE
  5
4EA
  8
SIZE
  6
CONTINUOUS
 62
    30
 10
0.0
 20
190.0
 30
0.0
 11
0.0
 21
-660.1
 31
0.0
  0
LINE
  5
4EB
  8
SIZE
  6
CONTINUOUS
 62
    30
 10
730.0
 20
-10.0
 30
0.0
 11
730.0
 21
-660.1
 31
0.0
  0
LINE
  5
4EC
  8
SIZE
  6
CONTINUOUS
 62
    30
 10
10.0
 20
-647.6
 30
0.0
 11
720.0
 21
-647.6
 31
0.0
  0
CIRCLE
  5
4ED
  8
SIZE
  6
CONTINUOUS
 62
    30
 10
0.0
 20
-647.6
 30
0.0
 40
5.0
  0
LINE
  5
4EE
  8
SIZE
  6
CONTINUOUS
 62
    30
 10
0.0
 20
-647.6
 30
0.0
 11
10.0
 21
-647.6
 31
0.0
  0
CIRCLE
  5
4EF
  8
SIZE
  6
CONTINUOUS
 62
    30
 10
730.0
 20
-647.6
 30
0.0
 40
5.0
  0
LINE
  5
4F0
  8
SIZE
  6
CONTINUOUS
 62
    30
 10
730.0
 20
-647.6
 30
0.0
 11
720.0
 21
-647.6
 31
0.0
  0
TEXT
  5
4F1
  8
SIZE
  6
CONTINUOUS
 62
    30
 10
327.243805
 20
-637.6
 30
0.0
 40
30.0
  1
730
 72
     1
 11
364.743805
 21
-637.6
 31
0.0
  0
POINT
  5
4F2
  8
DEFPOINTS
  6
CONTINUOUS
 62
    30
 10
0.0
 20
200.0
 30
0.0
  0
POINT
  5
4F3
  8
DEFPOINTS
  6
CONTINUOUS
 62
    30
 10
730.0
 20
0.0
 30
0.0
  0
POINT
  5
4F4
  8
DEFPOINTS
  6
CONTINUOUS
 62
    30
 10
730.0
 20
-647.6
 30
0.0
  0
LINE
  5
4F5
  8
NOTE
  6
CONTINUOUS
 10
676.0
 20
148.0
 30
0.0
 11
676.0
 21
188.0
 31
0.0
  0
LINE
  5
4F6
  8
NOTE
  6
CONTINUOUS
 10
696.0
 20
168.0
 30
0.0
 11
656.0
 21
168.0
 31
0.0
  0
LINE
  5
4F7
  8
NOTE
  6
CONTINUOUS
 10
1243.772217
 20
-350.0
 30
0.0
 11
824.522156
 21
-350.0
 31
0.0
  0
LINE
  5
4F8
  8
NOTE
  6
CONTINUOUS
 10
824.522156
 20
-350.0
 30
0.0
 11
640.000061
 21
155.500031
 31
0.0
  0
LINE
  5
4F9
  8
NOTE
  6
CONTINUOUS
 10
640.000061
 20
155.500031
 30
0.0
 11
641.148744
 21
153.862799
 31
0.0
  0
LINE
  5
4FA
  8
NOTE
  6
CONTINUOUS
 10
640.000061
 20
155.500031
 30
0.0
 11
640.176234
 21
153.507805
 31
0.0
  0
TEXT
  5
4FB
  8
NOTE
  6
CONTINUOUS
 10
885.272156
 20
-349.0
 30
0.0
 40
40.0
  1
WD R3/4(φ27.2)
 50
359.999996
 41
0.650362
  7
STANDARD1
  0
LINE
  5
4FC
  8
NOTE
  6
CONTINUOUS
 10
1243.772217
 20
-149.999969
 30
0.0
 11
824.522156
 21
-149.999969
 31
0.0
  0
LINE
  5
4FD
  8
NOTE
  6
CONTINUOUS
 10
824.522156
 20
-149.999969
 30
0.0
 11
676.000061
 21
168.000031
 31
0.0
  0
LINE
  5
4FE
  8
NOTE
  6
CONTINUOUS
 10
676.000061
 20
168.000031
 30
0.0
 11
677.286571
 21
166.468726
 31
0.0
  0
LINE
  5
4FF
  8
NOTE
  6
CONTINUOUS
 10
676.000061
 20
168.000031
 30
0.0
 11
676.348559
 21
166.030627
 31
0.0
  0
TEXT
  5
500
  8
NOTE
  6
CONTINUOUS
 10
885.272034
 20
-148.999969
 30
0.0
 40
40.0
  1
BH R1/2(φ21.7)
 50
359.999989
 41
0.650362
  7
STANDARD1
  0
LINE
  5
501
  8
NOTE
  6
CONTINUOUS
 10
1268.272217
 20
-249.999969
 30
0.0
 11
824.522156
 21
-249.999969
 31
0.0
  0
LINE
  5
502
  8
NOTE
  6
CONTINUOUS
 10
824.522156
 20
-249.999969
 30
0.0
 11
676.000061
 21
168.000031
 31
0.0
  0
LINE
  5
503
  8
NOTE
  6
CONTINUOUS
 10
676.000061
 20
168.000031
 30
0.0
 11
677.134626
 21
166.352984
 31
0.0
  0
LINE
  5
504
  8
NOTE
  6
CONTINUOUS
 10
676.000061
 20
168.000031
 30
0.0
 11
676.1591
 21
166.006364
 31
0.0
  0
TEXT
  5
505
  8
NOTE
  6
CONTINUOUS
 10
885.272156
 20
-248.999969
 30
0.0
 40
40.0
  1
BHR R1/2(φ21.7)
 50
359.999989
 41
0.647804
  7
STANDARD1
  0
TEXT
  5
506
  8
NOTE
  6
CONTINUOUS
 10
153.065521
 20
2168.872314
 30
0.0
 40
40.0
  1
メンテナンススペース
 50
0.000003
 41
0.84375
  7
STANDARD1
  0
LINE
  5
507
  8
NOTE
  6
CONTINUOUS
 10
76.0
 20
-20.0
 30
0.0
 11
76.0
 21
20.0
 31
0.0
  0
LINE
  5
508
  8
NOTE
  6
CONTINUOUS
 10
665.0
 20
180.0
 30
0.0
 11
665.0
 21
220.0
 31
0.0
  0
LINE
  5
509
  8
NOTE
  6
CONTINUOUS
 10
640.0
 20
135.5
 30
0.0
 11
640.0
 21
175.5
 31
0.0
  0
LINE
  5
50A
  8
NOTE
  6
CONTINUOUS
 10
589.0
 20
152.5
 30
0.0
 11
589.0
 21
192.5
 31
0.0
  0
LINE
  5
50B
  8
NOTE
  6
CONTINUOUS
 10
112.0
 20
-20.0
 30
0.0
 11
112.0
 21
20.0
 31
0.0
  0
LINE
  5
50C
  8
NOTE
  6
CONTINUOUS
 10
646.0
 20
-20.0
 30
0.0
 11
646.0
 21
20.0
 31
0.0
  0
LINE
  5
50D
  8
NOTE
  6
CONTINUOUS
 10
56.0
 20
0.0
 30
0.0
 11
96.0
 21
0.0
 31
0.0
  0
LINE
  5
50E
  8
NOTE
  6
CONTINUOUS
 10
645.0
 20
200.0
 30
0.0
 11
685.0
 21
200.0
 31
0.0
  0
LINE
  5
50F
  8
NOTE
  6
CONTINUOUS
 10
620.0
 20
155.5
 30
0.0
 11
660.0
 21
155.5
 31
0.0
  0
LINE
  5
510
  8
NOTE
  6
CONTINUOUS
 10
569.0
 20
172.5
 30
0.0
 11
609.0
 21
172.5
 31
0.0
  0
LINE
  5
511
  8
NOTE
  6
CONTINUOUS
 10
92.0
 20
0.0
 30
0.0
 11
132.0
 21
0.0
 31
0.0
  0
LINE
  5
512
  8
NOTE
  6
CONTINUOUS
 10
626.0
 20
0.0
 30
0.0
 11
666.0
 21
0.0
 31
0.0
  0
TEXT
  5
513
  8
NOTE
  6
CONTINUOUS
 10
1530.009766
 20
844.185486
 30
0.0
 40
40.0
  1
メンテナンススペース
 50
90.000005
 41
0.84375
  7
STANDARD1
  0
LINE
  5
514
  8
NOTE
  6
CONTINUOUS
 10
146.83136
 20
700.0
 30
0.0
 11
459.58136
 21
700.0
 31
0.0
  0
LINE
  5
515
  8
NOTE
  6
CONTINUOUS
 10
459.58136
 20
700.0
 30
0.0
 11
665.0
 21
200.0
 31
0.0
  0
LINE
  5
516
  8
NOTE
  6
CONTINUOUS
 10
665.0
 20
200.0
 30
0.0
 11
663.78706
 21
201.590213
 31
0.0
  0
LINE
  5
517
  8
NOTE
  6
CONTINUOUS
 10
665.0
 20
200.0
 30
0.0
 11
664.74467
 21
201.983635
 31
0.0
  0
TEXT
  5
518
  8
NOTE
  6
CONTINUOUS
 10
146.83136
 20
701.000061
 30
0.0
 40
40.0
  1
CW φ49×69
 50
359.999992
 41
0.701389
  7
STANDARD1
  0
LINE
  5
519
  8
NOTE
  6
CONTINUOUS
 10
146.83136
 20
400.0
 30
0.0
 11
459.58136
 21
400.0
 31
0.0
  0
LINE
  5
51A
  8
NOTE
  6
CONTINUOUS
 10
459.58136
 20
400.0
 30
0.0
 11
665.0
 21
200.0
 31
0.0
  0
LINE
  5
51B
  8
NOTE
  6
CONTINUOUS
 10
665.0
 20
200.0
 30
0.0
 11
663.25474
 21
200.976763
 31
0.0
  0
LINE
  5
51C
  8
NOTE
  6
CONTINUOUS
 10
665.0
 20
200.0
 30
0.0
 11
663.976942
 21
201.718532
 31
0.0
  0
TEXT
  5
51D
  8
NOTE
  6
CONTINUOUS
 10
146.83136
 20
401.000031
 30
0.0
 40
40.0
  1
HW φ49×69
 50
359.999992
 41
0.701389
  7
STANDARD1
  0
LINE
  5
51E
  8
NOTE
  6
CONTINUOUS
 10
-80.0
 20
1873.0
 30
0.0
 11
-80.0
 21
1913.0
 31
0.0
  0
LINE
  5
51F
  8
NOTE
  6
CONTINUOUS
 10
-100.0
 20
1893.0
 30
0.0
 11
-60.0
 21
1893.0
 31
0.0
  0
TEXT
  5
520
  8
NOTE
  6
CONTINUOUS
 10
-186.461899
 20
1928.638672
 30
0.0
 40
40.0
  1
メンテナンススペース
 50
90.000005
 41
0.84375
  7
STANDARD1
  0
LINE
  5
521
  8
NOTE
  6
CONTINUOUS
 10
223.544357
 20
1720.0
 30
0.0
 11
-32.705647
 21
1720.0
 31
0.0
  0
LINE
  5
522
  8
NOTE
  6
CONTINUOUS
 10
-32.705647
 20
1720.0
 30
0.0
 11
-80.0
 21
1893.0
 31
0.0
  0
LINE
  5
523
  8
NOTE
  6
CONTINUOUS
 10
-80.0
 20
1893.0
 30
0.0
 11
-78.991252
 21
1891.273029
 31
0.0
  0
LINE
  5
524
  8
NOTE
  6
CONTINUOUS
 10
-80.0
 20
1893.0
 30
0.0
 11
-79.989884
 21
1891.000026
 31
0.0
  0
TEXT
  5
525
  8
NOTE
  6
CONTINUOUS
 10
28.044353
 20
1721.0
 30
0.0
 40
40.0
  1
AH 2-M10
 50
359.999992
 41
0.644737
  7
STANDARD1
  0
LINE
  5
526
  8
NOTE
  6
CONTINUOUS
 10
421.483459
 20
300.0
 30
0.0
 11
158.733459
 21
300.0
 31
0.0
  0
LINE
  5
527
  8
NOTE
  6
CONTINUOUS
 10
158.733459
 20
300.0
 30
0.0
 11
86.0
 21
18.0
 31
0.0
  0
LINE
  5
528
  8
NOTE
  6
CONTINUOUS
 10
86.0
 20
18.0
 30
0.0
 11
85.981239
 21
19.999912
 31
0.0
  0
LINE
  5
529
  8
NOTE
  6
CONTINUOUS
 10
86.0
 20
18.0
 30
0.0
 11
86.983709
 21
19.741355
 31
0.0
  0
TEXT
  5
52A
  8
NOTE
  6
CONTINUOUS
 10
219.483459
 20
301.0
 30
0.0
 40
40.0
  1
脚固定金具
 50
359.999992
 41
0.84375
  7
STANDARD1
  0
TEXT
  5
52B
  8
NOTE
  6
CONTINUOUS
 10
837.684509
 20
2170.895264
 30
0.0
 40
40.0
  1
メンテナンススペース
 50
0.000003
 41
0.84375
  7
STANDARD1
  0
LINE
  5
52C
  8
NOTE
  6
CONTINUOUS
 10
265.412598
 20
-150.0
 30
0.0
 11
464.162598
 21
-150.0
 31
0.0
  0
LINE
  5
52D
  8
NOTE
  6
CONTINUOUS
 10
464.162598
 20
-150.0
 30
0.0
 11
589.0
 21
172.5
 31
0.0
  0
LINE
  5
52E
  8
NOTE
  6
CONTINUOUS
 10
589.0
 20
172.5
 30
0.0
 11
588.785353
 21
170.511552
 31
0.0
  0
LINE
  5
52F
  8
NOTE
  6
CONTINUOUS
 10
589.0
 20
172.5
 30
0.0
 11
587.819886
 21
170.885277
 31
0.0
  0
TEXT
  5
530
  8
NOTE
  6
CONTINUOUS
 10
265.412598
 20
-148.999985
 30
0.0
 40
40.0
  1
D φ18
 50
359.999992
 41
0.721354
  7
STANDARD1
  0
LINE
  5
531
  8
NOTE
  6
CONTINUOUS
 10
487.163574
 20
-250.0
 30
0.0
 11
230.913574
 21
-250.0
 31
0.0
  0
LINE
  5
532
  8
NOTE
  6
CONTINUOUS
 10
230.913574
 20
-250.0
 30
0.0
 11
112.0
 21
0.0
 31
0.0
  0
LINE
  5
533
  8
NOTE
  6
CONTINUOUS
 10
112.0
 20
0.0
 30
0.0
 11
113.297258
 21
-1.52221
 31
0.0
  0
LINE
  5
534
  8
NOTE
  6
CONTINUOUS
 10
112.0
 20
0.0
 30
0.0
 11
112.362353
 21
-1.966901
 31
0.0
  0
TEXT
  5
535
  8
NOTE
  6
CONTINUOUS
 10
291.663574
 20
-249.0
 30
0.0
 40
40.0
  1
AH 3-M12
 41
0.644737
  7
STANDARD1
  0
LINE
  5
536
  8
NOTE
  6
CONTINUOUS
 10
-341.164307
 20
-150.0
 30
0.0
 11
-84.914299
 21
-150.0
 31
0.0
  0
LINE
  5
537
  8
NOTE
  6
CONTINUOUS
 10
-84.914299
 20
-150.0
 30
0.0
 11
76.0
 21
0.0
 31
0.0
  0
LINE
  5
538
  8
NOTE
  6
CONTINUOUS
 10
76.0
 20
0.0
 30
0.0
 11
74.939851
 21
-1.695902
 31
0.0
  0
LINE
  5
539
  8
NOTE
  6
CONTINUOUS
 10
76.0
 20
0.0
 30
0.0
 11
74.233933
 21
-0.93862
 31
0.0
  0
TEXT
  5
53A
  8
NOTE
  6
CONTINUOUS
 10
-341.164307
 20
-149.0
 30
0.0
 40
40.0
  1
AH 4-M12
 41
0.644737
  7
STANDARD1
  0
TEXT
  5
53B
  8
NOTE
  6
CONTINUOUS
 10
-537.330811
 20
-205.27803
 30
0.0
 40
40.0
  1
（脚固定金具使用時のみ）
 50
0.000003
 41
0.84375
  7
STANDARD1
  0
LINE
  5
53C
  8
NOTE
  6
CONTINUOUS
 10
146.83136
 20
600.0
 30
0.0
 11
459.58136
 21
600.0
 31
0.0
  0
LINE
  5
53D
  8
NOTE
  6
CONTINUOUS
 10
459.58136
 20
600.0
 30
0.0
 11
665.0
 21
200.0
 31
0.0
  0
LINE
  5
53E
  8
NOTE
  6
CONTINUOUS
 10
665.0
 20
200.0
 30
0.0
 11
663.657009
 21
201.482017
 31
0.0
  0
LINE
  5
53F
  8
NOTE
  6
CONTINUOUS
 10
665.0
 20
200.0
 30
0.0
 11
664.577944
 21
201.95496
 31
0.0
  0
TEXT
  5
540
  8
NOTE
  6
CONTINUOUS
 10
146.83136
 20
601.0
 30
0.0
 40
40.0
  1
EL φ49×69
 41
0.701389
  7
STANDARD1
  0
LINE
  5
541
  8
NOTE
  6
CONTINUOUS
 10
187.33136
 20
500.0
 30
0.0
 11
459.58136
 21
500.0
 31
0.0
  0
LINE
  5
542
  8
NOTE
  6
CONTINUOUS
 10
459.58136
 20
500.0
 30
0.0
 11
665.0
 21
200.0
 31
0.0
  0
LINE
  5
543
  8
NOTE
  6
CONTINUOUS
 10
665.0
 20
200.0
 30
0.0
 11
663.481445
 21
201.301533
 31
0.0
  0
LINE
  5
544
  8
NOTE
  6
CONTINUOUS
 10
665.0
 20
200.0
 30
0.0
 11
664.335659
 21
201.886439
 31
0.0
  0
TEXT
  5
545
  8
NOTE
  6
CONTINUOUS
 10
187.33136
 20
501.0
 30
0.0
 40
40.0
  1
CL φ32.5
 41
0.679487
  7
STANDARD1
  0
CIRCLE
  5
546
  8
ARRANGE
  6
CONTINUOUS
 10
0.0
 20
0.0
 30
0.0
 40
15.0
  0
CIRCLE
  5
547
  8
FIX
  6
CONTINUOUS
 10
76.0
 20
0.0
 30
0.0
 40
6.0
  0
CIRCLE
  5
548
  8
FIX
  6
CONTINUOUS
 10
112.0
 20
0.0
 30
0.0
 40
6.0
  0
CIRCLE
  5
549
  8
FIX
  6
CONTINUOUS
 10
646.0
 20
0.0
 30
0.0
 40
6.0
  0
CIRCLE
  5
54A
  8
FIX
  6
CONTINUOUS
 10
-80.0
 20
1893.0
 30
0.0
 40
5.0
  0
LINE
  5
54B
  8
SERVICESPACE
  6
DASHDOT
 10
0.0
 20
1870.0
 30
0.0
 11
730.0
 21
2070.0
 31
0.0
  0
LINE
  5
54C
  8
SERVICESPACE
  6
DASHDOT
 10
1330.0
 20
2070.0
 30
0.0
 11
730.0
 21
0.0
 31
0.0
  0
LINE
  5
54D
  8
SERVICESPACE
  6
DASHDOT
 10
730.0
 20
2070.0
 30
0.0
 11
1330.0
 21
0.0
 31
0.0
  0
LINE
  5
54E
  8
SERVICESPACE
  6
DASHDOT
 10
0.0
 20
2070.0
 30
0.0
 11
730.0
 21
1870.0
 31
0.0
  0
LINE
  5
54F
  8
SERVICESPACE
  6
DASHDOT
 10
730.0
 20
0.0
 30
0.0
 11
1330.0
 21
0.0
 31
0.0
  0
LINE
  5
550
  8
SERVICESPACE
  6
DASHDOT
 10
1330.0
 20
0.0
 30
0.0
 11
1330.0
 21
2070.0
 31
0.0
  0
LINE
  5
551
  8
SERVICESPACE
  6
DASHDOT
 10
0.0
 20
1870.0
 30
0.0
 11
730.0
 21
1870.0
 31
0.0
  0
LINE
  5
552
  8
SERVICESPACE
  6
DASHDOT
 10
730.0
 20
0.0
 30
0.0
 11
730.0
 21
2070.0
 31
0.0
  0
LINE
  5
553
  8
SERVICESPACE
  6
DASHDOT
 10
0.0
 20
2070.0
 30
0.0
 11
1330.0
 21
2070.0
 31
0.0
  0
LINE
  5
554
  8
SERVICESPACE
  6
DASHDOT
 10
0.0
 20
1870.0
 30
0.0
 11
0.0
 21
2070.0
 31
0.0
  0
TEXT
  5
555
  8
ETC
  6
CONTINUOUS
 10
1393.557739
 20
2242.146484
 30
0.0
 40
40.0
  1
TT3767F5
 50
0.000003
 41
0.6125
  7
STANDARD1
  0
TEXT
  5
556
  8
ETC
  6
CONTINUOUS
 10
1393.557739
 20
2172.146484
 30
0.0
 40
40.0
  1
電気温水器
 50
0.000003
 41
0.84375
  7
STANDARD1
  0
ENDSEC
  0
EOF
