  0
SECTION
  2
HEADER
  9
$ACADVER
  1
AC1009
  9
$INSBASE
 10
0.0
 20
0.0
 30
0.0
  9
$EXTMIN
 10
-997.4
 20
-820.929156
 30
0.0
  9
$EXTMAX
 10
1207.346391
 20
691.923621
 30
0.0
  9
$LIMMIN
 10
0.0
 20
0.0
  9
$LIMMAX
 10
12.0
 20
9.0
  9
$ORTHOMODE
 70
     0
  9
$REGENMODE
 70
     1
  9
$FILLMODE
 70
     1
  9
$QTEXTMODE
 70
     0
  9
$MIRRTEXT
 70
     1
  9
$DRAGMODE
 70
     2
  9
$LTSCALE
 40
1.0
  9
$OSMODE
 70
     0
  9
$ATTMODE
 70
     1
  9
$TEXTSIZE
 40
40.0
  9
$TRACEWID
 40
0.05
  9
$TEXTSTYLE
  7
STANDARD1
  9
$CLAYER
  8
0
  9
$CELTYPE
  6
CONTINUOUS
  9
$CECOLOR
 62
   256
  9
$DIMSCALE
 40
1.0
  9
$DIMASZ
 40
10.0
  9
$DIMEXO
 40
10.0
  9
$DIMDLI
 40
8.0
  9
$DIMRND
 40
0.0
  9
$DIMDLE
 40
0.0
  9
$DIMEXE
 40
12.5
  9
$DIMTP
 40
0.0
  9
$DIMTM
 40
0.0
  9
$DIMTXT
 40
30.0
  9
$DIMCEN
 40
2.5
  9
$DIMTSZ
 40
0.0
  9
$DIMTOL
 70
     0
  9
$DIMLIM
 70
     0
  9
$DIMTIH
 70
     0
  9
$DIMTOH
 70
     0
  9
$DIMSE1
 70
     0
  9
$DIMSE2
 70
     0
  9
$DIMTAD
 70
     3
  9
$DIMZIN
 70
    12
  9
$DIMBLK
  1

  9
$DIMASO
 70
     1
  9
$DIMSHO
 70
     1
  9
$DIMPOST
  1

  9
$DIMAPOST
  1

  9
$DIMALT
 70
     0
  9
$DIMALTD
 70
     4
  9
$DIMALTF
 40
25.4
  9
$DIMLFAC
 40
1.0
  9
$DIMTOFL
 70
     1
  9
$DIMTVP
 40
0.0
  9
$DIMTIX
 70
     0
  9
$DIMSOXD
 70
     0
  9
$DIMSAH
 70
     1
  9
$DIMBLK1
  1
_ORIGIN
  9
$DIMBLK2
  1
_ORIGIN
  9
$DIMSTYLE
  2
STANDARD
  9
$DIMCLRD
 70
     0
  9
$DIMCLRE
 70
     0
  9
$DIMCLRT
 70
     0
  9
$DIMTFAC
 40
1.0
  9
$DIMGAP
 40
0.09
  9
$LUNITS
 70
     2
  9
$LUPREC
 70
     3
  9
$SKETCHINC
 40
0.1
  9
$FILLETRAD
 40
0.0
  9
$AUNITS
 70
     0
  9
$AUPREC
 70
     0
  9
$MENU
  1
acad
  9
$ELEVATION
 40
0.0
  9
$PELEVATION
 40
0.0
  9
$THICKNESS
 40
0.0
  9
$LIMCHECK
 70
     0
  9
$BLIPMODE
 70
     0
  9
$CHAMFERA
 40
0.0
  9
$CHAMFERB
 40
0.0
  9
$SKPOLY
 70
     0
  9
$TDCREATE
 40
2452265.640613
  9
$TDUPDATE
 40
2452265.640613
  9
$TDINDWG
 40
0.0
  9
$TDUSRTIMER
 40
0.0
  9
$USRTIMER
 70
     1
  9
$ANGBASE
 50
0.0
  9
$ANGDIR
 70
     0
  9
$PDMODE
 70
     0
  9
$PDSIZE
 40
0.0
  9
$PLINEWID
 40
0.0
  9
$COORDS
 70
     1
  9
$SPLFRAME
 70
     0
  9
$SPLINETYPE
 70
     6
  9
$SPLINESEGS
 70
     8
  9
$ATTDIA
 70
     0
  9
$ATTREQ
 70
     1
  9
$HANDLING
 70
     1
  9
$HANDSEED
  5
4E5
  9
$SURFTAB1
 70
     6
  9
$SURFTAB2
 70
     6
  9
$SURFTYPE
 70
     6
  9
$SURFU
 70
     6
  9
$SURFV
 70
     6
  9
$UCSNAME
  2

  9
$UCSORG
 10
0.0
 20
0.0
 30
0.0
  9
$UCSXDIR
 10
1.0
 20
0.0
 30
0.0
  9
$UCSYDIR
 10
0.0
 20
1.0
 30
0.0
  9
$PUCSNAME
  2

  9
$PUCSORG
 10
0.0
 20
0.0
 30
0.0
  9
$PUCSXDIR
 10
1.0
 20
0.0
 30
0.0
  9
$PUCSYDIR
 10
0.0
 20
1.0
 30
0.0
  9
$USERI1
 70
     0
  9
$USERI2
 70
     0
  9
$USERI3
 70
     0
  9
$USERI4
 70
     0
  9
$USERI5
 70
     0
  9
$USERR1
 40
0.0
  9
$USERR2
 40
0.0
  9
$USERR3
 40
0.0
  9
$USERR4
 40
0.0
  9
$USERR5
 40
0.0
  9
$WORLDVIEW
 70
     1
  9
$SHADEDGE
 70
     3
  9
$SHADEDIF
 70
    70
  9
$TILEMODE
 70
     1
  9
$MAXACTVP
 70
    48
  9
$PLIMCHECK
 70
     0
  9
$PEXTMIN
 10
1.000000E+020
 20
1.000000E+020
 30
1.000000E+020
  9
$PEXTMAX
 10
-1.000000E+020
 20
-1.000000E+020
 30
-1.000000E+020
  9
$PLIMMIN
 10
0.0
 20
0.0
  9
$PLIMMAX
 10
12.0
 20
9.0
  9
$UNITMODE
 70
     0
  9
$VISRETAIN
 70
     1
  9
$PLINEGEN
 70
     0
  9
$PSLTSCALE
 70
     1
  0
ENDSEC
  0
SECTION
  2
TABLES
  0
TABLE
  2
VPORT
 70
     2
  0
VPORT
  2
*ACTIVE
 70
     0
 10
0.0
 20
0.0
 11
1.0
 21
1.0
 12
104.973196
 22
-64.502767
 13
0.0
 23
0.0
 14
1.0
 24
1.0
 15
0.0
 25
0.0
 16
0.0
 26
0.0
 36
1.0
 17
0.0
 27
0.0
 37
0.0
 40
1541.760792
 41
2.827476
 42
50.0
 43
0.0
 44
0.0
 50
0.0
 51
0.0
 71
     0
 72
   100
 73
     1
 74
     1
 75
     0
 76
     0
 77
     0
 78
     0
  0
ENDTAB
  0
TABLE
  2
LTYPE
 70
     4
  0
LTYPE
  2
CONTINUOUS
 70
     0
  3
Solid line
 72
    65
 73
     0
 40
0.0
  0
LTYPE
  2
DASHED
 70
     0
  3
-- -- -- -- -- -- -- -- -- -- -- -- -- -- --
 72
    65
 73
     2
 40
0.75
 49
0.5
 49
-0.25
  0
LTYPE
  2
DASHDOT
 70
     0
  3
__ . __ . __ . __ . __ . __ . __ . __ . __ . __
 72
    65
 73
     4
 40
125.0
 49
80.0
 49
-20.0
 49
5.0
 49
-20.0
  0
LTYPE
  2
DIVIDE
 70
     0
  3
__ . . __ . . __ . . __ . . __ . . __ . . __
 72
    65
 73
     6
 40
1.25
 49
0.5
 49
-0.25
 49
0.0
 49
-0.25
 49
0.0
 49
-0.25
  0
ENDTAB
  0
TABLE
  2
LAYER
 70
    12
  0
LAYER
  2
0
 70
     0
 62
     3
  6
CONTINUOUS
  0
LAYER
  2
OUTLINE
 70
     0
 62
     3
  6
CONTINUOUS
  0
LAYER
  2
DETAIL
 70
     0
 62
     5
  6
CONTINUOUS
  0
LAYER
  2
BASIS
 70
     0
 62
     6
  6
CONTINUOUS
  0
LAYER
  2
SIZE
 70
     0
 62
    30
  6
CONTINUOUS
  0
LAYER
  2
NOTE
 70
     0
 62
     4
  6
CONTINUOUS
  0
LAYER
  2
ARRANGE
 70
     0
 62
     1
  6
CONTINUOUS
  0
LAYER
  2
FIX
 70
     0
 62
    11
  6
CONTINUOUS
  0
LAYER
  2
SERVICESPACE
 70
     0
 62
     2
  6
CONTINUOUS
  0
LAYER
  2
ETC
 70
     0
 62
    61
  6
CONTINUOUS
  0
LAYER
  2
SYMBOLLINE
 70
     0
 62
     7
  6
CONTINUOUS
  0
LAYER
  2
DEFPOINTS
 70
     0
 62
     7
  6
CONTINUOUS
  0
ENDTAB
  0
TABLE
  2
STYLE
 70
     5
  0
STYLE
  2
STANDARD
 70
     0
 40
0.0
 41
1.0
 50
0.0
 71
     0
 42
0.2
  3
txt
  4

  0
STYLE
  2
STANDARD1
 70
     0
 40
0.0
 41
1.0
 50
0.0
 71
     0
 42
40.0
  3
MONOTXT
  4
BIGFONT
  0
STYLE
  2
STANDARD2
 70
     4
 40
0.0
 41
1.0
 50
0.0
 71
     0
 42
40.0
  3
MONOTXT
  4
BIGFONT
  0
STYLE
  2
STANDARD3
 70
     0
 40
0.0
 41
1.0
 50
0.0
 71
     0
 42
40.0
  3
MONOTXT
  4

  0
STYLE
  2
STANDARD4
 70
     4
 40
0.0
 41
1.0
 50
0.0
 71
     0
 42
40.0
  3
MONOTXT
  4

  0
ENDTAB
  0
TABLE
  2
VIEW
 70
     0
  0
ENDTAB
  0
TABLE
  2
UCS
 70
     0
  0
ENDTAB
  0
TABLE
  2
APPID
 70
     1
  0
APPID
  2
ACAD
 70
     0
  0
ENDTAB
  0
TABLE
  2
DIMSTYLE
 70
     1
  0
DIMSTYLE
  2
STANDARD
 70
     0
  3

  4

  5

  6

  7

 40
1.0
 41
0.18
 42
0.0625
 43
0.38
 44
0.18
 45
0.0
 46
0.0
 47
0.0
 48
0.0
140
0.18
141
0.09
142
0.0
143
25.4
144
1.0
145
0.0
146
1.0
147
0.09
 71
     0
 72
     0
 73
     1
 74
     1
 75
     0
 76
     0
 77
     0
 78
     0
170
     0
171
     2
172
     0
173
     0
174
     0
175
     0
176
     0
177
     0
178
     0
  0
ENDTAB
  0
ENDSEC
  0
SECTION
  2
BLOCKS
  0
BLOCK
  8
0
  2
$MODEL_SPACE
 70
     0
 10
0.0
 20
0.0
 30
0.0
  3
$MODEL_SPACE
  1

  0
ENDBLK
  5
1A
  8
0
  0
BLOCK
 67
     1
  8
0
  2
$PAPER_SPACE
 70
     0
 10
0.0
 20
0.0
 30
0.0
  3
$PAPER_SPACE
  1

  0
ENDBLK
  5
17
 67
     1
  8
0
  0
BLOCK
  8
SIZE
  2
*D0
 70
     1
 10
0.0
 20
0.0
 30
0.0
  3
*D0
  1

  0
TEXT
  5
35
  8
SIZE
  6
CONTINUOUS
 10
-282.940002
 20
201.291834
 30
0.0
 40
2.8
  1
250
 50
0.000003
 41
0.7
  7
STANDARD1
  0
LINE
  5
36
  8
SIZE
  6
CONTINUOUS
 10
-405.0
 20
-24.0
 30
0.0
 11
-405.0
 21
202.29184
 31
0.0
  0
LINE
  5
37
  8
SIZE
  6
CONTINUOUS
 10
-155.0
 20
-42.0
 30
0.0
 11
-155.0
 21
202.29184
 31
0.0
  0
LINE
  5
38
  8
SIZE
  6
CONTINUOUS
 10
-405.0
 20
200.29184
 30
0.0
 11
-155.0
 21
200.29184
 31
0.0
  0
INSERT
  5
3A
  8
SIZE
  2
DOT
 10
-405.0
 20
200.29184
 30
0.0
 50
180.0
  0
INSERT
  5
3B
  8
SIZE
  2
DOT
 10
-155.0
 20
200.29184
 30
0.0
  0
POINT
  5
3C
  8
DEFPOINTS
  6
BYBLOCK
 10
-155.0
 20
-43.0
 30
0.0
  0
POINT
  5
3D
  8
DEFPOINTS
  6
BYBLOCK
 10
-405.0
 20
-25.0
 30
0.0
  0
POINT
  5
3E
  8
DEFPOINTS
  6
BYBLOCK
 10
-405.0
 20
200.29184
 30
0.0
  0
ENDBLK
  5
3F
  8
SIZE
  0
BLOCK
  8
SIZE
  2
DOT
 70
     0
 10
0.0
 20
0.0
 30
0.0
  3
DOT
  1

  0
POLYLINE
  5
41
  8
0
  6
BYBLOCK
 66
     1
 10
0.0
 20
0.0
 30
0.0
 70
     1
 40
0.5
 41
0.5
  0
VERTEX
  5
42
  8
0
  6
BYBLOCK
 10
-0.25
 20
0.0
 30
0.0
 42
1.0
  0
VERTEX
  5
43
  8
0
  6
BYBLOCK
 10
0.25
 20
0.0
 30
0.0
 42
1.0
  0
SEQEND
  5
44
  8
0
  6
BYBLOCK
  0
LINE
  5
45
  8
0
  6
BYBLOCK
 10
-0.5
 20
0.0
 30
0.0
 11
-1.0
 21
0.0
 31
0.0
  0
ENDBLK
  5
46
  8
SIZE
  0
BLOCK
  8
SIZE
  2
*D2
 70
     1
 10
0.0
 20
0.0
 30
0.0
  3
*D2
  1

  0
TEXT
  5
49
  8
SIZE
  6
CONTINUOUS
 10
-656.000024
 20
-33.459999
 30
0.0
 40
2.8
  1
63
 50
90.000005
 41
0.7
  7
STANDARD1
  0
LINE
  5
4A
  8
SIZE
  6
CONTINUOUS
 10
-381.0
 20
0.0
 30
0.0
 11
-657.0
 21
0.0
 31
0.0
  0
LINE
  5
4B
  8
SIZE
  6
CONTINUOUS
 10
-176.0
 20
-63.0
 30
0.0
 11
-657.0
 21
-63.0
 31
0.0
  0
LINE
  5
4C
  8
SIZE
  6
CONTINUOUS
 10
-655.0
 20
0.0
 30
0.0
 11
-655.0
 21
-63.0
 31
0.0
  0
INSERT
  5
4D
  8
SIZE
  2
DOT
 10
-655.0
 20
0.0
 30
0.0
 50
90.0
  0
INSERT
  5
4E
  8
SIZE
  2
DOT
 10
-655.0
 20
-63.0
 30
0.0
 50
270.0
  0
POINT
  5
4F
  8
DEFPOINTS
  6
BYBLOCK
 10
-175.0
 20
-63.0
 30
0.0
  0
POINT
  5
50
  8
DEFPOINTS
  6
BYBLOCK
 10
-380.0
 20
0.0
 30
0.0
  0
POINT
  5
51
  8
DEFPOINTS
  6
BYBLOCK
 10
-655.0
 20
0.0
 30
0.0
  0
ENDBLK
  5
52
  8
SIZE
  0
BLOCK
  8
SIZE
  2
*D3
 70
     1
 10
0.0
 20
0.0
 30
0.0
  3
*D3
  1

  0
TEXT
  5
55
  8
SIZE
  6
CONTINUOUS
 10
553.999976
 20
116.315483
 30
0.0
 40
2.8
  1
16.5
 50
90.000005
 41
0.7
  7
STANDARD1
  0
LINE
  5
56
  8
SIZE
  6
CONTINUOUS
 10
286.0
 20
16.5
 30
0.0
 11
557.0
 21
16.5
 31
0.0
  0
LINE
  5
57
  8
SIZE
  6
CONTINUOUS
 10
381.0
 20
0.0
 30
0.0
 11
557.0
 21
0.0
 31
0.0
  0
LINE
  5
58
  8
SIZE
  6
CONTINUOUS
 10
555.0
 20
125.555481
 30
0.0
 11
555.0
 21
-5.0
 31
0.0
  0
INSERT
  5
59
  8
SIZE
  2
DOT
 10
555.0
 20
16.5
 30
0.0
 50
90.0
  0
INSERT
  5
5A
  8
SIZE
  2
DOT
 10
555.0
 20
0.0
 30
0.0
 50
270.0
  0
POINT
  5
5B
  8
DEFPOINTS
  6
BYBLOCK
 10
380.0
 20
0.0
 30
0.0
  0
POINT
  5
5C
  8
DEFPOINTS
  6
BYBLOCK
 10
285.0
 20
16.5
 30
0.0
  0
POINT
  5
5D
  8
DEFPOINTS
  6
BYBLOCK
 10
555.0
 20
16.5
 30
0.0
  0
ENDBLK
  5
5E
  8
SIZE
  0
BLOCK
  8
SIZE
  2
*D4
 70
     1
 10
0.0
 20
0.0
 30
0.0
  3
*D4
  1

  0
TEXT
  5
61
  8
SIZE
  6
CONTINUOUS
 10
-756.000024
 20
-162.940002
 30
0.0
 40
2.8
  1
320
 50
90.000005
 41
0.7
  7
STANDARD1
  0
LINE
  5
62
  8
SIZE
  6
CONTINUOUS
 10
-506.0
 20
0.0
 30
0.0
 11
-757.0
 21
0.0
 31
0.0
  0
LINE
  5
63
  8
SIZE
  6
CONTINUOUS
 10
-506.0
 20
-320.0
 30
0.0
 11
-757.0
 21
-320.0
 31
0.0
  0
LINE
  5
64
  8
SIZE
  6
CONTINUOUS
 10
-755.0
 20
0.0
 30
0.0
 11
-755.0
 21
-320.0
 31
0.0
  0
INSERT
  5
65
  8
SIZE
  2
DOT
 10
-755.0
 20
0.0
 30
0.0
 50
90.0
  0
INSERT
  5
66
  8
SIZE
  2
DOT
 10
-755.0
 20
-320.0
 30
0.0
 50
270.0
  0
POINT
  5
67
  8
DEFPOINTS
  6
BYBLOCK
 10
-505.0
 20
-320.0
 30
0.0
  0
POINT
  5
68
  8
DEFPOINTS
  6
BYBLOCK
 10
-505.0
 20
0.0
 30
0.0
  0
POINT
  5
69
  8
DEFPOINTS
  6
BYBLOCK
 10
-755.0
 20
0.0
 30
0.0
  0
ENDBLK
  5
6A
  8
SIZE
  0
BLOCK
  8
SIZE
  2
*D5
 70
     1
 10
0.0
 20
0.0
 30
0.0
  3
*D5
  1

  0
TEXT
  5
6D
  8
SIZE
  6
CONTINUOUS
 10
-52.939999
 20
650.523645
 30
0.0
 40
2.8
  1
910
 50
0.000003
 41
0.7
  7
STANDARD1
  0
LINE
  5
6E
  8
SIZE
  6
CONTINUOUS
 10
405.0
 20
101.0
 30
0.0
 11
405.0
 21
651.523621
 31
0.0
  0
LINE
  5
6F
  8
SIZE
  6
CONTINUOUS
 10
-505.0
 20
101.0
 30
0.0
 11
-505.0
 21
651.523621
 31
0.0
  0
LINE
  5
70
  8
SIZE
  6
CONTINUOUS
 10
405.0
 20
649.523621
 30
0.0
 11
-505.0
 21
649.523621
 31
0.0
  0
INSERT
  5
71
  8
SIZE
  2
DOT
 10
405.0
 20
649.523621
 30
0.0
  0
INSERT
  5
72
  8
SIZE
  2
DOT
 10
-505.0
 20
649.523621
 30
0.0
 50
180.0
  0
POINT
  5
73
  8
DEFPOINTS
  6
BYBLOCK
 10
-505.0
 20
100.0
 30
0.0
  0
POINT
  5
74
  8
DEFPOINTS
  6
BYBLOCK
 10
405.0
 20
100.0
 30
0.0
  0
POINT
  5
75
  8
DEFPOINTS
  6
BYBLOCK
 10
405.0
 20
649.523621
 30
0.0
  0
ENDBLK
  5
76
  8
SIZE
  0
BLOCK
  8
SIZE
  2
*D6
 70
     1
 10
0.0
 20
0.0
 30
0.0
  3
*D6
  1

  0
TEXT
  5
79
  8
SIZE
  6
CONTINUOUS
 10
-327.940002
 20
351.098596
 30
0.0
 40
2.8
  1
160
 50
0.000003
 41
0.7
  7
STANDARD1
  0
LINE
  5
7A
  8
SIZE
  6
CONTINUOUS
 10
-245.0
 20
37.5
 30
0.0
 11
-245.0
 21
352.098602
 31
0.0
  0
LINE
  5
7B
  8
SIZE
  6
CONTINUOUS
 10
-405.0
 20
-24.0
 30
0.0
 11
-405.0
 21
352.098602
 31
0.0
  0
LINE
  5
7C
  8
SIZE
  6
CONTINUOUS
 10
-245.0
 20
350.098602
 30
0.0
 11
-405.0
 21
350.098602
 31
0.0
  0
INSERT
  5
7D
  8
SIZE
  2
DOT
 10
-245.0
 20
350.098602
 30
0.0
  0
INSERT
  5
7E
  8
SIZE
  2
DOT
 10
-405.0
 20
350.098602
 30
0.0
 50
180.0
  0
POINT
  5
7F
  8
DEFPOINTS
  6
BYBLOCK
 10
-405.0
 20
-25.0
 30
0.0
  0
POINT
  5
80
  8
DEFPOINTS
  6
BYBLOCK
 10
-245.0
 20
36.5
 30
0.0
  0
POINT
  5
81
  8
DEFPOINTS
  6
BYBLOCK
 10
-245.0
 20
350.098602
 30
0.0
  0
ENDBLK
  5
82
  8
SIZE
  0
BLOCK
  8
SIZE
  2
*D7
 70
     1
 10
0.0
 20
0.0
 30
0.0
  3
*D7
  1

  0
TEXT
  5
85
  8
SIZE
  6
CONTINUOUS
 10
553.999976
 20
-162.940002
 30
0.0
 40
2.8
  1
320
 50
90.000005
 41
0.7
  7
STANDARD1
  0
LINE
  5
86
  8
SIZE
  6
CONTINUOUS
 10
381.0
 20
0.0
 30
0.0
 11
557.0
 21
0.0
 31
0.0
  0
LINE
  5
87
  8
SIZE
  6
CONTINUOUS
 10
381.0
 20
-320.0
 30
0.0
 11
557.0
 21
-320.0
 31
0.0
  0
LINE
  5
88
  8
SIZE
  6
CONTINUOUS
 10
555.0
 20
0.0
 30
0.0
 11
555.0
 21
-320.0
 31
0.0
  0
INSERT
  5
89
  8
SIZE
  2
DOT
 10
555.0
 20
0.0
 30
0.0
 50
90.0
  0
INSERT
  5
8A
  8
SIZE
  2
DOT
 10
555.0
 20
-320.0
 30
0.0
 50
270.0
  0
POINT
  5
8B
  8
DEFPOINTS
  6
BYBLOCK
 10
380.0
 20
-320.0
 30
0.0
  0
POINT
  5
8C
  8
DEFPOINTS
  6
BYBLOCK
 10
380.0
 20
0.0
 30
0.0
  0
POINT
  5
8D
  8
DEFPOINTS
  6
BYBLOCK
 10
555.0
 20
0.0
 30
0.0
  0
ENDBLK
  5
8E
  8
SIZE
  0
BLOCK
  8
SIZE
  2
*D8
 70
     1
 10
0.0
 20
0.0
 30
0.0
  3
*D8
  1

  0
TEXT
  5
91
  8
SIZE
  6
CONTINUOUS
 10
-856.000024
 20
55.984791
 30
0.0
 40
2.8
  1
15
 50
90.000005
 41
0.7
  7
STANDARD1
  0
LINE
  5
92
  8
SIZE
  6
CONTINUOUS
 10
-268.0
 20
31.5
 30
0.0
 11
-857.0
 21
31.5
 31
0.0
  0
LINE
  5
93
  8
SIZE
  6
CONTINUOUS
 10
-266.0
 20
16.5
 30
0.0
 11
-857.0
 21
16.5
 31
0.0
  0
LINE
  5
94
  8
SIZE
  6
CONTINUOUS
 10
-855.0
 20
61.30479
 30
0.0
 11
-855.0
 21
11.5
 31
0.0
  0
INSERT
  5
95
  8
SIZE
  2
DOT
 10
-855.0
 20
31.5
 30
0.0
 50
90.0
  0
INSERT
  5
96
  8
SIZE
  2
DOT
 10
-855.0
 20
16.5
 30
0.0
 50
270.0
  0
POINT
  5
97
  8
DEFPOINTS
  6
BYBLOCK
 10
-265.0
 20
16.5
 30
0.0
  0
POINT
  5
98
  8
DEFPOINTS
  6
BYBLOCK
 10
-267.0
 20
31.5
 30
0.0
  0
POINT
  5
99
  8
DEFPOINTS
  6
BYBLOCK
 10
-855.0
 20
31.5
 30
0.0
  0
ENDBLK
  5
9A
  8
SIZE
  0
BLOCK
  8
SIZE
  2
*D9
 70
     1
 10
0.0
 20
0.0
 30
0.0
  3
*D9
  1

  0
TEXT
  5
9D
  8
SIZE
  6
CONTINUOUS
 10
-145.940002
 20
-568.999976
 30
0.0
 40
2.8
  1
456
 50
0.000003
 41
0.7
  7
STANDARD1
  0
LINE
  5
9E
  8
SIZE
  6
CONTINUOUS
 10
85.0
 20
-325.415924
 30
0.0
 11
85.0
 21
-572.0
 31
0.0
  0
LINE
  5
9F
  8
SIZE
  6
CONTINUOUS
 10
-371.0
 20
-325.415924
 30
0.0
 11
-371.0
 21
-572.0
 31
0.0
  0
LINE
  5
A0
  8
SIZE
  6
CONTINUOUS
 10
85.0
 20
-570.0
 30
0.0
 11
-371.0
 21
-570.0
 31
0.0
  0
INSERT
  5
A1
  8
SIZE
  2
DOT
 10
85.0
 20
-570.0
 30
0.0
  0
INSERT
  5
A2
  8
SIZE
  2
DOT
 10
-371.0
 20
-570.0
 30
0.0
 50
180.0
  0
POINT
  5
A3
  8
DEFPOINTS
  6
BYBLOCK
 10
-371.0
 20
-324.415924
 30
0.0
  0
POINT
  5
A4
  8
DEFPOINTS
  6
BYBLOCK
 10
85.0
 20
-324.415924
 30
0.0
  0
POINT
  5
A5
  8
DEFPOINTS
  6
BYBLOCK
 10
85.0
 20
-570.0
 30
0.0
  0
ENDBLK
  5
A6
  8
SIZE
  0
BLOCK
  8
SIZE
  2
*D10
 70
     1
 10
0.0
 20
0.0
 30
0.0
  3
*D10
  1

  0
TEXT
  5
A9
  8
SIZE
  6
CONTINUOUS
 10
165.031958
 20
-385.879059
 30
0.0
 40
2.8
  1
14
 50
90.000005
 41
0.7
  7
STANDARD1
  0
LINE
  5
AA
  8
SIZE
  6
CONTINUOUS
 10
-142.0
 20
-334.0
 30
0.0
 11
168.031952
 21
-334.0
 31
0.0
  0
LINE
  5
AB
  8
SIZE
  6
CONTINUOUS
 10
166.031952
 20
-387.279053
 30
0.0
 11
166.031952
 21
-315.0
 31
0.0
  0
INSERT
  5
AC
  8
SIZE
  2
DOT
 10
166.031952
 20
-334.0
 30
0.0
 50
270.0
  0
INSERT
  5
AD
  8
SIZE
  2
DOT
 10
166.031952
 20
-320.0
 30
0.0
 50
90.0
  0
POINT
  5
AE
  8
DEFPOINTS
  6
BYBLOCK
 10
405.0
 20
-320.0
 30
0.0
  0
POINT
  5
AF
  8
DEFPOINTS
  6
BYBLOCK
 10
-143.0
 20
-334.0
 30
0.0
  0
POINT
  5
B0
  8
DEFPOINTS
  6
BYBLOCK
 10
166.031952
 20
-334.0
 30
0.0
  0
ENDBLK
  5
B1
  8
SIZE
  0
BLOCK
  8
SIZE
  2
*D11
 70
     1
 10
0.0
 20
0.0
 30
0.0
  3
*D11
  1

  0
TEXT
  5
B4
  8
SIZE
  6
CONTINUOUS
 10
128.059998
 20
-469.000006
 30
0.0
 40
2.8
  1
548
 50
0.000003
 41
0.7
  7
STANDARD1
  0
LINE
  5
B5
  8
SIZE
  6
CONTINUOUS
 10
405.0
 20
-296.0
 30
0.0
 11
405.0
 21
-472.0
 31
0.0
  0
LINE
  5
B6
  8
SIZE
  6
CONTINUOUS
 10
-143.0
 20
-385.0
 30
0.0
 11
-143.0
 21
-472.0
 31
0.0
  0
LINE
  5
B7
  8
SIZE
  6
CONTINUOUS
 10
405.0
 20
-470.0
 30
0.0
 11
-143.0
 21
-470.0
 31
0.0
  0
INSERT
  5
B8
  8
SIZE
  2
DOT
 10
405.0
 20
-470.0
 30
0.0
  0
INSERT
  5
B9
  8
SIZE
  2
DOT
 10
-143.0
 20
-470.0
 30
0.0
 50
180.0
  0
POINT
  5
BA
  8
DEFPOINTS
  6
BYBLOCK
 10
-143.0
 20
-384.0
 30
0.0
  0
POINT
  5
BB
  8
DEFPOINTS
  6
BYBLOCK
 10
405.0
 20
-295.0
 30
0.0
  0
POINT
  5
BC
  8
DEFPOINTS
  6
BYBLOCK
 10
405.0
 20
-470.0
 30
0.0
  0
ENDBLK
  5
BD
  8
SIZE
  0
BLOCK
  8
SIZE
  2
*D12
 70
     1
 10
0.0
 20
0.0
 30
0.0
  3
*D12
  1

  0
TEXT
  5
C0
  8
SIZE
  6
CONTINUOUS
 10
753.999976
 20
-99.440002
 30
0.0
 40
2.8
  1
226
 50
90.000005
 41
0.7
  7
STANDARD1
  0
LINE
  5
C1
  8
SIZE
  6
CONTINUOUS
 10
286.0
 20
16.5
 30
0.0
 11
757.0
 21
16.5
 31
0.0
  0
LINE
  5
C2
  8
SIZE
  6
CONTINUOUS
 10
458.0
 20
-209.5
 30
0.0
 11
757.0
 21
-209.5
 31
0.0
  0
LINE
  5
C3
  8
SIZE
  6
CONTINUOUS
 10
755.0
 20
16.5
 30
0.0
 11
755.0
 21
-209.5
 31
0.0
  0
INSERT
  5
C4
  8
SIZE
  2
DOT
 10
755.0
 20
16.5
 30
0.0
 50
90.0
  0
INSERT
  5
C5
  8
SIZE
  2
DOT
 10
755.0
 20
-209.5
 30
0.0
 50
270.0
  0
POINT
  5
C6
  8
DEFPOINTS
  6
BYBLOCK
 10
457.0
 20
-209.5
 30
0.0
  0
POINT
  5
C7
  8
DEFPOINTS
  6
BYBLOCK
 10
285.0
 20
16.5
 30
0.0
  0
POINT
  5
C8
  8
DEFPOINTS
  6
BYBLOCK
 10
755.0
 20
16.5
 30
0.0
  0
ENDBLK
  5
C9
  8
SIZE
  0
BLOCK
  8
SIZE
  2
*D13
 70
     1
 10
0.0
 20
0.0
 30
0.0
  3
*D13
  1

  0
TEXT
  5
CC
  8
SIZE
  6
CONTINUOUS
 10
653.999976
 20
-18.960001
 30
0.0
 40
2.8
  1
67
 50
90.000005
 41
0.7
  7
STANDARD1
  0
LINE
  5
CD
  8
SIZE
  6
CONTINUOUS
 10
286.0
 20
16.5
 30
0.0
 11
657.0
 21
16.5
 31
0.0
  0
LINE
  5
CE
  8
SIZE
  6
CONTINUOUS
 10
458.0
 20
-50.5
 30
0.0
 11
657.0
 21
-50.5
 31
0.0
  0
LINE
  5
CF
  8
SIZE
  6
CONTINUOUS
 10
655.0
 20
16.5
 30
0.0
 11
655.0
 21
-50.5
 31
0.0
  0
INSERT
  5
D0
  8
SIZE
  2
DOT
 10
655.0
 20
16.5
 30
0.0
 50
90.0
  0
INSERT
  5
D1
  8
SIZE
  2
DOT
 10
655.0
 20
-50.5
 30
0.0
 50
270.0
  0
POINT
  5
D2
  8
DEFPOINTS
  6
BYBLOCK
 10
457.0
 20
-50.5
 30
0.0
  0
POINT
  5
D3
  8
DEFPOINTS
  6
BYBLOCK
 10
285.0
 20
16.5
 30
0.0
  0
POINT
  5
D4
  8
DEFPOINTS
  6
BYBLOCK
 10
655.0
 20
16.5
 30
0.0
  0
ENDBLK
  5
D5
  8
SIZE
  0
BLOCK
  8
SIZE
  2
*D14
 70
     1
 10
0.0
 20
0.0
 30
0.0
  3
*D14
  1

  0
TEXT
  5
D8
  8
SIZE
  6
CONTINUOUS
 10
-756.000024
 20
135.722519
 30
0.0
 40
2.8
  1
100
 50
90.000005
 41
0.7
  7
STANDARD1
  0
LINE
  5
D9
  8
SIZE
  6
CONTINUOUS
 10
-506.0
 20
100.0
 30
0.0
 11
-757.0
 21
100.0
 31
0.0
  0
LINE
  5
DA
  8
SIZE
  6
CONTINUOUS
 10
-506.0
 20
0.0
 30
0.0
 11
-757.0
 21
0.0
 31
0.0
  0
LINE
  5
DB
  8
SIZE
  6
CONTINUOUS
 10
-755.0
 20
143.002518
 30
0.0
 11
-755.0
 21
-5.0
 31
0.0
  0
INSERT
  5
DC
  8
SIZE
  2
DOT
 10
-755.0
 20
100.0
 30
0.0
 50
90.0
  0
INSERT
  5
DD
  8
SIZE
  2
DOT
 10
-755.0
 20
0.0
 30
0.0
 50
270.0
  0
POINT
  5
DE
  8
DEFPOINTS
  6
BYBLOCK
 10
-505.0
 20
0.0
 30
0.0
  0
POINT
  5
DF
  8
DEFPOINTS
  6
BYBLOCK
 10
-505.0
 20
100.0
 30
0.0
  0
POINT
  5
E0
  8
DEFPOINTS
  6
BYBLOCK
 10
-755.0
 20
100.0
 30
0.0
  0
ENDBLK
  5
E1
  8
SIZE
  0
BLOCK
  8
SIZE
  2
*D15
 70
     1
 10
0.0
 20
0.0
 30
0.0
  3
*D15
  1

  0
TEXT
  5
E4
  8
SIZE
  6
CONTINUOUS
 10
26.0
 20
-422.07785
 30
0.0
 40
2.8
  1
56
 50
90.000005
 41
0.7
  7
STANDARD1
  0
LINE
  5
E5
  8
SIZE
  6
CONTINUOUS
 10
-222.0
 20
-295.5
 30
0.0
 11
29.0
 21
-295.5
 31
0.0
  0
LINE
  5
E6
  8
SIZE
  6
CONTINUOUS
 10
-222.0
 20
-351.5
 30
0.0
 11
29.0
 21
-351.5
 31
0.0
  0
LINE
  5
E7
  8
SIZE
  6
CONTINUOUS
 10
27.0
 20
-290.5
 30
0.0
 11
27.0
 21
-423.477844
 31
0.0
  0
INSERT
  5
E8
  8
SIZE
  2
DOT
 10
27.0
 20
-295.5
 30
0.0
 50
90.0
  0
INSERT
  5
E9
  8
SIZE
  2
DOT
 10
27.0
 20
-351.5
 30
0.0
 50
270.0
  0
POINT
  5
EA
  8
DEFPOINTS
  6
BYBLOCK
 10
-223.0
 20
-351.5
 30
0.0
  0
POINT
  5
EB
  8
DEFPOINTS
  6
BYBLOCK
 10
-223.0
 20
-295.5
 30
0.0
  0
POINT
  5
EC
  8
DEFPOINTS
  6
BYBLOCK
 10
27.0
 20
-295.5
 30
0.0
  0
ENDBLK
  5
ED
  8
SIZE
  0
BLOCK
  8
SIZE
  2
*D16
 70
     1
 10
0.0
 20
0.0
 30
0.0
  3
*D16
  1

  0
TEXT
  5
F0
  8
SIZE
  6
CONTINUOUS
 10
-340.221527
 20
-469.000006
 30
0.0
 40
2.8
  1
44
 50
0.000003
 41
0.7
  7
STANDARD1
  0
LINE
  5
F1
  8
SIZE
  6
CONTINUOUS
 10
-223.0
 20
-352.5
 30
0.0
 11
-223.0
 21
-472.0
 31
0.0
  0
LINE
  5
F2
  8
SIZE
  6
CONTINUOUS
 10
-267.0
 20
-352.5
 30
0.0
 11
-267.0
 21
-472.0
 31
0.0
  0
LINE
  5
F3
  8
SIZE
  6
CONTINUOUS
 10
-218.0
 20
-470.0
 30
0.0
 11
-341.621521
 21
-470.0
 31
0.0
  0
INSERT
  5
F4
  8
SIZE
  2
DOT
 10
-223.0
 20
-470.0
 30
0.0
  0
INSERT
  5
F5
  8
SIZE
  2
DOT
 10
-267.0
 20
-470.0
 30
0.0
 50
180.0
  0
POINT
  5
F6
  8
DEFPOINTS
  6
BYBLOCK
 10
-267.0
 20
-351.5
 30
0.0
  0
POINT
  5
F7
  8
DEFPOINTS
  6
BYBLOCK
 10
-223.0
 20
-351.5
 30
0.0
  0
POINT
  5
F8
  8
DEFPOINTS
  6
BYBLOCK
 10
-223.0
 20
-470.0
 30
0.0
  0
ENDBLK
  5
F9
  8
SIZE
  0
BLOCK
  8
SIZE
  2
*D17
 70
     1
 10
0.0
 20
0.0
 30
0.0
  3
*D17
  1

  0
TEXT
  5
FC
  8
SIZE
  6
CONTINUOUS
 10
473.405426
 20
-469.000006
 30
0.0
 40
2.8
  1
32
 50
0.000003
 41
0.7
  7
STANDARD1
  0
LINE
  5
FD
  8
SIZE
  6
CONTINUOUS
 10
405.0
 20
-296.0
 30
0.0
 11
405.0
 21
-472.0
 31
0.0
  0
LINE
  5
FE
  8
SIZE
  6
CONTINUOUS
 10
437.0
 20
-220.563889
 30
0.0
 11
437.0
 21
-472.0
 31
0.0
  0
LINE
  5
FF
  8
SIZE
  6
CONTINUOUS
 10
400.0
 20
-470.0
 30
0.0
 11
478.725433
 21
-470.0
 31
0.0
  0
INSERT
  5
100
  8
SIZE
  2
DOT
 10
405.0
 20
-470.0
 30
0.0
 50
180.0
  0
INSERT
  5
101
  8
SIZE
  2
DOT
 10
437.0
 20
-470.0
 30
0.0
  0
POINT
  5
102
  8
DEFPOINTS
  6
BYBLOCK
 10
437.0
 20
-219.563889
 30
0.0
  0
POINT
  5
103
  8
DEFPOINTS
  6
BYBLOCK
 10
405.0
 20
-295.0
 30
0.0
  0
POINT
  5
104
  8
DEFPOINTS
  6
BYBLOCK
 10
405.0
 20
-470.0
 30
0.0
  0
ENDBLK
  5
105
  8
SIZE
  0
BLOCK
  8
SIZE
  2
*D18
 70
     1
 10
0.0
 20
0.0
 30
0.0
  3
*D18
  1

  0
TEXT
  5
108
  8
SIZE
  6
CONTINUOUS
 10
-457.940002
 20
501.004266
 30
0.0
 40
2.8
  1
100
 50
0.000003
 41
0.7
  7
STANDARD1
  0
LINE
  5
109
  8
SIZE
  6
CONTINUOUS
 10
-405.0
 20
1.0
 30
0.0
 11
-405.0
 21
502.004272
 31
0.0
  0
LINE
  5
10A
  8
SIZE
  6
CONTINUOUS
 10
-505.0
 20
101.0
 30
0.0
 11
-505.0
 21
502.004272
 31
0.0
  0
LINE
  5
10B
  8
SIZE
  6
CONTINUOUS
 10
-405.0
 20
500.004272
 30
0.0
 11
-505.0
 21
500.004272
 31
0.0
  0
INSERT
  5
10C
  8
SIZE
  2
DOT
 10
-405.0
 20
500.004272
 30
0.0
  0
INSERT
  5
10D
  8
SIZE
  2
DOT
 10
-505.0
 20
500.004272
 30
0.0
 50
180.0
  0
POINT
  5
10E
  8
DEFPOINTS
  6
BYBLOCK
 10
-505.0
 20
100.0
 30
0.0
  0
POINT
  5
10F
  8
DEFPOINTS
  6
BYBLOCK
 10
-405.0
 20
0.0
 30
0.0
  0
POINT
  5
110
  8
DEFPOINTS
  6
BYBLOCK
 10
-405.0
 20
500.004272
 30
0.0
  0
ENDBLK
  5
111
  8
SIZE
  0
BLOCK
  8
SIZE
  2
*D19
 70
     1
 10
0.0
 20
0.0
 30
0.0
  3
*D19
  1

  0
TEXT
  5
114
  8
SIZE
  6
CONTINUOUS
 10
-756.000024
 20
-472.940002
 30
0.0
 40
2.8
  1
300
 50
90.000005
 41
0.7
  7
STANDARD1
  0
LINE
  5
115
  8
SIZE
  6
CONTINUOUS
 10
-506.0
 20
-620.0
 30
0.0
 11
-757.0
 21
-620.0
 31
0.0
  0
LINE
  5
116
  8
SIZE
  6
CONTINUOUS
 10
-506.0
 20
-320.0
 30
0.0
 11
-757.0
 21
-320.0
 31
0.0
  0
LINE
  5
117
  8
SIZE
  6
CONTINUOUS
 10
-755.0
 20
-620.0
 30
0.0
 11
-755.0
 21
-320.0
 31
0.0
  0
INSERT
  5
118
  8
SIZE
  2
DOT
 10
-755.0
 20
-620.0
 30
0.0
 50
270.0
  0
INSERT
  5
119
  8
SIZE
  2
DOT
 10
-755.0
 20
-320.0
 30
0.0
 50
90.0
  0
POINT
  5
11A
  8
DEFPOINTS
  6
BYBLOCK
 10
-505.0
 20
-320.0
 30
0.0
  0
POINT
  5
11B
  8
DEFPOINTS
  6
BYBLOCK
 10
-505.0
 20
-620.0
 30
0.0
  0
POINT
  5
11C
  8
DEFPOINTS
  6
BYBLOCK
 10
-755.0
 20
-620.0
 30
0.0
  0
ENDBLK
  5
11D
  8
SIZE
  0
BLOCK
  8
SIZE
  2
*D20
 70
     1
 10
0.0
 20
0.0
 30
0.0
  3
*D20
  1

  0
TEXT
  5
120
  8
SIZE
  6
CONTINUOUS
 10
-52.939999
 20
-768.999976
 30
0.0
 40
2.8
  1
910
 50
0.000003
 41
0.7
  7
STANDARD1
  0
LINE
  5
121
  8
SIZE
  6
CONTINUOUS
 10
405.0
 20
-621.0
 30
0.0
 11
405.0
 21
-772.0
 31
0.0
  0
LINE
  5
122
  8
SIZE
  6
CONTINUOUS
 10
-505.0
 20
-621.0
 30
0.0
 11
-505.0
 21
-772.0
 31
0.0
  0
LINE
  5
123
  8
SIZE
  6
CONTINUOUS
 10
405.0
 20
-770.0
 30
0.0
 11
-505.0
 21
-770.0
 31
0.0
  0
INSERT
  5
124
  8
SIZE
  2
DOT
 10
405.0
 20
-770.0
 30
0.0
  0
INSERT
  5
125
  8
SIZE
  2
DOT
 10
-505.0
 20
-770.0
 30
0.0
 50
180.0
  0
POINT
  5
126
  8
DEFPOINTS
  6
BYBLOCK
 10
-505.0
 20
-620.0
 30
0.0
  0
POINT
  5
127
  8
DEFPOINTS
  6
BYBLOCK
 10
405.0
 20
-620.0
 30
0.0
  0
POINT
  5
128
  8
DEFPOINTS
  6
BYBLOCK
 10
405.0
 20
-770.0
 30
0.0
  0
ENDBLK
  5
129
  8
SIZE
  0
BLOCK
  8
SIZE
  2
*D21
 70
     1
 10
0.0
 20
0.0
 30
0.0
  3
*D21
  1

  0
TEXT
  5
12C
  8
SIZE
  6
CONTINUOUS
 10
702.059998
 20
-768.999976
 30
0.0
 40
2.8
  1
600
 50
0.000003
 41
0.7
  7
STANDARD1
  0
LINE
  5
12D
  8
SIZE
  6
CONTINUOUS
 10
405.0
 20
-621.0
 30
0.0
 11
405.0
 21
-772.0
 31
0.0
  0
LINE
  5
12E
  8
SIZE
  6
CONTINUOUS
 10
1005.0
 20
-621.0
 30
0.0
 11
1005.0
 21
-772.0
 31
0.0
  0
LINE
  5
12F
  8
SIZE
  6
CONTINUOUS
 10
405.0
 20
-770.0
 30
0.0
 11
1005.0
 21
-770.0
 31
0.0
  0
INSERT
  5
130
  8
SIZE
  2
DOT
 10
405.0
 20
-770.0
 30
0.0
 50
180.0
  0
INSERT
  5
131
  8
SIZE
  2
DOT
 10
1005.0
 20
-770.0
 30
0.0
  0
POINT
  5
132
  8
DEFPOINTS
  6
BYBLOCK
 10
1005.0
 20
-620.0
 30
0.0
  0
POINT
  5
133
  8
DEFPOINTS
  6
BYBLOCK
 10
405.0
 20
-620.0
 30
0.0
  0
POINT
  5
134
  8
DEFPOINTS
  6
BYBLOCK
 10
405.0
 20
-770.0
 30
0.0
  0
ENDBLK
  5
135
  8
SIZE
  0
BLOCK
  8
SIZE
  2
*D22
 70
     1
 10
0.0
 20
0.0
 30
0.0
  3
*D22
  1

  0
TEXT
  5
138
  8
SIZE
  6
CONTINUOUS
 10
1153.999976
 20
-262.940002
 30
0.0
 40
2.8
  1
720
 50
90.000005
 41
0.7
  7
STANDARD1
  0
LINE
  5
139
  8
SIZE
  6
CONTINUOUS
 10
1006.0
 20
100.0
 30
0.0
 11
1157.0
 21
100.0
 31
0.0
  0
LINE
  5
13A
  8
SIZE
  6
CONTINUOUS
 10
1006.0
 20
-620.0
 30
0.0
 11
1157.0
 21
-620.0
 31
0.0
  0
LINE
  5
13B
  8
SIZE
  6
CONTINUOUS
 10
1155.0
 20
100.0
 30
0.0
 11
1155.0
 21
-620.0
 31
0.0
  0
INSERT
  5
13C
  8
SIZE
  2
DOT
 10
1155.0
 20
100.0
 30
0.0
 50
90.0
  0
INSERT
  5
13D
  8
SIZE
  2
DOT
 10
1155.0
 20
-620.0
 30
0.0
 50
270.0
  0
POINT
  5
13E
  8
DEFPOINTS
  6
BYBLOCK
 10
1005.0
 20
-620.0
 30
0.0
  0
POINT
  5
13F
  8
DEFPOINTS
  6
BYBLOCK
 10
1005.0
 20
100.0
 30
0.0
  0
POINT
  5
140
  8
DEFPOINTS
  6
BYBLOCK
 10
1155.0
 20
100.0
 30
0.0
  0
ENDBLK
  5
141
  8
SIZE
  0
BLOCK
  8
SIZE
  2
*D23
 70
     1
 10
0.0
 20
0.0
 30
0.0
  3
*D23
  1

  0
TEXT
  5
144
  8
SIZE
  6
CONTINUOUS
 10
-956.000024
 20
-162.940002
 30
0.0
 40
2.8
  1
383
 50
90.000005
 41
0.7
  7
STANDARD1
  0
LINE
  5
145
  8
SIZE
  6
CONTINUOUS
 10
-268.0
 20
31.5
 30
0.0
 11
-957.0
 21
31.5
 31
0.0
  0
LINE
  5
146
  8
SIZE
  6
CONTINUOUS
 10
-268.0
 20
-351.5
 30
0.0
 11
-957.0
 21
-351.5
 31
0.0
  0
LINE
  5
147
  8
SIZE
  6
CONTINUOUS
 10
-955.0
 20
31.5
 30
0.0
 11
-955.0
 21
-351.5
 31
0.0
  0
INSERT
  5
148
  8
SIZE
  2
DOT
 10
-955.0
 20
31.5
 30
0.0
 50
90.0
  0
INSERT
  5
149
  8
SIZE
  2
DOT
 10
-955.0
 20
-351.5
 30
0.0
 50
270.0
  0
POINT
  5
14A
  8
DEFPOINTS
  6
BYBLOCK
 10
-267.0
 20
-351.5
 30
0.0
  0
POINT
  5
14B
  8
DEFPOINTS
  6
BYBLOCK
 10
-267.0
 20
31.5
 30
0.0
  0
POINT
  5
14C
  8
DEFPOINTS
  6
BYBLOCK
 10
-955.0
 20
31.5
 30
0.0
  0
ENDBLK
  5
14D
  8
SIZE
  0
BLOCK
  8
SIZE
  2
*D24
 70
     1
 10
0.0
 20
0.0
 30
0.0
  3
*D24
  1

  0
TEXT
  5
150
  8
SIZE
  6
CONTINUOUS
 10
-2.94
 20
500.958398
 30
0.0
 40
2.8
  1
810
 50
0.000003
 41
0.7
  7
STANDARD1
  0
LINE
  5
151
  8
SIZE
  6
CONTINUOUS
 10
405.0
 20
-24.0
 30
0.0
 11
405.0
 21
501.958405
 31
0.0
  0
LINE
  5
152
  8
SIZE
  6
CONTINUOUS
 10
-405.0
 20
-24.0
 30
0.0
 11
-405.0
 21
501.958405
 31
0.0
  0
LINE
  5
153
  8
SIZE
  6
CONTINUOUS
 10
405.0
 20
499.958405
 30
0.0
 11
-405.0
 21
499.958405
 31
0.0
  0
INSERT
  5
154
  8
SIZE
  2
DOT
 10
405.0
 20
499.958405
 30
0.0
  0
INSERT
  5
155
  8
SIZE
  2
DOT
 10
-405.0
 20
499.958405
 30
0.0
 50
180.0
  0
POINT
  5
156
  8
DEFPOINTS
  6
BYBLOCK
 10
-405.0
 20
-25.0
 30
0.0
  0
POINT
  5
157
  8
DEFPOINTS
  6
BYBLOCK
 10
405.0
 20
-25.0
 30
0.0
  0
POINT
  5
158
  8
DEFPOINTS
  6
BYBLOCK
 10
405.0
 20
499.958405
 30
0.0
  0
ENDBLK
  5
159
  8
SIZE
  0
BLOCK
  8
SIZE
  2
*D25
 70
     1
 10
0.0
 20
0.0
 30
0.0
  3
*D25
  1

  0
TEXT
  5
15C
  8
SIZE
  6
CONTINUOUS
 10
332.059998
 20
350.989343
 30
0.0
 40
2.8
  1
140
 50
0.000003
 41
0.7
  7
STANDARD1
  0
LINE
  5
15D
  8
SIZE
  6
CONTINUOUS
 10
405.0
 20
-24.0
 30
0.0
 11
405.0
 21
351.989349
 31
0.0
  0
LINE
  5
15E
  8
SIZE
  6
CONTINUOUS
 10
265.0
 20
37.5
 30
0.0
 11
265.0
 21
351.989349
 31
0.0
  0
LINE
  5
15F
  8
SIZE
  6
CONTINUOUS
 10
405.0
 20
349.989349
 30
0.0
 11
265.0
 21
349.989349
 31
0.0
  0
INSERT
  5
160
  8
SIZE
  2
DOT
 10
405.0
 20
349.989349
 30
0.0
  0
INSERT
  5
161
  8
SIZE
  2
DOT
 10
265.0
 20
349.989349
 30
0.0
 50
180.0
  0
POINT
  5
162
  8
DEFPOINTS
  6
BYBLOCK
 10
265.0
 20
36.5
 30
0.0
  0
POINT
  5
163
  8
DEFPOINTS
  6
BYBLOCK
 10
405.0
 20
-25.0
 30
0.0
  0
POINT
  5
164
  8
DEFPOINTS
  6
BYBLOCK
 10
405.0
 20
349.989349
 30
0.0
  0
ENDBLK
  5
165
  8
SIZE
  0
BLOCK
  8
SIZE
  2
*D26
 70
     1
 10
0.0
 20
0.0
 30
0.0
  3
*D26
  1

  0
TEXT
  5
168
  8
SIZE
  6
CONTINUOUS
 10
487.698334
 20
200.999994
 30
0.0
 40
2.8
  1
32
 50
0.000003
 41
0.7
  7
STANDARD1
  0
LINE
  5
169
  8
SIZE
  6
CONTINUOUS
 10
437.0
 20
-39.436157
 30
0.0
 11
437.0
 21
202.0
 31
0.0
  0
LINE
  5
16A
  8
SIZE
  6
CONTINUOUS
 10
405.0
 20
-24.0
 30
0.0
 11
405.0
 21
202.0
 31
0.0
  0
LINE
  5
16B
  8
SIZE
  6
CONTINUOUS
 10
493.018311
 20
200.0
 30
0.0
 11
400.0
 21
200.0
 31
0.0
  0
INSERT
  5
16C
  8
SIZE
  2
DOT
 10
437.0
 20
200.0
 30
0.0
  0
INSERT
  5
16D
  8
SIZE
  2
DOT
 10
405.0
 20
200.0
 30
0.0
 50
180.0
  0
POINT
  5
16E
  8
DEFPOINTS
  6
BYBLOCK
 10
405.0
 20
-25.0
 30
0.0
  0
POINT
  5
16F
  8
DEFPOINTS
  6
BYBLOCK
 10
437.0
 20
-40.436157
 30
0.0
  0
POINT
  5
170
  8
DEFPOINTS
  6
BYBLOCK
 10
437.0
 20
200.0
 30
0.0
  0
ENDBLK
  5
171
  8
SIZE
  0
BLOCK
  8
SIZE
  2
*D27
 70
     1
 10
0.0
 20
0.0
 30
0.0
  3
*D27
  1

  0
TEXT
  5
174
  8
SIZE
  6
CONTINUOUS
 10
-856.000024
 20
-162.940002
 30
0.0
 40
2.8
  1
353
 50
90.000005
 41
0.7
  7
STANDARD1
  0
LINE
  5
175
  8
SIZE
  6
CONTINUOUS
 10
-266.0
 20
-336.5
 30
0.0
 11
-857.0
 21
-336.5
 31
0.0
  0
LINE
  5
176
  8
SIZE
  6
CONTINUOUS
 10
-266.0
 20
16.5
 30
0.0
 11
-857.0
 21
16.5
 31
0.0
  0
LINE
  5
177
  8
SIZE
  6
CONTINUOUS
 10
-855.0
 20
-336.5
 30
0.0
 11
-855.0
 21
16.5
 31
0.0
  0
INSERT
  5
178
  8
SIZE
  2
DOT
 10
-855.0
 20
-336.5
 30
0.0
 50
270.0
  0
INSERT
  5
179
  8
SIZE
  2
DOT
 10
-855.0
 20
16.5
 30
0.0
 50
90.0
  0
POINT
  5
17A
  8
DEFPOINTS
  6
BYBLOCK
 10
-265.0
 20
16.5
 30
0.0
  0
POINT
  5
17B
  8
DEFPOINTS
  6
BYBLOCK
 10
-265.0
 20
-336.5
 30
0.0
  0
POINT
  5
17C
  8
DEFPOINTS
  6
BYBLOCK
 10
-855.0
 20
-336.5
 30
0.0
  0
ENDBLK
  5
17D
  8
SIZE
  0
BLOCK
  8
SIZE
  2
*D28
 70
     1
 10
0.0
 20
0.0
 30
0.0
  3
*D28
  1

  0
TEXT
  5
180
  8
SIZE
  6
CONTINUOUS
 10
7.06
 20
351.098596
 30
0.0
 40
2.8
  1
510
 50
0.000003
 41
0.7
  7
STANDARD1
  0
LINE
  5
181
  8
SIZE
  6
CONTINUOUS
 10
265.0
 20
37.5
 30
0.0
 11
265.0
 21
352.098602
 31
0.0
  0
LINE
  5
182
  8
SIZE
  6
CONTINUOUS
 10
-245.0
 20
37.5
 30
0.0
 11
-245.0
 21
352.098602
 31
0.0
  0
LINE
  5
183
  8
SIZE
  6
CONTINUOUS
 10
265.0
 20
350.098602
 30
0.0
 11
-245.0
 21
350.098602
 31
0.0
  0
INSERT
  5
184
  8
SIZE
  2
DOT
 10
265.0
 20
350.098602
 30
0.0
  0
INSERT
  5
185
  8
SIZE
  2
DOT
 10
-245.0
 20
350.098602
 30
0.0
 50
180.0
  0
POINT
  5
186
  8
DEFPOINTS
  6
BYBLOCK
 10
-245.0
 20
36.5
 30
0.0
  0
POINT
  5
187
  8
DEFPOINTS
  6
BYBLOCK
 10
265.0
 20
36.5
 30
0.0
  0
POINT
  5
188
  8
DEFPOINTS
  6
BYBLOCK
 10
265.0
 20
350.098602
 30
0.0
  0
ENDBLK
  5
189
  8
SIZE
  0
BLOCK
  8
0
  2
_ORIGIN
 70
     0
 10
0.0
 20
0.0
 30
0.0
  3
_ORIGIN
  1

  0
CIRCLE
  5
18C
  8
0
  6
BYBLOCK
 62
     0
 10
0.0
 20
0.0
 30
0.0
 40
0.5
  0
LINE
  5
18D
  8
0
  6
BYBLOCK
 62
     0
 10
0.0
 20
0.0
 30
0.0
 11
-1.0
 21
0.0
 31
0.0
  0
ENDBLK
  5
18E
  8
0
  0
BLOCK
  8
0
  2
*D30
 70
     1
 10
0.0
 20
0.0
 30
0.0
  3
*D30
  1

  0
LINE
  5
191
  8
0
  6
BYBLOCK
 62
     0
 10
-245.0
 20
46.5
 30
0.0
 11
-245.0
 21
364.998602
 31
0.0
  0
LINE
  5
192
  8
0
  6
BYBLOCK
 62
     0
 10
265.0
 20
46.5
 30
0.0
 11
265.0
 21
364.998602
 31
0.0
  0
LINE
  5
193
  8
0
  6
BYBLOCK
 62
     0
 10
-235.0
 20
352.498602
 30
0.0
 11
255.0
 21
352.498602
 31
0.0
  0
INSERT
  5
194
  8
0
  6
BYBLOCK
 62
     0
  2
_ORIGIN
 10
-245.0
 20
352.498602
 30
0.0
 41
10.0
 42
10.0
 43
10.0
 50
180.0
  0
INSERT
  5
195
  8
0
  6
BYBLOCK
 62
     0
  2
_ORIGIN
 10
265.0
 20
352.498602
 30
0.0
 41
10.0
 42
10.0
 43
10.0
  0
TEXT
  5
196
  8
0
  6
BYBLOCK
 62
     0
 10
-22.5
 20
362.498602
 30
0.0
 40
30.0
  1
510
 72
     1
 11
10.0
 21
362.498602
 31
0.0
  0
POINT
  5
197
  8
DEFPOINTS
  6
BYBLOCK
 62
     0
 10
-245.0
 20
36.5
 30
0.0
  0
POINT
  5
198
  8
DEFPOINTS
  6
BYBLOCK
 62
     0
 10
265.0
 20
36.5
 30
0.0
  0
POINT
  5
199
  8
DEFPOINTS
  6
BYBLOCK
 62
     0
 10
265.0
 20
352.498602
 30
0.0
  0
ENDBLK
  5
19A
  8
0
  0
BLOCK
  8
0
  2
*D31
 70
     1
 10
0.0
 20
0.0
 30
0.0
  3
*D31
  1

  0
LINE
  5
19D
  8
0
  6
BYBLOCK
 62
     0
 10
-275.0
 20
16.5
 30
0.0
 11
-869.9
 21
16.5
 31
0.0
  0
LINE
  5
19E
  8
0
  6
BYBLOCK
 62
     0
 10
-275.0
 20
-336.5
 30
0.0
 11
-869.9
 21
-336.5
 31
0.0
  0
LINE
  5
19F
  8
0
  6
BYBLOCK
 62
     0
 10
-857.4
 20
6.5
 30
0.0
 11
-857.4
 21
-326.5
 31
0.0
  0
INSERT
  5
1A0
  8
0
  6
BYBLOCK
 62
     0
  2
_ORIGIN
 10
-857.4
 20
16.5
 30
0.0
 41
10.0
 42
10.0
 43
10.0
 50
90.0
  0
INSERT
  5
1A1
  8
0
  6
BYBLOCK
 62
     0
  2
_ORIGIN
 10
-857.4
 20
-336.5
 30
0.0
 41
10.0
 42
10.0
 43
10.0
 50
270.0
  0
TEXT
  5
1A2
  8
0
  6
BYBLOCK
 62
     0
 10
-867.4
 20
-200.0
 30
0.0
 40
30.0
  1
353
 50
90.0
 72
     1
 11
-867.4
 21
-160.0
 31
0.0
  0
POINT
  5
1A3
  8
DEFPOINTS
  6
BYBLOCK
 62
     0
 10
-265.0
 20
16.5
 30
0.0
  0
POINT
  5
1A4
  8
DEFPOINTS
  6
BYBLOCK
 62
     0
 10
-265.0
 20
-336.5
 30
0.0
  0
POINT
  5
1A5
  8
DEFPOINTS
  6
BYBLOCK
 62
     0
 10
-857.4
 20
-336.5
 30
0.0
  0
ENDBLK
  5
1A6
  8
0
  0
BLOCK
  8
0
  2
*D32
 70
     1
 10
0.0
 20
0.0
 30
0.0
  3
*D32
  1

  0
LINE
  5
1A9
  8
0
  6
BYBLOCK
 62
     0
 10
405.0
 20
-15.0
 30
0.0
 11
405.0
 21
214.9
 31
0.0
  0
LINE
  5
1AA
  8
0
  6
BYBLOCK
 62
     0
 10
437.0
 20
-30.436157
 30
0.0
 11
437.0
 21
214.9
 31
0.0
  0
LINE
  5
1AB
  8
0
  6
BYBLOCK
 62
     0
 10
395.0
 20
202.4
 30
0.0
 11
385.0
 21
202.4
 31
0.0
  0
LINE
  5
1AC
  8
0
  6
BYBLOCK
 62
     0
 10
447.0
 20
202.4
 30
0.0
 11
527.0
 21
202.4
 31
0.0
  0
LINE
  5
1AD
  8
0
  6
BYBLOCK
 62
     0
 10
405.0
 20
202.4
 30
0.0
 11
437.0
 21
202.4
 31
0.0
  0
INSERT
  5
1AE
  8
0
  6
BYBLOCK
 62
     0
  2
_ORIGIN
 10
405.0
 20
202.4
 30
0.0
 41
10.0
 42
10.0
 43
10.0
  0
INSERT
  5
1AF
  8
0
  6
BYBLOCK
 62
     0
  2
_ORIGIN
 10
437.0
 20
202.4
 30
0.0
 41
10.0
 42
10.0
 43
10.0
 50
180.0
  0
TEXT
  5
1B0
  8
0
  6
BYBLOCK
 62
     0
 10
467.0
 20
212.4
 30
0.0
 40
30.0
  1
32
 72
     1
 11
492.0
 21
212.4
 31
0.0
  0
POINT
  5
1B1
  8
DEFPOINTS
  6
BYBLOCK
 62
     0
 10
405.0
 20
-25.0
 30
0.0
  0
POINT
  5
1B2
  8
DEFPOINTS
  6
BYBLOCK
 62
     0
 10
437.0
 20
-40.436157
 30
0.0
  0
POINT
  5
1B3
  8
DEFPOINTS
  6
BYBLOCK
 62
     0
 10
437.0
 20
202.4
 30
0.0
  0
ENDBLK
  5
1B4
  8
0
  0
BLOCK
  8
0
  2
*D33
 70
     1
 10
0.0
 20
0.0
 30
0.0
  3
*D33
  1

  0
LINE
  5
1B7
  8
0
  6
BYBLOCK
 62
     0
 10
265.0
 20
46.5
 30
0.0
 11
265.0
 21
364.889349
 31
0.0
  0
LINE
  5
1B8
  8
0
  6
BYBLOCK
 62
     0
 10
405.0
 20
-15.0
 30
0.0
 11
405.0
 21
364.889349
 31
0.0
  0
LINE
  5
1B9
  8
0
  6
BYBLOCK
 62
     0
 10
275.0
 20
352.389349
 30
0.0
 11
395.0
 21
352.389349
 31
0.0
  0
INSERT
  5
1BA
  8
0
  6
BYBLOCK
 62
     0
  2
_ORIGIN
 10
265.0
 20
352.389349
 30
0.0
 41
10.0
 42
10.0
 43
10.0
 50
180.0
  0
INSERT
  5
1BB
  8
0
  6
BYBLOCK
 62
     0
  2
_ORIGIN
 10
405.0
 20
352.389349
 30
0.0
 41
10.0
 42
10.0
 43
10.0
  0
TEXT
  5
1BC
  8
0
  6
BYBLOCK
 62
     0
 10
302.5
 20
362.389349
 30
0.0
 40
30.0
  1
140
 72
     1
 11
335.0
 21
362.389349
 31
0.0
  0
POINT
  5
1BD
  8
DEFPOINTS
  6
BYBLOCK
 62
     0
 10
265.0
 20
36.5
 30
0.0
  0
POINT
  5
1BE
  8
DEFPOINTS
  6
BYBLOCK
 62
     0
 10
405.0
 20
-25.0
 30
0.0
  0
POINT
  5
1BF
  8
DEFPOINTS
  6
BYBLOCK
 62
     0
 10
405.0
 20
352.389349
 30
0.0
  0
ENDBLK
  5
1C0
  8
0
  0
BLOCK
  8
0
  2
*D34
 70
     1
 10
0.0
 20
0.0
 30
0.0
  3
*D34
  1

  0
LINE
  5
1C3
  8
0
  6
BYBLOCK
 62
     0
 10
-405.0
 20
-15.0
 30
0.0
 11
-405.0
 21
514.858405
 31
0.0
  0
LINE
  5
1C4
  8
0
  6
BYBLOCK
 62
     0
 10
405.0
 20
-15.0
 30
0.0
 11
405.0
 21
514.858405
 31
0.0
  0
LINE
  5
1C5
  8
0
  6
BYBLOCK
 62
     0
 10
-395.0
 20
502.358405
 30
0.0
 11
395.0
 21
502.358405
 31
0.0
  0
INSERT
  5
1C6
  8
0
  6
BYBLOCK
 62
     0
  2
_ORIGIN
 10
-405.0
 20
502.358405
 30
0.0
 41
10.0
 42
10.0
 43
10.0
 50
180.0
  0
INSERT
  5
1C7
  8
0
  6
BYBLOCK
 62
     0
  2
_ORIGIN
 10
405.0
 20
502.358405
 30
0.0
 41
10.0
 42
10.0
 43
10.0
  0
TEXT
  5
1C8
  8
0
  6
BYBLOCK
 62
     0
 10
-32.5
 20
512.358405
 30
0.0
 40
30.0
  1
810
 72
     1
 11
0.0
 21
512.358405
 31
0.0
  0
POINT
  5
1C9
  8
DEFPOINTS
  6
BYBLOCK
 62
     0
 10
-405.0
 20
-25.0
 30
0.0
  0
POINT
  5
1CA
  8
DEFPOINTS
  6
BYBLOCK
 62
     0
 10
405.0
 20
-25.0
 30
0.0
  0
POINT
  5
1CB
  8
DEFPOINTS
  6
BYBLOCK
 62
     0
 10
405.0
 20
502.358405
 30
0.0
  0
ENDBLK
  5
1CC
  8
0
  0
BLOCK
  8
0
  2
*D35
 70
     1
 10
0.0
 20
0.0
 30
0.0
  3
*D35
  1

  0
LINE
  5
1CF
  8
0
  6
BYBLOCK
 62
     0
 10
-277.0
 20
-351.5
 30
0.0
 11
-969.9
 21
-351.5
 31
0.0
  0
LINE
  5
1D0
  8
0
  6
BYBLOCK
 62
     0
 10
-277.0
 20
31.5
 30
0.0
 11
-969.9
 21
31.5
 31
0.0
  0
LINE
  5
1D1
  8
0
  6
BYBLOCK
 62
     0
 10
-957.4
 20
-341.5
 30
0.0
 11
-957.4
 21
21.5
 31
0.0
  0
INSERT
  5
1D2
  8
0
  6
BYBLOCK
 62
     0
  2
_ORIGIN
 10
-957.4
 20
-351.5
 30
0.0
 41
10.0
 42
10.0
 43
10.0
 50
270.0
  0
INSERT
  5
1D3
  8
0
  6
BYBLOCK
 62
     0
  2
_ORIGIN
 10
-957.4
 20
31.5
 30
0.0
 41
10.0
 42
10.0
 43
10.0
 50
90.0
  0
TEXT
  5
1D4
  8
0
  6
BYBLOCK
 62
     0
 10
-967.4
 20
-200.0
 30
0.0
 40
30.0
  1
383
 50
90.0
 72
     1
 11
-967.4
 21
-160.0
 31
0.0
  0
POINT
  5
1D5
  8
DEFPOINTS
  6
BYBLOCK
 62
     0
 10
-267.0
 20
-351.5
 30
0.0
  0
POINT
  5
1D6
  8
DEFPOINTS
  6
BYBLOCK
 62
     0
 10
-267.0
 20
31.5
 30
0.0
  0
POINT
  5
1D7
  8
DEFPOINTS
  6
BYBLOCK
 62
     0
 10
-957.4
 20
31.5
 30
0.0
  0
ENDBLK
  5
1D8
  8
0
  0
BLOCK
  8
0
  2
*D36
 70
     1
 10
0.0
 20
0.0
 30
0.0
  3
*D36
  1

  0
LINE
  5
1DB
  8
0
  6
BYBLOCK
 62
     0
 10
1015.0
 20
-620.0
 30
0.0
 11
1165.1
 21
-620.0
 31
0.0
  0
LINE
  5
1DC
  8
0
  6
BYBLOCK
 62
     0
 10
1015.0
 20
100.0
 30
0.0
 11
1165.1
 21
100.0
 31
0.0
  0
LINE
  5
1DD
  8
0
  6
BYBLOCK
 62
     0
 10
1152.6
 20
-610.0
 30
0.0
 11
1152.6
 21
90.0
 31
0.0
  0
INSERT
  5
1DE
  8
0
  6
BYBLOCK
 62
     0
  2
_ORIGIN
 10
1152.6
 20
-620.0
 30
0.0
 41
10.0
 42
10.0
 43
10.0
 50
270.0
  0
INSERT
  5
1DF
  8
0
  6
BYBLOCK
 62
     0
  2
_ORIGIN
 10
1152.6
 20
100.0
 30
0.0
 41
10.0
 42
10.0
 43
10.0
 50
90.0
  0
TEXT
  5
1E0
  8
0
  6
BYBLOCK
 62
     0
 10
1142.6
 20
-297.5
 30
0.0
 40
30.0
  1
720
 50
90.0
 72
     1
 11
1142.6
 21
-260.0
 31
0.0
  0
POINT
  5
1E1
  8
DEFPOINTS
  6
BYBLOCK
 62
     0
 10
1005.0
 20
-620.0
 30
0.0
  0
POINT
  5
1E2
  8
DEFPOINTS
  6
BYBLOCK
 62
     0
 10
1005.0
 20
100.0
 30
0.0
  0
POINT
  5
1E3
  8
DEFPOINTS
  6
BYBLOCK
 62
     0
 10
1152.6
 20
100.0
 30
0.0
  0
ENDBLK
  5
1E4
  8
0
  0
BLOCK
  8
0
  2
*D37
 70
     1
 10
0.0
 20
0.0
 30
0.0
  3
*D37
  1

  0
LINE
  5
1E7
  8
0
  6
BYBLOCK
 62
     0
 10
1005.0
 20
-630.0
 30
0.0
 11
1005.0
 21
-780.1
 31
0.0
  0
LINE
  5
1E8
  8
0
  6
BYBLOCK
 62
     0
 10
405.0
 20
-630.0
 30
0.0
 11
405.0
 21
-780.1
 31
0.0
  0
LINE
  5
1E9
  8
0
  6
BYBLOCK
 62
     0
 10
995.0
 20
-767.6
 30
0.0
 11
415.0
 21
-767.6
 31
0.0
  0
INSERT
  5
1EA
  8
0
  6
BYBLOCK
 62
     0
  2
_ORIGIN
 10
1005.0
 20
-767.6
 30
0.0
 41
10.0
 42
10.0
 43
10.0
  0
INSERT
  5
1EB
  8
0
  6
BYBLOCK
 62
     0
  2
_ORIGIN
 10
405.0
 20
-767.6
 30
0.0
 41
10.0
 42
10.0
 43
10.0
 50
180.0
  0
TEXT
  5
1EC
  8
0
  6
BYBLOCK
 62
     0
 10
670.0
 20
-757.6
 30
0.0
 40
30.0
  1
600
 72
     1
 11
705.0
 21
-757.6
 31
0.0
  0
POINT
  5
1ED
  8
DEFPOINTS
  6
BYBLOCK
 62
     0
 10
1005.0
 20
-620.0
 30
0.0
  0
POINT
  5
1EE
  8
DEFPOINTS
  6
BYBLOCK
 62
     0
 10
405.0
 20
-620.0
 30
0.0
  0
POINT
  5
1EF
  8
DEFPOINTS
  6
BYBLOCK
 62
     0
 10
405.0
 20
-767.6
 30
0.0
  0
ENDBLK
  5
1F0
  8
0
  0
BLOCK
  8
0
  2
*D38
 70
     1
 10
0.0
 20
0.0
 30
0.0
  3
*D38
  1

  0
LINE
  5
1F3
  8
0
  6
BYBLOCK
 62
     0
 10
-505.0
 20
-630.0
 30
0.0
 11
-505.0
 21
-780.1
 31
0.0
  0
LINE
  5
1F4
  8
0
  6
BYBLOCK
 62
     0
 10
405.0
 20
-630.0
 30
0.0
 11
405.0
 21
-780.1
 31
0.0
  0
LINE
  5
1F5
  8
0
  6
BYBLOCK
 62
     0
 10
-495.0
 20
-767.6
 30
0.0
 11
395.0
 21
-767.6
 31
0.0
  0
INSERT
  5
1F6
  8
0
  6
BYBLOCK
 62
     0
  2
_ORIGIN
 10
-505.0
 20
-767.6
 30
0.0
 41
10.0
 42
10.0
 43
10.0
 50
180.0
  0
INSERT
  5
1F7
  8
0
  6
BYBLOCK
 62
     0
  2
_ORIGIN
 10
405.0
 20
-767.6
 30
0.0
 41
10.0
 42
10.0
 43
10.0
  0
TEXT
  5
1F8
  8
0
  6
BYBLOCK
 62
     0
 10
-82.5
 20
-757.6
 30
0.0
 40
30.0
  1
910
 72
     1
 11
-50.0
 21
-757.6
 31
0.0
  0
POINT
  5
1F9
  8
DEFPOINTS
  6
BYBLOCK
 62
     0
 10
-505.0
 20
-620.0
 30
0.0
  0
POINT
  5
1FA
  8
DEFPOINTS
  6
BYBLOCK
 62
     0
 10
405.0
 20
-620.0
 30
0.0
  0
POINT
  5
1FB
  8
DEFPOINTS
  6
BYBLOCK
 62
     0
 10
405.0
 20
-767.6
 30
0.0
  0
ENDBLK
  5
1FC
  8
0
  0
BLOCK
  8
0
  2
*D39
 70
     1
 10
0.0
 20
0.0
 30
0.0
  3
*D39
  1

  0
LINE
  5
1FF
  8
0
  6
BYBLOCK
 62
     0
 10
-515.0
 20
-320.0
 30
0.0
 11
-769.9
 21
-320.0
 31
0.0
  0
LINE
  5
200
  8
0
  6
BYBLOCK
 62
     0
 10
-515.0
 20
-620.0
 30
0.0
 11
-769.9
 21
-620.0
 31
0.0
  0
LINE
  5
201
  8
0
  6
BYBLOCK
 62
     0
 10
-757.4
 20
-330.0
 30
0.0
 11
-757.4
 21
-610.0
 31
0.0
  0
INSERT
  5
202
  8
0
  6
BYBLOCK
 62
     0
  2
_ORIGIN
 10
-757.4
 20
-320.0
 30
0.0
 41
10.0
 42
10.0
 43
10.0
 50
90.0
  0
INSERT
  5
203
  8
0
  6
BYBLOCK
 62
     0
  2
_ORIGIN
 10
-757.4
 20
-620.0
 30
0.0
 41
10.0
 42
10.0
 43
10.0
 50
270.0
  0
TEXT
  5
204
  8
0
  6
BYBLOCK
 62
     0
 10
-767.4
 20
-505.0
 30
0.0
 40
30.0
  1
300
 50
90.0
 72
     1
 11
-767.4
 21
-470.0
 31
0.0
  0
POINT
  5
205
  8
DEFPOINTS
  6
BYBLOCK
 62
     0
 10
-505.0
 20
-320.0
 30
0.0
  0
POINT
  5
206
  8
DEFPOINTS
  6
BYBLOCK
 62
     0
 10
-505.0
 20
-620.0
 30
0.0
  0
POINT
  5
207
  8
DEFPOINTS
  6
BYBLOCK
 62
     0
 10
-757.4
 20
-620.0
 30
0.0
  0
ENDBLK
  5
208
  8
0
  0
BLOCK
  8
0
  2
*D40
 70
     1
 10
0.0
 20
0.0
 30
0.0
  3
*D40
  1

  0
LINE
  5
20B
  8
0
  6
BYBLOCK
 62
     0
 10
-505.0
 20
110.0
 30
0.0
 11
-505.0
 21
514.904272
 31
0.0
  0
LINE
  5
20C
  8
0
  6
BYBLOCK
 62
     0
 10
-405.0
 20
10.0
 30
0.0
 11
-405.0
 21
514.904272
 31
0.0
  0
LINE
  5
20D
  8
0
  6
BYBLOCK
 62
     0
 10
-495.0
 20
502.404272
 30
0.0
 11
-415.0
 21
502.404272
 31
0.0
  0
INSERT
  5
20E
  8
0
  6
BYBLOCK
 62
     0
  2
_ORIGIN
 10
-505.0
 20
502.404272
 30
0.0
 41
10.0
 42
10.0
 43
10.0
 50
180.0
  0
INSERT
  5
20F
  8
0
  6
BYBLOCK
 62
     0
  2
_ORIGIN
 10
-405.0
 20
502.404272
 30
0.0
 41
10.0
 42
10.0
 43
10.0
  0
TEXT
  5
210
  8
0
  6
BYBLOCK
 62
     0
 10
-485.0
 20
512.404272
 30
0.0
 40
30.0
  1
100
 72
     1
 11
-455.0
 21
512.404272
 31
0.0
  0
POINT
  5
211
  8
DEFPOINTS
  6
BYBLOCK
 62
     0
 10
-505.0
 20
100.0
 30
0.0
  0
POINT
  5
212
  8
DEFPOINTS
  6
BYBLOCK
 62
     0
 10
-405.0
 20
0.0
 30
0.0
  0
POINT
  5
213
  8
DEFPOINTS
  6
BYBLOCK
 62
     0
 10
-405.0
 20
502.404272
 30
0.0
  0
ENDBLK
  5
214
  8
0
  0
BLOCK
  8
0
  2
*D41
 70
     1
 10
0.0
 20
0.0
 30
0.0
  3
*D41
  1

  0
LINE
  5
217
  8
0
  6
BYBLOCK
 62
     0
 10
437.0
 20
-229.563889
 30
0.0
 11
437.0
 21
-480.1
 31
0.0
  0
LINE
  5
218
  8
0
  6
BYBLOCK
 62
     0
 10
405.0
 20
-305.0
 30
0.0
 11
405.0
 21
-480.1
 31
0.0
  0
LINE
  5
219
  8
0
  6
BYBLOCK
 62
     0
 10
395.0
 20
-467.6
 30
0.0
 11
385.0
 21
-467.6
 31
0.0
  0
LINE
  5
21A
  8
0
  6
BYBLOCK
 62
     0
 10
447.0
 20
-467.6
 30
0.0
 11
527.0
 21
-467.6
 31
0.0
  0
LINE
  5
21B
  8
0
  6
BYBLOCK
 62
     0
 10
405.0
 20
-467.6
 30
0.0
 11
437.0
 21
-467.6
 31
0.0
  0
INSERT
  5
21C
  8
0
  6
BYBLOCK
 62
     0
  2
_ORIGIN
 10
405.0
 20
-467.6
 30
0.0
 41
10.0
 42
10.0
 43
10.0
  0
INSERT
  5
21D
  8
0
  6
BYBLOCK
 62
     0
  2
_ORIGIN
 10
437.0
 20
-467.6
 30
0.0
 41
10.0
 42
10.0
 43
10.0
 50
180.0
  0
TEXT
  5
21E
  8
0
  6
BYBLOCK
 62
     0
 10
467.0
 20
-457.6
 30
0.0
 40
30.0
  1
32
 72
     1
 11
492.0
 21
-457.6
 31
0.0
  0
POINT
  5
21F
  8
DEFPOINTS
  6
BYBLOCK
 62
     0
 10
437.0
 20
-219.563889
 30
0.0
  0
POINT
  5
220
  8
DEFPOINTS
  6
BYBLOCK
 62
     0
 10
405.0
 20
-295.0
 30
0.0
  0
POINT
  5
221
  8
DEFPOINTS
  6
BYBLOCK
 62
     0
 10
405.0
 20
-467.6
 30
0.0
  0
ENDBLK
  5
222
  8
0
  0
BLOCK
  8
0
  2
*D42
 70
     1
 10
0.0
 20
0.0
 30
0.0
  3
*D42
  1

  0
LINE
  5
225
  8
0
  6
BYBLOCK
 62
     0
 10
-267.0
 20
-361.5
 30
0.0
 11
-267.0
 21
-480.1
 31
0.0
  0
LINE
  5
226
  8
0
  6
BYBLOCK
 62
     0
 10
-223.0
 20
-361.5
 30
0.0
 11
-223.0
 21
-480.1
 31
0.0
  0
LINE
  5
227
  8
0
  6
BYBLOCK
 62
     0
 10
-233.0
 20
-467.6
 30
0.0
 11
-257.0
 21
-467.6
 31
0.0
  0
LINE
  5
228
  8
0
  6
BYBLOCK
 62
     0
 10
-267.0
 20
-467.6
 30
0.0
 11
-373.261527
 21
-467.6
 31
0.0
  0
INSERT
  5
229
  8
0
  6
BYBLOCK
 62
     0
  2
_ORIGIN
 10
-223.0
 20
-467.6
 30
0.0
 41
10.0
 42
10.0
 43
10.0
  0
INSERT
  5
22A
  8
0
  6
BYBLOCK
 62
     0
  2
_ORIGIN
 10
-267.0
 20
-467.6
 30
0.0
 41
10.0
 42
10.0
 43
10.0
 50
180.0
  0
TEXT
  5
22B
  8
0
  6
BYBLOCK
 62
     0
 10
-363.261527
 20
-457.6
 30
0.0
 40
30.0
  1
44
 72
     1
 11
-338.261527
 21
-457.6
 31
0.0
  0
POINT
  5
22C
  8
DEFPOINTS
  6
BYBLOCK
 62
     0
 10
-267.0
 20
-351.5
 30
0.0
  0
POINT
  5
22D
  8
DEFPOINTS
  6
BYBLOCK
 62
     0
 10
-223.0
 20
-351.5
 30
0.0
  0
POINT
  5
22E
  8
DEFPOINTS
  6
BYBLOCK
 62
     0
 10
-223.0
 20
-467.6
 30
0.0
  0
ENDBLK
  5
22F
  8
0
  0
BLOCK
  8
0
  2
*D43
 70
     1
 10
0.0
 20
0.0
 30
0.0
  3
*D43
  1

  0
LINE
  5
232
  8
0
  6
BYBLOCK
 62
     0
 10
-213.0
 20
-351.5
 30
0.0
 11
37.1
 21
-351.5
 31
0.0
  0
LINE
  5
233
  8
0
  6
BYBLOCK
 62
     0
 10
-213.0
 20
-295.5
 30
0.0
 11
37.1
 21
-295.5
 31
0.0
  0
LINE
  5
234
  8
0
  6
BYBLOCK
 62
     0
 10
24.6
 20
-305.5
 30
0.0
 11
24.6
 21
-341.5
 31
0.0
  0
LINE
  5
235
  8
0
  6
BYBLOCK
 62
     0
 10
24.6
 20
-351.5
 30
0.0
 11
24.6
 21
-455.117851
 31
0.0
  0
INSERT
  5
236
  8
0
  6
BYBLOCK
 62
     0
  2
_ORIGIN
 10
24.6
 20
-295.5
 30
0.0
 41
10.0
 42
10.0
 43
10.0
 50
90.0
  0
INSERT
  5
237
  8
0
  6
BYBLOCK
 62
     0
  2
_ORIGIN
 10
24.6
 20
-351.5
 30
0.0
 41
10.0
 42
10.0
 43
10.0
 50
270.0
  0
TEXT
  5
238
  8
0
  6
BYBLOCK
 62
     0
 10
14.6
 20
-445.117851
 30
0.0
 40
30.0
  1
56
 50
90.0
 72
     1
 11
14.6
 21
-420.117851
 31
0.0
  0
POINT
  5
239
  8
DEFPOINTS
  6
BYBLOCK
 62
     0
 10
-223.0
 20
-351.5
 30
0.0
  0
POINT
  5
23A
  8
DEFPOINTS
  6
BYBLOCK
 62
     0
 10
-223.0
 20
-295.5
 30
0.0
  0
POINT
  5
23B
  8
DEFPOINTS
  6
BYBLOCK
 62
     0
 10
24.6
 20
-295.5
 30
0.0
  0
ENDBLK
  5
23C
  8
0
  0
BLOCK
  8
0
  2
*D44
 70
     1
 10
0.0
 20
0.0
 30
0.0
  3
*D44
  1

  0
LINE
  5
23F
  8
0
  6
BYBLOCK
 62
     0
 10
-515.0
 20
0.0
 30
0.0
 11
-769.9
 21
0.0
 31
0.0
  0
LINE
  5
240
  8
0
  6
BYBLOCK
 62
     0
 10
-515.0
 20
100.0
 30
0.0
 11
-769.9
 21
100.0
 31
0.0
  0
LINE
  5
241
  8
0
  6
BYBLOCK
 62
     0
 10
-757.4
 20
10.0
 30
0.0
 11
-757.4
 21
90.0
 31
0.0
  0
LINE
  5
242
  8
0
  6
BYBLOCK
 62
     0
 10
-757.4
 20
100.0
 30
0.0
 11
-757.4
 21
190.0
 31
0.0
  0
INSERT
  5
243
  8
0
  6
BYBLOCK
 62
     0
  2
_ORIGIN
 10
-757.4
 20
0.0
 30
0.0
 41
10.0
 42
10.0
 43
10.0
 50
270.0
  0
INSERT
  5
244
  8
0
  6
BYBLOCK
 62
     0
  2
_ORIGIN
 10
-757.4
 20
100.0
 30
0.0
 41
10.0
 42
10.0
 43
10.0
 50
90.0
  0
TEXT
  5
245
  8
0
  6
BYBLOCK
 62
     0
 10
-767.4
 20
120.0
 30
0.0
 40
30.0
  1
100
 50
90.0
 72
     1
 11
-767.4
 21
150.0
 31
0.0
  0
POINT
  5
246
  8
DEFPOINTS
  6
BYBLOCK
 62
     0
 10
-505.0
 20
0.0
 30
0.0
  0
POINT
  5
247
  8
DEFPOINTS
  6
BYBLOCK
 62
     0
 10
-505.0
 20
100.0
 30
0.0
  0
POINT
  5
248
  8
DEFPOINTS
  6
BYBLOCK
 62
     0
 10
-757.4
 20
100.0
 30
0.0
  0
ENDBLK
  5
249
  8
0
  0
BLOCK
  8
0
  2
*D45
 70
     1
 10
0.0
 20
0.0
 30
0.0
  3
*D45
  1

  0
LINE
  5
24C
  8
0
  6
BYBLOCK
 62
     0
 10
467.0
 20
-50.5
 30
0.0
 11
665.1
 21
-50.5
 31
0.0
  0
LINE
  5
24D
  8
0
  6
BYBLOCK
 62
     0
 10
295.0
 20
16.5
 30
0.0
 11
665.1
 21
16.5
 31
0.0
  0
LINE
  5
24E
  8
0
  6
BYBLOCK
 62
     0
 10
652.6
 20
-40.5
 30
0.0
 11
652.6
 21
6.5
 31
0.0
  0
INSERT
  5
24F
  8
0
  6
BYBLOCK
 62
     0
  2
_ORIGIN
 10
652.6
 20
-50.5
 30
0.0
 41
10.0
 42
10.0
 43
10.0
 50
270.0
  0
INSERT
  5
250
  8
0
  6
BYBLOCK
 62
     0
  2
_ORIGIN
 10
652.6
 20
16.5
 30
0.0
 41
10.0
 42
10.0
 43
10.0
 50
90.0
  0
TEXT
  5
251
  8
0
  6
BYBLOCK
 62
     0
 10
642.6
 20
-42.0
 30
0.0
 40
30.0
  1
67
 50
90.0
 72
     1
 11
642.6
 21
-17.0
 31
0.0
  0
POINT
  5
252
  8
DEFPOINTS
  6
BYBLOCK
 62
     0
 10
457.0
 20
-50.5
 30
0.0
  0
POINT
  5
253
  8
DEFPOINTS
  6
BYBLOCK
 62
     0
 10
285.0
 20
16.5
 30
0.0
  0
POINT
  5
254
  8
DEFPOINTS
  6
BYBLOCK
 62
     0
 10
652.6
 20
16.5
 30
0.0
  0
ENDBLK
  5
255
  8
0
  0
BLOCK
  8
0
  2
*D46
 70
     1
 10
0.0
 20
0.0
 30
0.0
  3
*D46
  1

  0
LINE
  5
258
  8
0
  6
BYBLOCK
 62
     0
 10
467.0
 20
-209.5
 30
0.0
 11
765.1
 21
-209.5
 31
0.0
  0
LINE
  5
259
  8
0
  6
BYBLOCK
 62
     0
 10
295.0
 20
16.5
 30
0.0
 11
765.1
 21
16.5
 31
0.0
  0
LINE
  5
25A
  8
0
  6
BYBLOCK
 62
     0
 10
752.6
 20
-199.5
 30
0.0
 11
752.6
 21
6.5
 31
0.0
  0
INSERT
  5
25B
  8
0
  6
BYBLOCK
 62
     0
  2
_ORIGIN
 10
752.6
 20
-209.5
 30
0.0
 41
10.0
 42
10.0
 43
10.0
 50
270.0
  0
INSERT
  5
25C
  8
0
  6
BYBLOCK
 62
     0
  2
_ORIGIN
 10
752.6
 20
16.5
 30
0.0
 41
10.0
 42
10.0
 43
10.0
 50
90.0
  0
TEXT
  5
25D
  8
0
  6
BYBLOCK
 62
     0
 10
742.6
 20
-136.5
 30
0.0
 40
30.0
  1
226
 50
90.0
 72
     1
 11
742.6
 21
-96.5
 31
0.0
  0
POINT
  5
25E
  8
DEFPOINTS
  6
BYBLOCK
 62
     0
 10
457.0
 20
-209.5
 30
0.0
  0
POINT
  5
25F
  8
DEFPOINTS
  6
BYBLOCK
 62
     0
 10
285.0
 20
16.5
 30
0.0
  0
POINT
  5
260
  8
DEFPOINTS
  6
BYBLOCK
 62
     0
 10
752.6
 20
16.5
 30
0.0
  0
ENDBLK
  5
261
  8
0
  0
BLOCK
  8
0
  2
*D47
 70
     1
 10
0.0
 20
0.0
 30
0.0
  3
*D47
  1

  0
LINE
  5
264
  8
0
  6
BYBLOCK
 62
     0
 10
-143.0
 20
-394.0
 30
0.0
 11
-143.0
 21
-480.1
 31
0.0
  0
LINE
  5
265
  8
0
  6
BYBLOCK
 62
     0
 10
405.0
 20
-305.0
 30
0.0
 11
405.0
 21
-480.1
 31
0.0
  0
LINE
  5
266
  8
0
  6
BYBLOCK
 62
     0
 10
-133.0
 20
-467.6
 30
0.0
 11
395.0
 21
-467.6
 31
0.0
  0
INSERT
  5
267
  8
0
  6
BYBLOCK
 62
     0
  2
_ORIGIN
 10
-143.0
 20
-467.6
 30
0.0
 41
10.0
 42
10.0
 43
10.0
 50
180.0
  0
INSERT
  5
268
  8
0
  6
BYBLOCK
 62
     0
  2
_ORIGIN
 10
405.0
 20
-467.6
 30
0.0
 41
10.0
 42
10.0
 43
10.0
  0
TEXT
  5
269
  8
0
  6
BYBLOCK
 62
     0
 10
91.0
 20
-457.6
 30
0.0
 40
30.0
  1
548
 72
     1
 11
131.0
 21
-457.6
 31
0.0
  0
POINT
  5
26A
  8
DEFPOINTS
  6
BYBLOCK
 62
     0
 10
-143.0
 20
-384.0
 30
0.0
  0
POINT
  5
26B
  8
DEFPOINTS
  6
BYBLOCK
 62
     0
 10
405.0
 20
-295.0
 30
0.0
  0
POINT
  5
26C
  8
DEFPOINTS
  6
BYBLOCK
 62
     0
 10
405.0
 20
-467.6
 30
0.0
  0
ENDBLK
  5
26D
  8
0
  0
BLOCK
  8
0
  2
*D48
 70
     1
 10
0.0
 20
0.0
 30
0.0
  3
*D48
  1

  0
LINE
  5
270
  8
0
  6
BYBLOCK
 62
     0
 10
395.0
 20
-320.0
 30
0.0
 11
151.131952
 21
-320.0
 31
0.0
  0
LINE
  5
271
  8
0
  6
BYBLOCK
 62
     0
 10
-133.0
 20
-334.0
 30
0.0
 11
176.131952
 21
-334.0
 31
0.0
  0
LINE
  5
272
  8
0
  6
BYBLOCK
 62
     0
 10
163.631952
 20
-310.0
 30
0.0
 11
163.631952
 21
-300.0
 31
0.0
  0
LINE
  5
273
  8
0
  6
BYBLOCK
 62
     0
 10
163.631952
 20
-344.0
 30
0.0
 11
163.631952
 21
-414.0
 31
0.0
  0
LINE
  5
274
  8
0
  6
BYBLOCK
 62
     0
 10
163.631952
 20
-320.0
 30
0.0
 11
163.631952
 21
-334.0
 31
0.0
  0
INSERT
  5
275
  8
0
  6
BYBLOCK
 62
     0
  2
_ORIGIN
 10
163.631952
 20
-320.0
 30
0.0
 41
10.0
 42
10.0
 43
10.0
 50
270.0
  0
INSERT
  5
276
  8
0
  6
BYBLOCK
 62
     0
  2
_ORIGIN
 10
163.631952
 20
-334.0
 30
0.0
 41
10.0
 42
10.0
 43
10.0
 50
90.0
  0
TEXT
  5
277
  8
0
  6
BYBLOCK
 62
     0
 10
153.631952
 20
-404.0
 30
0.0
 40
30.0
  1
14
 50
90.0
 72
     1
 11
153.631952
 21
-384.0
 31
0.0
  0
POINT
  5
278
  8
DEFPOINTS
  6
BYBLOCK
 62
     0
 10
405.0
 20
-320.0
 30
0.0
  0
POINT
  5
279
  8
DEFPOINTS
  6
BYBLOCK
 62
     0
 10
-143.0
 20
-334.0
 30
0.0
  0
POINT
  5
27A
  8
DEFPOINTS
  6
BYBLOCK
 62
     0
 10
163.631952
 20
-334.0
 30
0.0
  0
ENDBLK
  5
27B
  8
0
  0
BLOCK
  8
0
  2
*D49
 70
     1
 10
0.0
 20
0.0
 30
0.0
  3
*D49
  1

  0
LINE
  5
27E
  8
0
  6
BYBLOCK
 62
     0
 10
-371.0
 20
-334.415924
 30
0.0
 11
-371.0
 21
-580.1
 31
0.0
  0
LINE
  5
27F
  8
0
  6
BYBLOCK
 62
     0
 10
85.0
 20
-334.415924
 30
0.0
 11
85.0
 21
-580.1
 31
0.0
  0
LINE
  5
280
  8
0
  6
BYBLOCK
 62
     0
 10
-361.0
 20
-567.6
 30
0.0
 11
75.0
 21
-567.6
 31
0.0
  0
INSERT
  5
281
  8
0
  6
BYBLOCK
 62
     0
  2
_ORIGIN
 10
-371.0
 20
-567.6
 30
0.0
 41
10.0
 42
10.0
 43
10.0
 50
180.0
  0
INSERT
  5
282
  8
0
  6
BYBLOCK
 62
     0
  2
_ORIGIN
 10
85.0
 20
-567.6
 30
0.0
 41
10.0
 42
10.0
 43
10.0
  0
TEXT
  5
283
  8
0
  6
BYBLOCK
 62
     0
 10
-183.0
 20
-557.6
 30
0.0
 40
30.0
  1
456
 72
     1
 11
-143.0
 21
-557.6
 31
0.0
  0
POINT
  5
284
  8
DEFPOINTS
  6
BYBLOCK
 62
     0
 10
-371.0
 20
-324.415924
 30
0.0
  0
POINT
  5
285
  8
DEFPOINTS
  6
BYBLOCK
 62
     0
 10
85.0
 20
-324.415924
 30
0.0
  0
POINT
  5
286
  8
DEFPOINTS
  6
BYBLOCK
 62
     0
 10
85.0
 20
-567.6
 30
0.0
  0
ENDBLK
  5
287
  8
0
  0
BLOCK
  8
0
  2
*D50
 70
     1
 10
0.0
 20
0.0
 30
0.0
  3
*D50
  1

  0
LINE
  5
28A
  8
0
  6
BYBLOCK
 62
     0
 10
-275.0
 20
16.5
 30
0.0
 11
-869.9
 21
16.5
 31
0.0
  0
LINE
  5
28B
  8
0
  6
BYBLOCK
 62
     0
 10
-277.0
 20
31.5
 30
0.0
 11
-869.9
 21
31.5
 31
0.0
  0
LINE
  5
28C
  8
0
  6
BYBLOCK
 62
     0
 10
-857.4
 20
6.5
 30
0.0
 11
-857.4
 21
-3.5
 31
0.0
  0
LINE
  5
28D
  8
0
  6
BYBLOCK
 62
     0
 10
-857.4
 20
41.5
 30
0.0
 11
-857.4
 21
111.5
 31
0.0
  0
LINE
  5
28E
  8
0
  6
BYBLOCK
 62
     0
 10
-857.4
 20
16.5
 30
0.0
 11
-857.4
 21
31.5
 31
0.0
  0
INSERT
  5
28F
  8
0
  6
BYBLOCK
 62
     0
  2
_ORIGIN
 10
-857.4
 20
16.5
 30
0.0
 41
10.0
 42
10.0
 43
10.0
 50
90.0
  0
INSERT
  5
290
  8
0
  6
BYBLOCK
 62
     0
  2
_ORIGIN
 10
-857.4
 20
31.5
 30
0.0
 41
10.0
 42
10.0
 43
10.0
 50
270.0
  0
TEXT
  5
291
  8
0
  6
BYBLOCK
 62
     0
 10
-867.4
 20
61.5
 30
0.0
 40
30.0
  1
15
 50
90.0
 72
     1
 11
-867.4
 21
81.5
 31
0.0
  0
POINT
  5
292
  8
DEFPOINTS
  6
BYBLOCK
 62
     0
 10
-265.0
 20
16.5
 30
0.0
  0
POINT
  5
293
  8
DEFPOINTS
  6
BYBLOCK
 62
     0
 10
-267.0
 20
31.5
 30
0.0
  0
POINT
  5
294
  8
DEFPOINTS
  6
BYBLOCK
 62
     0
 10
-857.4
 20
31.5
 30
0.0
  0
ENDBLK
  5
295
  8
0
  0
BLOCK
  8
0
  2
*D51
 70
     1
 10
0.0
 20
0.0
 30
0.0
  3
*D51
  1

  0
LINE
  5
298
  8
0
  6
BYBLOCK
 62
     0
 10
390.0
 20
-320.0
 30
0.0
 11
565.1
 21
-320.0
 31
0.0
  0
LINE
  5
299
  8
0
  6
BYBLOCK
 62
     0
 10
390.0
 20
0.0
 30
0.0
 11
565.1
 21
0.0
 31
0.0
  0
LINE
  5
29A
  8
0
  6
BYBLOCK
 62
     0
 10
552.6
 20
-310.0
 30
0.0
 11
552.6
 21
-10.0
 31
0.0
  0
INSERT
  5
29B
  8
0
  6
BYBLOCK
 62
     0
  2
_ORIGIN
 10
552.6
 20
-320.0
 30
0.0
 41
10.0
 42
10.0
 43
10.0
 50
270.0
  0
INSERT
  5
29C
  8
0
  6
BYBLOCK
 62
     0
  2
_ORIGIN
 10
552.6
 20
0.0
 30
0.0
 41
10.0
 42
10.0
 43
10.0
 50
90.0
  0
TEXT
  5
29D
  8
0
  6
BYBLOCK
 62
     0
 10
542.6
 20
-197.5
 30
0.0
 40
30.0
  1
320
 50
90.0
 72
     1
 11
542.6
 21
-160.0
 31
0.0
  0
POINT
  5
29E
  8
DEFPOINTS
  6
BYBLOCK
 62
     0
 10
380.0
 20
-320.0
 30
0.0
  0
POINT
  5
29F
  8
DEFPOINTS
  6
BYBLOCK
 62
     0
 10
380.0
 20
0.0
 30
0.0
  0
POINT
  5
2A0
  8
DEFPOINTS
  6
BYBLOCK
 62
     0
 10
552.6
 20
0.0
 30
0.0
  0
ENDBLK
  5
2A1
  8
0
  0
BLOCK
  8
0
  2
*D52
 70
     1
 10
0.0
 20
0.0
 30
0.0
  3
*D52
  1

  0
LINE
  5
2A4
  8
0
  6
BYBLOCK
 62
     0
 10
-405.0
 20
-15.0
 30
0.0
 11
-405.0
 21
364.998602
 31
0.0
  0
LINE
  5
2A5
  8
0
  6
BYBLOCK
 62
     0
 10
-245.0
 20
46.5
 30
0.0
 11
-245.0
 21
364.998602
 31
0.0
  0
LINE
  5
2A6
  8
0
  6
BYBLOCK
 62
     0
 10
-395.0
 20
352.498602
 30
0.0
 11
-255.0
 21
352.498602
 31
0.0
  0
INSERT
  5
2A7
  8
0
  6
BYBLOCK
 62
     0
  2
_ORIGIN
 10
-405.0
 20
352.498602
 30
0.0
 41
10.0
 42
10.0
 43
10.0
 50
180.0
  0
INSERT
  5
2A8
  8
0
  6
BYBLOCK
 62
     0
  2
_ORIGIN
 10
-245.0
 20
352.498602
 30
0.0
 41
10.0
 42
10.0
 43
10.0
  0
TEXT
  5
2A9
  8
0
  6
BYBLOCK
 62
     0
 10
-357.5
 20
362.498602
 30
0.0
 40
30.0
  1
160
 72
     1
 11
-325.0
 21
362.498602
 31
0.0
  0
POINT
  5
2AA
  8
DEFPOINTS
  6
BYBLOCK
 62
     0
 10
-405.0
 20
-25.0
 30
0.0
  0
POINT
  5
2AB
  8
DEFPOINTS
  6
BYBLOCK
 62
     0
 10
-245.0
 20
36.5
 30
0.0
  0
POINT
  5
2AC
  8
DEFPOINTS
  6
BYBLOCK
 62
     0
 10
-245.0
 20
352.498602
 30
0.0
  0
ENDBLK
  5
2AD
  8
0
  0
BLOCK
  8
0
  2
*D53
 70
     1
 10
0.0
 20
0.0
 30
0.0
  3
*D53
  1

  0
LINE
  5
2B0
  8
0
  6
BYBLOCK
 62
     0
 10
-505.0
 20
110.0
 30
0.0
 11
-505.0
 21
664.423621
 31
0.0
  0
LINE
  5
2B1
  8
0
  6
BYBLOCK
 62
     0
 10
405.0
 20
110.0
 30
0.0
 11
405.0
 21
664.423621
 31
0.0
  0
LINE
  5
2B2
  8
0
  6
BYBLOCK
 62
     0
 10
-495.0
 20
651.923621
 30
0.0
 11
395.0
 21
651.923621
 31
0.0
  0
INSERT
  5
2B3
  8
0
  6
BYBLOCK
 62
     0
  2
_ORIGIN
 10
-505.0
 20
651.923621
 30
0.0
 41
10.0
 42
10.0
 43
10.0
 50
180.0
  0
INSERT
  5
2B4
  8
0
  6
BYBLOCK
 62
     0
  2
_ORIGIN
 10
405.0
 20
651.923621
 30
0.0
 41
10.0
 42
10.0
 43
10.0
  0
TEXT
  5
2B5
  8
0
  6
BYBLOCK
 62
     0
 10
-82.5
 20
661.923621
 30
0.0
 40
30.0
  1
910
 72
     1
 11
-50.0
 21
661.923621
 31
0.0
  0
POINT
  5
2B6
  8
DEFPOINTS
  6
BYBLOCK
 62
     0
 10
-505.0
 20
100.0
 30
0.0
  0
POINT
  5
2B7
  8
DEFPOINTS
  6
BYBLOCK
 62
     0
 10
405.0
 20
100.0
 30
0.0
  0
POINT
  5
2B8
  8
DEFPOINTS
  6
BYBLOCK
 62
     0
 10
405.0
 20
651.923621
 30
0.0
  0
ENDBLK
  5
2B9
  8
0
  0
BLOCK
  8
0
  2
*D54
 70
     1
 10
0.0
 20
0.0
 30
0.0
  3
*D54
  1

  0
LINE
  5
2BC
  8
0
  6
BYBLOCK
 62
     0
 10
-515.0
 20
-320.0
 30
0.0
 11
-769.9
 21
-320.0
 31
0.0
  0
LINE
  5
2BD
  8
0
  6
BYBLOCK
 62
     0
 10
-515.0
 20
0.0
 30
0.0
 11
-769.9
 21
0.0
 31
0.0
  0
LINE
  5
2BE
  8
0
  6
BYBLOCK
 62
     0
 10
-757.4
 20
-310.0
 30
0.0
 11
-757.4
 21
-10.0
 31
0.0
  0
INSERT
  5
2BF
  8
0
  6
BYBLOCK
 62
     0
  2
_ORIGIN
 10
-757.4
 20
-320.0
 30
0.0
 41
10.0
 42
10.0
 43
10.0
 50
270.0
  0
INSERT
  5
2C0
  8
0
  6
BYBLOCK
 62
     0
  2
_ORIGIN
 10
-757.4
 20
0.0
 30
0.0
 41
10.0
 42
10.0
 43
10.0
 50
90.0
  0
TEXT
  5
2C1
  8
0
  6
BYBLOCK
 62
     0
 10
-767.4
 20
-197.5
 30
0.0
 40
30.0
  1
320
 50
90.0
 72
     1
 11
-767.4
 21
-160.0
 31
0.0
  0
POINT
  5
2C2
  8
DEFPOINTS
  6
BYBLOCK
 62
     0
 10
-505.0
 20
-320.0
 30
0.0
  0
POINT
  5
2C3
  8
DEFPOINTS
  6
BYBLOCK
 62
     0
 10
-505.0
 20
0.0
 30
0.0
  0
POINT
  5
2C4
  8
DEFPOINTS
  6
BYBLOCK
 62
     0
 10
-757.4
 20
0.0
 30
0.0
  0
ENDBLK
  5
2C5
  8
0
  0
BLOCK
  8
0
  2
*D55
 70
     1
 10
0.0
 20
0.0
 30
0.0
  3
*D55
  1

  0
LINE
  5
2C8
  8
0
  6
BYBLOCK
 62
     0
 10
390.0
 20
0.0
 30
0.0
 11
565.1
 21
0.0
 31
0.0
  0
LINE
  5
2C9
  8
0
  6
BYBLOCK
 62
     0
 10
295.0
 20
16.5
 30
0.0
 11
565.1
 21
16.5
 31
0.0
  0
LINE
  5
2CA
  8
0
  6
BYBLOCK
 62
     0
 10
552.6
 20
-10.0
 30
0.0
 11
552.6
 21
-20.0
 31
0.0
  0
LINE
  5
2CB
  8
0
  6
BYBLOCK
 62
     0
 10
552.6
 20
26.5
 30
0.0
 11
552.6
 21
150.235483
 31
0.0
  0
LINE
  5
2CC
  8
0
  6
BYBLOCK
 62
     0
 10
552.6
 20
0.0
 30
0.0
 11
552.6
 21
16.5
 31
0.0
  0
INSERT
  5
2CD
  8
0
  6
BYBLOCK
 62
     0
  2
_ORIGIN
 10
552.6
 20
0.0
 30
0.0
 41
10.0
 42
10.0
 43
10.0
 50
90.0
  0
INSERT
  5
2CE
  8
0
  6
BYBLOCK
 62
     0
  2
_ORIGIN
 10
552.6
 20
16.5
 30
0.0
 41
10.0
 42
10.0
 43
10.0
 50
270.0
  0
TEXT
  5
2CF
  8
0
  6
BYBLOCK
 62
     0
 10
542.6
 20
100.235483
 30
0.0
 40
30.0
  1
17
 50
90.0
 72
     1
 11
542.6
 21
120.235483
 31
0.0
  0
POINT
  5
2D0
  8
DEFPOINTS
  6
BYBLOCK
 62
     0
 10
380.0
 20
0.0
 30
0.0
  0
POINT
  5
2D1
  8
DEFPOINTS
  6
BYBLOCK
 62
     0
 10
285.0
 20
16.5
 30
0.0
  0
POINT
  5
2D2
  8
DEFPOINTS
  6
BYBLOCK
 62
     0
 10
552.6
 20
16.5
 30
0.0
  0
ENDBLK
  5
2D3
  8
0
  0
BLOCK
  8
0
  2
*D56
 70
     1
 10
0.0
 20
0.0
 30
0.0
  3
*D56
  1

  0
LINE
  5
2D6
  8
0
  6
BYBLOCK
 62
     0
 10
-185.0
 20
-63.0
 30
0.0
 11
-669.9
 21
-63.0
 31
0.0
  0
LINE
  5
2D7
  8
0
  6
BYBLOCK
 62
     0
 10
-390.0
 20
0.0
 30
0.0
 11
-669.9
 21
0.0
 31
0.0
  0
LINE
  5
2D8
  8
0
  6
BYBLOCK
 62
     0
 10
-657.4
 20
-53.0
 30
0.0
 11
-657.4
 21
-10.0
 31
0.0
  0
INSERT
  5
2D9
  8
0
  6
BYBLOCK
 62
     0
  2
_ORIGIN
 10
-657.4
 20
-63.0
 30
0.0
 41
10.0
 42
10.0
 43
10.0
 50
270.0
  0
INSERT
  5
2DA
  8
0
  6
BYBLOCK
 62
     0
  2
_ORIGIN
 10
-657.4
 20
0.0
 30
0.0
 41
10.0
 42
10.0
 43
10.0
 50
90.0
  0
TEXT
  5
2DB
  8
0
  6
BYBLOCK
 62
     0
 10
-667.4
 20
-56.5
 30
0.0
 40
30.0
  1
63
 50
90.0
 72
     1
 11
-667.4
 21
-31.5
 31
0.0
  0
POINT
  5
2DC
  8
DEFPOINTS
  6
BYBLOCK
 62
     0
 10
-175.0
 20
-63.0
 30
0.0
  0
POINT
  5
2DD
  8
DEFPOINTS
  6
BYBLOCK
 62
     0
 10
-380.0
 20
0.0
 30
0.0
  0
POINT
  5
2DE
  8
DEFPOINTS
  6
BYBLOCK
 62
     0
 10
-657.4
 20
0.0
 30
0.0
  0
ENDBLK
  5
2DF
  8
0
  0
BLOCK
  8
0
  2
*D57
 70
     1
 10
0.0
 20
0.0
 30
0.0
  3
*D57
  1

  0
LINE
  5
2E2
  8
0
  6
BYBLOCK
 62
     0
 10
-155.0
 20
-33.0
 30
0.0
 11
-155.0
 21
215.19184
 31
0.0
  0
LINE
  5
2E3
  8
0
  6
BYBLOCK
 62
     0
 10
-405.0
 20
-15.0
 30
0.0
 11
-405.0
 21
215.19184
 31
0.0
  0
LINE
  5
2E4
  8
0
  6
BYBLOCK
 62
     0
 10
-165.0
 20
202.69184
 30
0.0
 11
-395.0
 21
202.69184
 31
0.0
  0
INSERT
  5
2E5
  8
0
  6
BYBLOCK
 62
     0
  2
_ORIGIN
 10
-155.0
 20
202.69184
 30
0.0
 41
10.0
 42
10.0
 43
10.0
  0
INSERT
  5
2E6
  8
0
  6
BYBLOCK
 62
     0
  2
_ORIGIN
 10
-405.0
 20
202.69184
 30
0.0
 41
10.0
 42
10.0
 43
10.0
 50
180.0
  0
TEXT
  5
2E7
  8
0
  6
BYBLOCK
 62
     0
 10
-317.5
 20
212.69184
 30
0.0
 40
30.0
  1
250
 72
     1
 11
-280.0
 21
212.69184
 31
0.0
  0
POINT
  5
2E8
  8
DEFPOINTS
  6
BYBLOCK
 62
     0
 10
-155.0
 20
-43.0
 30
0.0
  0
POINT
  5
2E9
  8
DEFPOINTS
  6
BYBLOCK
 62
     0
 10
-405.0
 20
-25.0
 30
0.0
  0
POINT
  5
2EA
  8
DEFPOINTS
  6
BYBLOCK
 62
     0
 10
-405.0
 20
202.69184
 30
0.0
  0
ENDBLK
  5
2EB
  8
0
  0
ENDSEC
  0
SECTION
  2
ENTITIES
  0
LINE
  5
2EC
  8
OUTLINE
  6
CONTINUOUS
 10
-405.0
 20
-25.0
 30
0.0
 11
-405.0
 21
-295.0
 31
0.0
  0
LINE
  5
2ED
  8
OUTLINE
  6
CONTINUOUS
 10
405.0
 20
-25.0
 30
0.0
 11
405.0
 21
-295.0
 31
0.0
  0
ARC
  5
2EE
  8
OUTLINE
  6
CONTINUOUS
 10
380.0
 20
-25.0
 30
0.0
 40
25.0
 50
0.0
 51
90.0
  0
ARC
  5
2EF
  8
OUTLINE
  6
CONTINUOUS
 10
380.0
 20
-295.0
 30
0.0
 40
25.0
 50
270.0
 51
0.0
  0
ARC
  5
2F0
  8
OUTLINE
  6
CONTINUOUS
 10
-380.0
 20
-295.0
 30
0.0
 40
25.0
 50
180.0
 51
270.0
  0
ARC
  5
2F1
  8
OUTLINE
  6
CONTINUOUS
 10
-380.0
 20
-25.0
 30
0.0
 40
25.0
 50
90.0
 51
180.0
  0
LINE
  5
2F2
  8
OUTLINE
  6
CONTINUOUS
 10
-267.0
 20
0.0
 30
0.0
 11
-380.0
 21
0.0
 31
0.0
  0
LINE
  5
2F3
  8
OUTLINE
  6
CONTINUOUS
 10
243.0
 20
0.0
 30
0.0
 11
-223.0
 21
0.0
 31
0.0
  0
LINE
  5
2F4
  8
OUTLINE
  6
CONTINUOUS
 10
380.0
 20
0.0
 30
0.0
 11
287.0
 21
0.0
 31
0.0
  0
LINE
  5
2F5
  8
OUTLINE
  6
CONTINUOUS
 10
-267.0
 20
-24.5
 30
0.0
 11
-267.0
 21
31.5
 31
0.0
  0
LINE
  5
2F6
  8
OUTLINE
  6
CONTINUOUS
 10
-223.0
 20
-24.5
 30
0.0
 11
-223.0
 21
31.5
 31
0.0
  0
LINE
  5
2F7
  8
OUTLINE
  6
CONTINUOUS
 10
-223.0
 20
31.5
 30
0.0
 11
-267.0
 21
31.5
 31
0.0
  0
LINE
  5
2F8
  8
OUTLINE
  6
CONTINUOUS
 10
-267.0
 20
-24.5
 30
0.0
 11
-223.0
 21
-24.5
 31
0.0
  0
LINE
  5
2F9
  8
OUTLINE
  6
CONTINUOUS
 10
243.0
 20
-24.5
 30
0.0
 11
243.0
 21
31.5
 31
0.0
  0
LINE
  5
2FA
  8
OUTLINE
  6
CONTINUOUS
 10
243.0
 20
-24.5
 30
0.0
 11
287.0
 21
-24.5
 31
0.0
  0
LINE
  5
2FB
  8
OUTLINE
  6
CONTINUOUS
 10
287.0
 20
-24.5
 30
0.0
 11
287.0
 21
31.5
 31
0.0
  0
LINE
  5
2FC
  8
OUTLINE
  6
CONTINUOUS
 10
287.0
 20
31.5
 30
0.0
 11
243.0
 21
31.5
 31
0.0
  0
LINE
  5
2FD
  8
OUTLINE
  6
CONTINUOUS
 10
-267.0
 20
-320.0
 30
0.0
 11
-380.0
 21
-320.0
 31
0.0
  0
LINE
  5
2FE
  8
OUTLINE
  6
CONTINUOUS
 10
243.0
 20
-320.0
 30
0.0
 11
-223.0
 21
-320.0
 31
0.0
  0
LINE
  5
2FF
  8
OUTLINE
  6
CONTINUOUS
 10
-267.0
 20
-295.5
 30
0.0
 11
-267.0
 21
-351.5
 31
0.0
  0
LINE
  5
300
  8
OUTLINE
  6
CONTINUOUS
 10
-267.0
 20
-295.5
 30
0.0
 11
-223.0
 21
-295.5
 31
0.0
  0
LINE
  5
301
  8
OUTLINE
  6
CONTINUOUS
 10
-223.0
 20
-295.5
 30
0.0
 11
-223.0
 21
-351.5
 31
0.0
  0
LINE
  5
302
  8
OUTLINE
  6
CONTINUOUS
 10
380.0
 20
-320.0
 30
0.0
 11
287.0
 21
-320.0
 31
0.0
  0
LINE
  5
303
  8
OUTLINE
  6
CONTINUOUS
 10
243.0
 20
-295.5
 30
0.0
 11
243.0
 21
-351.5
 31
0.0
  0
LINE
  5
304
  8
OUTLINE
  6
CONTINUOUS
 10
243.0
 20
-295.5
 30
0.0
 11
287.0
 21
-295.5
 31
0.0
  0
LINE
  5
305
  8
OUTLINE
  6
CONTINUOUS
 10
287.0
 20
-295.5
 30
0.0
 11
287.0
 21
-351.5
 31
0.0
  0
LINE
  5
306
  8
OUTLINE
  6
CONTINUOUS
 10
287.0
 20
-351.5
 30
0.0
 11
243.0
 21
-351.5
 31
0.0
  0
LINE
  5
307
  8
OUTLINE
  6
CONTINUOUS
 10
-223.0
 20
-351.5
 30
0.0
 11
-267.0
 21
-351.5
 31
0.0
  0
CIRCLE
  5
308
  8
DETAIL
  6
CONTINUOUS
 10
-155.0
 20
-63.0
 30
0.0
 40
16.0
  0
CIRCLE
  5
309
  8
DETAIL
  6
CONTINUOUS
 10
-155.0
 20
-63.0
 30
0.0
 40
12.5
  0
LINE
  5
30A
  8
DETAIL
  6
CONTINUOUS
 10
287.0
 20
-351.5
 30
0.0
 11
243.0
 21
-351.5
 31
0.0
  0
LINE
  5
30B
  8
DETAIL
  6
CONTINUOUS
 10
243.0
 20
-295.5
 30
0.0
 11
243.0
 21
-351.5
 31
0.0
  0
LINE
  5
30C
  8
DETAIL
  6
CONTINUOUS
 10
287.0
 20
-295.5
 30
0.0
 11
287.0
 21
-351.5
 31
0.0
  0
LINE
  5
30D
  8
DETAIL
  6
CONTINUOUS
 10
243.0
 20
-24.5
 30
0.0
 11
243.0
 21
31.5
 31
0.0
  0
LINE
  5
30E
  8
DETAIL
  6
CONTINUOUS
 10
287.0
 20
-24.5
 30
0.0
 11
287.0
 21
31.5
 31
0.0
  0
ARC
  5
30F
  8
DETAIL
  6
CONTINUOUS
 10
-380.0
 20
-25.0
 30
0.0
 40
25.0
 50
90.0
 51
180.0
  0
ARC
  5
310
  8
DETAIL
  6
CONTINUOUS
 10
-380.0
 20
-295.0
 30
0.0
 40
25.0
 50
180.0
 51
270.0
  0
ARC
  5
311
  8
DETAIL
  6
CONTINUOUS
 10
380.0
 20
-295.0
 30
0.0
 40
25.0
 50
270.0
 51
0.0
  0
ARC
  5
312
  8
DETAIL
  6
CONTINUOUS
 10
380.0
 20
-25.0
 30
0.0
 40
25.0
 50
0.0
 51
90.0
  0
LINE
  5
313
  8
DETAIL
  6
CONTINUOUS
 10
405.0
 20
-25.0
 30
0.0
 11
405.0
 21
-295.0
 31
0.0
  0
LINE
  5
314
  8
DETAIL
  6
CONTINUOUS
 10
-405.0
 20
-25.0
 30
0.0
 11
-405.0
 21
-295.0
 31
0.0
  0
LINE
  5
315
  8
DETAIL
  6
CONTINUOUS
 10
380.0
 20
0.0
 30
0.0
 11
287.0
 21
0.0
 31
0.0
  0
LINE
  5
316
  8
DETAIL
  6
CONTINUOUS
 10
380.0
 20
-320.0
 30
0.0
 11
287.0
 21
-320.0
 31
0.0
  0
LINE
  5
317
  8
DETAIL
  6
CONTINUOUS
 10
287.0
 20
31.5
 30
0.0
 11
243.0
 21
31.5
 31
0.0
  0
LINE
  5
318
  8
DETAIL
  6
CONTINUOUS
 10
437.0
 20
-40.436117
 30
0.0
 11
437.0
 21
-60.563883
 31
0.0
  0
LINE
  5
319
  8
DETAIL
  6
CONTINUOUS
 10
437.0
 20
-40.436117
 30
0.0
 11
422.0
 21
-39.65
 31
0.0
  0
LINE
  5
31A
  8
DETAIL
  6
CONTINUOUS
 10
422.0
 20
-61.35
 30
0.0
 11
405.0
 21
-61.35
 31
0.0
  0
LINE
  5
31B
  8
DETAIL
  6
CONTINUOUS
 10
422.0
 20
-220.35
 30
0.0
 11
405.0
 21
-220.35
 31
0.0
  0
LINE
  5
31C
  8
DETAIL
  6
CONTINUOUS
 10
422.0
 20
-39.65
 30
0.0
 11
422.0
 21
-61.35
 31
0.0
  0
LINE
  5
31D
  8
DETAIL
  6
CONTINUOUS
 10
422.0
 20
-204.0
 30
0.0
 11
422.0
 21
-220.35
 31
0.0
  0
LINE
  5
31E
  8
DETAIL
  6
CONTINUOUS
 10
422.0
 20
-39.65
 30
0.0
 11
405.0
 21
-39.65
 31
0.0
  0
LINE
  5
31F
  8
DETAIL
  6
CONTINUOUS
 10
437.0
 20
-60.563883
 30
0.0
 11
422.0
 21
-61.35
 31
0.0
  0
LINE
  5
320
  8
DETAIL
  6
CONTINUOUS
 10
437.0
 20
-199.436117
 30
0.0
 11
437.0
 21
-219.563883
 31
0.0
  0
LINE
  5
321
  8
DETAIL
  6
CONTINUOUS
 10
437.0
 20
-199.436117
 30
0.0
 11
423.0
 21
-198.702408
 31
0.0
  0
LINE
  5
322
  8
DETAIL
  6
CONTINUOUS
 10
437.0
 20
-219.563883
 30
0.0
 11
422.0
 21
-220.35
 31
0.0
  0
LINE
  5
323
  8
DETAIL
  6
CONTINUOUS
 10
243.0
 20
-24.5
 30
0.0
 11
287.0
 21
-24.5
 31
0.0
  0
LINE
  5
324
  8
DETAIL
  6
CONTINUOUS
 10
243.0
 20
-295.5
 30
0.0
 11
287.0
 21
-295.5
 31
0.0
  0
LINE
  5
325
  8
DETAIL
  6
CONTINUOUS
 10
-267.0
 20
-24.5
 30
0.0
 11
-267.0
 21
31.5
 31
0.0
  0
LINE
  5
326
  8
DETAIL
  6
CONTINUOUS
 10
-223.0
 20
-24.5
 30
0.0
 11
-223.0
 21
31.5
 31
0.0
  0
LINE
  5
327
  8
DETAIL
  6
CONTINUOUS
 10
-223.0
 20
31.5
 30
0.0
 11
-267.0
 21
31.5
 31
0.0
  0
LINE
  5
328
  8
DETAIL
  6
CONTINUOUS
 10
-267.0
 20
-24.5
 30
0.0
 11
-223.0
 21
-24.5
 31
0.0
  0
LINE
  5
329
  8
DETAIL
  6
CONTINUOUS
 10
-267.0
 20
-295.5
 30
0.0
 11
-267.0
 21
-351.5
 31
0.0
  0
LINE
  5
32A
  8
DETAIL
  6
CONTINUOUS
 10
-267.0
 20
-295.5
 30
0.0
 11
-223.0
 21
-295.5
 31
0.0
  0
LINE
  5
32B
  8
DETAIL
  6
CONTINUOUS
 10
-223.0
 20
-295.5
 30
0.0
 11
-223.0
 21
-351.5
 31
0.0
  0
LINE
  5
32C
  8
DETAIL
  6
CONTINUOUS
 10
-223.0
 20
-351.5
 30
0.0
 11
-267.0
 21
-351.5
 31
0.0
  0
LINE
  5
32D
  8
DETAIL
  6
CONTINUOUS
 10
243.0
 20
0.0
 30
0.0
 11
-223.0
 21
0.0
 31
0.0
  0
LINE
  5
32E
  8
DETAIL
  6
CONTINUOUS
 10
243.0
 20
-320.0
 30
0.0
 11
-223.0
 21
-320.0
 31
0.0
  0
LINE
  5
32F
  8
DETAIL
  6
CONTINUOUS
 10
-267.0
 20
0.0
 30
0.0
 11
-380.0
 21
0.0
 31
0.0
  0
LINE
  5
330
  8
DETAIL
  6
CONTINUOUS
 10
-267.0
 20
-320.0
 30
0.0
 11
-380.0
 21
-320.0
 31
0.0
  0
ARC
  5
331
  8
DETAIL
  6
CONTINUOUS
 10
-245.0
 20
18.0
 30
0.0
 40
6.0
 50
0.0
 51
180.0
  0
LINE
  5
332
  8
DETAIL
  6
CONTINUOUS
 10
-239.0
 20
15.0
 30
0.0
 11
-239.0
 21
18.0
 31
0.0
  0
ARC
  5
333
  8
DETAIL
  6
CONTINUOUS
 10
-245.0
 20
15.0
 30
0.0
 40
6.0
 50
180.0
 51
0.0
  0
LINE
  5
334
  8
DETAIL
  6
CONTINUOUS
 10
-251.0
 20
15.0
 30
0.0
 11
-251.0
 21
18.0
 31
0.0
  0
ARC
  5
335
  8
DETAIL
  6
CONTINUOUS
 10
265.0
 20
18.0
 30
0.0
 40
6.0
 50
0.0
 51
180.0
  0
LINE
  5
336
  8
DETAIL
  6
CONTINUOUS
 10
271.0
 20
15.0
 30
0.0
 11
271.0
 21
18.0
 31
0.0
  0
ARC
  5
337
  8
DETAIL
  6
CONTINUOUS
 10
265.0
 20
15.0
 30
0.0
 40
6.0
 50
180.0
 51
0.0
  0
LINE
  5
338
  8
DETAIL
  6
CONTINUOUS
 10
259.0
 20
15.0
 30
0.0
 11
259.0
 21
18.0
 31
0.0
  0
LINE
  5
339
  8
DETAIL
  6
CONTINUOUS
 10
271.0
 20
-338.0
 30
0.0
 11
271.0
 21
-335.0
 31
0.0
  0
ARC
  5
33A
  8
DETAIL
  6
CONTINUOUS
 10
265.0
 20
-338.0
 30
0.0
 40
6.0
 50
180.0
 51
0.0
  0
ARC
  5
33B
  8
DETAIL
  6
CONTINUOUS
 10
265.0
 20
-335.0
 30
0.0
 40
6.0
 50
0.0
 51
180.0
  0
LINE
  5
33C
  8
DETAIL
  6
CONTINUOUS
 10
259.0
 20
-338.0
 30
0.0
 11
259.0
 21
-335.0
 31
0.0
  0
LINE
  5
33D
  8
DETAIL
  6
CONTINUOUS
 10
-239.0
 20
-338.0
 30
0.0
 11
-239.0
 21
-335.0
 31
0.0
  0
ARC
  5
33E
  8
DETAIL
  6
CONTINUOUS
 10
-245.0
 20
-338.0
 30
0.0
 40
6.0
 50
180.0
 51
0.0
  0
ARC
  5
33F
  8
DETAIL
  6
CONTINUOUS
 10
-245.0
 20
-335.0
 30
0.0
 40
6.0
 50
0.0
 51
180.0
  0
LINE
  5
340
  8
DETAIL
  6
CONTINUOUS
 10
-251.0
 20
-338.0
 30
0.0
 11
-251.0
 21
-335.0
 31
0.0
  0
LINE
  5
341
  8
DETAIL
  6
CONTINUOUS
 10
85.0
 20
-320.0
 30
0.0
 11
85.0
 21
-324.415928
 31
0.0
  0
ARC
  5
342
  8
DETAIL
  6
CONTINUOUS
 10
-143.0
 20
5097.4
 30
0.0
 40
5431.4
 50
267.644745
 51
268.691812
  0
ARC
  5
343
  8
DETAIL
  6
CONTINUOUS
 10
80.0
 20
-324.415928
 30
0.0
 40
5.0
 50
272.355255
 51
0.0
  0
LINE
  5
344
  8
DETAIL
  6
CONTINUOUS
 10
-371.0
 20
-320.0
 30
0.0
 11
-371.0
 21
-324.415928
 31
0.0
  0
ARC
  5
345
  8
DETAIL
  6
CONTINUOUS
 10
-366.0
 20
-324.415928
 30
0.0
 40
5.0
 50
180.0
 51
267.644745
  0
ARC
  5
346
  8
DETAIL
  6
CONTINUOUS
 10
-143.0
 20
5097.4
 30
0.0
 40
5431.4
 50
269.15605
 51
272.355255
  0
LINE
  5
347
  8
DETAIL
  6
CONTINUOUS
 10
429.0
 20
-106.0
 30
0.0
 11
429.0
 21
-97.0
 31
0.0
  0
LINE
  5
348
  8
DETAIL
  6
CONTINUOUS
 10
423.0
 20
-106.0
 30
0.0
 11
429.0
 21
-106.0
 31
0.0
  0
LINE
  5
349
  8
DETAIL
  6
CONTINUOUS
 10
413.0
 20
-107.0
 30
0.0
 11
423.0
 21
-107.0
 31
0.0
  0
LINE
  5
34A
  8
DETAIL
  6
CONTINUOUS
 10
423.0
 20
-107.0
 30
0.0
 11
423.0
 21
-96.0
 31
0.0
  0
LINE
  5
34B
  8
DETAIL
  6
CONTINUOUS
 10
413.0
 20
-107.0
 30
0.0
 11
413.0
 21
-96.0
 31
0.0
  0
LINE
  5
34C
  8
DETAIL
  6
CONTINUOUS
 10
411.0
 20
-109.0
 30
0.0
 11
411.0
 21
-94.0
 31
0.0
  0
LINE
  5
34D
  8
DETAIL
  6
CONTINUOUS
 10
405.0
 20
-109.0
 30
0.0
 11
411.0
 21
-109.0
 31
0.0
  0
LINE
  5
34E
  8
DETAIL
  6
CONTINUOUS
 10
411.0
 20
-105.5
 30
0.0
 11
413.0
 21
-105.5
 31
0.0
  0
LINE
  5
34F
  8
DETAIL
  6
CONTINUOUS
 10
405.0
 20
-94.0
 30
0.0
 11
411.0
 21
-94.0
 31
0.0
  0
LINE
  5
350
  8
DETAIL
  6
CONTINUOUS
 10
423.0
 20
-97.0
 30
0.0
 11
429.0
 21
-97.0
 31
0.0
  0
LINE
  5
351
  8
DETAIL
  6
CONTINUOUS
 10
413.0
 20
-96.0
 30
0.0
 11
423.0
 21
-96.0
 31
0.0
  0
LINE
  5
352
  8
DETAIL
  6
CONTINUOUS
 10
411.0
 20
-97.5
 30
0.0
 11
413.0
 21
-97.5
 31
0.0
  0
LINE
  5
353
  8
DETAIL
  6
CONTINUOUS
 10
407.0
 20
-205.0
 30
0.0
 11
407.0
 21
-194.0
 31
0.0
  0
LINE
  5
354
  8
DETAIL
  6
CONTINUOUS
 10
417.0
 20
-205.0
 30
0.0
 11
417.0
 21
-194.0
 31
0.0
  0
LINE
  5
355
  8
DETAIL
  6
CONTINUOUS
 10
423.0
 20
-204.0
 30
0.0
 11
423.0
 21
-195.0
 31
0.0
  0
LINE
  5
356
  8
DETAIL
  6
CONTINUOUS
 10
423.0
 20
-195.0
 30
0.0
 11
417.0
 21
-195.0
 31
0.0
  0
LINE
  5
357
  8
DETAIL
  6
CONTINUOUS
 10
417.0
 20
-194.0
 30
0.0
 11
407.0
 21
-194.0
 31
0.0
  0
LINE
  5
358
  8
DETAIL
  6
CONTINUOUS
 10
405.0
 20
-195.5
 30
0.0
 11
407.0
 21
-195.5
 31
0.0
  0
LINE
  5
359
  8
DETAIL
  6
CONTINUOUS
 10
417.0
 20
-205.0
 30
0.0
 11
407.0
 21
-205.0
 31
0.0
  0
LINE
  5
35A
  8
DETAIL
  6
CONTINUOUS
 10
423.0
 20
-204.0
 30
0.0
 11
417.0
 21
-204.0
 31
0.0
  0
LINE
  5
35B
  8
DETAIL
  6
CONTINUOUS
 10
405.0
 20
-203.5
 30
0.0
 11
407.0
 21
-203.5
 31
0.0
  0
LINE
  5
35C
  8
BASIS
  6
DASHDOT
 10
-143.0
 20
-284.0
 30
0.0
 11
-143.0
 21
-384.0
 31
0.0
  0
LINE
  5
35D
  8
BASIS
  6
DASHDOT
 10
-455.0
 20
-160.0
 30
0.0
 11
455.0
 21
-160.0
 31
0.0
  0
LINE
  5
35E
  8
BASIS
  6
DASHDOT
 10
0.0
 20
50.0
 30
0.0
 11
0.0
 21
-370.0
 31
0.0
  0
LINE
  5
35F
  8
SIZE
  6
CONTINUOUS
 62
    30
 10
-155.0
 20
-33.0
 30
0.0
 11
-155.0
 21
215.19184
 31
0.0
  0
LINE
  5
360
  8
SIZE
  6
CONTINUOUS
 62
    30
 10
-405.0
 20
-15.0
 30
0.0
 11
-405.0
 21
215.19184
 31
0.0
  0
LINE
  5
361
  8
SIZE
  6
CONTINUOUS
 62
    30
 10
-165.0
 20
202.69184
 30
0.0
 11
-395.0
 21
202.69184
 31
0.0
  0
CIRCLE
  5
362
  8
SIZE
  6
CONTINUOUS
 62
    30
 10
-155.0
 20
202.69184
 30
0.0
 40
5.0
  0
LINE
  5
363
  8
SIZE
  6
CONTINUOUS
 62
    30
 10
-155.0
 20
202.69184
 30
0.0
 11
-165.0
 21
202.69184
 31
0.0
  0
CIRCLE
  5
364
  8
SIZE
  6
CONTINUOUS
 62
    30
 10
-405.0
 20
202.69184
 30
0.0
 40
5.0
  0
LINE
  5
365
  8
SIZE
  6
CONTINUOUS
 62
    30
 10
-405.0
 20
202.69184
 30
0.0
 11
-395.0
 21
202.69184
 31
0.0
  0
TEXT
  5
366
  8
SIZE
  6
CONTINUOUS
 62
    30
 10
-317.5
 20
212.69184
 30
0.0
 40
30.0
  1
250
 72
     1
 11
-280.0
 21
212.69184
 31
0.0
  0
POINT
  5
367
  8
DEFPOINTS
  6
CONTINUOUS
 62
    30
 10
-155.0
 20
-43.0
 30
0.0
  0
POINT
  5
368
  8
DEFPOINTS
  6
CONTINUOUS
 62
    30
 10
-405.0
 20
-25.0
 30
0.0
  0
POINT
  5
369
  8
DEFPOINTS
  6
CONTINUOUS
 62
    30
 10
-405.0
 20
202.69184
 30
0.0
  0
LINE
  5
36A
  8
SIZE
  6
CONTINUOUS
 62
    30
 10
-185.0
 20
-63.0
 30
0.0
 11
-669.9
 21
-63.0
 31
0.0
  0
LINE
  5
36B
  8
SIZE
  6
CONTINUOUS
 62
    30
 10
-390.0
 20
0.0
 30
0.0
 11
-669.9
 21
0.0
 31
0.0
  0
LINE
  5
36C
  8
SIZE
  6
CONTINUOUS
 62
    30
 10
-657.4
 20
-53.0
 30
0.0
 11
-657.4
 21
-10.0
 31
0.0
  0
CIRCLE
  5
36D
  8
SIZE
  6
CONTINUOUS
 62
    30
 10
-657.4
 20
-63.0
 30
0.0
 40
5.0
  0
LINE
  5
36E
  8
SIZE
  6
CONTINUOUS
 62
    30
 10
-657.4
 20
-63.0
 30
0.0
 11
-657.4
 21
-53.0
 31
0.0
  0
CIRCLE
  5
36F
  8
SIZE
  6
CONTINUOUS
 62
    30
 10
-657.4
 20
0.0
 30
0.0
 40
5.0
  0
LINE
  5
370
  8
SIZE
  6
CONTINUOUS
 62
    30
 10
-657.4
 20
0.0
 30
0.0
 11
-657.4
 21
-10.0
 31
0.0
  0
TEXT
  5
371
  8
SIZE
  6
CONTINUOUS
 62
    30
 10
-667.4
 20
-56.5
 30
0.0
 40
30.0
  1
63
 50
90.0
 72
     1
 11
-667.4
 21
-31.5
 31
0.0
  0
POINT
  5
372
  8
DEFPOINTS
  6
CONTINUOUS
 62
    30
 10
-175.0
 20
-63.0
 30
0.0
  0
POINT
  5
373
  8
DEFPOINTS
  6
CONTINUOUS
 62
    30
 10
-380.0
 20
0.0
 30
0.0
  0
POINT
  5
374
  8
DEFPOINTS
  6
CONTINUOUS
 62
    30
 10
-657.4
 20
0.0
 30
0.0
  0
LINE
  5
375
  8
SIZE
  6
CONTINUOUS
 62
    30
 10
390.0
 20
0.0
 30
0.0
 11
565.1
 21
0.0
 31
0.0
  0
LINE
  5
376
  8
SIZE
  6
CONTINUOUS
 62
    30
 10
295.0
 20
16.5
 30
0.0
 11
565.1
 21
16.5
 31
0.0
  0
LINE
  5
377
  8
SIZE
  6
CONTINUOUS
 62
    30
 10
552.6
 20
-10.0
 30
0.0
 11
552.6
 21
-20.0
 31
0.0
  0
LINE
  5
378
  8
SIZE
  6
CONTINUOUS
 62
    30
 10
552.6
 20
26.5
 30
0.0
 11
552.6
 21
150.235483
 31
0.0
  0
LINE
  5
379
  8
SIZE
  6
CONTINUOUS
 62
    30
 10
552.6
 20
0.0
 30
0.0
 11
552.6
 21
16.5
 31
0.0
  0
CIRCLE
  5
37A
  8
SIZE
  6
CONTINUOUS
 62
    30
 10
552.6
 20
0.0
 30
0.0
 40
5.0
  0
LINE
  5
37B
  8
SIZE
  6
CONTINUOUS
 62
    30
 10
552.6
 20
0.0
 30
0.0
 11
552.6
 21
-10.0
 31
0.0
  0
CIRCLE
  5
37C
  8
SIZE
  6
CONTINUOUS
 62
    30
 10
552.6
 20
16.5
 30
0.0
 40
5.0
  0
LINE
  5
37D
  8
SIZE
  6
CONTINUOUS
 62
    30
 10
552.6
 20
16.5
 30
0.0
 11
552.6
 21
26.5
 31
0.0
  0
TEXT
  5
37E
  8
SIZE
  6
CONTINUOUS
 62
    30
 10
542.6
 20
100.235483
 30
0.0
 40
30.0
  1
17
 50
90.0
 72
     1
 11
542.6
 21
120.235483
 31
0.0
  0
POINT
  5
37F
  8
DEFPOINTS
  6
CONTINUOUS
 62
    30
 10
380.0
 20
0.0
 30
0.0
  0
POINT
  5
380
  8
DEFPOINTS
  6
CONTINUOUS
 62
    30
 10
285.0
 20
16.5
 30
0.0
  0
POINT
  5
381
  8
DEFPOINTS
  6
CONTINUOUS
 62
    30
 10
552.6
 20
16.5
 30
0.0
  0
LINE
  5
382
  8
SIZE
  6
CONTINUOUS
 62
    30
 10
-515.0
 20
-320.0
 30
0.0
 11
-769.9
 21
-320.0
 31
0.0
  0
LINE
  5
383
  8
SIZE
  6
CONTINUOUS
 62
    30
 10
-515.0
 20
0.0
 30
0.0
 11
-769.9
 21
0.0
 31
0.0
  0
LINE
  5
384
  8
SIZE
  6
CONTINUOUS
 62
    30
 10
-757.4
 20
-310.0
 30
0.0
 11
-757.4
 21
-10.0
 31
0.0
  0
CIRCLE
  5
385
  8
SIZE
  6
CONTINUOUS
 62
    30
 10
-757.4
 20
-320.0
 30
0.0
 40
5.0
  0
LINE
  5
386
  8
SIZE
  6
CONTINUOUS
 62
    30
 10
-757.4
 20
-320.0
 30
0.0
 11
-757.4
 21
-310.0
 31
0.0
  0
CIRCLE
  5
387
  8
SIZE
  6
CONTINUOUS
 62
    30
 10
-757.4
 20
0.0
 30
0.0
 40
5.0
  0
LINE
  5
388
  8
SIZE
  6
CONTINUOUS
 62
    30
 10
-757.4
 20
0.0
 30
0.0
 11
-757.4
 21
-10.0
 31
0.0
  0
TEXT
  5
389
  8
SIZE
  6
CONTINUOUS
 62
    30
 10
-767.4
 20
-197.5
 30
0.0
 40
30.0
  1
320
 50
90.0
 72
     1
 11
-767.4
 21
-160.0
 31
0.0
  0
POINT
  5
38A
  8
DEFPOINTS
  6
CONTINUOUS
 62
    30
 10
-505.0
 20
-320.0
 30
0.0
  0
POINT
  5
38B
  8
DEFPOINTS
  6
CONTINUOUS
 62
    30
 10
-505.0
 20
0.0
 30
0.0
  0
POINT
  5
38C
  8
DEFPOINTS
  6
CONTINUOUS
 62
    30
 10
-757.4
 20
0.0
 30
0.0
  0
LINE
  5
38D
  8
SIZE
  6
CONTINUOUS
 62
    30
 10
-505.0
 20
110.0
 30
0.0
 11
-505.0
 21
664.423621
 31
0.0
  0
LINE
  5
38E
  8
SIZE
  6
CONTINUOUS
 62
    30
 10
405.0
 20
110.0
 30
0.0
 11
405.0
 21
664.423621
 31
0.0
  0
LINE
  5
38F
  8
SIZE
  6
CONTINUOUS
 62
    30
 10
-495.0
 20
651.923621
 30
0.0
 11
395.0
 21
651.923621
 31
0.0
  0
CIRCLE
  5
390
  8
SIZE
  6
CONTINUOUS
 62
    30
 10
-505.0
 20
651.923621
 30
0.0
 40
5.0
  0
LINE
  5
391
  8
SIZE
  6
CONTINUOUS
 62
    30
 10
-505.0
 20
651.923621
 30
0.0
 11
-495.0
 21
651.923621
 31
0.0
  0
CIRCLE
  5
392
  8
SIZE
  6
CONTINUOUS
 62
    30
 10
405.0
 20
651.923621
 30
0.0
 40
5.0
  0
LINE
  5
393
  8
SIZE
  6
CONTINUOUS
 62
    30
 10
405.0
 20
651.923621
 30
0.0
 11
395.0
 21
651.923621
 31
0.0
  0
TEXT
  5
394
  8
SIZE
  6
CONTINUOUS
 62
    30
 10
-82.5
 20
661.923621
 30
0.0
 40
30.0
  1
910
 72
     1
 11
-50.0
 21
661.923621
 31
0.0
  0
POINT
  5
395
  8
DEFPOINTS
  6
CONTINUOUS
 62
    30
 10
-505.0
 20
100.0
 30
0.0
  0
POINT
  5
396
  8
DEFPOINTS
  6
CONTINUOUS
 62
    30
 10
405.0
 20
100.0
 30
0.0
  0
POINT
  5
397
  8
DEFPOINTS
  6
CONTINUOUS
 62
    30
 10
405.0
 20
651.923621
 30
0.0
  0
LINE
  5
398
  8
SIZE
  6
CONTINUOUS
 62
    30
 10
-405.0
 20
-15.0
 30
0.0
 11
-405.0
 21
364.998602
 31
0.0
  0
LINE
  5
399
  8
SIZE
  6
CONTINUOUS
 62
    30
 10
-245.0
 20
46.5
 30
0.0
 11
-245.0
 21
364.998602
 31
0.0
  0
LINE
  5
39A
  8
SIZE
  6
CONTINUOUS
 62
    30
 10
-395.0
 20
352.498602
 30
0.0
 11
-255.0
 21
352.498602
 31
0.0
  0
CIRCLE
  5
39B
  8
SIZE
  6
CONTINUOUS
 62
    30
 10
-405.0
 20
352.498602
 30
0.0
 40
5.0
  0
LINE
  5
39C
  8
SIZE
  6
CONTINUOUS
 62
    30
 10
-405.0
 20
352.498602
 30
0.0
 11
-395.0
 21
352.498602
 31
0.0
  0
CIRCLE
  5
39D
  8
SIZE
  6
CONTINUOUS
 62
    30
 10
-245.0
 20
352.498602
 30
0.0
 40
5.0
  0
LINE
  5
39E
  8
SIZE
  6
CONTINUOUS
 62
    30
 10
-245.0
 20
352.498602
 30
0.0
 11
-255.0
 21
352.498602
 31
0.0
  0
TEXT
  5
39F
  8
SIZE
  6
CONTINUOUS
 62
    30
 10
-357.5
 20
362.498602
 30
0.0
 40
30.0
  1
160
 72
     1
 11
-325.0
 21
362.498602
 31
0.0
  0
POINT
  5
3A0
  8
DEFPOINTS
  6
CONTINUOUS
 62
    30
 10
-405.0
 20
-25.0
 30
0.0
  0
POINT
  5
3A1
  8
DEFPOINTS
  6
CONTINUOUS
 62
    30
 10
-245.0
 20
36.5
 30
0.0
  0
POINT
  5
3A2
  8
DEFPOINTS
  6
CONTINUOUS
 62
    30
 10
-245.0
 20
352.498602
 30
0.0
  0
LINE
  5
3A3
  8
SIZE
  6
CONTINUOUS
 62
    30
 10
390.0
 20
-320.0
 30
0.0
 11
565.1
 21
-320.0
 31
0.0
  0
LINE
  5
3A4
  8
SIZE
  6
CONTINUOUS
 62
    30
 10
390.0
 20
0.0
 30
0.0
 11
565.1
 21
0.0
 31
0.0
  0
LINE
  5
3A5
  8
SIZE
  6
CONTINUOUS
 62
    30
 10
552.6
 20
-310.0
 30
0.0
 11
552.6
 21
-10.0
 31
0.0
  0
CIRCLE
  5
3A6
  8
SIZE
  6
CONTINUOUS
 62
    30
 10
552.6
 20
-320.0
 30
0.0
 40
5.0
  0
LINE
  5
3A7
  8
SIZE
  6
CONTINUOUS
 62
    30
 10
552.6
 20
-320.0
 30
0.0
 11
552.6
 21
-310.0
 31
0.0
  0
CIRCLE
  5
3A8
  8
SIZE
  6
CONTINUOUS
 62
    30
 10
552.6
 20
0.0
 30
0.0
 40
5.0
  0
LINE
  5
3A9
  8
SIZE
  6
CONTINUOUS
 62
    30
 10
552.6
 20
0.0
 30
0.0
 11
552.6
 21
-10.0
 31
0.0
  0
TEXT
  5
3AA
  8
SIZE
  6
CONTINUOUS
 62
    30
 10
542.6
 20
-197.5
 30
0.0
 40
30.0
  1
320
 50
90.0
 72
     1
 11
542.6
 21
-160.0
 31
0.0
  0
POINT
  5
3AB
  8
DEFPOINTS
  6
CONTINUOUS
 62
    30
 10
380.0
 20
-320.0
 30
0.0
  0
POINT
  5
3AC
  8
DEFPOINTS
  6
CONTINUOUS
 62
    30
 10
380.0
 20
0.0
 30
0.0
  0
POINT
  5
3AD
  8
DEFPOINTS
  6
CONTINUOUS
 62
    30
 10
552.6
 20
0.0
 30
0.0
  0
LINE
  5
3AE
  8
SIZE
  6
CONTINUOUS
 62
    30
 10
-275.0
 20
16.5
 30
0.0
 11
-869.9
 21
16.5
 31
0.0
  0
LINE
  5
3AF
  8
SIZE
  6
CONTINUOUS
 62
    30
 10
-277.0
 20
31.5
 30
0.0
 11
-869.9
 21
31.5
 31
0.0
  0
LINE
  5
3B0
  8
SIZE
  6
CONTINUOUS
 62
    30
 10
-857.4
 20
6.5
 30
0.0
 11
-857.4
 21
-3.5
 31
0.0
  0
LINE
  5
3B1
  8
SIZE
  6
CONTINUOUS
 62
    30
 10
-857.4
 20
41.5
 30
0.0
 11
-857.4
 21
111.5
 31
0.0
  0
LINE
  5
3B2
  8
SIZE
  6
CONTINUOUS
 62
    30
 10
-857.4
 20
16.5
 30
0.0
 11
-857.4
 21
31.5
 31
0.0
  0
CIRCLE
  5
3B3
  8
SIZE
  6
CONTINUOUS
 62
    30
 10
-857.4
 20
16.5
 30
0.0
 40
5.0
  0
LINE
  5
3B4
  8
SIZE
  6
CONTINUOUS
 62
    30
 10
-857.4
 20
16.5
 30
0.0
 11
-857.4
 21
6.5
 31
0.0
  0
CIRCLE
  5
3B5
  8
SIZE
  6
CONTINUOUS
 62
    30
 10
-857.4
 20
31.5
 30
0.0
 40
5.0
  0
LINE
  5
3B6
  8
SIZE
  6
CONTINUOUS
 62
    30
 10
-857.4
 20
31.5
 30
0.0
 11
-857.4
 21
41.5
 31
0.0
  0
TEXT
  5
3B7
  8
SIZE
  6
CONTINUOUS
 62
    30
 10
-867.4
 20
61.5
 30
0.0
 40
30.0
  1
15
 50
90.0
 72
     1
 11
-867.4
 21
81.5
 31
0.0
  0
POINT
  5
3B8
  8
DEFPOINTS
  6
CONTINUOUS
 62
    30
 10
-265.0
 20
16.5
 30
0.0
  0
POINT
  5
3B9
  8
DEFPOINTS
  6
CONTINUOUS
 62
    30
 10
-267.0
 20
31.5
 30
0.0
  0
POINT
  5
3BA
  8
DEFPOINTS
  6
CONTINUOUS
 62
    30
 10
-857.4
 20
31.5
 30
0.0
  0
LINE
  5
3BB
  8
SIZE
  6
CONTINUOUS
 62
    30
 10
-371.0
 20
-334.415924
 30
0.0
 11
-371.0
 21
-580.1
 31
0.0
  0
LINE
  5
3BC
  8
SIZE
  6
CONTINUOUS
 62
    30
 10
85.0
 20
-334.415924
 30
0.0
 11
85.0
 21
-580.1
 31
0.0
  0
LINE
  5
3BD
  8
SIZE
  6
CONTINUOUS
 62
    30
 10
-361.0
 20
-567.6
 30
0.0
 11
75.0
 21
-567.6
 31
0.0
  0
CIRCLE
  5
3BE
  8
SIZE
  6
CONTINUOUS
 62
    30
 10
-371.0
 20
-567.6
 30
0.0
 40
5.0
  0
LINE
  5
3BF
  8
SIZE
  6
CONTINUOUS
 62
    30
 10
-371.0
 20
-567.6
 30
0.0
 11
-361.0
 21
-567.6
 31
0.0
  0
CIRCLE
  5
3C0
  8
SIZE
  6
CONTINUOUS
 62
    30
 10
85.0
 20
-567.6
 30
0.0
 40
5.0
  0
LINE
  5
3C1
  8
SIZE
  6
CONTINUOUS
 62
    30
 10
85.0
 20
-567.6
 30
0.0
 11
75.0
 21
-567.6
 31
0.0
  0
TEXT
  5
3C2
  8
SIZE
  6
CONTINUOUS
 62
    30
 10
-183.0
 20
-557.6
 30
0.0
 40
30.0
  1
456
 72
     1
 11
-143.0
 21
-557.6
 31
0.0
  0
POINT
  5
3C3
  8
DEFPOINTS
  6
CONTINUOUS
 62
    30
 10
-371.0
 20
-324.415924
 30
0.0
  0
POINT
  5
3C4
  8
DEFPOINTS
  6
CONTINUOUS
 62
    30
 10
85.0
 20
-324.415924
 30
0.0
  0
POINT
  5
3C5
  8
DEFPOINTS
  6
CONTINUOUS
 62
    30
 10
85.0
 20
-567.6
 30
0.0
  0
LINE
  5
3C6
  8
SIZE
  6
CONTINUOUS
 62
    30
 10
395.0
 20
-320.0
 30
0.0
 11
151.131952
 21
-320.0
 31
0.0
  0
LINE
  5
3C7
  8
SIZE
  6
CONTINUOUS
 62
    30
 10
-133.0
 20
-334.0
 30
0.0
 11
176.131952
 21
-334.0
 31
0.0
  0
LINE
  5
3C8
  8
SIZE
  6
CONTINUOUS
 62
    30
 10
163.631952
 20
-310.0
 30
0.0
 11
163.631952
 21
-300.0
 31
0.0
  0
LINE
  5
3C9
  8
SIZE
  6
CONTINUOUS
 62
    30
 10
163.631952
 20
-344.0
 30
0.0
 11
163.631952
 21
-414.0
 31
0.0
  0
LINE
  5
3CA
  8
SIZE
  6
CONTINUOUS
 62
    30
 10
163.631952
 20
-320.0
 30
0.0
 11
163.631952
 21
-334.0
 31
0.0
  0
CIRCLE
  5
3CB
  8
SIZE
  6
CONTINUOUS
 62
    30
 10
163.631952
 20
-320.0
 30
0.0
 40
5.0
  0
LINE
  5
3CC
  8
SIZE
  6
CONTINUOUS
 62
    30
 10
163.631952
 20
-320.0
 30
0.0
 11
163.631952
 21
-310.0
 31
0.0
  0
CIRCLE
  5
3CD
  8
SIZE
  6
CONTINUOUS
 62
    30
 10
163.631952
 20
-334.0
 30
0.0
 40
5.0
  0
LINE
  5
3CE
  8
SIZE
  6
CONTINUOUS
 62
    30
 10
163.631952
 20
-334.0
 30
0.0
 11
163.631952
 21
-344.0
 31
0.0
  0
TEXT
  5
3CF
  8
SIZE
  6
CONTINUOUS
 62
    30
 10
153.631952
 20
-404.0
 30
0.0
 40
30.0
  1
14
 50
90.0
 72
     1
 11
153.631952
 21
-384.0
 31
0.0
  0
POINT
  5
3D0
  8
DEFPOINTS
  6
CONTINUOUS
 62
    30
 10
405.0
 20
-320.0
 30
0.0
  0
POINT
  5
3D1
  8
DEFPOINTS
  6
CONTINUOUS
 62
    30
 10
-143.0
 20
-334.0
 30
0.0
  0
POINT
  5
3D2
  8
DEFPOINTS
  6
CONTINUOUS
 62
    30
 10
163.631952
 20
-334.0
 30
0.0
  0
LINE
  5
3D3
  8
SIZE
  6
CONTINUOUS
 62
    30
 10
-143.0
 20
-394.0
 30
0.0
 11
-143.0
 21
-480.1
 31
0.0
  0
LINE
  5
3D4
  8
SIZE
  6
CONTINUOUS
 62
    30
 10
405.0
 20
-305.0
 30
0.0
 11
405.0
 21
-480.1
 31
0.0
  0
LINE
  5
3D5
  8
SIZE
  6
CONTINUOUS
 62
    30
 10
-133.0
 20
-467.6
 30
0.0
 11
395.0
 21
-467.6
 31
0.0
  0
CIRCLE
  5
3D6
  8
SIZE
  6
CONTINUOUS
 62
    30
 10
-143.0
 20
-467.6
 30
0.0
 40
5.0
  0
LINE
  5
3D7
  8
SIZE
  6
CONTINUOUS
 62
    30
 10
-143.0
 20
-467.6
 30
0.0
 11
-133.0
 21
-467.6
 31
0.0
  0
CIRCLE
  5
3D8
  8
SIZE
  6
CONTINUOUS
 62
    30
 10
405.0
 20
-467.6
 30
0.0
 40
5.0
  0
LINE
  5
3D9
  8
SIZE
  6
CONTINUOUS
 62
    30
 10
405.0
 20
-467.6
 30
0.0
 11
395.0
 21
-467.6
 31
0.0
  0
TEXT
  5
3DA
  8
SIZE
  6
CONTINUOUS
 62
    30
 10
91.0
 20
-457.6
 30
0.0
 40
30.0
  1
548
 72
     1
 11
131.0
 21
-457.6
 31
0.0
  0
POINT
  5
3DB
  8
DEFPOINTS
  6
CONTINUOUS
 62
    30
 10
-143.0
 20
-384.0
 30
0.0
  0
POINT
  5
3DC
  8
DEFPOINTS
  6
CONTINUOUS
 62
    30
 10
405.0
 20
-295.0
 30
0.0
  0
POINT
  5
3DD
  8
DEFPOINTS
  6
CONTINUOUS
 62
    30
 10
405.0
 20
-467.6
 30
0.0
  0
LINE
  5
3DE
  8
SIZE
  6
CONTINUOUS
 62
    30
 10
467.0
 20
-209.5
 30
0.0
 11
765.1
 21
-209.5
 31
0.0
  0
LINE
  5
3DF
  8
SIZE
  6
CONTINUOUS
 62
    30
 10
295.0
 20
16.5
 30
0.0
 11
765.1
 21
16.5
 31
0.0
  0
LINE
  5
3E0
  8
SIZE
  6
CONTINUOUS
 62
    30
 10
752.6
 20
-199.5
 30
0.0
 11
752.6
 21
6.5
 31
0.0
  0
CIRCLE
  5
3E1
  8
SIZE
  6
CONTINUOUS
 62
    30
 10
752.6
 20
-209.5
 30
0.0
 40
5.0
  0
LINE
  5
3E2
  8
SIZE
  6
CONTINUOUS
 62
    30
 10
752.6
 20
-209.5
 30
0.0
 11
752.6
 21
-199.5
 31
0.0
  0
CIRCLE
  5
3E3
  8
SIZE
  6
CONTINUOUS
 62
    30
 10
752.6
 20
16.5
 30
0.0
 40
5.0
  0
LINE
  5
3E4
  8
SIZE
  6
CONTINUOUS
 62
    30
 10
752.6
 20
16.5
 30
0.0
 11
752.6
 21
6.5
 31
0.0
  0
TEXT
  5
3E5
  8
SIZE
  6
CONTINUOUS
 62
    30
 10
742.6
 20
-136.5
 30
0.0
 40
30.0
  1
226
 50
90.0
 72
     1
 11
742.6
 21
-96.5
 31
0.0
  0
POINT
  5
3E6
  8
DEFPOINTS
  6
CONTINUOUS
 62
    30
 10
457.0
 20
-209.5
 30
0.0
  0
POINT
  5
3E7
  8
DEFPOINTS
  6
CONTINUOUS
 62
    30
 10
285.0
 20
16.5
 30
0.0
  0
POINT
  5
3E8
  8
DEFPOINTS
  6
CONTINUOUS
 62
    30
 10
752.6
 20
16.5
 30
0.0
  0
LINE
  5
3E9
  8
SIZE
  6
CONTINUOUS
 62
    30
 10
467.0
 20
-50.5
 30
0.0
 11
665.1
 21
-50.5
 31
0.0
  0
LINE
  5
3EA
  8
SIZE
  6
CONTINUOUS
 62
    30
 10
295.0
 20
16.5
 30
0.0
 11
665.1
 21
16.5
 31
0.0
  0
LINE
  5
3EB
  8
SIZE
  6
CONTINUOUS
 62
    30
 10
652.6
 20
-40.5
 30
0.0
 11
652.6
 21
6.5
 31
0.0
  0
CIRCLE
  5
3EC
  8
SIZE
  6
CONTINUOUS
 62
    30
 10
652.6
 20
-50.5
 30
0.0
 40
5.0
  0
LINE
  5
3ED
  8
SIZE
  6
CONTINUOUS
 62
    30
 10
652.6
 20
-50.5
 30
0.0
 11
652.6
 21
-40.5
 31
0.0
  0
CIRCLE
  5
3EE
  8
SIZE
  6
CONTINUOUS
 62
    30
 10
652.6
 20
16.5
 30
0.0
 40
5.0
  0
LINE
  5
3EF
  8
SIZE
  6
CONTINUOUS
 62
    30
 10
652.6
 20
16.5
 30
0.0
 11
652.6
 21
6.5
 31
0.0
  0
TEXT
  5
3F0
  8
SIZE
  6
CONTINUOUS
 62
    30
 10
642.6
 20
-42.0
 30
0.0
 40
30.0
  1
67
 50
90.0
 72
     1
 11
642.6
 21
-17.0
 31
0.0
  0
POINT
  5
3F1
  8
DEFPOINTS
  6
CONTINUOUS
 62
    30
 10
457.0
 20
-50.5
 30
0.0
  0
POINT
  5
3F2
  8
DEFPOINTS
  6
CONTINUOUS
 62
    30
 10
285.0
 20
16.5
 30
0.0
  0
POINT
  5
3F3
  8
DEFPOINTS
  6
CONTINUOUS
 62
    30
 10
652.6
 20
16.5
 30
0.0
  0
LINE
  5
3F4
  8
SIZE
  6
CONTINUOUS
 62
    30
 10
-515.0
 20
0.0
 30
0.0
 11
-769.9
 21
0.0
 31
0.0
  0
LINE
  5
3F5
  8
SIZE
  6
CONTINUOUS
 62
    30
 10
-515.0
 20
100.0
 30
0.0
 11
-769.9
 21
100.0
 31
0.0
  0
LINE
  5
3F6
  8
SIZE
  6
CONTINUOUS
 62
    30
 10
-757.4
 20
10.0
 30
0.0
 11
-757.4
 21
90.0
 31
0.0
  0
LINE
  5
3F7
  8
SIZE
  6
CONTINUOUS
 62
    30
 10
-757.4
 20
100.0
 30
0.0
 11
-757.4
 21
190.0
 31
0.0
  0
CIRCLE
  5
3F8
  8
SIZE
  6
CONTINUOUS
 62
    30
 10
-757.4
 20
0.0
 30
0.0
 40
5.0
  0
LINE
  5
3F9
  8
SIZE
  6
CONTINUOUS
 62
    30
 10
-757.4
 20
0.0
 30
0.0
 11
-757.4
 21
10.0
 31
0.0
  0
CIRCLE
  5
3FA
  8
SIZE
  6
CONTINUOUS
 62
    30
 10
-757.4
 20
100.0
 30
0.0
 40
5.0
  0
LINE
  5
3FB
  8
SIZE
  6
CONTINUOUS
 62
    30
 10
-757.4
 20
100.0
 30
0.0
 11
-757.4
 21
90.0
 31
0.0
  0
TEXT
  5
3FC
  8
SIZE
  6
CONTINUOUS
 62
    30
 10
-767.4
 20
120.0
 30
0.0
 40
30.0
  1
100
 50
90.0
 72
     1
 11
-767.4
 21
150.0
 31
0.0
  0
POINT
  5
3FD
  8
DEFPOINTS
  6
CONTINUOUS
 62
    30
 10
-505.0
 20
0.0
 30
0.0
  0
POINT
  5
3FE
  8
DEFPOINTS
  6
CONTINUOUS
 62
    30
 10
-505.0
 20
100.0
 30
0.0
  0
POINT
  5
3FF
  8
DEFPOINTS
  6
CONTINUOUS
 62
    30
 10
-757.4
 20
100.0
 30
0.0
  0
LINE
  5
400
  8
SIZE
  6
CONTINUOUS
 62
    30
 10
-213.0
 20
-351.5
 30
0.0
 11
37.1
 21
-351.5
 31
0.0
  0
LINE
  5
401
  8
SIZE
  6
CONTINUOUS
 62
    30
 10
-213.0
 20
-295.5
 30
0.0
 11
37.1
 21
-295.5
 31
0.0
  0
LINE
  5
402
  8
SIZE
  6
CONTINUOUS
 62
    30
 10
24.6
 20
-305.5
 30
0.0
 11
24.6
 21
-341.5
 31
0.0
  0
LINE
  5
403
  8
SIZE
  6
CONTINUOUS
 62
    30
 10
24.6
 20
-351.5
 30
0.0
 11
24.6
 21
-455.117851
 31
0.0
  0
CIRCLE
  5
404
  8
SIZE
  6
CONTINUOUS
 62
    30
 10
24.6
 20
-295.5
 30
0.0
 40
5.0
  0
LINE
  5
405
  8
SIZE
  6
CONTINUOUS
 62
    30
 10
24.6
 20
-295.5
 30
0.0
 11
24.6
 21
-305.5
 31
0.0
  0
CIRCLE
  5
406
  8
SIZE
  6
CONTINUOUS
 62
    30
 10
24.6
 20
-351.5
 30
0.0
 40
5.0
  0
LINE
  5
407
  8
SIZE
  6
CONTINUOUS
 62
    30
 10
24.6
 20
-351.5
 30
0.0
 11
24.6
 21
-341.5
 31
0.0
  0
TEXT
  5
408
  8
SIZE
  6
CONTINUOUS
 62
    30
 10
14.6
 20
-445.117851
 30
0.0
 40
30.0
  1
56
 50
90.0
 72
     1
 11
14.6
 21
-420.117851
 31
0.0
  0
POINT
  5
409
  8
DEFPOINTS
  6
CONTINUOUS
 62
    30
 10
-223.0
 20
-351.5
 30
0.0
  0
POINT
  5
40A
  8
DEFPOINTS
  6
CONTINUOUS
 62
    30
 10
-223.0
 20
-295.5
 30
0.0
  0
POINT
  5
40B
  8
DEFPOINTS
  6
CONTINUOUS
 62
    30
 10
24.6
 20
-295.5
 30
0.0
  0
LINE
  5
40C
  8
SIZE
  6
CONTINUOUS
 62
    30
 10
-267.0
 20
-361.5
 30
0.0
 11
-267.0
 21
-480.1
 31
0.0
  0
LINE
  5
40D
  8
SIZE
  6
CONTINUOUS
 62
    30
 10
-223.0
 20
-361.5
 30
0.0
 11
-223.0
 21
-480.1
 31
0.0
  0
LINE
  5
40E
  8
SIZE
  6
CONTINUOUS
 62
    30
 10
-233.0
 20
-467.6
 30
0.0
 11
-257.0
 21
-467.6
 31
0.0
  0
LINE
  5
40F
  8
SIZE
  6
CONTINUOUS
 62
    30
 10
-267.0
 20
-467.6
 30
0.0
 11
-373.261527
 21
-467.6
 31
0.0
  0
CIRCLE
  5
410
  8
SIZE
  6
CONTINUOUS
 62
    30
 10
-223.0
 20
-467.6
 30
0.0
 40
5.0
  0
LINE
  5
411
  8
SIZE
  6
CONTINUOUS
 62
    30
 10
-223.0
 20
-467.6
 30
0.0
 11
-233.0
 21
-467.6
 31
0.0
  0
CIRCLE
  5
412
  8
SIZE
  6
CONTINUOUS
 62
    30
 10
-267.0
 20
-467.6
 30
0.0
 40
5.0
  0
LINE
  5
413
  8
SIZE
  6
CONTINUOUS
 62
    30
 10
-267.0
 20
-467.6
 30
0.0
 11
-257.0
 21
-467.6
 31
0.0
  0
TEXT
  5
414
  8
SIZE
  6
CONTINUOUS
 62
    30
 10
-363.261527
 20
-457.6
 30
0.0
 40
30.0
  1
44
 72
     1
 11
-338.261527
 21
-457.6
 31
0.0
  0
POINT
  5
415
  8
DEFPOINTS
  6
CONTINUOUS
 62
    30
 10
-267.0
 20
-351.5
 30
0.0
  0
POINT
  5
416
  8
DEFPOINTS
  6
CONTINUOUS
 62
    30
 10
-223.0
 20
-351.5
 30
0.0
  0
POINT
  5
417
  8
DEFPOINTS
  6
CONTINUOUS
 62
    30
 10
-223.0
 20
-467.6
 30
0.0
  0
LINE
  5
418
  8
SIZE
  6
CONTINUOUS
 62
    30
 10
437.0
 20
-229.563889
 30
0.0
 11
437.0
 21
-480.1
 31
0.0
  0
LINE
  5
419
  8
SIZE
  6
CONTINUOUS
 62
    30
 10
405.0
 20
-305.0
 30
0.0
 11
405.0
 21
-480.1
 31
0.0
  0
LINE
  5
41A
  8
SIZE
  6
CONTINUOUS
 62
    30
 10
395.0
 20
-467.6
 30
0.0
 11
385.0
 21
-467.6
 31
0.0
  0
LINE
  5
41B
  8
SIZE
  6
CONTINUOUS
 62
    30
 10
447.0
 20
-467.6
 30
0.0
 11
527.0
 21
-467.6
 31
0.0
  0
LINE
  5
41C
  8
SIZE
  6
CONTINUOUS
 62
    30
 10
405.0
 20
-467.6
 30
0.0
 11
437.0
 21
-467.6
 31
0.0
  0
CIRCLE
  5
41D
  8
SIZE
  6
CONTINUOUS
 62
    30
 10
405.0
 20
-467.6
 30
0.0
 40
5.0
  0
LINE
  5
41E
  8
SIZE
  6
CONTINUOUS
 62
    30
 10
405.0
 20
-467.6
 30
0.0
 11
395.0
 21
-467.6
 31
0.0
  0
CIRCLE
  5
41F
  8
SIZE
  6
CONTINUOUS
 62
    30
 10
437.0
 20
-467.6
 30
0.0
 40
5.0
  0
LINE
  5
420
  8
SIZE
  6
CONTINUOUS
 62
    30
 10
437.0
 20
-467.6
 30
0.0
 11
447.0
 21
-467.6
 31
0.0
  0
TEXT
  5
421
  8
SIZE
  6
CONTINUOUS
 62
    30
 10
467.0
 20
-457.6
 30
0.0
 40
30.0
  1
32
 72
     1
 11
492.0
 21
-457.6
 31
0.0
  0
POINT
  5
422
  8
DEFPOINTS
  6
CONTINUOUS
 62
    30
 10
437.0
 20
-219.563889
 30
0.0
  0
POINT
  5
423
  8
DEFPOINTS
  6
CONTINUOUS
 62
    30
 10
405.0
 20
-295.0
 30
0.0
  0
POINT
  5
424
  8
DEFPOINTS
  6
CONTINUOUS
 62
    30
 10
405.0
 20
-467.6
 30
0.0
  0
LINE
  5
425
  8
SIZE
  6
CONTINUOUS
 62
    30
 10
-505.0
 20
110.0
 30
0.0
 11
-505.0
 21
514.904272
 31
0.0
  0
LINE
  5
426
  8
SIZE
  6
CONTINUOUS
 62
    30
 10
-405.0
 20
10.0
 30
0.0
 11
-405.0
 21
514.904272
 31
0.0
  0
LINE
  5
427
  8
SIZE
  6
CONTINUOUS
 62
    30
 10
-495.0
 20
502.404272
 30
0.0
 11
-415.0
 21
502.404272
 31
0.0
  0
CIRCLE
  5
428
  8
SIZE
  6
CONTINUOUS
 62
    30
 10
-505.0
 20
502.404272
 30
0.0
 40
5.0
  0
LINE
  5
429
  8
SIZE
  6
CONTINUOUS
 62
    30
 10
-505.0
 20
502.404272
 30
0.0
 11
-495.0
 21
502.404272
 31
0.0
  0
CIRCLE
  5
42A
  8
SIZE
  6
CONTINUOUS
 62
    30
 10
-405.0
 20
502.404272
 30
0.0
 40
5.0
  0
LINE
  5
42B
  8
SIZE
  6
CONTINUOUS
 62
    30
 10
-405.0
 20
502.404272
 30
0.0
 11
-415.0
 21
502.404272
 31
0.0
  0
TEXT
  5
42C
  8
SIZE
  6
CONTINUOUS
 62
    30
 10
-485.0
 20
512.404272
 30
0.0
 40
30.0
  1
100
 72
     1
 11
-455.0
 21
512.404272
 31
0.0
  0
POINT
  5
42D
  8
DEFPOINTS
  6
CONTINUOUS
 62
    30
 10
-505.0
 20
100.0
 30
0.0
  0
POINT
  5
42E
  8
DEFPOINTS
  6
CONTINUOUS
 62
    30
 10
-405.0
 20
0.0
 30
0.0
  0
POINT
  5
42F
  8
DEFPOINTS
  6
CONTINUOUS
 62
    30
 10
-405.0
 20
502.404272
 30
0.0
  0
LINE
  5
430
  8
SIZE
  6
CONTINUOUS
 62
    30
 10
-515.0
 20
-320.0
 30
0.0
 11
-769.9
 21
-320.0
 31
0.0
  0
LINE
  5
431
  8
SIZE
  6
CONTINUOUS
 62
    30
 10
-515.0
 20
-620.0
 30
0.0
 11
-769.9
 21
-620.0
 31
0.0
  0
LINE
  5
432
  8
SIZE
  6
CONTINUOUS
 62
    30
 10
-757.4
 20
-330.0
 30
0.0
 11
-757.4
 21
-610.0
 31
0.0
  0
CIRCLE
  5
433
  8
SIZE
  6
CONTINUOUS
 62
    30
 10
-757.4
 20
-320.0
 30
0.0
 40
5.0
  0
LINE
  5
434
  8
SIZE
  6
CONTINUOUS
 62
    30
 10
-757.4
 20
-320.0
 30
0.0
 11
-757.4
 21
-330.0
 31
0.0
  0
CIRCLE
  5
435
  8
SIZE
  6
CONTINUOUS
 62
    30
 10
-757.4
 20
-620.0
 30
0.0
 40
5.0
  0
LINE
  5
436
  8
SIZE
  6
CONTINUOUS
 62
    30
 10
-757.4
 20
-620.0
 30
0.0
 11
-757.4
 21
-610.0
 31
0.0
  0
TEXT
  5
437
  8
SIZE
  6
CONTINUOUS
 62
    30
 10
-767.4
 20
-505.0
 30
0.0
 40
30.0
  1
300
 50
90.0
 72
     1
 11
-767.4
 21
-470.0
 31
0.0
  0
POINT
  5
438
  8
DEFPOINTS
  6
CONTINUOUS
 62
    30
 10
-505.0
 20
-320.0
 30
0.0
  0
POINT
  5
439
  8
DEFPOINTS
  6
CONTINUOUS
 62
    30
 10
-505.0
 20
-620.0
 30
0.0
  0
POINT
  5
43A
  8
DEFPOINTS
  6
CONTINUOUS
 62
    30
 10
-757.4
 20
-620.0
 30
0.0
  0
LINE
  5
43B
  8
SIZE
  6
CONTINUOUS
 62
    30
 10
-505.0
 20
-630.0
 30
0.0
 11
-505.0
 21
-780.1
 31
0.0
  0
LINE
  5
43C
  8
SIZE
  6
CONTINUOUS
 62
    30
 10
405.0
 20
-630.0
 30
0.0
 11
405.0
 21
-780.1
 31
0.0
  0
LINE
  5
43D
  8
SIZE
  6
CONTINUOUS
 62
    30
 10
-495.0
 20
-767.6
 30
0.0
 11
395.0
 21
-767.6
 31
0.0
  0
CIRCLE
  5
43E
  8
SIZE
  6
CONTINUOUS
 62
    30
 10
-505.0
 20
-767.6
 30
0.0
 40
5.0
  0
LINE
  5
43F
  8
SIZE
  6
CONTINUOUS
 62
    30
 10
-505.0
 20
-767.6
 30
0.0
 11
-495.0
 21
-767.6
 31
0.0
  0
CIRCLE
  5
440
  8
SIZE
  6
CONTINUOUS
 62
    30
 10
405.0
 20
-767.6
 30
0.0
 40
5.0
  0
LINE
  5
441
  8
SIZE
  6
CONTINUOUS
 62
    30
 10
405.0
 20
-767.6
 30
0.0
 11
395.0
 21
-767.6
 31
0.0
  0
TEXT
  5
442
  8
SIZE
  6
CONTINUOUS
 62
    30
 10
-82.5
 20
-757.6
 30
0.0
 40
30.0
  1
910
 72
     1
 11
-50.0
 21
-757.6
 31
0.0
  0
POINT
  5
443
  8
DEFPOINTS
  6
CONTINUOUS
 62
    30
 10
-505.0
 20
-620.0
 30
0.0
  0
POINT
  5
444
  8
DEFPOINTS
  6
CONTINUOUS
 62
    30
 10
405.0
 20
-620.0
 30
0.0
  0
POINT
  5
445
  8
DEFPOINTS
  6
CONTINUOUS
 62
    30
 10
405.0
 20
-767.6
 30
0.0
  0
LINE
  5
446
  8
SIZE
  6
CONTINUOUS
 62
    30
 10
1005.0
 20
-630.0
 30
0.0
 11
1005.0
 21
-780.1
 31
0.0
  0
LINE
  5
447
  8
SIZE
  6
CONTINUOUS
 62
    30
 10
405.0
 20
-630.0
 30
0.0
 11
405.0
 21
-780.1
 31
0.0
  0
LINE
  5
448
  8
SIZE
  6
CONTINUOUS
 62
    30
 10
995.0
 20
-767.6
 30
0.0
 11
415.0
 21
-767.6
 31
0.0
  0
CIRCLE
  5
449
  8
SIZE
  6
CONTINUOUS
 62
    30
 10
1005.0
 20
-767.6
 30
0.0
 40
5.0
  0
LINE
  5
44A
  8
SIZE
  6
CONTINUOUS
 62
    30
 10
1005.0
 20
-767.6
 30
0.0
 11
995.0
 21
-767.6
 31
0.0
  0
CIRCLE
  5
44B
  8
SIZE
  6
CONTINUOUS
 62
    30
 10
405.0
 20
-767.6
 30
0.0
 40
5.0
  0
LINE
  5
44C
  8
SIZE
  6
CONTINUOUS
 62
    30
 10
405.0
 20
-767.6
 30
0.0
 11
415.0
 21
-767.6
 31
0.0
  0
TEXT
  5
44D
  8
SIZE
  6
CONTINUOUS
 62
    30
 10
670.0
 20
-757.6
 30
0.0
 40
30.0
  1
600
 72
     1
 11
705.0
 21
-757.6
 31
0.0
  0
POINT
  5
44E
  8
DEFPOINTS
  6
CONTINUOUS
 62
    30
 10
1005.0
 20
-620.0
 30
0.0
  0
POINT
  5
44F
  8
DEFPOINTS
  6
CONTINUOUS
 62
    30
 10
405.0
 20
-620.0
 30
0.0
  0
POINT
  5
450
  8
DEFPOINTS
  6
CONTINUOUS
 62
    30
 10
405.0
 20
-767.6
 30
0.0
  0
LINE
  5
451
  8
SIZE
  6
CONTINUOUS
 62
    30
 10
1015.0
 20
-620.0
 30
0.0
 11
1165.1
 21
-620.0
 31
0.0
  0
LINE
  5
452
  8
SIZE
  6
CONTINUOUS
 62
    30
 10
1015.0
 20
100.0
 30
0.0
 11
1165.1
 21
100.0
 31
0.0
  0
LINE
  5
453
  8
SIZE
  6
CONTINUOUS
 62
    30
 10
1152.6
 20
-610.0
 30
0.0
 11
1152.6
 21
90.0
 31
0.0
  0
CIRCLE
  5
454
  8
SIZE
  6
CONTINUOUS
 62
    30
 10
1152.6
 20
-620.0
 30
0.0
 40
5.0
  0
LINE
  5
455
  8
SIZE
  6
CONTINUOUS
 62
    30
 10
1152.6
 20
-620.0
 30
0.0
 11
1152.6
 21
-610.0
 31
0.0
  0
CIRCLE
  5
456
  8
SIZE
  6
CONTINUOUS
 62
    30
 10
1152.6
 20
100.0
 30
0.0
 40
5.0
  0
LINE
  5
457
  8
SIZE
  6
CONTINUOUS
 62
    30
 10
1152.6
 20
100.0
 30
0.0
 11
1152.6
 21
90.0
 31
0.0
  0
TEXT
  5
458
  8
SIZE
  6
CONTINUOUS
 62
    30
 10
1142.6
 20
-297.5
 30
0.0
 40
30.0
  1
720
 50
90.0
 72
     1
 11
1142.6
 21
-260.0
 31
0.0
  0
POINT
  5
459
  8
DEFPOINTS
  6
CONTINUOUS
 62
    30
 10
1005.0
 20
-620.0
 30
0.0
  0
POINT
  5
45A
  8
DEFPOINTS
  6
CONTINUOUS
 62
    30
 10
1005.0
 20
100.0
 30
0.0
  0
POINT
  5
45B
  8
DEFPOINTS
  6
CONTINUOUS
 62
    30
 10
1152.6
 20
100.0
 30
0.0
  0
LINE
  5
45C
  8
SIZE
  6
CONTINUOUS
 62
    30
 10
-277.0
 20
-351.5
 30
0.0
 11
-969.9
 21
-351.5
 31
0.0
  0
LINE
  5
45D
  8
SIZE
  6
CONTINUOUS
 62
    30
 10
-277.0
 20
31.5
 30
0.0
 11
-969.9
 21
31.5
 31
0.0
  0
LINE
  5
45E
  8
SIZE
  6
CONTINUOUS
 62
    30
 10
-957.4
 20
-341.5
 30
0.0
 11
-957.4
 21
21.5
 31
0.0
  0
CIRCLE
  5
45F
  8
SIZE
  6
CONTINUOUS
 62
    30
 10
-957.4
 20
-351.5
 30
0.0
 40
5.0
  0
LINE
  5
460
  8
SIZE
  6
CONTINUOUS
 62
    30
 10
-957.4
 20
-351.5
 30
0.0
 11
-957.4
 21
-341.5
 31
0.0
  0
CIRCLE
  5
461
  8
SIZE
  6
CONTINUOUS
 62
    30
 10
-957.4
 20
31.5
 30
0.0
 40
5.0
  0
LINE
  5
462
  8
SIZE
  6
CONTINUOUS
 62
    30
 10
-957.4
 20
31.5
 30
0.0
 11
-957.4
 21
21.5
 31
0.0
  0
TEXT
  5
463
  8
SIZE
  6
CONTINUOUS
 62
    30
 10
-967.4
 20
-200.0
 30
0.0
 40
30.0
  1
383
 50
90.0
 72
     1
 11
-967.4
 21
-160.0
 31
0.0
  0
POINT
  5
464
  8
DEFPOINTS
  6
CONTINUOUS
 62
    30
 10
-267.0
 20
-351.5
 30
0.0
  0
POINT
  5
465
  8
DEFPOINTS
  6
CONTINUOUS
 62
    30
 10
-267.0
 20
31.5
 30
0.0
  0
POINT
  5
466
  8
DEFPOINTS
  6
CONTINUOUS
 62
    30
 10
-957.4
 20
31.5
 30
0.0
  0
LINE
  5
467
  8
SIZE
  6
CONTINUOUS
 62
    30
 10
-405.0
 20
-15.0
 30
0.0
 11
-405.0
 21
514.858405
 31
0.0
  0
LINE
  5
468
  8
SIZE
  6
CONTINUOUS
 62
    30
 10
405.0
 20
-15.0
 30
0.0
 11
405.0
 21
514.858405
 31
0.0
  0
LINE
  5
469
  8
SIZE
  6
CONTINUOUS
 62
    30
 10
-395.0
 20
502.358405
 30
0.0
 11
395.0
 21
502.358405
 31
0.0
  0
CIRCLE
  5
46A
  8
SIZE
  6
CONTINUOUS
 62
    30
 10
-405.0
 20
502.358405
 30
0.0
 40
5.0
  0
LINE
  5
46B
  8
SIZE
  6
CONTINUOUS
 62
    30
 10
-405.0
 20
502.358405
 30
0.0
 11
-395.0
 21
502.358405
 31
0.0
  0
CIRCLE
  5
46C
  8
SIZE
  6
CONTINUOUS
 62
    30
 10
405.0
 20
502.358405
 30
0.0
 40
5.0
  0
LINE
  5
46D
  8
SIZE
  6
CONTINUOUS
 62
    30
 10
405.0
 20
502.358405
 30
0.0
 11
395.0
 21
502.358405
 31
0.0
  0
TEXT
  5
46E
  8
SIZE
  6
CONTINUOUS
 62
    30
 10
-32.5
 20
512.358405
 30
0.0
 40
30.0
  1
810
 72
     1
 11
0.0
 21
512.358405
 31
0.0
  0
POINT
  5
46F
  8
DEFPOINTS
  6
CONTINUOUS
 62
    30
 10
-405.0
 20
-25.0
 30
0.0
  0
POINT
  5
470
  8
DEFPOINTS
  6
CONTINUOUS
 62
    30
 10
405.0
 20
-25.0
 30
0.0
  0
POINT
  5
471
  8
DEFPOINTS
  6
CONTINUOUS
 62
    30
 10
405.0
 20
502.358405
 30
0.0
  0
LINE
  5
472
  8
SIZE
  6
CONTINUOUS
 62
    30
 10
265.0
 20
46.5
 30
0.0
 11
265.0
 21
364.889349
 31
0.0
  0
LINE
  5
473
  8
SIZE
  6
CONTINUOUS
 62
    30
 10
405.0
 20
-15.0
 30
0.0
 11
405.0
 21
364.889349
 31
0.0
  0
LINE
  5
474
  8
SIZE
  6
CONTINUOUS
 62
    30
 10
275.0
 20
352.389349
 30
0.0
 11
395.0
 21
352.389349
 31
0.0
  0
CIRCLE
  5
475
  8
SIZE
  6
CONTINUOUS
 62
    30
 10
265.0
 20
352.389349
 30
0.0
 40
5.0
  0
LINE
  5
476
  8
SIZE
  6
CONTINUOUS
 62
    30
 10
265.0
 20
352.389349
 30
0.0
 11
275.0
 21
352.389349
 31
0.0
  0
CIRCLE
  5
477
  8
SIZE
  6
CONTINUOUS
 62
    30
 10
405.0
 20
352.389349
 30
0.0
 40
5.0
  0
LINE
  5
478
  8
SIZE
  6
CONTINUOUS
 62
    30
 10
405.0
 20
352.389349
 30
0.0
 11
395.0
 21
352.389349
 31
0.0
  0
TEXT
  5
479
  8
SIZE
  6
CONTINUOUS
 62
    30
 10
302.5
 20
362.389349
 30
0.0
 40
30.0
  1
140
 72
     1
 11
335.0
 21
362.389349
 31
0.0
  0
POINT
  5
47A
  8
DEFPOINTS
  6
CONTINUOUS
 62
    30
 10
265.0
 20
36.5
 30
0.0
  0
POINT
  5
47B
  8
DEFPOINTS
  6
CONTINUOUS
 62
    30
 10
405.0
 20
-25.0
 30
0.0
  0
POINT
  5
47C
  8
DEFPOINTS
  6
CONTINUOUS
 62
    30
 10
405.0
 20
352.389349
 30
0.0
  0
LINE
  5
47D
  8
SIZE
  6
CONTINUOUS
 62
    30
 10
405.0
 20
-15.0
 30
0.0
 11
405.0
 21
214.9
 31
0.0
  0
LINE
  5
47E
  8
SIZE
  6
CONTINUOUS
 62
    30
 10
437.0
 20
-30.436157
 30
0.0
 11
437.0
 21
214.9
 31
0.0
  0
LINE
  5
47F
  8
SIZE
  6
CONTINUOUS
 62
    30
 10
395.0
 20
202.4
 30
0.0
 11
385.0
 21
202.4
 31
0.0
  0
LINE
  5
480
  8
SIZE
  6
CONTINUOUS
 62
    30
 10
447.0
 20
202.4
 30
0.0
 11
527.0
 21
202.4
 31
0.0
  0
LINE
  5
481
  8
SIZE
  6
CONTINUOUS
 62
    30
 10
405.0
 20
202.4
 30
0.0
 11
437.0
 21
202.4
 31
0.0
  0
CIRCLE
  5
482
  8
SIZE
  6
CONTINUOUS
 62
    30
 10
405.0
 20
202.4
 30
0.0
 40
5.0
  0
LINE
  5
483
  8
SIZE
  6
CONTINUOUS
 62
    30
 10
405.0
 20
202.4
 30
0.0
 11
395.0
 21
202.4
 31
0.0
  0
CIRCLE
  5
484
  8
SIZE
  6
CONTINUOUS
 62
    30
 10
437.0
 20
202.4
 30
0.0
 40
5.0
  0
LINE
  5
485
  8
SIZE
  6
CONTINUOUS
 62
    30
 10
437.0
 20
202.4
 30
0.0
 11
447.0
 21
202.4
 31
0.0
  0
TEXT
  5
486
  8
SIZE
  6
CONTINUOUS
 62
    30
 10
467.0
 20
212.4
 30
0.0
 40
30.0
  1
32
 72
     1
 11
492.0
 21
212.4
 31
0.0
  0
POINT
  5
487
  8
DEFPOINTS
  6
CONTINUOUS
 62
    30
 10
405.0
 20
-25.0
 30
0.0
  0
POINT
  5
488
  8
DEFPOINTS
  6
CONTINUOUS
 62
    30
 10
437.0
 20
-40.436157
 30
0.0
  0
POINT
  5
489
  8
DEFPOINTS
  6
CONTINUOUS
 62
    30
 10
437.0
 20
202.4
 30
0.0
  0
LINE
  5
48A
  8
SIZE
  6
CONTINUOUS
 62
    30
 10
-275.0
 20
16.5
 30
0.0
 11
-869.9
 21
16.5
 31
0.0
  0
LINE
  5
48B
  8
SIZE
  6
CONTINUOUS
 62
    30
 10
-275.0
 20
-336.5
 30
0.0
 11
-869.9
 21
-336.5
 31
0.0
  0
LINE
  5
48C
  8
SIZE
  6
CONTINUOUS
 62
    30
 10
-857.4
 20
6.5
 30
0.0
 11
-857.4
 21
-326.5
 31
0.0
  0
CIRCLE
  5
48D
  8
SIZE
  6
CONTINUOUS
 62
    30
 10
-857.4
 20
16.5
 30
0.0
 40
5.0
  0
LINE
  5
48E
  8
SIZE
  6
CONTINUOUS
 62
    30
 10
-857.4
 20
16.5
 30
0.0
 11
-857.4
 21
6.5
 31
0.0
  0
CIRCLE
  5
48F
  8
SIZE
  6
CONTINUOUS
 62
    30
 10
-857.4
 20
-336.5
 30
0.0
 40
5.0
  0
LINE
  5
490
  8
SIZE
  6
CONTINUOUS
 62
    30
 10
-857.4
 20
-336.5
 30
0.0
 11
-857.4
 21
-326.5
 31
0.0
  0
TEXT
  5
491
  8
SIZE
  6
CONTINUOUS
 62
    30
 10
-867.4
 20
-200.0
 30
0.0
 40
30.0
  1
353
 50
90.0
 72
     1
 11
-867.4
 21
-160.0
 31
0.0
  0
POINT
  5
492
  8
DEFPOINTS
  6
CONTINUOUS
 62
    30
 10
-265.0
 20
16.5
 30
0.0
  0
POINT
  5
493
  8
DEFPOINTS
  6
CONTINUOUS
 62
    30
 10
-265.0
 20
-336.5
 30
0.0
  0
POINT
  5
494
  8
DEFPOINTS
  6
CONTINUOUS
 62
    30
 10
-857.4
 20
-336.5
 30
0.0
  0
LINE
  5
495
  8
SIZE
  6
CONTINUOUS
 62
    30
 10
-245.0
 20
46.5
 30
0.0
 11
-245.0
 21
364.998602
 31
0.0
  0
LINE
  5
496
  8
SIZE
  6
CONTINUOUS
 62
    30
 10
265.0
 20
46.5
 30
0.0
 11
265.0
 21
364.998602
 31
0.0
  0
LINE
  5
497
  8
SIZE
  6
CONTINUOUS
 62
    30
 10
-235.0
 20
352.498602
 30
0.0
 11
255.0
 21
352.498602
 31
0.0
  0
CIRCLE
  5
498
  8
SIZE
  6
CONTINUOUS
 62
    30
 10
-245.0
 20
352.498602
 30
0.0
 40
5.0
  0
LINE
  5
499
  8
SIZE
  6
CONTINUOUS
 62
    30
 10
-245.0
 20
352.498602
 30
0.0
 11
-235.0
 21
352.498602
 31
0.0
  0
CIRCLE
  5
49A
  8
SIZE
  6
CONTINUOUS
 62
    30
 10
265.0
 20
352.498602
 30
0.0
 40
5.0
  0
LINE
  5
49B
  8
SIZE
  6
CONTINUOUS
 62
    30
 10
265.0
 20
352.498602
 30
0.0
 11
255.0
 21
352.498602
 31
0.0
  0
TEXT
  5
49C
  8
SIZE
  6
CONTINUOUS
 62
    30
 10
-22.5
 20
362.498602
 30
0.0
 40
30.0
  1
510
 72
     1
 11
10.0
 21
362.498602
 31
0.0
  0
POINT
  5
49D
  8
DEFPOINTS
  6
CONTINUOUS
 62
    30
 10
-245.0
 20
36.5
 30
0.0
  0
POINT
  5
49E
  8
DEFPOINTS
  6
CONTINUOUS
 62
    30
 10
265.0
 20
36.5
 30
0.0
  0
POINT
  5
49F
  8
DEFPOINTS
  6
CONTINUOUS
 62
    30
 10
265.0
 20
352.498602
 30
0.0
  0
LINE
  5
4A0
  8
NOTE
  6
CONTINUOUS
 10
167.094147
 20
233.975784
 30
0.0
 11
-31.655848
 21
233.975784
 31
0.0
  0
LINE
  5
4A1
  8
NOTE
  6
CONTINUOUS
 10
-31.655848
 20
233.975784
 30
0.0
 11
-155.0
 21
-62.958603
 31
0.0
  0
LINE
  5
4A2
  8
NOTE
  6
CONTINUOUS
 10
-155.0
 20
-62.958603
 30
0.0
 11
-154.736954
 21
-60.975977
 31
0.0
  0
LINE
  5
4A3
  8
NOTE
  6
CONTINUOUS
 10
-155.0
 20
-62.958603
 30
0.0
 11
-153.780882
 21
-61.373121
 31
0.0
  0
TEXT
  5
4A4
  8
NOTE
  6
CONTINUOUS
 10
29.094152
 20
234.975784
 30
0.0
 40
40.0
  1
D φ25
 50
359.999996
 41
0.721354
  7
STANDARD1
  0
LINE
  5
4A5
  8
NOTE
  6
CONTINUOUS
 10
-155.0
 20
-83.0
 30
0.0
 11
-155.0
 21
-43.0
 31
0.0
  0
LINE
  5
4A6
  8
NOTE
  6
CONTINUOUS
 10
-135.0
 20
-63.0
 30
0.0
 11
-175.0
 21
-63.0
 31
0.0
  0
TEXT
  5
4A7
  8
NOTE
  6
CONTINUOUS
 10
-710.604614
 20
-309.754913
 30
0.0
 40
40.0
  1
メンテナンススペース
 50
90.000005
 41
0.84375
  7
STANDARD1
  0
TEXT
  5
4A8
  8
NOTE
  6
CONTINUOUS
 10
-260.496063
 20
600.781616
 30
0.0
 40
40.0
  1
メンテナンススペース
 50
0.000003
 41
0.84375
  7
STANDARD1
  0
LINE
  5
4A9
  8
NOTE
  6
CONTINUOUS
 10
773.166626
 20
-559.520203
 30
0.0
 11
516.916626
 21
-559.520203
 31
0.0
  0
LINE
  5
4AA
  8
NOTE
  6
CONTINUOUS
 10
516.916626
 20
-559.520203
 30
0.0
 11
265.0
 21
-336.5
 31
0.0
  0
LINE
  5
4AB
  8
NOTE
  6
CONTINUOUS
 10
265.0
 20
-336.5
 30
0.0
 11
266.789584
 21
-337.392966
 31
0.0
  0
LINE
  5
4AC
  8
NOTE
  6
CONTINUOUS
 10
265.0
 20
-336.5
 30
0.0
 11
266.103342
 21
-338.168123
 31
0.0
  0
TEXT
  5
4AD
  8
NOTE
  6
CONTINUOUS
 10
577.666626
 20
-558.520203
 30
0.0
 40
40.0
  1
AH 4-M10
 50
0.000003
 41
0.644737
  7
STANDARD1
  0
TEXT
  5
4AE
  8
NOTE
  6
CONTINUOUS
 10
1210.013062
 20
-459.496399
 30
0.0
 40
40.0
  1
メンテナンススペース
 50
90.000005
 41
0.84375
  7
STANDARD1
  0
TEXT
  5
4AF
  8
NOTE
  6
CONTINUOUS
 10
494.448151
 20
-823.595825
 30
0.0
 40
40.0
  1
メンテナンススペース
 50
0.000003
 41
0.84375
  7
STANDARD1
  0
TEXT
  5
4B0
  8
NOTE
  6
CONTINUOUS
 10
-253.926819
 20
-823.595825
 30
0.0
 40
40.0
  1
メンテナンススペース
 50
0.000003
 41
0.84375
  7
STANDARD1
  0
TEXT
  5
4B1
  8
NOTE
  6
CONTINUOUS
 10
-705.206909
 20
-760.124329
 30
0.0
 40
40.0
  1
メンテナンススペース
 50
90.000005
 41
0.84375
  7
STANDARD1
  0
TEXT
  5
4B2
  8
NOTE
  6
CONTINUOUS
 10
-589.562317
 20
449.874756
 30
0.0
 40
40.0
  1
メンテナンススペース
 50
0.000003
 41
0.84375
  7
STANDARD1
  0
TEXT
  5
4B3
  8
NOTE
  6
CONTINUOUS
 10
-712.228149
 20
109.421898
 30
0.0
 40
40.0
  1
メンテナンススペース
 50
90.000005
 41
0.84375
  7
STANDARD1
  0
LINE
  5
4B4
  8
NOTE
  6
CONTINUOUS
 10
1088.491455
 20
312.449432
 30
0.0
 11
580.741455
 21
312.449432
 31
0.0
  0
LINE
  5
4B5
  8
NOTE
  6
CONTINUOUS
 10
580.741455
 20
312.449432
 30
0.0
 11
437.0
 21
-50.5
 31
0.0
  0
LINE
  5
4B6
  8
NOTE
  6
CONTINUOUS
 10
437.0
 20
-50.5
 30
0.0
 11
437.230062
 21
-48.513276
 31
0.0
  0
LINE
  5
4B7
  8
NOTE
  6
CONTINUOUS
 10
437.0
 20
-50.5
 30
0.0
 11
438.192601
 21
-48.894478
 31
0.0
  0
TEXT
  5
4B8
  8
NOTE
  6
CONTINUOUS
 10
641.491455
 20
363.449432
 30
0.0
 40
40.0
  1
貯湯ﾀﾝｸﾕﾆｯﾄ接続口(B)
 50
359.999996
 41
0.847538
  7
STANDARD1
  0
TEXT
  5
4B9
  8
NOTE
  6
CONTINUOUS
 10
641.491455
 20
313.449432
 30
0.0
 40
40.0
  1
R1/2(φ21.7)
 50
359.999996
 41
0.637277
  7
STANDARD1
  0
LINE
  5
4BA
  8
NOTE
  6
CONTINUOUS
 10
1115.008667
 20
179.863312
 30
0.0
 11
607.258667
 21
179.863312
 31
0.0
  0
LINE
  5
4BB
  8
NOTE
  6
CONTINUOUS
 10
607.258667
 20
179.863312
 30
0.0
 11
437.0
 21
-209.5
 31
0.0
  0
LINE
  5
4BC
  8
NOTE
  6
CONTINUOUS
 10
437.0
 20
-209.5
 30
0.0
 11
437.29971
 21
-207.522584
 31
0.0
  0
LINE
  5
4BD
  8
NOTE
  6
CONTINUOUS
 10
437.0
 20
-209.5
 30
0.0
 11
438.248265
 21
-207.937363
 31
0.0
  0
TEXT
  5
4BE
  8
NOTE
  6
CONTINUOUS
 10
668.008667
 20
230.863312
 30
0.0
 40
40.0
  1
貯湯ﾀﾝｸﾕﾆｯﾄ接続口(A)
 50
359.999996
 41
0.847538
  7
STANDARD1
  0
TEXT
  5
4BF
  8
NOTE
  6
CONTINUOUS
 10
668.008667
 20
180.863312
 30
0.0
 40
40.0
  1
R1/2(φ21.7)
 50
359.999996
 41
0.637277
  7
STANDARD1
  0
LINE
  5
4C0
  8
NOTE
  6
CONTINUOUS
 10
457.0
 20
-50.5
 30
0.0
 11
417.0
 21
-50.5
 31
0.0
  0
LINE
  5
4C1
  8
NOTE
  6
CONTINUOUS
 10
437.0
 20
-70.5
 30
0.0
 11
437.0
 21
-30.5
 31
0.0
  0
LINE
  5
4C2
  8
NOTE
  6
CONTINUOUS
 10
437.0
 20
-229.5
 30
0.0
 11
437.0
 21
-189.5
 31
0.0
  0
LINE
  5
4C3
  8
NOTE
  6
CONTINUOUS
 10
457.0
 20
-209.5
 30
0.0
 11
417.0
 21
-209.5
 31
0.0
  0
LINE
  5
4C4
  8
NOTE
  6
CONTINUOUS
 10
265.0
 20
-356.5
 30
0.0
 11
265.0
 21
-316.5
 31
0.0
  0
LINE
  5
4C5
  8
NOTE
  6
CONTINUOUS
 10
285.0
 20
-336.5
 30
0.0
 11
245.0
 21
-336.5
 31
0.0
  0
LINE
  5
4C6
  8
NOTE
  6
CONTINUOUS
 10
-245.0
 20
-356.5
 30
0.0
 11
-245.0
 21
-316.5
 31
0.0
  0
LINE
  5
4C7
  8
NOTE
  6
CONTINUOUS
 10
-225.0
 20
-336.5
 30
0.0
 11
-265.0
 21
-336.5
 31
0.0
  0
LINE
  5
4C8
  8
NOTE
  6
CONTINUOUS
 10
285.0
 20
16.5
 30
0.0
 11
245.0
 21
16.5
 31
0.0
  0
LINE
  5
4C9
  8
NOTE
  6
CONTINUOUS
 10
265.0
 20
-3.5
 30
0.0
 11
265.0
 21
36.5
 31
0.0
  0
LINE
  5
4CA
  8
NOTE
  6
CONTINUOUS
 10
-225.0
 20
16.5
 30
0.0
 11
-265.0
 21
16.5
 31
0.0
  0
LINE
  5
4CB
  8
NOTE
  6
CONTINUOUS
 10
-245.0
 20
-3.5
 30
0.0
 11
-245.0
 21
36.5
 31
0.0
  0
CIRCLE
  5
4CC
  8
ARRANGE
  6
CONTINUOUS
 10
0.0
 20
0.0
 30
0.0
 40
15.0
  0
CIRCLE
  5
4CD
  8
FIX
  6
CONTINUOUS
 10
-245.0
 20
16.5
 30
0.0
 40
5.0
  0
CIRCLE
  5
4CE
  8
FIX
  6
CONTINUOUS
 10
265.0
 20
16.5
 30
0.0
 40
5.0
  0
CIRCLE
  5
4CF
  8
FIX
  6
CONTINUOUS
 10
265.0
 20
-336.5
 30
0.0
 40
5.0
  0
CIRCLE
  5
4D0
  8
FIX
  6
CONTINUOUS
 10
-245.0
 20
-336.5
 30
0.0
 40
5.0
  0
LINE
  5
4D1
  8
SERVICESPACE
  6
DASHDOT
 10
-405.0
 20
0.0
 30
0.0
 11
-505.0
 21
-320.0
 31
0.0
  0
LINE
  5
4D2
  8
SERVICESPACE
  6
DASHDOT
 10
-505.0
 20
0.0
 30
0.0
 11
-405.0
 21
-320.0
 31
0.0
  0
LINE
  5
4D3
  8
SERVICESPACE
  6
DASHDOT
 10
405.0
 20
100.0
 30
0.0
 11
-505.0
 21
0.0
 31
0.0
  0
LINE
  5
4D4
  8
SERVICESPACE
  6
DASHDOT
 10
-505.0
 20
100.0
 30
0.0
 11
405.0
 21
0.0
 31
0.0
  0
LINE
  5
4D5
  8
SERVICESPACE
  6
DASHDOT
 10
-505.0
 20
0.0
 30
0.0
 11
405.0
 21
0.0
 31
0.0
  0
LINE
  5
4D6
  8
SERVICESPACE
  6
DASHDOT
 10
-505.0
 20
-320.0
 30
0.0
 11
405.0
 21
-620.0
 31
0.0
  0
LINE
  5
4D7
  8
SERVICESPACE
  6
DASHDOT
 10
-505.0
 20
-620.0
 30
0.0
 11
405.0
 21
-320.0
 31
0.0
  0
LINE
  5
4D8
  8
SERVICESPACE
  6
DASHDOT
 10
-505.0
 20
-320.0
 30
0.0
 11
405.0
 21
-320.0
 31
0.0
  0
LINE
  5
4D9
  8
SERVICESPACE
  6
DASHDOT
 10
-505.0
 20
-620.0
 30
0.0
 11
-505.0
 21
100.0
 31
0.0
  0
LINE
  5
4DA
  8
SERVICESPACE
  6
DASHDOT
 10
-505.0
 20
100.0
 30
0.0
 11
1005.0
 21
100.0
 31
0.0
  0
LINE
  5
4DB
  8
SERVICESPACE
  6
DASHDOT
 10
405.0
 20
-620.0
 30
0.0
 11
405.0
 21
100.0
 31
0.0
  0
LINE
  5
4DC
  8
SERVICESPACE
  6
DASHDOT
 10
-405.0
 20
-320.0
 30
0.0
 11
-405.0
 21
0.0
 31
0.0
  0
LINE
  5
4DD
  8
SERVICESPACE
  6
DASHDOT
 10
1005.0
 20
-620.0
 30
0.0
 11
1005.0
 21
100.0
 31
0.0
  0
LINE
  5
4DE
  8
SERVICESPACE
  6
DASHDOT
 10
-505.0
 20
-620.0
 30
0.0
 11
1005.0
 21
-620.0
 31
0.0
  0
LINE
  5
4DF
  8
SERVICESPACE
  6
DASHDOT
 10
1005.0
 20
-620.0
 30
0.0
 11
405.0
 21
100.0
 31
0.0
  0
LINE
  5
4E0
  8
SERVICESPACE
  6
DASHDOT
 10
405.0
 20
-620.0
 30
0.0
 11
1005.0
 21
100.0
 31
0.0
  0
TEXT
  5
4E1
  8
ETC
  6
CONTINUOUS
 10
741.04657
 20
538.685547
 30
0.0
 40
40.0
  1
TTHPHPU6
 50
0.000003
 41
0.6125
  7
STANDARD1
  0
TEXT
  5
4E2
  8
ETC
  6
CONTINUOUS
 10
741.04657
 20
468.685577
 30
0.0
 40
40.0
  1
ヒートポンプユニット
 50
0.000003
 41
0.84375
  7
STANDARD1
  0
ENDSEC
  0
EOF
