  0
SECTION
  2
HEADER
  9
$FILLMODE
 70
1
  9
$TEXTSTYLE
  7
STANDARD1
  9
$ACADVER
  1
AC1009
  9
$DIMASZ
 40
1.931851648807023
  9
$DIMEXE
 40
2.000000000000000
  9
$DIMEXO
 40
1.000000000000000
  9
$DIMLFAC
 40
1.000000000000000
  9
$DIMSCALE
 40
1.000000000000000
  9
$DIMTAD
 70
1
  9
$DIMTFAC
 40
0.625000000000000
  9
$DIMTXT
 40
2.000000000000000
  9
$LUPREC
 70
3
  9
$TEXTSIZE
 40
20.000000000000000
  9
$REGENMODE
 70
1
  0
ENDSEC
  0
SECTION
  2
TABLES
  0
TABLE
  2
LTYPE
 70
4
  0
LTYPE
  2
CONTINUOUS
 70
64
  3
Solid line
 72
65
 73
0
 40
0.0
  0
LTYPE
  2
DASHED
 70
64
  3
-- -- -- -- -- -- -- -- -- -- -- -- -- -- --
 72
65
 73
2
 40
0.75
 49
0.5
 49
-0.25
  0
LTYPE
  2
DASHDOT
 70
64
  3
__ . __ . __ . __ . __ . __ . __ . __ . __ . __
 72
65
 73
4
 40
1.0
 49
0.5
 49
-0.25
 49
0.0
 49
-0.25
  0
LTYPE
  2
DIVIDE
 70
64
  3
__ . . __ . . __ . . __ . . __ . . __ . . __
 72
65
 73
6
 40
1.25
 49
0.5
 49
-0.25
 49
0.0
 49
-0.25
 49
0.0
 49
-0.25
  0
ENDTAB
  0
TABLE
  2
LAYER
 70
3
  0
LAYER
  2
0
 70
64
 62
3
  6
CONTINUOUS
  0
LAYER
  2
1
 70
64
 62
4
  6
CONTINUOUS
  0
LAYER
  2
4
 70
64
 62
2
  6
CONTINUOUS
  0
ENDTAB
  0
TABLE
  2
STYLE
 70
4
  0
STYLE
  2
STANDARD1
 70
64
 40
0.0
 41
1.0
 50
0.0
 71
0
 42
20.000000000000000
  3
MONOTXT
  4
BIGFONT
  0
STYLE
  2
STANDARD2
 70
68
 40
0.0
 41
1.0
 50
0.0
 71
0
 42
20.000000000000000
  3
MONOTXT
  4
BIGFONT
  0
STYLE
  2
STANDARD3
 70
64
 40
0.0
 41
1.0
 50
0.0
 71
0
 42
20.000000000000000
  3
MONOTXT
  4

  0
STYLE
  2
STANDARD4
 70
68
 40
0.0
 41
1.0
 50
0.0
 71
0
 42
20.000000000000000
  3
MONOTXT
  4

  0
ENDTAB
  0
TABLE
  2
VIEW
 70
0
  0
ENDTAB
  0
ENDSEC
  0
SECTION
  2
BLOCKS
  0
BLOCK
  8
1
  2
SYM1
 70
64
 10
0.000000000000000
 20
0.000000000000000
  0
POINT
  8
1
  6
CONTINUOUS
 62
3
 10
0.000000000000000
 20
0.000000000000000
  0
CIRCLE
  8
1
  6
CONTINUOUS
 62
3
 10
0.000000000000000
 20
0.000000000000000
 40
3.899999618530273
  0
LINE
  8
1
  6
CONTINUOUS
 62
3
 10
0.000001070378062
 20
4.599999954039447
 11
4.000000095779171
 21
2.299999682491432
  0
LINE
  8
1
  6
CONTINUOUS
 62
3
 10
4.000000000000000
 20
2.299999237060547
 11
4.000000000000000
 21
-2.299999237060547
  0
LINE
  8
1
  6
CONTINUOUS
 62
3
 10
4.000000095779171
 20
-2.299999682491432
 11
0.000001070378062
 21
-4.599999954039447
  0
LINE
  8
1
  6
CONTINUOUS
 62
3
 10
-0.000001070378062
 20
-4.599999954039447
 11
-4.000000095779171
 21
-2.299999682491432
  0
LINE
  8
1
  6
CONTINUOUS
 62
3
 10
-4.000000000000000
 20
-2.299999237060547
 11
-4.000000000000000
 21
2.299999237060547
  0
LINE
  8
1
  6
CONTINUOUS
 62
3
 10
-4.000000095779171
 20
2.299999682491432
 11
-0.000001070378062
 21
4.599999954039447
  0
ENDBLK
  8
1
  0
ENDSEC
  0
SECTION
  2
ENTITIES
  0
LINE
  8
1
  6
DASHED
 62
3
 10
-1000.082149771710600
 20
-5550.609096840114000
 11
-908.282149771714330
 21
-5550.609096840113100
  0
CIRCLE
  8
1
  6
CONTINUOUS
 62
3
 10
-927.849377821036800
 20
-5668.770102782017600
 40
2.500000000000000
  0
ARC
  8
1
  6
CONTINUOUS
 62
3
 10
-1255.082149771711800
 20
-5645.809096840112000
 40
400.200000000000440
 50
348.740633201575970
 51
11.259366798423379
  0
LINE
  8
1
  6
CONTINUOUS
 62
3
 10
-1000.082149771711100
 20
-5741.009096840113700
 11
-883.376621160691000
 21
-5741.009096840114600
  0
LINE
  8
1
  6
CONTINUOUS
 62
3
 10
-1008.282149771713400
 20
-5732.809096840113900
 11
-1008.282149771713100
 21
-5716.519774958767800
  0
ARC
  8
1
  6
CONTINUOUS
 62
3
 10
-1000.082149771711100
 20
-5732.809096840112900
 40
8.200000000002319
 50
180.000000000006370
 51
270.000000000000000
  0
LINE
  8
1
  6
DASHED
 62
3
 10
-1008.282149771713100
 20
-5716.519774958767800
 11
-1008.282149771713400
 21
-5558.809096840114800
  0
ARC
  8
1
  6
DASHED
 62
3
 10
-1000.082149771710800
 20
-5558.809096840114800
 40
8.200000000000728
 50
90.000000000000000
 51
180.000000000000000
  0
LINE
  8
1
  6
CONTINUOUS
 62
3
 10
-943.282149771712510
 20
-5520.809096840112900
 11
-943.282149771712510
 21
-5535.809096840113900
  0
ARC
  8
1
  6
CONTINUOUS
 62
3
 10
-943.282149771712510
 20
-5533.509096840114600
 40
2.299999999998845
 50
224.999999999967970
 51
315.000000000000000
  0
LINE
  8
1
  6
CONTINUOUS
 62
3
 10
-944.908495368441660
 20
-5535.135442436841900
 11
-959.234840965171540
 21
-5520.809096840112900
  0
LINE
  8
1
  6
CONTINUOUS
 62
3
 10
-941.655804174985180
 20
-5535.135442436841900
 11
-927.329458578253480
 21
-5520.809096840112900
  0
LINE
  8
1
  6
CONTINUOUS
 62
3
 10
-1024.908495368441700
 20
-5535.135442436841900
 11
-1039.234840965171500
 21
-5520.809096840112900
  0
LINE
  8
1
  6
CONTINUOUS
 62
3
 10
-1023.282149771714300
 20
-5520.809096840114800
 11
-1023.282149771714300
 21
-5535.809096840113900
  0
ARC
  8
1
  6
CONTINUOUS
 62
3
 10
-1023.282149771714300
 20
-5533.509096840114600
 40
2.299999999997559
 50
225.000000000000000
 51
315.000000000064060
  0
LINE
  8
1
  6
CONTINUOUS
 62
3
 10
-1021.655804174983300
 20
-5535.135442436841900
 11
-1007.329458578255300
 21
-5520.809096840112900
  0
LINE
  8
1
  6
CONTINUOUS
 62
3
 10
-908.282149771714330
 20
-5518.509096840113700
 11
-908.282149771714330
 21
-5645.809096840112900
  0
LINE
  8
1
  6
CONTINUOUS
 62
3
 10
-1058.282149771714300
 20
-5520.809096840114800
 11
-908.282149771714330
 21
-5520.809096840112900
  0
LINE
  8
1
  6
CONTINUOUS
 62
3
 10
-1058.282149771714300
 20
-5518.509096840113700
 11
-908.282149771714330
 21
-5518.509096840113700
  0
CIRCLE
  8
1
  6
CONTINUOUS
 62
3
 10
-1006.243155713617100
 20
-5701.241868790791200
 40
2.500000000000000
  0
ARC
  8
1
  6
CONTINUOUS
 62
3
 10
-983.282149771714330
 20
-5645.809096840112900
 40
75.000000000000000
 50
180.000000000000000
 51
0.000000000000000
  0
CIRCLE
  8
1
  6
CONTINUOUS
 62
3
 10
-940.855742900519770
 20
-5688.235503711306600
 40
2.500000000000000
  0
CIRCLE
  8
1
  6
CONTINUOUS
 62
3
 10
-983.282149771714330
 20
-5705.809096840113900
 40
2.500000000000000
  0
CIRCLE
  8
1
  6
CONTINUOUS
 62
3
 10
-960.321143829807850
 20
-5701.241868790791200
 40
2.500000000000000
  0
CIRCLE
  8
1
  6
CONTINUOUS
 62
3
 10
-924.435032947520310
 20
-5657.514516161081700
 40
2.500000000000000
  0
LINE
  8
1
  6
CONTINUOUS
 62
3
 10
-1058.282149771714300
 20
-5518.509096840113700
 11
-1058.282149771714300
 21
-5645.809096840112900
  0
CIRCLE
  8
1
  6
CONTINUOUS
 62
3
 10
-1042.129266595908300
 20
-5657.514516161081700
 40
2.500000000000000
  0
CIRCLE
  8
1
  6
CONTINUOUS
 62
3
 10
-1025.708556642905300
 20
-5688.235503711306600
 40
2.500000000000000
  0
CIRCLE
  8
1
  6
CONTINUOUS
 62
3
 10
-1038.714921722390700
 20
-5668.770102782019400
 40
2.500000000000000
  0
CIRCLE
  8
1
  6
CONTINUOUS
 62
3
 10
-1043.282149771712500
 20
-5645.809096840112900
 40
2.500000000000000
  0
LINE
  8
1
  6
CONTINUOUS
 62
4
 10
-983.282149946455550
 20
-5653.309096726803500
 11
-976.782150126731950
 21
-5649.559096005057700
  0
LINE
  8
1
  6
CONTINUOUS
 62
4
 10
-976.782149771710690
 20
-5649.559095886439500
 11
-976.782149771710690
 21
-5642.059097793787300
  0
LINE
  8
1
  6
CONTINUOUS
 62
4
 10
-989.782149771714330
 20
-5642.059097793787300
 11
-989.782149771714330
 21
-5649.559095886439500
  0
LINE
  8
1
  6
CONTINUOUS
 62
4
 10
-989.782149416689440
 20
-5649.559096005057700
 11
-983.282149596969480
 21
-5653.309096726803500
  0
LINE
  8
1
  6
CONTINUOUS
 62
4
 10
-976.782150126731950
 20
-5642.059097675171000
 11
-983.282149946455550
 21
-5638.309096953423200
  0
LINE
  8
1
  6
CONTINUOUS
 62
4
 10
-983.282149596969480
 20
-5638.309096953423200
 11
-989.782149416689440
 21
-5642.059097675171000
  0
POINT
  8
1
  6
CONTINUOUS
 62
3
 10
-983.282149771714330
 20
-5645.809096840112900
  0
POINT
  8
1
  6
CONTINUOUS
 62
3
 10
-983.282149771714330
 20
-5630.809096840113900
  0
CIRCLE
  8
1
  6
CONTINUOUS
 62
4
 10
-983.282149771714330
 20
-5645.809096840112900
 40
3.000000000000682
  0
CIRCLE
  8
1
  6
CONTINUOUS
 62
4
 10
-983.282149771714330
 20
-5645.809096840112900
 40
4.000000000000455
  0
LINE
  8
1
  6
DASHDOT
 62
4
 10
-958.782149771712510
 20
-5645.809096840112900
 11
-1007.782149771710600
 21
-5645.809096840112900
  0
LINE
  8
1
  6
DASHDOT
 62
4
 10
-983.282149771714330
 20
-5621.309096840114800
 11
-983.282149771714330
 21
-5670.309096840113900
  0
INSERT
  8
1
  2
SYM1
 10
-923.282149771715010
 20
-5645.809096840112900
 50
90.000000000000000
  0
LINE
  8
1
  6
CONTINUOUS
 62
3
 10
-908.282149771714330
 20
-5550.609096840114900
 11
-883.376621160690770
 21
-5550.609096840114900
  0
ARC
  8
1
  6
CONTINUOUS
 62
3
 10
-883.376621160691000
 20
-5719.809096840114800
 40
21.199999999999818
 50
270.000000000000000
 51
348.740633201578590
  0
ARC
  8
1
  6
CONTINUOUS
 62
3
 10
-883.376621160690770
 20
-5571.809096840113900
 40
21.200000000001353
 50
11.259366798421777
 51
90.000000000000000
  0
POLYLINE
  8
4
  6
CONTINUOUS
 62
3
 66
1
  0
VERTEX
  8
4
  6
CONTINUOUS
 62
3
 10
-862.270890355366190
 20
-5567.646502873113600
  0
VERTEX
  8
4
  6
CONTINUOUS
 62
3
 10
-570.663763515020490
 20
-5548.696386193665600
  0
VERTEX
  8
4
  6
CONTINUOUS
 62
3
 10
-279.070701494899080
 20
-5529.610732526160100
  0
VERTEX
  8
4
  6
CONTINUOUS
 62
3
 10
12.494230884773771
 20
-5510.254004882539400
  0
VERTEX
  8
4
  6
CONTINUOUS
 62
3
 10
304.016968803773810
 20
-5490.490666274745300
  0
VERTEX
  8
4
  6
CONTINUOUS
 62
3
 10
449.758119584201380
 20
-5480.414162550515400
  0
VERTEX
  8
4
  6
CONTINUOUS
 62
3
 10
595.483447441876710
 20
-5470.185179714721000
  0
VERTEX
  8
4
  6
CONTINUOUS
 62
3
 10
741.191194274271650
 20
-5459.786775643855400
  0
VERTEX
  8
4
  6
CONTINUOUS
 62
3
 10
886.879601978858200
 20
-5449.202008214409900
  0
VERTEX
  8
4
  6
CONTINUOUS
 62
3
 10
1032.546912453108200
 20
-5438.413935302878600
  0
VERTEX
  8
4
  6
CONTINUOUS
 62
3
 10
1178.191367594494100
 20
-5427.405614785753600
  0
VERTEX
  8
4
  6
CONTINUOUS
 62
3
 10
1323.811209300487500
 20
-5416.160104539527300
  0
VERTEX
  8
4
  6
CONTINUOUS
 62
3
 10
1469.404679468560300
 20
-5404.660462440693700
  0
VERTEX
  8
4
  6
CONTINUOUS
 62
3
 10
1614.970019996184600
 20
-5392.889746365744900
  0
VERTEX
  8
4
  6
CONTINUOUS
 62
3
 10
1760.505472780832400
 20
-5380.831014191173400
  0
VERTEX
  8
4
  6
CONTINUOUS
 62
3
 10
1906.009279719975400
 20
-5368.467323793473000
  0
VERTEX
  8
4
  6
CONTINUOUS
 62
3
 10
2051.479682711085800
 20
-5355.781733049135300
  0
VERTEX
  8
4
  6
CONTINUOUS
 62
3
 10
2196.914923651635900
 20
-5342.757299834653200
  0
VERTEX
  8
4
  6
CONTINUOUS
 62
3
 10
2342.313244439096700
 20
-5329.377082026520800
  0
VERTEX
  8
4
  6
CONTINUOUS
 62
3
 10
2487.672886970940500
 20
-5315.624137501229600
  0
VERTEX
  8
4
  6
CONTINUOUS
 62
3
 10
2632.992093144640400
 20
-5301.481524135274400
  0
VERTEX
  8
4
  6
CONTINUOUS
 62
3
 10
2778.269104857667100
 20
-5286.932299805145700
  0
VERTEX
  8
4
  6
CONTINUOUS
 62
3
 10
2923.502164007492900
 20
-5271.959522387337500
  0
VERTEX
  8
4
  6
CONTINUOUS
 62
3
 10
3068.689512491590000
 20
-5256.546249758341200
  0
VERTEX
  8
4
  6
CONTINUOUS
 62
3
 10
3213.829392207429900
 20
-5240.675539794650800
  0
VERTEX
  8
4
  6
CONTINUOUS
 62
3
 10
3358.920045052485400
 20
-5224.330450372759500
  0
VERTEX
  8
4
  6
CONTINUOUS
 62
3
 10
3503.959712924227500
 20
-5207.494039369159500
  0
VERTEX
  8
4
  6
CONTINUOUS
 62
3
 10
3648.946637720128400
 20
-5190.149364660344000
  0
VERTEX
  8
4
  6
CONTINUOUS
 62
3
 10
3793.879061337660500
 20
-5172.279484122804200
  0
VERTEX
  8
4
  6
CONTINUOUS
 62
3
 10
3793.879061337660500
 20
-5172.279484122804200
  0
VERTEX
  8
4
  6
CONTINUOUS
 62
3
 10
3872.325498569541200
 20
-5162.381840074346700
  0
VERTEX
  8
4
  6
CONTINUOUS
 62
3
 10
3950.756746092486500
 20
-5152.338428731550300
  0
VERTEX
  8
4
  6
CONTINUOUS
 62
3
 10
4107.578879949450300
 20
-5131.866930121809700
  0
VERTEX
  8
4
  6
CONTINUOUS
 62
3
 10
4264.355878784310300
 20
-5110.970240211314400
  0
VERTEX
  8
4
  6
CONTINUOUS
 62
3
 10
4421.098158472824300
 20
-5089.753610917796300
  0
VERTEX
  8
4
  6
CONTINUOUS
 62
3
 10
4734.520223913848900
 20
-5046.781541852618800
  0
VERTEX
  8
4
  6
CONTINUOUS
 62
3
 10
5047.928403278590800
 20
-5003.792738268131000
  0
VERTEX
  8
4
  6
CONTINUOUS
 62
3
 10
5204.653325371750700
 20
-4982.555190825474700
  0
VERTEX
  8
4
  6
CONTINUOUS
 62
3
 10
5361.406023573114000
 20
-4961.629215506188300
  0
VERTEX
  8
4
  6
CONTINUOUS
 62
3
 10
5518.196913758440100
 20
-4941.120064228001900
  0
VERTEX
  8
4
  6
CONTINUOUS
 62
3
 10
5675.036411803485900
 20
-4921.132988908645500
  0
VERTEX
  8
4
  6
CONTINUOUS
 62
3
 10
5753.477643734577200
 20
-4911.368120957821700
  0
VERTEX
  8
4
  6
CONTINUOUS
 62
3
 10
5831.934933584008800
 20
-4901.773241465854000
  0
VERTEX
  8
4
  6
CONTINUOUS
 62
3
 10
5910.409583336249900
 20
-4892.361506922461600
  0
VERTEX
  8
4
  6
CONTINUOUS
 62
3
 10
5988.902894975770300
 20
-4883.146073817357300
  0
VERTEX
  8
4
  6
CONTINUOUS
 62
3
 10
6067.416170487038500
 20
-4874.140098640262300
  0
VERTEX
  8
4
  6
CONTINUOUS
 62
3
 10
6145.950711854525300
 20
-4865.356737880889300
  0
VERTEX
  8
4
  6
CONTINUOUS
 62
3
 10
6224.507821062699800
 20
-4856.809148028956800
  0
VERTEX
  8
4
  6
CONTINUOUS
 62
3
 10
6303.088800096033100
 20
-4848.510485574181100
  0
VERTEX
  8
4
  6
CONTINUOUS
 62
3
 10
6303.088800096033100
 20
-4848.510485574181100
  0
VERTEX
  8
4
  6
CONTINUOUS
 62
3
 10
6359.407179015874100
 20
-4842.726333186897100
  0
VERTEX
  8
4
  6
CONTINUOUS
 62
3
 10
6415.740260187555600
 20
-4837.089885629899100
  0
VERTEX
  8
4
  6
CONTINUOUS
 62
3
 10
6472.089823589674800
 20
-4831.614303588658900
  0
VERTEX
  8
4
  6
CONTINUOUS
 62
3
 10
6528.457649200824600
 20
-4826.312747748647800
  0
VERTEX
  8
4
  6
CONTINUOUS
 62
3
 10
6584.845516999601400
 20
-4821.198378795338600
  0
VERTEX
  8
4
  6
CONTINUOUS
 62
3
 10
6641.255206964599900
 20
-4816.284357414204400
  0
VERTEX
  8
4
  6
CONTINUOUS
 62
3
 10
6697.688499074415600
 20
-4811.583844290717000
  0
VERTEX
  8
4
  6
CONTINUOUS
 62
3
 10
6754.147173307641400
 20
-4807.110000110347800
  0
VERTEX
  8
4
  6
CONTINUOUS
 62
3
 10
6810.633009642873700
 20
-4802.875985558568600
  0
VERTEX
  8
4
  6
CONTINUOUS
 62
3
 10
6867.147788058708100
 20
-4798.894961320853300
  0
VERTEX
  8
4
  6
CONTINUOUS
 62
3
 10
6923.693288533737400
 20
-4795.180088082671300
  0
VERTEX
  8
4
  6
CONTINUOUS
 62
3
 10
6980.271291046559800
 20
-4791.744526529497300
  0
VERTEX
  8
4
  6
CONTINUOUS
 62
3
 10
7036.883575575766400
 20
-4788.601437346802400
  0
VERTEX
  8
4
  6
CONTINUOUS
 62
3
 10
7093.531922099955400
 20
-4785.763981220057800
  0
VERTEX
  8
4
  6
CONTINUOUS
 62
3
 10
7150.218110597718800
 20
-4783.245318834737200
  0
VERTEX
  8
4
  6
CONTINUOUS
 62
3
 10
7206.943921047653900
 20
-4781.058610876311800
  0
VERTEX
  8
4
  6
CONTINUOUS
 62
3
 10
7206.943921047653900
 20
-4781.058610876311800
  0
VERTEX
  8
4
  6
CONTINUOUS
 62
3
 10
7260.148820754114200
 20
-4779.325513149144200
  0
VERTEX
  8
4
  6
CONTINUOUS
 62
3
 10
7313.380341408823400
 20
-4777.926975970622200
  0
VERTEX
  8
4
  6
CONTINUOUS
 62
3
 10
7366.628730915959700
 20
-4776.894364193945900
  0
VERTEX
  8
4
  6
CONTINUOUS
 62
3
 10
7419.884237179703600
 20
-4776.259042672315400
  0
VERTEX
  8
4
  6
CONTINUOUS
 62
3
 10
7473.137108104232500
 20
-4776.052376258929100
  0
VERTEX
  8
4
  6
CONTINUOUS
 62
3
 10
7526.377591593724000
 20
-4776.305729806985300
  0
VERTEX
  8
4
  6
CONTINUOUS
 62
3
 10
7579.595935552358200
 20
-4777.050468169682100
  0
VERTEX
  8
4
  6
CONTINUOUS
 62
3
 10
7632.782387884313700
 20
-4778.317956200220600
  0
VERTEX
  8
4
  6
CONTINUOUS
 62
3
 10
7685.927196493768900
 20
-4780.139558751798200
  0
VERTEX
  8
4
  6
CONTINUOUS
 62
3
 10
7712.480936872614600
 20
-4781.267954489601800
  0
VERTEX
  8
4
  6
CONTINUOUS
 62
3
 10
7739.020609284903000
 20
-4782.546640677614100
  0
VERTEX
  8
4
  6
CONTINUOUS
 62
3
 10
7765.544994718655300
 20
-4783.979537922487000
  0
VERTEX
  8
4
  6
CONTINUOUS
 62
3
 10
7792.052874161893700
 20
-4785.570566830868300
  0
VERTEX
  8
4
  6
CONTINUOUS
 62
3
 10
7818.543028602641200
 20
-4787.323648009409200
  0
VERTEX
  8
4
  6
CONTINUOUS
 62
3
 10
7845.014239028920200
 20
-4789.242702064758300
  0
VERTEX
  8
4
  6
CONTINUOUS
 62
3
 10
7871.465286428752700
 20
-4791.331649603567700
  0
VERTEX
  8
4
  6
CONTINUOUS
 62
3
 10
7897.894951790161900
 20
-4793.594411232484200
  0
VERTEX
  8
4
  6
CONTINUOUS
 62
3
 10
7924.302016101168200
 20
-4796.034907558160700
  0
VERTEX
  8
4
  6
CONTINUOUS
 62
3
 10
7950.685260349795500
 20
-4798.657059187244200
  0
VERTEX
  8
4
  6
CONTINUOUS
 62
3
 10
7977.043465524066100
 20
-4801.464786726386600
  0
VERTEX
  8
4
  6
CONTINUOUS
 62
3
 10
8003.375412612002000
 20
-4804.462010782236600
  0
VERTEX
  8
4
  6
CONTINUOUS
 62
3
 10
8029.679882601625600
 20
-4807.652651961445400
  0
VERTEX
  8
4
  6
CONTINUOUS
 62
3
 10
8055.955656480959100
 20
-4811.040630870661500
  0
VERTEX
  8
4
  6
CONTINUOUS
 62
3
 10
8055.955656480959100
 20
-4811.040630870661500
  0
VERTEX
  8
4
  6
CONTINUOUS
 62
3
 10
8090.456548257890100
 20
-4815.801086788241300
  0
VERTEX
  8
4
  6
CONTINUOUS
 62
3
 10
8124.911290105064800
 20
-4820.914487420168400
  0
VERTEX
  8
4
  6
CONTINUOUS
 62
3
 10
8159.325439838621600
 20
-4826.385906098622400
  0
VERTEX
  8
4
  6
CONTINUOUS
 62
3
 10
8193.704555274696800
 20
-4832.220416155782000
  0
VERTEX
  8
4
  6
CONTINUOUS
 62
3
 10
8228.054194229431200
 20
-4838.423090923821300
  0
VERTEX
  8
4
  6
CONTINUOUS
 62
3
 10
8262.379914518962300
 20
-4844.999003734921600
  0
VERTEX
  8
4
  6
CONTINUOUS
 62
3
 10
8296.687273959429100
 20
-4851.953227921259000
  0
VERTEX
  8
4
  6
CONTINUOUS
 62
3
 10
8330.981830366967200
 20
-4859.290836815010200
  0
VERTEX
  8
4
  6
CONTINUOUS
 62
3
 10
8330.981830366967200
 20
-4859.290836815010200
  0
VERTEX
  8
4
  6
CONTINUOUS
 62
3
 10
8362.119956754962900
 20
-4866.299346019935900
  0
VERTEX
  8
4
  6
CONTINUOUS
 62
3
 10
8393.217119005916200
 20
-4873.673734785708800
  0
VERTEX
  8
4
  6
CONTINUOUS
 62
3
 10
8424.238330862539400
 20
-4881.459373913016000
  0
VERTEX
  8
4
  6
CONTINUOUS
 62
3
 10
8455.148606067545200
 20
-4889.701634202545400
  0
VERTEX
  8
4
  6
CONTINUOUS
 62
3
 10
8485.912958363645900
 20
-4898.445886454982400
  0
VERTEX
  8
4
  6
CONTINUOUS
 62
3
 10
8501.229480215452000
 20
-4903.020437942505900
  0
VERTEX
  8
4
  6
CONTINUOUS
 62
3
 10
8516.496401493550400
 20
-4907.737501471013300
  0
VERTEX
  8
4
  6
CONTINUOUS
 62
3
 10
8531.709348915777800
 20
-4912.602748390591800
  0
VERTEX
  8
4
  6
CONTINUOUS
 62
3
 10
8546.863949199974700
 20
-4917.621850051325100
  0
VERTEX
  8
4
  6
CONTINUOUS
 62
3
 10
8561.955829063979800
 20
-4922.800477803301000
  0
VERTEX
  8
4
  6
CONTINUOUS
 62
3
 10
8576.980615225631500
 20
-4928.144302996604900
  0
VERTEX
  8
4
  6
CONTINUOUS
 62
3
 10
8591.933934402768500
 20
-4933.658996981323100
  0
VERTEX
  8
4
  6
CONTINUOUS
 62
3
 10
8606.811413313229400
 20
-4939.350231107539000
  0
VERTEX
  8
4
  6
CONTINUOUS
 62
3
 10
8621.608678674856500
 20
-4945.223676725341600
  0
VERTEX
  8
4
  6
CONTINUOUS
 62
3
 10
8636.321357205484700
 20
-4951.285005184814500
  0
VERTEX
  8
4
  6
CONTINUOUS
 62
3
 10
8650.945075622956200
 20
-4957.539887836043800
  0
VERTEX
  8
4
  6
CONTINUOUS
 62
3
 10
8665.475460645106100
 20
-4963.993996029117600
  0
VERTEX
  8
4
  6
CONTINUOUS
 62
3
 10
8679.908138989776500
 20
-4970.653001114118500
  0
VERTEX
  8
4
  6
CONTINUOUS
 62
3
 10
8694.238737374806100
 20
-4977.522574441133700
  0
VERTEX
  8
4
  6
CONTINUOUS
 62
3
 10
8708.462882518033400
 20
-4984.608387360249300
  0
VERTEX
  8
4
  6
CONTINUOUS
 62
3
 10
8722.576201137297200
 20
-4991.916111221551500
  0
VERTEX
  8
4
  6
CONTINUOUS
 62
3
 10
8736.574319950435900
 20
-4999.451417375124900
  0
VERTEX
  8
4
  6
CONTINUOUS
 62
3
 10
8750.452865675291800
 20
-5007.219977171056600
  0
VERTEX
  8
4
  6
CONTINUOUS
 62
3
 10
8764.207465029700000
 20
-5015.227461959430900
  0
VERTEX
  8
4
  6
CONTINUOUS
 62
3
 10
8777.833744731502500
 20
-5023.479543090335000
  0
VERTEX
  8
4
  6
CONTINUOUS
 62
3
 10
8791.327331498538100
 20
-5031.981891913854300
  0
VERTEX
  8
4
  6
CONTINUOUS
 62
3
 10
8804.683852048641700
 20
-5040.740179780074000
  0
VERTEX
  8
4
  6
CONTINUOUS
 62
3
 10
8804.683852048641700
 20
-5040.740179780074000
  0
VERTEX
  8
4
  6
CONTINUOUS
 62
3
 10
8822.270672267288300
 20
-5052.823500439159900
  0
VERTEX
  8
4
  6
CONTINUOUS
 62
3
 10
8839.580144693984000
 20
-5065.365205022621900
  0
VERTEX
  8
4
  6
CONTINUOUS
 62
3
 10
8856.586412179516600
 20
-5078.358513435917300
  0
VERTEX
  8
4
  6
CONTINUOUS
 62
3
 10
8873.263617574675700
 20
-5091.796645584503500
  0
VERTEX
  8
4
  6
CONTINUOUS
 62
3
 10
8889.585903730254400
 20
-5105.672821373837000
  0
VERTEX
  8
4
  6
CONTINUOUS
 62
3
 10
8905.527413497045900
 20
-5119.980260709377000
  0
VERTEX
  8
4
  6
CONTINUOUS
 62
3
 10
8921.062289725838100
 20
-5134.712183496581900
  0
VERTEX
  8
4
  6
CONTINUOUS
 62
3
 10
8928.669159904357000
 20
-5142.235207405014100
  0
VERTEX
  8
4
  6
CONTINUOUS
 62
3
 10
8936.164675267420500
 20
-5149.861809640907300
  0
VERTEX
  8
4
  6
CONTINUOUS
 62
3
 10
8943.545603671382200
 20
-5157.591142692444900
  0
VERTEX
  8
4
  6
CONTINUOUS
 62
3
 10
8950.808712972586400
 20
-5165.422359047812300
  0
VERTEX
  8
4
  6
CONTINUOUS
 62
3
 10
8957.950771027386500
 20
-5173.354611195187300
  0
VERTEX
  8
4
  6
CONTINUOUS
 62
3
 10
8964.968545692128800
 20
-5181.387051622753500
  0
VERTEX
  8
4
  6
CONTINUOUS
 62
3
 10
8971.858804823161300
 20
-5189.518832818694100
  0
VERTEX
  8
4
  6
CONTINUOUS
 62
3
 10
8978.618316276835700
 20
-5197.749107271190000
  0
VERTEX
  8
4
  6
CONTINUOUS
 62
3
 10
8985.243847909496300
 20
-5206.077027468423700
  0
VERTEX
  8
4
  6
CONTINUOUS
 62
3
 10
8991.732167577494700
 20
-5214.501745898578500
  0
VERTEX
  8
4
  6
CONTINUOUS
 62
3
 10
8998.080043137179000
 20
-5223.022415049836100
  0
VERTEX
  8
4
  6
CONTINUOUS
 62
3
 10
9004.284242444900900
 20
-5231.638187410377200
  0
VERTEX
  8
4
  6
CONTINUOUS
 62
3
 10
9010.341533357006500
 20
-5240.348215468386100
  0
VERTEX
  8
4
  6
CONTINUOUS
 62
3
 10
9016.248683729845700
 20
-5249.151651712043500
  0
VERTEX
  8
4
  6
CONTINUOUS
 62
3
 10
9022.002461419766400
 20
-5258.047648629532000
  0
VERTEX
  8
4
  6
CONTINUOUS
 62
3
 10
9027.599634283118600
 20
-5267.035358709034000
  0
VERTEX
  8
4
  6
CONTINUOUS
 62
3
 10
9033.036970176248400
 20
-5276.113934438732000
  0
VERTEX
  8
4
  6
CONTINUOUS
 62
3
 10
9038.311236955509200
 20
-5285.282528306808700
  0
VERTEX
  8
4
  6
CONTINUOUS
 62
3
 10
9038.311236955509200
 20
-5285.282528306808700
  0
VERTEX
  8
4
  6
CONTINUOUS
 62
3
 10
9044.855363761329500
 20
-5297.208228457811900
  0
VERTEX
  8
4
  6
CONTINUOUS
 62
3
 10
9051.138071207606100
 20
-5309.271142795218100
  0
VERTEX
  8
4
  6
CONTINUOUS
 62
3
 10
9057.173214413425700
 20
-5321.460883508300900
  0
VERTEX
  8
4
  6
CONTINUOUS
 62
3
 10
9062.974648497873200
 20
-5333.767062786335400
  0
VERTEX
  8
4
  6
CONTINUOUS
 62
3
 10
9068.556228580027900
 20
-5346.179292818596900
  0
VERTEX
  8
4
  6
CONTINUOUS
 62
3
 10
9073.931809778976500
 20
-5358.687185794359700
  0
VERTEX
  8
4
  6
CONTINUOUS
 62
3
 10
9079.115247213801900
 20
-5371.280353902899200
  0
VERTEX
  8
4
  6
CONTINUOUS
 62
3
 10
9084.120396003585500
 20
-5383.948409333492200
  0
VERTEX
  8
4
  6
CONTINUOUS
 62
3
 10
9084.120396003585500
 20
-5383.948409333492200
  0
VERTEX
  8
4
  6
CONTINUOUS
 62
3
 10
9089.371905082956800
 20
-5397.797890628977300
  0
VERTEX
  8
4
  6
CONTINUOUS
 62
3
 10
9094.418430898458600
 20
-5411.721768931267400
  0
VERTEX
  8
4
  6
CONTINUOUS
 62
3
 10
9099.249407756176900
 20
-5425.718180410566700
  0
VERTEX
  8
4
  6
CONTINUOUS
 62
3
 10
9103.854269962195800
 20
-5439.785261237078000
  0
VERTEX
  8
4
  6
CONTINUOUS
 62
3
 10
9108.222451822599400
 20
-5453.921147581000700
  0
VERTEX
  8
4
  6
CONTINUOUS
 62
3
 10
9112.343387643473800
 20
-5468.123975612537800
  0
VERTEX
  8
4
  6
CONTINUOUS
 62
3
 10
9116.206511730901200
 20
-5482.391881501891500
  0
VERTEX
  8
4
  6
CONTINUOUS
 62
3
 10
9119.801258390965800
 20
-5496.723001419262800
  0
VERTEX
  8
4
  6
CONTINUOUS
 62
3
 10
9119.801258390965800
 20
-5496.723001419262800
  0
VERTEX
  8
4
  6
CONTINUOUS
 62
3
 10
9124.035255253980700
 20
-5515.284398441170200
  0
VERTEX
  8
4
  6
CONTINUOUS
 62
3
 10
9127.863724748229300
 20
-5533.934986350251200
  0
VERTEX
  8
4
  6
CONTINUOUS
 62
3
 10
9131.344599354961200
 20
-5552.662023591194200
  0
VERTEX
  8
4
  6
CONTINUOUS
 62
3
 10
9134.535811555433600
 20
-5571.452768608689400
  0
VERTEX
  8
4
  6
CONTINUOUS
 62
3
 10
9137.495293830896100
 20
-5590.294479847427300
  0
VERTEX
  8
4
  6
CONTINUOUS
 62
3
 10
9140.280978662598500
 20
-5609.174415752095200
  0
VERTEX
  8
4
  6
CONTINUOUS
 62
3
 10
9145.562685919743700
 20
-5646.997995337984300
  0
SEQEND
  8
4
  0
POLYLINE
  8
4
  6
CONTINUOUS
 62
3
 66
1
  0
VERTEX
  8
4
  6
CONTINUOUS
 62
3
 10
-862.584649625849580
 20
-5567.669782854836700
  0
VERTEX
  8
4
  6
CONTINUOUS
 62
3
 10
-204.002914978162070
 20
-5518.758643037768700
  0
VERTEX
  8
4
  6
CONTINUOUS
 62
3
 10
454.550499474952970
 20
-5469.571312067126200
  0
VERTEX
  8
4
  6
CONTINUOUS
 62
3
 10
783.807736567741810
 20
-5444.787765163722700
  0
VERTEX
  8
4
  6
CONTINUOUS
 62
3
 10
1113.047273538922800
 20
-5419.831598789334700
  0
VERTEX
  8
4
  6
CONTINUOUS
 62
3
 10
1442.265570364174400
 20
-5394.668289049764100
  0
VERTEX
  8
4
  6
CONTINUOUS
 62
3
 10
1771.459087019175300
 20
-5369.263312050816200
  0
VERTEX
  8
4
  6
CONTINUOUS
 62
3
 10
2100.624283479603500
 20
-5343.582143898293000
  0
VERTEX
  8
4
  6
CONTINUOUS
 62
3
 10
2429.757619721137400
 20
-5317.590260697998000
  0
VERTEX
  8
4
  6
CONTINUOUS
 62
3
 10
2758.855555719455900
 20
-5291.253138555734900
  0
VERTEX
  8
4
  6
CONTINUOUS
 62
3
 10
3087.914551450237500
 20
-5264.536253577305600
  0
VERTEX
  8
4
  6
CONTINUOUS
 62
3
 10
3416.931066889160300
 20
-5237.405081868514600
  0
VERTEX
  8
4
  6
CONTINUOUS
 62
3
 10
3745.901562011902600
 20
-5209.825099535162700
  0
VERTEX
  8
4
  6
CONTINUOUS
 62
3
 10
4074.822496794143300
 20
-5181.761782683055600
  0
VERTEX
  8
4
  6
CONTINUOUS
 62
3
 10
4403.690331211559200
 20
-5153.180607417994900
  0
VERTEX
  8
4
  6
CONTINUOUS
 62
3
 10
4403.690331211559200
 20
-5153.180607417994900
  0
VERTEX
  8
4
  6
CONTINUOUS
 62
3
 10
4749.203348409440900
 20
-5122.638522051334800
  0
VERTEX
  8
4
  6
CONTINUOUS
 62
3
 10
5094.797939634603600
 20
-5091.954137990498600
  0
VERTEX
  8
4
  6
CONTINUOUS
 62
3
 10
5094.797939634603600
 20
-5091.954137990498600
  0
VERTEX
  8
4
  6
CONTINUOUS
 62
3
 10
5167.600425676821900
 20
-5085.537739079658400
  0
VERTEX
  8
4
  6
CONTINUOUS
 62
3
 10
5240.416712259493600
 20
-5079.257696631297200
  0
VERTEX
  8
4
  6
CONTINUOUS
 62
3
 10
5313.250591592164700
 20
-5073.235943362211400
  0
VERTEX
  8
4
  6
CONTINUOUS
 62
3
 10
5386.105855884381500
 20
-5067.594411989193800
  0
VERTEX
  8
4
  6
CONTINUOUS
 62
3
 10
5458.986297345690200
 20
-5062.455035229038900
  0
VERTEX
  8
4
  6
CONTINUOUS
 62
3
 10
5495.437144580238100
 20
-5060.111758802782800
  0
VERTEX
  8
4
  6
CONTINUOUS
 62
3
 10
5531.895708185638800
 20
-5057.939745798541500
  0
VERTEX
  8
4
  6
CONTINUOUS
 62
3
 10
5568.362462188086300
 20
-5055.954237805912300
  0
VERTEX
  8
4
  6
CONTINUOUS
 62
3
 10
5604.837880613772500
 20
-5054.170476414495200
  0
VERTEX
  8
4
  6
CONTINUOUS
 62
3
 10
5641.322437488892300
 20
-5052.603703213889300
  0
VERTEX
  8
4
  6
CONTINUOUS
 62
3
 10
5677.816606839636700
 20
-5051.269159793694600
  0
VERTEX
  8
4
  6
CONTINUOUS
 62
3
 10
5677.816606839636700
 20
-5051.269159793694600
  0
VERTEX
  8
4
  6
CONTINUOUS
 62
3
 10
5717.896345237662900
 20
-5050.078361244086400
  0
VERTEX
  8
4
  6
CONTINUOUS
 62
3
 10
5757.986107246748400
 20
-5049.139257955493100
  0
VERTEX
  8
4
  6
CONTINUOUS
 62
3
 10
5798.083757385294100
 20
-5048.405222998338100
  0
VERTEX
  8
4
  6
CONTINUOUS
 62
3
 10
5838.187160171702100
 20
-5047.829629443043800
  0
VERTEX
  8
4
  6
CONTINUOUS
 62
3
 10
5918.402681761705000
 20
-5046.967258819726300
  0
VERTEX
  8
4
  6
CONTINUOUS
 62
3
 10
5998.615588163969700
 20
-5046.179130648920400
  0
VERTEX
  8
4
  6
CONTINUOUS
 62
3
 10
5998.615588163969700
 20
-5046.179130648920400
  0
VERTEX
  8
4
  6
CONTINUOUS
 62
3
 10
6060.170770678195400
 20
-5045.539030739402700
  0
VERTEX
  8
4
  6
CONTINUOUS
 62
3
 10
6090.946326516788800
 20
-5045.377507585854800
  0
VERTEX
  8
4
  6
CONTINUOUS
 62
3
 10
6121.721760751284800
 20
-5045.441417377156500
  0
VERTEX
  8
4
  6
CONTINUOUS
 62
3
 10
6152.497999887869800
 20
-5045.820571421340000
  0
VERTEX
  8
4
  6
CONTINUOUS
 62
3
 10
6183.275970432729100
 20
-5046.604781026439000
  0
VERTEX
  8
4
  6
CONTINUOUS
 62
3
 10
6214.056598892051600
 20
-5047.883857500482900
  0
VERTEX
  8
4
  6
CONTINUOUS
 62
3
 10
6229.448199372818600
 20
-5048.737036847120200
  0
VERTEX
  8
4
  6
CONTINUOUS
 62
3
 10
6244.840811772022800
 20
-5049.747612151506500
  0
VERTEX
  8
4
  6
CONTINUOUS
 62
3
 10
6244.840811772022800
 20
-5049.747612151506500
  0
VERTEX
  8
4
  6
CONTINUOUS
 62
3
 10
6267.462051675304800
 20
-5051.537545164577800
  0
VERTEX
  8
4
  6
CONTINUOUS
 62
3
 10
6290.072561891041000
 20
-5053.700735592156000
  0
VERTEX
  8
4
  6
CONTINUOUS
 62
3
 10
6312.659177049069500
 20
-5056.246249104034200
  0
VERTEX
  8
4
  6
CONTINUOUS
 62
3
 10
6335.208731779226600
 20
-5059.183151369999900
  0
VERTEX
  8
4
  6
CONTINUOUS
 62
3
 10
6357.708060711349400
 20
-5062.520508059846200
  0
VERTEX
  8
4
  6
CONTINUOUS
 62
3
 10
6380.143998475277800
 20
-5066.267384843364200
  0
VERTEX
  8
4
  6
CONTINUOUS
 62
3
 10
6402.503379700845500
 20
-5070.432847390342400
  0
VERTEX
  8
4
  6
CONTINUOUS
 62
3
 10
6424.773039017890400
 20
-5075.025961370574800
  0
VERTEX
  8
4
  6
CONTINUOUS
 62
3
 10
6446.939811056249700
 20
-5080.055792453849800
  0
VERTEX
  8
4
  6
CONTINUOUS
 62
3
 10
6468.990530445762500
 20
-5085.531406309961300
  0
VERTEX
  8
4
  6
CONTINUOUS
 62
3
 10
6490.912031816264100
 20
-5091.461868608697800
  0
VERTEX
  8
4
  6
CONTINUOUS
 62
3
 10
6512.691149797592500
 20
-5097.856245019851500
  0
VERTEX
  8
4
  6
CONTINUOUS
 62
3
 10
6534.314719019583200
 20
-5104.723601213212500
  0
VERTEX
  8
4
  6
CONTINUOUS
 62
3
 10
6555.769574112075100
 20
-5112.073002858571300
  0
VERTEX
  8
4
  6
CONTINUOUS
 62
3
 10
6577.042549704905500
 20
-5119.913515625721600
  0
VERTEX
  8
4
  6
CONTINUOUS
 62
3
 10
6598.120480427909600
 20
-5128.254205184451200
  0
VERTEX
  8
4
  6
CONTINUOUS
 62
3
 10
6598.120480427909600
 20
-5128.254205184451200
  0
VERTEX
  8
4
  6
CONTINUOUS
 62
3
 10
6618.193105054202500
 20
-5136.755969502819400
  0
VERTEX
  8
4
  6
CONTINUOUS
 62
3
 10
6638.052399434496700
 20
-5145.739105413997100
  0
VERTEX
  8
4
  6
CONTINUOUS
 62
3
 10
6657.677594898170400
 20
-5155.214015692842600
  0
VERTEX
  8
4
  6
CONTINUOUS
 62
3
 10
6677.047922774607300
 20
-5165.191103114215400
  0
VERTEX
  8
4
  6
CONTINUOUS
 62
3
 10
6696.142614393185800
 20
-5175.680770452974700
  0
VERTEX
  8
4
  6
CONTINUOUS
 62
3
 10
6705.580106396209900
 20
-5181.121072458518000
  0
VERTEX
  8
4
  6
CONTINUOUS
 62
3
 10
6714.940901083287800
 20
-5186.693420483980800
  0
VERTEX
  8
4
  6
CONTINUOUS
 62
3
 10
6724.222402370591200
 20
-5192.399114876219800
  0
VERTEX
  8
4
  6
CONTINUOUS
 62
3
 10
6733.422014174293500
 20
-5198.239455982091400
  0
VERTEX
  8
4
  6
CONTINUOUS
 62
3
 10
6742.537140410566300
 20
-5204.215744148455100
  0
VERTEX
  8
4
  6
CONTINUOUS
 62
3
 10
6751.565184995583000
 20
-5210.329279722167500
  0
VERTEX
  8
4
  6
CONTINUOUS
 62
3
 10
6751.565184995583000
 20
-5210.329279722167500
  0
VERTEX
  8
4
  6
CONTINUOUS
 62
3
 10
6762.488159190175800
 20
-5217.996614894334900
  0
VERTEX
  8
4
  6
CONTINUOUS
 62
3
 10
6773.271591637313600
 20
-5225.868880061862000
  0
VERTEX
  8
4
  6
CONTINUOUS
 62
3
 10
6783.910171497847800
 20
-5233.943624972673200
  0
VERTEX
  8
4
  6
CONTINUOUS
 62
3
 10
6794.398587932630100
 20
-5242.218399374693000
  0
VERTEX
  8
4
  6
CONTINUOUS
 62
3
 10
6804.731530102511900
 20
-5250.690753015849600
  0
VERTEX
  8
4
  6
CONTINUOUS
 62
3
 10
6814.903687168342900
 20
-5259.358235644067500
  0
VERTEX
  8
4
  6
CONTINUOUS
 62
3
 10
6824.909748290976500
 20
-5268.218397007272900
  0
VERTEX
  8
4
  6
CONTINUOUS
 62
3
 10
6834.744402631264200
 20
-5277.268786853392200
  0
VERTEX
  8
4
  6
CONTINUOUS
 62
3
 10
6844.402339350055600
 20
-5286.506954930350700
  0
VERTEX
  8
4
  6
CONTINUOUS
 62
3
 10
6853.878247608205100
 20
-5295.930450986074000
  0
VERTEX
  8
4
  6
CONTINUOUS
 62
3
 10
6863.166816566559600
 20
-5305.536824768487300
  0
VERTEX
  8
4
  6
CONTINUOUS
 62
3
 10
6872.262735385975200
 20
-5315.323626025517100
  0
VERTEX
  8
4
  6
CONTINUOUS
 62
3
 10
6881.160693227298900
 20
-5325.288404505088700
  0
VERTEX
  8
4
  6
CONTINUOUS
 62
3
 10
6889.855379251385800
 20
-5335.428709955129300
  0
VERTEX
  8
4
  6
CONTINUOUS
 62
3
 10
6898.341482619085600
 20
-5345.742092123563500
  0
VERTEX
  8
4
  6
CONTINUOUS
 62
3
 10
6906.613692491249800
 20
-5356.226100758317400
  0
VERTEX
  8
4
  6
CONTINUOUS
 62
3
 10
6906.613692491249800
 20
-5356.226100758317400
  0
VERTEX
  8
4
  6
CONTINUOUS
 62
3
 10
6914.438337623050800
 20
-5366.572663778010800
  0
VERTEX
  8
4
  6
CONTINUOUS
 62
3
 10
6922.040502042692400
 20
-5377.078496848180300
  0
VERTEX
  8
4
  6
CONTINUOUS
 62
3
 10
6929.404585050518100
 20
-5387.744149173948200
  0
VERTEX
  8
4
  6
CONTINUOUS
 62
3
 10
6936.514985946870200
 20
-5398.570169960438800
  0
VERTEX
  8
4
  6
CONTINUOUS
 62
3
 10
6943.356104032090100
 20
-5409.557108412776900
  0
VERTEX
  8
4
  6
CONTINUOUS
 62
3
 10
6949.912338606520300
 20
-5420.705513736088500
  0
VERTEX
  8
4
  6
CONTINUOUS
 62
3
 10
6956.168088970503000
 20
-5432.015935135496900
  0
VERTEX
  8
4
  6
CONTINUOUS
 62
3
 10
6962.107754424381700
 20
-5443.488921816126100
  0
VERTEX
  8
4
  6
CONTINUOUS
 62
3
 10
6962.107754424381700
 20
-5443.488921816126100
  0
VERTEX
  8
4
  6
CONTINUOUS
 62
3
 10
6966.884759603222800
 20
-5453.335610601707200
  0
VERTEX
  8
4
  6
CONTINUOUS
 62
3
 10
6971.435465944285200
 20
-5463.291040887626000
  0
VERTEX
  8
4
  6
CONTINUOUS
 62
3
 10
6975.771670585333600
 20
-5473.346864672568700
  0
VERTEX
  8
4
  6
CONTINUOUS
 62
3
 10
6979.905170664134900
 20
-5483.494733955223600
  0
VERTEX
  8
4
  6
CONTINUOUS
 62
3
 10
6983.847763318453900
 20
-5493.726300734276300
  0
VERTEX
  8
4
  6
CONTINUOUS
 62
3
 10
6987.611245686055600
 20
-5504.033217008413000
  0
VERTEX
  8
4
  6
CONTINUOUS
 62
3
 10
6991.207414904704800
 20
-5514.407134776322000
  0
VERTEX
  8
4
  6
CONTINUOUS
 62
3
 10
6994.648068112168400
 20
-5524.839706036687900
  0
VERTEX
  8
4
  6
CONTINUOUS
 62
3
 10
6994.648068112168400
 20
-5524.839706036687900
  0
VERTEX
  8
4
  6
CONTINUOUS
 62
3
 10
6999.609258753538600
 20
-5540.915698770101700
  0
VERTEX
  8
4
  6
CONTINUOUS
 62
3
 10
7001.914960899363900
 20
-5549.000082720000100
  0
VERTEX
  8
4
  6
CONTINUOUS
 62
3
 10
7004.078190431167100
 20
-5557.116540229055300
  0
VERTEX
  8
4
  6
CONTINUOUS
 62
3
 10
7006.079539475861600
 20
-5565.265932675036300
  0
VERTEX
  8
4
  6
CONTINUOUS
 62
3
 10
7007.899600160360900
 20
-5573.449121435717600
  0
VERTEX
  8
4
  6
CONTINUOUS
 62
3
 10
7009.518964611577800
 20
-5581.666967888868400
  0
VERTEX
  8
4
  6
CONTINUOUS
 62
3
 10
7010.918224956425500
 20
-5589.920333412259400
  0
VERTEX
  8
4
  6
CONTINUOUS
 62
3
 10
7010.918224956425500
 20
-5589.920333412259400
  0
VERTEX
  8
4
  6
CONTINUOUS
 62
3
 10
7012.729573656532900
 20
-5603.556576650315000
  0
VERTEX
  8
4
  6
CONTINUOUS
 62
3
 10
7014.055917310703100
 20
-5617.266489276011300
  0
VERTEX
  8
4
  6
CONTINUOUS
 62
3
 10
7015.058924267582400
 20
-5631.025514826800600
  0
VERTEX
  8
4
  6
CONTINUOUS
 62
3
 10
7015.900262875815300
 20
-5644.809096840138400
  0
SEQEND
  8
4
  0
POLYLINE
  8
4
  6
CONTINUOUS
 62
3
 66
1
  0
VERTEX
  8
4
  6
CONTINUOUS
 62
3
 10
-862.584649639439480
 20
-5567.669782855945400
  0
VERTEX
  8
4
  6
CONTINUOUS
 62
3
 10
-419.780468845121960
 20
-5531.650252748218900
  0
VERTEX
  8
4
  6
CONTINUOUS
 62
3
 10
-198.364998623203860
 20
-5513.842464494693600
  0
VERTEX
  8
4
  6
CONTINUOUS
 62
3
 10
23.066527388425584
 20
-5496.277048401573700
  0
VERTEX
  8
4
  6
CONTINUOUS
 62
3
 10
244.519461119670100
 20
-5479.034795188993500
  0
VERTEX
  8
4
  6
CONTINUOUS
 62
3
 10
465.999154500433520
 20
-5462.196495577088200
  0
VERTEX
  8
4
  6
CONTINUOUS
 62
3
 10
687.510959460619690
 20
-5445.842940285992900
  0
VERTEX
  8
4
  6
CONTINUOUS
 62
3
 10
798.280576261091030
 20
-5437.873188860791700
  0
VERTEX
  8
4
  6
CONTINUOUS
 62
3
 10
909.060227930131990
 20
-5430.054920035843700
  0
VERTEX
  8
4
  6
CONTINUOUS
 62
3
 10
1019.850583458980500
 20
-5422.398232651165000
  0
VERTEX
  8
4
  6
CONTINUOUS
 62
3
 10
1130.652311838874500
 20
-5414.913225546773900
  0
VERTEX
  8
4
  6
CONTINUOUS
 62
3
 10
1241.466082061052000
 20
-5407.609997562686700
  0
VERTEX
  8
4
  6
CONTINUOUS
 62
3
 10
1352.292563116750900
 20
-5400.498647538919600
  0
VERTEX
  8
4
  6
CONTINUOUS
 62
3
 10
1463.132423997209100
 20
-5393.589274315490000
  0
VERTEX
  8
4
  6
CONTINUOUS
 62
3
 10
1573.986333693665100
 20
-5386.891976732415100
  0
VERTEX
  8
4
  6
CONTINUOUS
 62
3
 10
1684.854961197356300
 20
-5380.416853629711100
  0
VERTEX
  8
4
  6
CONTINUOUS
 62
3
 10
1795.738975499520800
 20
-5374.174003847396300
  0
VERTEX
  8
4
  6
CONTINUOUS
 62
3
 10
1906.639045591396800
 20
-5368.173526225486100
  0
VERTEX
  8
4
  6
CONTINUOUS
 62
3
 10
2017.555840464221800
 20
-5362.425519603997600
  0
VERTEX
  8
4
  6
CONTINUOUS
 62
3
 10
2128.490029109234500
 20
-5356.940082822949100
  0
VERTEX
  8
4
  6
CONTINUOUS
 62
3
 10
2239.442280517671400
 20
-5351.727314722355000
  0
VERTEX
  8
4
  6
CONTINUOUS
 62
3
 10
2350.413263680771700
 20
-5346.797314142233500
  0
VERTEX
  8
4
  6
CONTINUOUS
 62
3
 10
2461.403647589774200
 20
-5342.160179922602800
  0
VERTEX
  8
4
  6
CONTINUOUS
 62
3
 10
2572.414101235915500
 20
-5337.826010903478200
  0
VERTEX
  8
4
  6
CONTINUOUS
 62
3
 10
2683.445293610433500
 20
-5333.804905924876000
  0
VERTEX
  8
4
  6
CONTINUOUS
 62
3
 10
2683.445293610433500
 20
-5333.804905924876000
  0
VERTEX
  8
4
  6
CONTINUOUS
 62
3
 10
2821.077658178531200
 20
-5329.205572154702200
  0
VERTEX
  8
4
  6
CONTINUOUS
 62
3
 10
2958.692805372643800
 20
-5324.730706362044700
  0
VERTEX
  8
4
  6
CONTINUOUS
 62
3
 10
3096.240633593485700
 20
-5320.008368632137700
  0
VERTEX
  8
4
  6
CONTINUOUS
 62
3
 10
3164.973646339153700
 20
-5317.438166567350900
  0
VERTEX
  8
4
  6
CONTINUOUS
 62
3
 10
3233.671041241772400
 20
-5314.666619050214600
  0
VERTEX
  8
4
  6
CONTINUOUS
 62
3
 10
3233.671041241772400
 20
-5314.666619050214600
  0
VERTEX
  8
4
  6
CONTINUOUS
 62
3
 10
3354.116724801823700
 20
-5309.512837531076000
  0
VERTEX
  8
4
  6
CONTINUOUS
 62
3
 10
3414.426429386461700
 20
-5307.196561688092500
  0
VERTEX
  8
4
  6
CONTINUOUS
 62
3
 10
3444.626650764635500
 20
-5306.199204130670300
  0
VERTEX
  8
4
  6
CONTINUOUS
 62
3
 10
3474.866129013265900
 20
-5305.345462676883500
  0
VERTEX
  8
4
  6
CONTINUOUS
 62
3
 10
3474.866129013265900
 20
-5305.345462676883500
  0
VERTEX
  8
4
  6
CONTINUOUS
 62
3
 10
3516.749047516760600
 20
-5304.482689043999900
  0
VERTEX
  8
4
  6
CONTINUOUS
 62
3
 10
3537.706490430010500
 20
-5304.253590801026800
  0
VERTEX
  8
4
  6
CONTINUOUS
 62
3
 10
3558.665514182703600
 20
-5304.201859428753800
  0
VERTEX
  8
4
  6
CONTINUOUS
 62
3
 10
3579.619312573671800
 20
-5304.359375793470500
  0
VERTEX
  8
4
  6
CONTINUOUS
 62
3
 10
3600.561079401746600
 20
-5304.758020761468300
  0
VERTEX
  8
4
  6
CONTINUOUS
 62
3
 10
3621.484008465759400
 20
-5305.429675199035000
  0
VERTEX
  8
4
  6
CONTINUOUS
 62
3
 10
3642.381293564541500
 20
-5306.406219972462200
  0
VERTEX
  8
4
  6
CONTINUOUS
 62
3
 10
3663.246128496924000
 20
-5307.719535948040200
  0
VERTEX
  8
4
  6
CONTINUOUS
 62
3
 10
3684.071707061738800
 20
-5309.401503992058700
  0
VERTEX
  8
4
  6
CONTINUOUS
 62
3
 10
3704.851223057817200
 20
-5311.484004970807300
  0
VERTEX
  8
4
  6
CONTINUOUS
 62
3
 10
3725.577870283990300
 20
-5313.998919750577400
  0
VERTEX
  8
4
  6
CONTINUOUS
 62
3
 10
3746.244842539089900
 20
-5316.978129197657800
  0
VERTEX
  8
4
  6
CONTINUOUS
 62
3
 10
3766.845333621947200
 20
-5320.453514178339900
  0
VERTEX
  8
4
  6
CONTINUOUS
 62
3
 10
3787.372537331394600
 20
-5324.456955558913300
  0
VERTEX
  8
4
  6
CONTINUOUS
 62
3
 10
3807.819647466261800
 20
-5329.020334205666600
  0
VERTEX
  8
4
  6
CONTINUOUS
 62
3
 10
3807.819647466261800
 20
-5329.020334205666600
  0
VERTEX
  8
4
  6
CONTINUOUS
 62
3
 10
3819.881693541055900
 20
-5331.998312664552900
  0
VERTEX
  8
4
  6
CONTINUOUS
 62
3
 10
3831.902985680650100
 20
-5335.188994921587400
  0
VERTEX
  8
4
  6
CONTINUOUS
 62
3
 10
3843.873221918613100
 20
-5338.597696123673800
  0
VERTEX
  8
4
  6
CONTINUOUS
 62
3
 10
3855.782100288512100
 20
-5342.229731417712200
  0
VERTEX
  8
4
  6
CONTINUOUS
 62
3
 10
3867.619318823915800
 20
-5346.090415950604400
  0
VERTEX
  8
4
  6
CONTINUOUS
 62
3
 10
3879.374575558391400
 20
-5350.185064869254300
  0
VERTEX
  8
4
  6
CONTINUOUS
 62
3
 10
3891.037568525507100
 20
-5354.518993320560200
  0
VERTEX
  8
4
  6
CONTINUOUS
 62
3
 10
3902.597995758831500
 20
-5359.097516451425700
  0
VERTEX
  8
4
  6
CONTINUOUS
 62
3
 10
3914.045555291932000
 20
-5363.925949408751000
  0
VERTEX
  8
4
  6
CONTINUOUS
 62
3
 10
3925.369945158376600
 20
-5369.009607339439800
  0
VERTEX
  8
4
  6
CONTINUOUS
 62
3
 10
3936.560863391733600
 20
-5374.353805390392200
  0
VERTEX
  8
4
  6
CONTINUOUS
 62
3
 10
3947.608008025570600
 20
-5379.963858708510100
  0
VERTEX
  8
4
  6
CONTINUOUS
 62
3
 10
3958.501077093455900
 20
-5385.845082440693700
  0
VERTEX
  8
4
  6
CONTINUOUS
 62
3
 10
3969.229768628957100
 20
-5392.002791733848400
  0
VERTEX
  8
4
  6
CONTINUOUS
 62
3
 10
3979.783780665642600
 20
-5398.442301734872700
  0
VERTEX
  8
4
  6
CONTINUOUS
 62
3
 10
3990.152811237079700
 20
-5405.168927590669200
  0
VERTEX
  8
4
  6
CONTINUOUS
 62
3
 10
3990.152811237079700
 20
-5405.168927590669200
  0
VERTEX
  8
4
  6
CONTINUOUS
 62
3
 10
4002.549853534968000
 20
-5413.775157380392600
  0
VERTEX
  8
4
  6
CONTINUOUS
 62
3
 10
4014.649450063197900
 20
-5422.802040666780200
  0
VERTEX
  8
4
  6
CONTINUOUS
 62
3
 10
4026.445301022421100
 20
-5432.234248707767600
  0
VERTEX
  8
4
  6
CONTINUOUS
 62
3
 10
4037.931106613288200
 20
-5442.056452761289600
  0
VERTEX
  8
4
  6
CONTINUOUS
 62
3
 10
4049.100567036449300
 20
-5452.253324085279900
  0
VERTEX
  8
4
  6
CONTINUOUS
 62
3
 10
4059.947382492556700
 20
-5462.809533937675000
  0
VERTEX
  8
4
  6
CONTINUOUS
 62
3
 10
4070.465253182259900
 20
-5473.709753576408700
  0
VERTEX
  8
4
  6
CONTINUOUS
 62
3
 10
4080.647879306210600
 20
-5484.938654259416600
  0
VERTEX
  8
4
  6
CONTINUOUS
 62
3
 10
4080.647879306210600
 20
-5484.938654259416600
  0
VERTEX
  8
4
  6
CONTINUOUS
 62
3
 10
4086.565051718576300
 20
-5491.801217509684600
  0
VERTEX
  8
4
  6
CONTINUOUS
 62
3
 10
4092.330967488613200
 20
-5498.786759044886800
  0
VERTEX
  8
4
  6
CONTINUOUS
 62
3
 10
4097.916316516235400
 20
-5505.906376429140400
  0
VERTEX
  8
4
  6
CONTINUOUS
 62
3
 10
4103.291788701359100
 20
-5513.171167226562800
  0
VERTEX
  8
4
  6
CONTINUOUS
 62
3
 10
4108.428073943898200
 20
-5520.592229001271300
  0
VERTEX
  8
4
  6
CONTINUOUS
 62
3
 10
4113.295862143766500
 20
-5528.180659317386000
  0
VERTEX
  8
4
  6
CONTINUOUS
 62
3
 10
4117.865843200879700
 20
-5535.947555739021500
  0
VERTEX
  8
4
  6
CONTINUOUS
 62
3
 10
4122.108707015153400
 20
-5543.904015830296900
  0
VERTEX
  8
4
  6
CONTINUOUS
 62
3
 10
4122.108707015153400
 20
-5543.904015830296900
  0
VERTEX
  8
4
  6
CONTINUOUS
 62
3
 10
4125.219115759984600
 20
-5550.344281760333600
  0
VERTEX
  8
4
  6
CONTINUOUS
 62
3
 10
4128.101508478750500
 20
-5556.899040523971100
  0
VERTEX
  8
4
  6
CONTINUOUS
 62
3
 10
4130.751423440418900
 20
-5563.556928503152400
  0
VERTEX
  8
4
  6
CONTINUOUS
 62
3
 10
4133.164398913955700
 20
-5570.306582079827400
  0
VERTEX
  8
4
  6
CONTINUOUS
 62
3
 10
4135.335973168328600
 20
-5577.136637635941000
  0
VERTEX
  8
4
  6
CONTINUOUS
 62
3
 10
4137.261684472504400
 20
-5584.035731553440200
  0
VERTEX
  8
4
  6
CONTINUOUS
 62
3
 10
4138.937071095449900
 20
-5590.992500214271800
  0
VERTEX
  8
4
  6
CONTINUOUS
 62
3
 10
4140.357671306132000
 20
-5597.995580000383600
  0
VERTEX
  8
4
  6
CONTINUOUS
 62
3
 10
4140.357671306132000
 20
-5597.995580000383600
  0
VERTEX
  8
4
  6
CONTINUOUS
 62
3
 10
4141.337994252454300
 20
-5603.795329812578500
  0
VERTEX
  8
4
  6
CONTINUOUS
 62
3
 10
4142.164196966355100
 20
-5609.615855541881500
  0
VERTEX
  8
4
  6
CONTINUOUS
 62
3
 10
4143.442310401133900
 20
-5621.307362799185300
  0
VERTEX
  8
4
  6
CONTINUOUS
 62
3
 10
4144.368149018950100
 20
-5633.046357867027800
  0
VERTEX
  8
4
  6
CONTINUOUS
 62
3
 10
4145.117850228283700
 20
-5644.809096840138400
  0
SEQEND
  8
4
  0
TEXT
  8
4
  6
CONTINUOUS
 62
3
 10
3031.073730468750000
 20
-5859.909667968750000
 40
448.000000000000000
  1
1m/s
 50
0.000002504478167
 41
0.576249997615816
  7
STANDARD1
  0
TEXT
  8
4
  6
CONTINUOUS
 62
3
 10
5421.189453125000000
 20
-5849.651855468750000
 40
448.000000000000000
  1
0.5m/s
 50
0.000002504478167
 41
0.576249997615816
  7
STANDARD1
  0
TEXT
  8
4
  6
CONTINUOUS
 62
3
 10
7565.113281250000000
 20
-5849.651855468750000
 40
448.000000000000000
  1
0.3m/s
 50
0.000002504478167
 41
0.576249997615816
  7
STANDARD1
  0
LINE
  8
4
  6
DASHDOT
 62
4
 10
-880.355251964119820
 20
-5645.809096840114800
 11
-823.089552285866380
 21
-5645.809096840114800
  0
POLYLINE
  8
4
  6
CONTINUOUS
 62
3
 66
1
  0
VERTEX
  8
4
  6
CONTINUOUS
 62
3
 10
-862.270890355366190
 20
-5723.971690807115900
  0
VERTEX
  8
4
  6
CONTINUOUS
 62
3
 10
-570.663763515020490
 20
-5742.921807486563900
  0
VERTEX
  8
4
  6
CONTINUOUS
 62
3
 10
-279.070701494899080
 20
-5762.007461154069500
  0
VERTEX
  8
4
  6
CONTINUOUS
 62
3
 10
12.494230884773771
 20
-5781.364188797690100
  0
VERTEX
  8
4
  6
CONTINUOUS
 62
3
 10
304.016968803773810
 20
-5801.127527405484200
  0
VERTEX
  8
4
  6
CONTINUOUS
 62
3
 10
449.758119584201380
 20
-5811.204031129714200
  0
VERTEX
  8
4
  6
CONTINUOUS
 62
3
 10
595.483447441876710
 20
-5821.433013965508500
  0
VERTEX
  8
4
  6
CONTINUOUS
 62
3
 10
741.191194274271650
 20
-5831.831418036374100
  0
VERTEX
  8
4
  6
CONTINUOUS
 62
3
 10
886.879601978858200
 20
-5842.416185465819600
  0
VERTEX
  8
4
  6
CONTINUOUS
 62
3
 10
1032.546912453108200
 20
-5853.204258377350900
  0
VERTEX
  8
4
  6
CONTINUOUS
 62
3
 10
1178.191367594494100
 20
-5864.212578894475900
  0
VERTEX
  8
4
  6
CONTINUOUS
 62
3
 10
1323.811209300487500
 20
-5875.458089140702200
  0
VERTEX
  8
4
  6
CONTINUOUS
 62
3
 10
1469.404679468560300
 20
-5886.957731239535900
  0
VERTEX
  8
4
  6
CONTINUOUS
 62
3
 10
1614.970019996184600
 20
-5898.728447314484600
  0
VERTEX
  8
4
  6
CONTINUOUS
 62
3
 10
1760.505472780832400
 20
-5910.787179489056100
  0
VERTEX
  8
4
  6
CONTINUOUS
 62
3
 10
1906.009279719975400
 20
-5923.150869886756500
  0
VERTEX
  8
4
  6
CONTINUOUS
 62
3
 10
2051.479682711085800
 20
-5935.836460631094300
  0
VERTEX
  8
4
  6
CONTINUOUS
 62
3
 10
2196.914923651635900
 20
-5948.860893845576400
  0
VERTEX
  8
4
  6
CONTINUOUS
 62
3
 10
2342.313244439096700
 20
-5962.241111653708700
  0
VERTEX
  8
4
  6
CONTINUOUS
 62
3
 10
2487.672886970940500
 20
-5975.994056178999900
  0
VERTEX
  8
4
  6
CONTINUOUS
 62
3
 10
2632.992093144640400
 20
-5990.136669544955100
  0
VERTEX
  8
4
  6
CONTINUOUS
 62
3
 10
2778.269104857667100
 20
-6004.685893875083800
  0
VERTEX
  8
4
  6
CONTINUOUS
 62
3
 10
2923.502164007492900
 20
-6019.658671292892000
  0
VERTEX
  8
4
  6
CONTINUOUS
 62
3
 10
3068.689512491590000
 20
-6035.071943921888300
  0
VERTEX
  8
4
  6
CONTINUOUS
 62
3
 10
3213.829392207429900
 20
-6050.942653885578700
  0
VERTEX
  8
4
  6
CONTINUOUS
 62
3
 10
3358.920045052485400
 20
-6067.287743307470000
  0
VERTEX
  8
4
  6
CONTINUOUS
 62
3
 10
3503.959712924227500
 20
-6084.124154311070000
  0
VERTEX
  8
4
  6
CONTINUOUS
 62
3
 10
3648.946637720128400
 20
-6101.468829019885600
  0
VERTEX
  8
4
  6
CONTINUOUS
 62
3
 10
3793.879061337660500
 20
-6119.338709557425300
  0
VERTEX
  8
4
  6
CONTINUOUS
 62
3
 10
3793.879061337660500
 20
-6119.338709557425300
  0
VERTEX
  8
4
  6
CONTINUOUS
 62
3
 10
3872.325498569541200
 20
-6129.236353605882900
  0
VERTEX
  8
4
  6
CONTINUOUS
 62
3
 10
3950.756746092486500
 20
-6139.279764948679300
  0
VERTEX
  8
4
  6
CONTINUOUS
 62
3
 10
4107.578879949450300
 20
-6159.751263558419900
  0
VERTEX
  8
4
  6
CONTINUOUS
 62
3
 10
4264.355878784310300
 20
-6180.647953468915100
  0
VERTEX
  8
4
  6
CONTINUOUS
 62
3
 10
4421.098158472824300
 20
-6201.864582762433200
  0
VERTEX
  8
4
  6
CONTINUOUS
 62
3
 10
4734.520223913848900
 20
-6244.836651827610700
  0
VERTEX
  8
4
  6
CONTINUOUS
 62
3
 10
5047.928403278590800
 20
-6287.825455412098600
  0
VERTEX
  8
4
  6
CONTINUOUS
 62
3
 10
5204.653325371750700
 20
-6309.063002854754800
  0
VERTEX
  8
4
  6
CONTINUOUS
 62
3
 10
5361.406023573114000
 20
-6329.988978174041200
  0
VERTEX
  8
4
  6
CONTINUOUS
 62
3
 10
5518.196913758440100
 20
-6350.498129452227700
  0
VERTEX
  8
4
  6
CONTINUOUS
 62
3
 10
5675.036411803485900
 20
-6370.485204771584000
  0
VERTEX
  8
4
  6
CONTINUOUS
 62
3
 10
5753.477643734577200
 20
-6380.250072722407800
  0
VERTEX
  8
4
  6
CONTINUOUS
 62
3
 10
5831.934933584008800
 20
-6389.844952214375600
  0
VERTEX
  8
4
  6
CONTINUOUS
 62
3
 10
5910.409583336249900
 20
-6399.256686757768000
  0
VERTEX
  8
4
  6
CONTINUOUS
 62
3
 10
5988.902894975770300
 20
-6408.472119862872200
  0
VERTEX
  8
4
  6
CONTINUOUS
 62
3
 10
6067.416170487038500
 20
-6417.478095039967200
  0
VERTEX
  8
4
  6
CONTINUOUS
 62
3
 10
6145.950711854525300
 20
-6426.261455799340200
  0
VERTEX
  8
4
  6
CONTINUOUS
 62
3
 10
6224.507821062699800
 20
-6434.809045651272800
  0
VERTEX
  8
4
  6
CONTINUOUS
 62
3
 10
6303.088800096033100
 20
-6443.107708106048400
  0
VERTEX
  8
4
  6
CONTINUOUS
 62
3
 10
6303.088800096033100
 20
-6443.107708106048400
  0
VERTEX
  8
4
  6
CONTINUOUS
 62
3
 10
6359.407179015874100
 20
-6448.891860493332400
  0
VERTEX
  8
4
  6
CONTINUOUS
 62
3
 10
6415.740260187555600
 20
-6454.528308050330500
  0
VERTEX
  8
4
  6
CONTINUOUS
 62
3
 10
6472.089823589674800
 20
-6460.003890091570600
  0
VERTEX
  8
4
  6
CONTINUOUS
 62
3
 10
6528.457649200824600
 20
-6465.305445931581700
  0
VERTEX
  8
4
  6
CONTINUOUS
 62
3
 10
6584.845516999601400
 20
-6470.419814884890900
  0
VERTEX
  8
4
  6
CONTINUOUS
 62
3
 10
6641.255206964599900
 20
-6475.333836266025200
  0
VERTEX
  8
4
  6
CONTINUOUS
 62
3
 10
6697.688499074415600
 20
-6480.034349389512500
  0
VERTEX
  8
4
  6
CONTINUOUS
 62
3
 10
6754.147173307641400
 20
-6484.508193569881800
  0
VERTEX
  8
4
  6
CONTINUOUS
 62
3
 10
6810.633009642873700
 20
-6488.742208121661000
  0
VERTEX
  8
4
  6
CONTINUOUS
 62
3
 10
6867.147788058708100
 20
-6492.723232359376200
  0
VERTEX
  8
4
  6
CONTINUOUS
 62
3
 10
6923.693288533737400
 20
-6496.438105597558200
  0
VERTEX
  8
4
  6
CONTINUOUS
 62
3
 10
6980.271291046559800
 20
-6499.873667150732200
  0
VERTEX
  8
4
  6
CONTINUOUS
 62
3
 10
7036.883575575766400
 20
-6503.016756333427100
  0
VERTEX
  8
4
  6
CONTINUOUS
 62
3
 10
7093.531922099955400
 20
-6505.854212460171800
  0
VERTEX
  8
4
  6
CONTINUOUS
 62
3
 10
7150.218110597718800
 20
-6508.372874845492300
  0
VERTEX
  8
4
  6
CONTINUOUS
 62
3
 10
7206.943921047653900
 20
-6510.559582803917700
  0
VERTEX
  8
4
  6
CONTINUOUS
 62
3
 10
7206.943921047653900
 20
-6510.559582803917700
  0
VERTEX
  8
4
  6
CONTINUOUS
 62
3
 10
7260.148820754114200
 20
-6512.292680531085400
  0
VERTEX
  8
4
  6
CONTINUOUS
 62
3
 10
7313.380341408823400
 20
-6513.691217709607400
  0
VERTEX
  8
4
  6
CONTINUOUS
 62
3
 10
7366.628730915959700
 20
-6514.723829486283600
  0
VERTEX
  8
4
  6
CONTINUOUS
 62
3
 10
7419.884237179703600
 20
-6515.359151007914100
  0
VERTEX
  8
4
  6
CONTINUOUS
 62
3
 10
7473.137108104232500
 20
-6515.565817421300400
  0
VERTEX
  8
4
  6
CONTINUOUS
 62
3
 10
7526.377591593724000
 20
-6515.312463873244300
  0
VERTEX
  8
4
  6
CONTINUOUS
 62
3
 10
7579.595935552358200
 20
-6514.567725510547500
  0
VERTEX
  8
4
  6
CONTINUOUS
 62
3
 10
7632.782387884313700
 20
-6513.300237480008900
  0
VERTEX
  8
4
  6
CONTINUOUS
 62
3
 10
7685.927196493768900
 20
-6511.478634928431300
  0
VERTEX
  8
4
  6
CONTINUOUS
 62
3
 10
7712.480936872614600
 20
-6510.350239190627700
  0
VERTEX
  8
4
  6
CONTINUOUS
 62
3
 10
7739.020609284903000
 20
-6509.071553002615500
  0
VERTEX
  8
4
  6
CONTINUOUS
 62
3
 10
7765.544994718655300
 20
-6507.638655757742500
  0
VERTEX
  8
4
  6
CONTINUOUS
 62
3
 10
7792.052874161893700
 20
-6506.047626849361200
  0
VERTEX
  8
4
  6
CONTINUOUS
 62
3
 10
7818.543028602641200
 20
-6504.294545670820300
  0
VERTEX
  8
4
  6
CONTINUOUS
 62
3
 10
7845.014239028920200
 20
-6502.375491615471200
  0
VERTEX
  8
4
  6
CONTINUOUS
 62
3
 10
7871.465286428752700
 20
-6500.286544076661800
  0
VERTEX
  8
4
  6
CONTINUOUS
 62
3
 10
7897.894951790161900
 20
-6498.023782447745400
  0
VERTEX
  8
4
  6
CONTINUOUS
 62
3
 10
7924.302016101168200
 20
-6495.583286122068800
  0
VERTEX
  8
4
  6
CONTINUOUS
 62
3
 10
7950.685260349795500
 20
-6492.961134492985400
  0
VERTEX
  8
4
  6
CONTINUOUS
 62
3
 10
7977.043465524066100
 20
-6490.153406953842900
  0
VERTEX
  8
4
  6
CONTINUOUS
 62
3
 10
8003.375412612002000
 20
-6487.156182897992900
  0
VERTEX
  8
4
  6
CONTINUOUS
 62
3
 10
8029.679882601625600
 20
-6483.965541718784200
  0
VERTEX
  8
4
  6
CONTINUOUS
 62
3
 10
8055.955656480959100
 20
-6480.577562809568000
  0
VERTEX
  8
4
  6
CONTINUOUS
 62
3
 10
8055.955656480959100
 20
-6480.577562809568000
  0
VERTEX
  8
4
  6
CONTINUOUS
 62
3
 10
8090.456548257890100
 20
-6475.817106891988300
  0
VERTEX
  8
4
  6
CONTINUOUS
 62
3
 10
8124.911290105064800
 20
-6470.703706260061200
  0
VERTEX
  8
4
  6
CONTINUOUS
 62
3
 10
8159.325439838621600
 20
-6465.232287581607100
  0
VERTEX
  8
4
  6
CONTINUOUS
 62
3
 10
8193.704555274696800
 20
-6459.397777524447500
  0
VERTEX
  8
4
  6
CONTINUOUS
 62
3
 10
8228.054194229431200
 20
-6453.195102756408200
  0
VERTEX
  8
4
  6
CONTINUOUS
 62
3
 10
8262.379914518962300
 20
-6446.619189945307900
  0
VERTEX
  8
4
  6
CONTINUOUS
 62
3
 10
8296.687273959429100
 20
-6439.664965758970500
  0
VERTEX
  8
4
  6
CONTINUOUS
 62
3
 10
8330.981830366967200
 20
-6432.327356865219400
  0
VERTEX
  8
4
  6
CONTINUOUS
 62
3
 10
8330.981830366967200
 20
-6432.327356865219400
  0
VERTEX
  8
4
  6
CONTINUOUS
 62
3
 10
8362.119956754962900
 20
-6425.318847660293600
  0
VERTEX
  8
4
  6
CONTINUOUS
 62
3
 10
8393.217119005916200
 20
-6417.944458894520700
  0
VERTEX
  8
4
  6
CONTINUOUS
 62
3
 10
8424.238330862539400
 20
-6410.158819767213600
  0
VERTEX
  8
4
  6
CONTINUOUS
 62
3
 10
8455.148606067545200
 20
-6401.916559477684100
  0
VERTEX
  8
4
  6
CONTINUOUS
 62
3
 10
8485.912958363645900
 20
-6393.172307225247100
  0
VERTEX
  8
4
  6
CONTINUOUS
 62
3
 10
8501.229480215452000
 20
-6388.597755737723700
  0
VERTEX
  8
4
  6
CONTINUOUS
 62
3
 10
8516.496401493550400
 20
-6383.880692209216200
  0
VERTEX
  8
4
  6
CONTINUOUS
 62
3
 10
8531.709348915777800
 20
-6379.015445289637700
  0
VERTEX
  8
4
  6
CONTINUOUS
 62
3
 10
8546.863949199974700
 20
-6373.996343628904500
  0
VERTEX
  8
4
  6
CONTINUOUS
 62
3
 10
8561.955829063979800
 20
-6368.817715876928600
  0
VERTEX
  8
4
  6
CONTINUOUS
 62
3
 10
8576.980615225631500
 20
-6363.473890683624600
  0
VERTEX
  8
4
  6
CONTINUOUS
 62
3
 10
8591.933934402768500
 20
-6357.959196698906500
  0
VERTEX
  8
4
  6
CONTINUOUS
 62
3
 10
8606.811413313229400
 20
-6352.267962572690500
  0
VERTEX
  8
4
  6
CONTINUOUS
 62
3
 10
8621.608678674856500
 20
-6346.394516954887900
  0
VERTEX
  8
4
  6
CONTINUOUS
 62
3
 10
8636.321357205484700
 20
-6340.333188495415000
  0
VERTEX
  8
4
  6
CONTINUOUS
 62
3
 10
8650.945075622956200
 20
-6334.078305844185700
  0
VERTEX
  8
4
  6
CONTINUOUS
 62
3
 10
8665.475460645106100
 20
-6327.624197651111900
  0
VERTEX
  8
4
  6
CONTINUOUS
 62
3
 10
8679.908138989776500
 20
-6320.965192566111000
  0
VERTEX
  8
4
  6
CONTINUOUS
 62
3
 10
8694.238737374806100
 20
-6314.095619239095900
  0
VERTEX
  8
4
  6
CONTINUOUS
 62
3
 10
8708.462882518033400
 20
-6307.009806319980300
  0
VERTEX
  8
4
  6
CONTINUOUS
 62
3
 10
8722.576201137297200
 20
-6299.702082458678000
  0
VERTEX
  8
4
  6
CONTINUOUS
 62
3
 10
8736.574319950435900
 20
-6292.166776305104600
  0
VERTEX
  8
4
  6
CONTINUOUS
 62
3
 10
8750.452865675291800
 20
-6284.398216509172900
  0
VERTEX
  8
4
  6
CONTINUOUS
 62
3
 10
8764.207465029700000
 20
-6276.390731720798600
  0
VERTEX
  8
4
  6
CONTINUOUS
 62
3
 10
8777.833744731502500
 20
-6268.138650589894500
  0
VERTEX
  8
4
  6
CONTINUOUS
 62
3
 10
8791.327331498538100
 20
-6259.636301766375300
  0
VERTEX
  8
4
  6
CONTINUOUS
 62
3
 10
8804.683852048641700
 20
-6250.878013900155600
  0
VERTEX
  8
4
  6
CONTINUOUS
 62
3
 10
8804.683852048641700
 20
-6250.878013900155600
  0
VERTEX
  8
4
  6
CONTINUOUS
 62
3
 10
8822.270672267288300
 20
-6238.794693241069600
  0
VERTEX
  8
4
  6
CONTINUOUS
 62
3
 10
8839.580144693984000
 20
-6226.252988657607600
  0
VERTEX
  8
4
  6
CONTINUOUS
 62
3
 10
8856.586412179516600
 20
-6213.259680244312200
  0
VERTEX
  8
4
  6
CONTINUOUS
 62
3
 10
8873.263617574675700
 20
-6199.821548095726000
  0
VERTEX
  8
4
  6
CONTINUOUS
 62
3
 10
8889.585903730254400
 20
-6185.945372306392500
  0
VERTEX
  8
4
  6
CONTINUOUS
 62
3
 10
8905.527413497045900
 20
-6171.637932970852500
  0
VERTEX
  8
4
  6
CONTINUOUS
 62
3
 10
8921.062289725838100
 20
-6156.906010183647600
  0
VERTEX
  8
4
  6
CONTINUOUS
 62
3
 10
8928.669159904357000
 20
-6149.382986275215400
  0
VERTEX
  8
4
  6
CONTINUOUS
 62
3
 10
8936.164675267420500
 20
-6141.756384039322300
  0
VERTEX
  8
4
  6
CONTINUOUS
 62
3
 10
8943.545603671382200
 20
-6134.027050987784600
  0
VERTEX
  8
4
  6
CONTINUOUS
 62
3
 10
8950.808712972586400
 20
-6126.195834632417200
  0
VERTEX
  8
4
  6
CONTINUOUS
 62
3
 10
8957.950771027386500
 20
-6118.263582485042200
  0
VERTEX
  8
4
  6
CONTINUOUS
 62
3
 10
8964.968545692128800
 20
-6110.231142057476100
  0
VERTEX
  8
4
  6
CONTINUOUS
 62
3
 10
8971.858804823161300
 20
-6102.099360861535400
  0
VERTEX
  8
4
  6
CONTINUOUS
 62
3
 10
8978.618316276835700
 20
-6093.869086409039500
  0
VERTEX
  8
4
  6
CONTINUOUS
 62
3
 10
8985.243847909496300
 20
-6085.541166211805800
  0
VERTEX
  8
4
  6
CONTINUOUS
 62
3
 10
8991.732167577494700
 20
-6077.116447781651000
  0
VERTEX
  8
4
  6
CONTINUOUS
 62
3
 10
8998.080043137179000
 20
-6068.595778630393400
  0
VERTEX
  8
4
  6
CONTINUOUS
 62
3
 10
9004.284242444900900
 20
-6059.980006269852300
  0
VERTEX
  8
4
  6
CONTINUOUS
 62
3
 10
9010.341533357006500
 20
-6051.269978211843400
  0
VERTEX
  8
4
  6
CONTINUOUS
 62
3
 10
9016.248683729845700
 20
-6042.466541968186000
  0
VERTEX
  8
4
  6
CONTINUOUS
 62
3
 10
9022.002461419766400
 20
-6033.570545050697500
  0
VERTEX
  8
4
  6
CONTINUOUS
 62
3
 10
9027.599634283118600
 20
-6024.582834971195600
  0
VERTEX
  8
4
  6
CONTINUOUS
 62
3
 10
9033.036970176248400
 20
-6015.504259241497500
  0
VERTEX
  8
4
  6
CONTINUOUS
 62
3
 10
9038.311236955509200
 20
-6006.335665373420900
  0
VERTEX
  8
4
  6
CONTINUOUS
 62
3
 10
9038.311236955509200
 20
-6006.335665373420900
  0
VERTEX
  8
4
  6
CONTINUOUS
 62
3
 10
9044.855363761329500
 20
-5994.409965222417700
  0
VERTEX
  8
4
  6
CONTINUOUS
 62
3
 10
9051.138071207606100
 20
-5982.347050885011400
  0
VERTEX
  8
4
  6
CONTINUOUS
 62
3
 10
9057.173214413425700
 20
-5970.157310171928700
  0
VERTEX
  8
4
  6
CONTINUOUS
 62
3
 10
9062.974648497873200
 20
-5957.851130893894200
  0
VERTEX
  8
4
  6
CONTINUOUS
 62
3
 10
9068.556228580027900
 20
-5945.438900861632600
  0
VERTEX
  8
4
  6
CONTINUOUS
 62
3
 10
9073.931809778976500
 20
-5932.931007885869800
  0
VERTEX
  8
4
  6
CONTINUOUS
 62
3
 10
9079.115247213801900
 20
-5920.337839777330400
  0
VERTEX
  8
4
  6
CONTINUOUS
 62
3
 10
9084.120396003585500
 20
-5907.669784346737300
  0
VERTEX
  8
4
  6
CONTINUOUS
 62
3
 10
9084.120396003585500
 20
-5907.669784346737300
  0
VERTEX
  8
4
  6
CONTINUOUS
 62
3
 10
9089.371905082956800
 20
-5893.820303051252300
  0
VERTEX
  8
4
  6
CONTINUOUS
 62
3
 10
9094.418430898458600
 20
-5879.896424748962100
  0
VERTEX
  8
4
  6
CONTINUOUS
 62
3
 10
9099.249407756176900
 20
-5865.900013269662800
  0
VERTEX
  8
4
  6
CONTINUOUS
 62
3
 10
9103.854269962195800
 20
-5851.832932443151500
  0
VERTEX
  8
4
  6
CONTINUOUS
 62
3
 10
9108.222451822599400
 20
-5837.697046099228800
  0
VERTEX
  8
4
  6
CONTINUOUS
 62
3
 10
9112.343387643473800
 20
-5823.494218067691700
  0
VERTEX
  8
4
  6
CONTINUOUS
 62
3
 10
9116.206511730901200
 20
-5809.226312178338000
  0
VERTEX
  8
4
  6
CONTINUOUS
 62
3
 10
9119.801258390965800
 20
-5794.895192260966700
  0
VERTEX
  8
4
  6
CONTINUOUS
 62
3
 10
9119.801258390965800
 20
-5794.895192260966700
  0
VERTEX
  8
4
  6
CONTINUOUS
 62
3
 10
9124.035255253980700
 20
-5776.333795239059300
  0
VERTEX
  8
4
  6
CONTINUOUS
 62
3
 10
9127.863724748229300
 20
-5757.683207329978400
  0
VERTEX
  8
4
  6
CONTINUOUS
 62
3
 10
9131.344599354961200
 20
-5738.956170089035400
  0
VERTEX
  8
4
  6
CONTINUOUS
 62
3
 10
9134.535811555433600
 20
-5720.165425071540100
  0
VERTEX
  8
4
  6
CONTINUOUS
 62
3
 10
9137.495293830896100
 20
-5701.323713832802200
  0
VERTEX
  8
4
  6
CONTINUOUS
 62
3
 10
9140.280978662598500
 20
-5682.443777928134300
  0
VERTEX
  8
4
  6
CONTINUOUS
 62
3
 10
9145.562685919743700
 20
-5644.620198342245200
  0
SEQEND
  8
4
  0
POLYLINE
  8
4
  6
CONTINUOUS
 62
3
 66
1
  0
VERTEX
  8
4
  6
CONTINUOUS
 62
3
 10
-862.584649625849580
 20
-5723.948410825392800
  0
VERTEX
  8
4
  6
CONTINUOUS
 62
3
 10
-204.002914978162070
 20
-5772.859550642460800
  0
VERTEX
  8
4
  6
CONTINUOUS
 62
3
 10
454.550499474952970
 20
-5822.046881613103300
  0
VERTEX
  8
4
  6
CONTINUOUS
 62
3
 10
783.807736567741810
 20
-5846.830428516506800
  0
VERTEX
  8
4
  6
CONTINUOUS
 62
3
 10
1113.047273538922800
 20
-5871.786594890894800
  0
VERTEX
  8
4
  6
CONTINUOUS
 62
3
 10
1442.265570364174400
 20
-5896.949904630465400
  0
VERTEX
  8
4
  6
CONTINUOUS
 62
3
 10
1771.459087019175300
 20
-5922.354881629413300
  0
VERTEX
  8
4
  6
CONTINUOUS
 62
3
 10
2100.624283479603500
 20
-5948.036049781936500
  0
VERTEX
  8
4
  6
CONTINUOUS
 62
3
 10
2429.757619721137400
 20
-5974.027932982231500
  0
VERTEX
  8
4
  6
CONTINUOUS
 62
3
 10
2758.855555719455900
 20
-6000.365055124494600
  0
VERTEX
  8
4
  6
CONTINUOUS
 62
3
 10
3087.914551450237500
 20
-6027.081940102923900
  0
VERTEX
  8
4
  6
CONTINUOUS
 62
3
 10
3416.931066889160300
 20
-6054.213111811715000
  0
VERTEX
  8
4
  6
CONTINUOUS
 62
3
 10
3745.901562011902600
 20
-6081.793094145066800
  0
VERTEX
  8
4
  6
CONTINUOUS
 62
3
 10
4074.822496794143300
 20
-6109.856410997174000
  0
VERTEX
  8
4
  6
CONTINUOUS
 62
3
 10
4403.690331211559200
 20
-6138.437586262234600
  0
VERTEX
  8
4
  6
CONTINUOUS
 62
3
 10
4403.690331211559200
 20
-6138.437586262234600
  0
VERTEX
  8
4
  6
CONTINUOUS
 62
3
 10
4749.203348409440900
 20
-6168.979671628894700
  0
VERTEX
  8
4
  6
CONTINUOUS
 62
3
 10
5094.797939634603600
 20
-6199.664055689731000
  0
VERTEX
  8
4
  6
CONTINUOUS
 62
3
 10
5094.797939634603600
 20
-6199.664055689731000
  0
VERTEX
  8
4
  6
CONTINUOUS
 62
3
 10
5167.600425676821900
 20
-6206.080454600571100
  0
VERTEX
  8
4
  6
CONTINUOUS
 62
3
 10
5240.416712259493600
 20
-6212.360497048932300
  0
VERTEX
  8
4
  6
CONTINUOUS
 62
3
 10
5313.250591592164700
 20
-6218.382250318018100
  0
VERTEX
  8
4
  6
CONTINUOUS
 62
3
 10
5386.105855884381500
 20
-6224.023781691035800
  0
VERTEX
  8
4
  6
CONTINUOUS
 62
3
 10
5458.986297345690200
 20
-6229.163158451190600
  0
VERTEX
  8
4
  6
CONTINUOUS
 62
3
 10
5495.437144580238100
 20
-6231.506434877446700
  0
VERTEX
  8
4
  6
CONTINUOUS
 62
3
 10
5531.895708185638800
 20
-6233.678447881688000
  0
VERTEX
  8
4
  6
CONTINUOUS
 62
3
 10
5568.362462188086300
 20
-6235.663955874317300
  0
VERTEX
  8
4
  6
CONTINUOUS
 62
3
 10
5604.837880613772500
 20
-6237.447717265734400
  0
VERTEX
  8
4
  6
CONTINUOUS
 62
3
 10
5641.322437488892300
 20
-6239.014490466340200
  0
VERTEX
  8
4
  6
CONTINUOUS
 62
3
 10
5677.816606839636700
 20
-6240.349033886534900
  0
VERTEX
  8
4
  6
CONTINUOUS
 62
3
 10
5677.816606839636700
 20
-6240.349033886534900
  0
VERTEX
  8
4
  6
CONTINUOUS
 62
3
 10
5717.896345237662900
 20
-6241.539832436143100
  0
VERTEX
  8
4
  6
CONTINUOUS
 62
3
 10
5757.986107246748400
 20
-6242.478935724736400
  0
VERTEX
  8
4
  6
CONTINUOUS
 62
3
 10
5798.083757385294100
 20
-6243.212970681891400
  0
VERTEX
  8
4
  6
CONTINUOUS
 62
3
 10
5838.187160171702100
 20
-6243.788564237185700
  0
VERTEX
  8
4
  6
CONTINUOUS
 62
3
 10
5918.402681761705000
 20
-6244.650934860503200
  0
VERTEX
  8
4
  6
CONTINUOUS
 62
3
 10
5998.615588163969700
 20
-6245.439063031309200
  0
VERTEX
  8
4
  6
CONTINUOUS
 62
3
 10
5998.615588163969700
 20
-6245.439063031309200
  0
VERTEX
  8
4
  6
CONTINUOUS
 62
3
 10
6060.170770678195400
 20
-6246.079162940826800
  0
VERTEX
  8
4
  6
CONTINUOUS
 62
3
 10
6090.946326516788800
 20
-6246.240686094374700
  0
VERTEX
  8
4
  6
CONTINUOUS
 62
3
 10
6121.721760751284800
 20
-6246.176776303073000
  0
VERTEX
  8
4
  6
CONTINUOUS
 62
3
 10
6152.497999887869800
 20
-6245.797622258889500
  0
VERTEX
  8
4
  6
CONTINUOUS
 62
3
 10
6183.275970432729100
 20
-6245.013412653790500
  0
VERTEX
  8
4
  6
CONTINUOUS
 62
3
 10
6214.056598892051600
 20
-6243.734336179746600
  0
VERTEX
  8
4
  6
CONTINUOUS
 62
3
 10
6229.448199372818600
 20
-6242.881156833109300
  0
VERTEX
  8
4
  6
CONTINUOUS
 62
3
 10
6244.840811772022800
 20
-6241.870581528723100
  0
VERTEX
  8
4
  6
CONTINUOUS
 62
3
 10
6244.840811772022800
 20
-6241.870581528723100
  0
VERTEX
  8
4
  6
CONTINUOUS
 62
3
 10
6267.462051675304800
 20
-6240.080648515651800
  0
VERTEX
  8
4
  6
CONTINUOUS
 62
3
 10
6290.072561891041000
 20
-6237.917458088073500
  0
VERTEX
  8
4
  6
CONTINUOUS
 62
3
 10
6312.659177049069500
 20
-6235.371944576195300
  0
VERTEX
  8
4
  6
CONTINUOUS
 62
3
 10
6335.208731779226600
 20
-6232.435042310229600
  0
VERTEX
  8
4
  6
CONTINUOUS
 62
3
 10
6357.708060711349400
 20
-6229.097685620383300
  0
VERTEX
  8
4
  6
CONTINUOUS
 62
3
 10
6380.143998475277800
 20
-6225.350808836865300
  0
VERTEX
  8
4
  6
CONTINUOUS
 62
3
 10
6402.503379700845500
 20
-6221.185346289887100
  0
VERTEX
  8
4
  6
CONTINUOUS
 62
3
 10
6424.773039017890400
 20
-6216.592232309654700
  0
VERTEX
  8
4
  6
CONTINUOUS
 62
3
 10
6446.939811056249700
 20
-6211.562401226379700
  0
VERTEX
  8
4
  6
CONTINUOUS
 62
3
 10
6468.990530445762500
 20
-6206.086787370268200
  0
VERTEX
  8
4
  6
CONTINUOUS
 62
3
 10
6490.912031816264100
 20
-6200.156325071531700
  0
VERTEX
  8
4
  6
CONTINUOUS
 62
3
 10
6512.691149797592500
 20
-6193.761948660378000
  0
VERTEX
  8
4
  6
CONTINUOUS
 62
3
 10
6534.314719019583200
 20
-6186.894592467017000
  0
VERTEX
  8
4
  6
CONTINUOUS
 62
3
 10
6555.769574112075100
 20
-6179.545190821658300
  0
VERTEX
  8
4
  6
CONTINUOUS
 62
3
 10
6577.042549704905500
 20
-6171.704678054507900
  0
VERTEX
  8
4
  6
CONTINUOUS
 62
3
 10
6598.120480427909600
 20
-6163.363988495778400
  0
VERTEX
  8
4
  6
CONTINUOUS
 62
3
 10
6598.120480427909600
 20
-6163.363988495778400
  0
VERTEX
  8
4
  6
CONTINUOUS
 62
3
 10
6618.193105054202500
 20
-6154.862224177410100
  0
VERTEX
  8
4
  6
CONTINUOUS
 62
3
 10
6638.052399434496700
 20
-6145.879088266232400
  0
VERTEX
  8
4
  6
CONTINUOUS
 62
3
 10
6657.677594898170400
 20
-6136.404177987386900
  0
VERTEX
  8
4
  6
CONTINUOUS
 62
3
 10
6677.047922774607300
 20
-6126.427090566014200
  0
VERTEX
  8
4
  6
CONTINUOUS
 62
3
 10
6696.142614393185800
 20
-6115.937423227254800
  0
VERTEX
  8
4
  6
CONTINUOUS
 62
3
 10
6705.580106396209900
 20
-6110.497121221711500
  0
VERTEX
  8
4
  6
CONTINUOUS
 62
3
 10
6714.940901083287800
 20
-6104.924773196248700
  0
VERTEX
  8
4
  6
CONTINUOUS
 62
3
 10
6724.222402370591200
 20
-6099.219078804009800
  0
VERTEX
  8
4
  6
CONTINUOUS
 62
3
 10
6733.422014174293500
 20
-6093.378737698138100
  0
VERTEX
  8
4
  6
CONTINUOUS
 62
3
 10
6742.537140410566300
 20
-6087.402449531774400
  0
VERTEX
  8
4
  6
CONTINUOUS
 62
3
 10
6751.565184995583000
 20
-6081.288913958062000
  0
VERTEX
  8
4
  6
CONTINUOUS
 62
3
 10
6751.565184995583000
 20
-6081.288913958062000
  0
VERTEX
  8
4
  6
CONTINUOUS
 62
3
 10
6762.488159190175800
 20
-6073.621578785894600
  0
VERTEX
  8
4
  6
CONTINUOUS
 62
3
 10
6773.271591637313600
 20
-6065.749313618367500
  0
VERTEX
  8
4
  6
CONTINUOUS
 62
3
 10
6783.910171497847800
 20
-6057.674568707556300
  0
VERTEX
  8
4
  6
CONTINUOUS
 62
3
 10
6794.398587932630100
 20
-6049.399794305536500
  0
VERTEX
  8
4
  6
CONTINUOUS
 62
3
 10
6804.731530102511900
 20
-6040.927440664379900
  0
VERTEX
  8
4
  6
CONTINUOUS
 62
3
 10
6814.903687168342900
 20
-6032.259958036162100
  0
VERTEX
  8
4
  6
CONTINUOUS
 62
3
 10
6824.909748290976500
 20
-6023.399796672956700
  0
VERTEX
  8
4
  6
CONTINUOUS
 62
3
 10
6834.744402631264200
 20
-6014.349406826837400
  0
VERTEX
  8
4
  6
CONTINUOUS
 62
3
 10
6844.402339350055600
 20
-6005.111238749878800
  0
VERTEX
  8
4
  6
CONTINUOUS
 62
3
 10
6853.878247608205100
 20
-5995.687742694155500
  0
VERTEX
  8
4
  6
CONTINUOUS
 62
3
 10
6863.166816566559600
 20
-5986.081368911742200
  0
VERTEX
  8
4
  6
CONTINUOUS
 62
3
 10
6872.262735385975200
 20
-5976.294567654712400
  0
VERTEX
  8
4
  6
CONTINUOUS
 62
3
 10
6881.160693227298900
 20
-5966.329789175140800
  0
VERTEX
  8
4
  6
CONTINUOUS
 62
3
 10
6889.855379251385800
 20
-5956.189483725100200
  0
VERTEX
  8
4
  6
CONTINUOUS
 62
3
 10
6898.341482619085600
 20
-5945.876101556666100
  0
VERTEX
  8
4
  6
CONTINUOUS
 62
3
 10
6906.613692491249800
 20
-5935.392092921912100
  0
VERTEX
  8
4
  6
CONTINUOUS
 62
3
 10
6906.613692491249800
 20
-5935.392092921912100
  0
VERTEX
  8
4
  6
CONTINUOUS
 62
3
 10
6914.438337623050800
 20
-5925.045529902218700
  0
VERTEX
  8
4
  6
CONTINUOUS
 62
3
 10
6922.040502042692400
 20
-5914.539696832049200
  0
VERTEX
  8
4
  6
CONTINUOUS
 62
3
 10
6929.404585050518100
 20
-5903.874044506281300
  0
VERTEX
  8
4
  6
CONTINUOUS
 62
3
 10
6936.514985946870200
 20
-5893.048023719790800
  0
VERTEX
  8
4
  6
CONTINUOUS
 62
3
 10
6943.356104032090100
 20
-5882.061085267452700
  0
VERTEX
  8
4
  6
CONTINUOUS
 62
3
 10
6949.912338606520300
 20
-5870.912679944141000
  0
VERTEX
  8
4
  6
CONTINUOUS
 62
3
 10
6956.168088970503000
 20
-5859.602258544732600
  0
VERTEX
  8
4
  6
CONTINUOUS
 62
3
 10
6962.107754424381700
 20
-5848.129271864103400
  0
VERTEX
  8
4
  6
CONTINUOUS
 62
3
 10
6962.107754424381700
 20
-5848.129271864103400
  0
VERTEX
  8
4
  6
CONTINUOUS
 62
3
 10
6966.884759603222800
 20
-5838.282583078522300
  0
VERTEX
  8
4
  6
CONTINUOUS
 62
3
 10
6971.435465944285200
 20
-5828.327152792603600
  0
VERTEX
  8
4
  6
CONTINUOUS
 62
3
 10
6975.771670585333600
 20
-5818.271329007660800
  0
VERTEX
  8
4
  6
CONTINUOUS
 62
3
 10
6979.905170664134900
 20
-5808.123459725005900
  0
VERTEX
  8
4
  6
CONTINUOUS
 62
3
 10
6983.847763318453900
 20
-5797.891892945953300
  0
VERTEX
  8
4
  6
CONTINUOUS
 62
3
 10
6987.611245686055600
 20
-5787.584976671816500
  0
VERTEX
  8
4
  6
CONTINUOUS
 62
3
 10
6991.207414904704800
 20
-5777.211058903907500
  0
VERTEX
  8
4
  6
CONTINUOUS
 62
3
 10
6994.648068112168400
 20
-5766.778487643541700
  0
VERTEX
  8
4
  6
CONTINUOUS
 62
3
 10
6994.648068112168400
 20
-5766.778487643541700
  0
VERTEX
  8
4
  6
CONTINUOUS
 62
3
 10
6999.609258753538600
 20
-5750.702494910127800
  0
VERTEX
  8
4
  6
CONTINUOUS
 62
3
 10
7001.914960899363900
 20
-5742.618110960229400
  0
VERTEX
  8
4
  6
CONTINUOUS
 62
3
 10
7004.078190431167100
 20
-5734.501653451174200
  0
VERTEX
  8
4
  6
CONTINUOUS
 62
3
 10
7006.079539475861600
 20
-5726.352261005193200
  0
VERTEX
  8
4
  6
CONTINUOUS
 62
3
 10
7007.899600160360900
 20
-5718.169072244511900
  0
VERTEX
  8
4
  6
CONTINUOUS
 62
3
 10
7009.518964611577800
 20
-5709.951225791361100
  0
VERTEX
  8
4
  6
CONTINUOUS
 62
3
 10
7010.918224956425500
 20
-5701.697860267970100
  0
VERTEX
  8
4
  6
CONTINUOUS
 62
3
 10
7010.918224956425500
 20
-5701.697860267970100
  0
VERTEX
  8
4
  6
CONTINUOUS
 62
3
 10
7012.729573656532900
 20
-5688.061617029914500
  0
VERTEX
  8
4
  6
CONTINUOUS
 62
3
 10
7014.055917310703100
 20
-5674.351704404218300
  0
VERTEX
  8
4
  6
CONTINUOUS
 62
3
 10
7015.058924267582400
 20
-5660.592678853428900
  0
VERTEX
  8
4
  6
CONTINUOUS
 62
3
 10
7015.900262875815300
 20
-5646.809096840091100
  0
SEQEND
  8
4
  0
POLYLINE
  8
4
  6
CONTINUOUS
 62
3
 66
1
  0
VERTEX
  8
4
  6
CONTINUOUS
 62
3
 10
-862.584649639439480
 20
-5723.948410824284100
  0
VERTEX
  8
4
  6
CONTINUOUS
 62
3
 10
-419.780468845121960
 20
-5759.967940932010600
  0
VERTEX
  8
4
  6
CONTINUOUS
 62
3
 10
-198.364998623203860
 20
-5777.775729185536000
  0
VERTEX
  8
4
  6
CONTINUOUS
 62
3
 10
23.066527388425584
 20
-5795.341145278655900
  0
VERTEX
  8
4
  6
CONTINUOUS
 62
3
 10
244.519461119670100
 20
-5812.583398491236000
  0
VERTEX
  8
4
  6
CONTINUOUS
 62
3
 10
465.999154500433520
 20
-5829.421698103141400
  0
VERTEX
  8
4
  6
CONTINUOUS
 62
3
 10
687.510959460619690
 20
-5845.775253394236600
  0
VERTEX
  8
4
  6
CONTINUOUS
 62
3
 10
798.280576261091030
 20
-5853.745004819437800
  0
VERTEX
  8
4
  6
CONTINUOUS
 62
3
 10
909.060227930131990
 20
-5861.563273644385800
  0
VERTEX
  8
4
  6
CONTINUOUS
 62
3
 10
1019.850583458980500
 20
-5869.219961029064500
  0
VERTEX
  8
4
  6
CONTINUOUS
 62
3
 10
1130.652311838874500
 20
-5876.704968133455600
  0
VERTEX
  8
4
  6
CONTINUOUS
 62
3
 10
1241.466082061052000
 20
-5884.008196117542900
  0
VERTEX
  8
4
  6
CONTINUOUS
 62
3
 10
1352.292563116750900
 20
-5891.119546141309900
  0
VERTEX
  8
4
  6
CONTINUOUS
 62
3
 10
1463.132423997209100
 20
-5898.028919364739500
  0
VERTEX
  8
4
  6
CONTINUOUS
 62
3
 10
1573.986333693665100
 20
-5904.726216947814500
  0
VERTEX
  8
4
  6
CONTINUOUS
 62
3
 10
1684.854961197356300
 20
-5911.201340050518400
  0
VERTEX
  8
4
  6
CONTINUOUS
 62
3
 10
1795.738975499520800
 20
-5917.444189832833200
  0
VERTEX
  8
4
  6
CONTINUOUS
 62
3
 10
1906.639045591396800
 20
-5923.444667454743500
  0
VERTEX
  8
4
  6
CONTINUOUS
 62
3
 10
2017.555840464221800
 20
-5929.192674076231900
  0
VERTEX
  8
4
  6
CONTINUOUS
 62
3
 10
2128.490029109234500
 20
-5934.678110857280400
  0
VERTEX
  8
4
  6
CONTINUOUS
 62
3
 10
2239.442280517671400
 20
-5939.890878957874500
  0
VERTEX
  8
4
  6
CONTINUOUS
 62
3
 10
2350.413263680771700
 20
-5944.820879537996000
  0
VERTEX
  8
4
  6
CONTINUOUS
 62
3
 10
2461.403647589774200
 20
-5949.458013757626800
  0
VERTEX
  8
4
  6
CONTINUOUS
 62
3
 10
2572.414101235915500
 20
-5953.792182776751400
  0
VERTEX
  8
4
  6
CONTINUOUS
 62
3
 10
2683.445293610433500
 20
-5957.813287755353500
  0
VERTEX
  8
4
  6
CONTINUOUS
 62
3
 10
2683.445293610433500
 20
-5957.813287755353500
  0
VERTEX
  8
4
  6
CONTINUOUS
 62
3
 10
2821.077658178531200
 20
-5962.412621525527400
  0
VERTEX
  8
4
  6
CONTINUOUS
 62
3
 10
2958.692805372643800
 20
-5966.887487318184900
  0
VERTEX
  8
4
  6
CONTINUOUS
 62
3
 10
3096.240633593485700
 20
-5971.609825048091800
  0
VERTEX
  8
4
  6
CONTINUOUS
 62
3
 10
3164.973646339153700
 20
-5974.180027112878600
  0
VERTEX
  8
4
  6
CONTINUOUS
 62
3
 10
3233.671041241772400
 20
-5976.951574630014900
  0
VERTEX
  8
4
  6
CONTINUOUS
 62
3
 10
3233.671041241772400
 20
-5976.951574630014900
  0
VERTEX
  8
4
  6
CONTINUOUS
 62
3
 10
3354.116724801823700
 20
-5982.105356149153500
  0
VERTEX
  8
4
  6
CONTINUOUS
 62
3
 10
3414.426429386461700
 20
-5984.421631992137000
  0
VERTEX
  8
4
  6
CONTINUOUS
 62
3
 10
3444.626650764635500
 20
-5985.418989549559200
  0
VERTEX
  8
4
  6
CONTINUOUS
 62
3
 10
3474.866129013265900
 20
-5986.272731003346100
  0
VERTEX
  8
4
  6
CONTINUOUS
 62
3
 10
3474.866129013265900
 20
-5986.272731003346100
  0
VERTEX
  8
4
  6
CONTINUOUS
 62
3
 10
3516.749047516760600
 20
-5987.135504636229600
  0
VERTEX
  8
4
  6
CONTINUOUS
 62
3
 10
3537.706490430010500
 20
-5987.364602879202700
  0
VERTEX
  8
4
  6
CONTINUOUS
 62
3
 10
3558.665514182703600
 20
-5987.416334251475700
  0
VERTEX
  8
4
  6
CONTINUOUS
 62
3
 10
3579.619312573671800
 20
-5987.258817886759100
  0
VERTEX
  8
4
  6
CONTINUOUS
 62
3
 10
3600.561079401746600
 20
-5986.860172918761200
  0
VERTEX
  8
4
  6
CONTINUOUS
 62
3
 10
3621.484008465759400
 20
-5986.188518481194500
  0
VERTEX
  8
4
  6
CONTINUOUS
 62
3
 10
3642.381293564541500
 20
-5985.211973707767400
  0
VERTEX
  8
4
  6
CONTINUOUS
 62
3
 10
3663.246128496924000
 20
-5983.898657732189300
  0
VERTEX
  8
4
  6
CONTINUOUS
 62
3
 10
3684.071707061738800
 20
-5982.216689688170800
  0
VERTEX
  8
4
  6
CONTINUOUS
 62
3
 10
3704.851223057817200
 20
-5980.134188709422200
  0
VERTEX
  8
4
  6
CONTINUOUS
 62
3
 10
3725.577870283990300
 20
-5977.619273929652100
  0
VERTEX
  8
4
  6
CONTINUOUS
 62
3
 10
3746.244842539089900
 20
-5974.640064482571700
  0
VERTEX
  8
4
  6
CONTINUOUS
 62
3
 10
3766.845333621947200
 20
-5971.164679501889600
  0
VERTEX
  8
4
  6
CONTINUOUS
 62
3
 10
3787.372537331394600
 20
-5967.161238121316300
  0
VERTEX
  8
4
  6
CONTINUOUS
 62
3
 10
3807.819647466261800
 20
-5962.597859474562900
  0
VERTEX
  8
4
  6
CONTINUOUS
 62
3
 10
3807.819647466261800
 20
-5962.597859474562900
  0
VERTEX
  8
4
  6
CONTINUOUS
 62
3
 10
3819.881693541055900
 20
-5959.619881015676600
  0
VERTEX
  8
4
  6
CONTINUOUS
 62
3
 10
3831.902985680650100
 20
-5956.429198758642100
  0
VERTEX
  8
4
  6
CONTINUOUS
 62
3
 10
3843.873221918613100
 20
-5953.020497556555700
  0
VERTEX
  8
4
  6
CONTINUOUS
 62
3
 10
3855.782100288512100
 20
-5949.388462262517400
  0
VERTEX
  8
4
  6
CONTINUOUS
 62
3
 10
3867.619318823915800
 20
-5945.527777729625100
  0
VERTEX
  8
4
  6
CONTINUOUS
 62
3
 10
3879.374575558391400
 20
-5941.433128810975200
  0
VERTEX
  8
4
  6
CONTINUOUS
 62
3
 10
3891.037568525507100
 20
-5937.099200359669300
  0
VERTEX
  8
4
  6
CONTINUOUS
 62
3
 10
3902.597995758831500
 20
-5932.520677228803800
  0
VERTEX
  8
4
  6
CONTINUOUS
 62
3
 10
3914.045555291932000
 20
-5927.692244271478600
  0
VERTEX
  8
4
  6
CONTINUOUS
 62
3
 10
3925.369945158376600
 20
-5922.608586340789800
  0
VERTEX
  8
4
  6
CONTINUOUS
 62
3
 10
3936.560863391733600
 20
-5917.264388289837400
  0
VERTEX
  8
4
  6
CONTINUOUS
 62
3
 10
3947.608008025570600
 20
-5911.654334971719400
  0
VERTEX
  8
4
  6
CONTINUOUS
 62
3
 10
3958.501077093455900
 20
-5905.773111239535900
  0
VERTEX
  8
4
  6
CONTINUOUS
 62
3
 10
3969.229768628957100
 20
-5899.615401946381100
  0
VERTEX
  8
4
  6
CONTINUOUS
 62
3
 10
3979.783780665642600
 20
-5893.175891945356900
  0
VERTEX
  8
4
  6
CONTINUOUS
 62
3
 10
3990.152811237079700
 20
-5886.449266089560300
  0
VERTEX
  8
4
  6
CONTINUOUS
 62
3
 10
3990.152811237079700
 20
-5886.449266089560300
  0
VERTEX
  8
4
  6
CONTINUOUS
 62
3
 10
4002.549853534968000
 20
-5877.843036299837000
  0
VERTEX
  8
4
  6
CONTINUOUS
 62
3
 10
4014.649450063197900
 20
-5868.816153013449400
  0
VERTEX
  8
4
  6
CONTINUOUS
 62
3
 10
4026.445301022421100
 20
-5859.383944972461900
  0
VERTEX
  8
4
  6
CONTINUOUS
 62
3
 10
4037.931106613288200
 20
-5849.561740918939900
  0
VERTEX
  8
4
  6
CONTINUOUS
 62
3
 10
4049.100567036449300
 20
-5839.364869594949600
  0
VERTEX
  8
4
  6
CONTINUOUS
 62
3
 10
4059.947382492556700
 20
-5828.808659742554500
  0
VERTEX
  8
4
  6
CONTINUOUS
 62
3
 10
4070.465253182259900
 20
-5817.908440103820800
  0
VERTEX
  8
4
  6
CONTINUOUS
 62
3
 10
4080.647879306210600
 20
-5806.679539420812900
  0
VERTEX
  8
4
  6
CONTINUOUS
 62
3
 10
4080.647879306210600
 20
-5806.679539420812900
  0
VERTEX
  8
4
  6
CONTINUOUS
 62
3
 10
4086.565051718576300
 20
-5799.816976170544900
  0
VERTEX
  8
4
  6
CONTINUOUS
 62
3
 10
4092.330967488613200
 20
-5792.831434635342700
  0
VERTEX
  8
4
  6
CONTINUOUS
 62
3
 10
4097.916316516235400
 20
-5785.711817251089100
  0
VERTEX
  8
4
  6
CONTINUOUS
 62
3
 10
4103.291788701359100
 20
-5778.447026453666700
  0
VERTEX
  8
4
  6
CONTINUOUS
 62
3
 10
4108.428073943898200
 20
-5771.025964678958200
  0
VERTEX
  8
4
  6
CONTINUOUS
 62
3
 10
4113.295862143766500
 20
-5763.437534362843500
  0
VERTEX
  8
4
  6
CONTINUOUS
 62
3
 10
4117.865843200879700
 20
-5755.670637941208000
  0
VERTEX
  8
4
  6
CONTINUOUS
 62
3
 10
4122.108707015153400
 20
-5747.714177849932600
  0
VERTEX
  8
4
  6
CONTINUOUS
 62
3
 10
4122.108707015153400
 20
-5747.714177849932600
  0
VERTEX
  8
4
  6
CONTINUOUS
 62
3
 10
4125.219115759984600
 20
-5741.273911919895900
  0
VERTEX
  8
4
  6
CONTINUOUS
 62
3
 10
4128.101508478750500
 20
-5734.719153156258500
  0
VERTEX
  8
4
  6
CONTINUOUS
 62
3
 10
4130.751423440418900
 20
-5728.061265177077100
  0
VERTEX
  8
4
  6
CONTINUOUS
 62
3
 10
4133.164398913955700
 20
-5721.311611600402100
  0
VERTEX
  8
4
  6
CONTINUOUS
 62
3
 10
4135.335973168328600
 20
-5714.481556044288500
  0
VERTEX
  8
4
  6
CONTINUOUS
 62
3
 10
4137.261684472504400
 20
-5707.582462126789300
  0
VERTEX
  8
4
  6
CONTINUOUS
 62
3
 10
4138.937071095449900
 20
-5700.625693465957700
  0
VERTEX
  8
4
  6
CONTINUOUS
 62
3
 10
4140.357671306132000
 20
-5693.622613679845900
  0
VERTEX
  8
4
  6
CONTINUOUS
 62
3
 10
4140.357671306132000
 20
-5693.622613679845900
  0
VERTEX
  8
4
  6
CONTINUOUS
 62
3
 10
4141.337994252454300
 20
-5687.822863867651000
  0
VERTEX
  8
4
  6
CONTINUOUS
 62
3
 10
4142.164196966355100
 20
-5682.002338138348000
  0
VERTEX
  8
4
  6
CONTINUOUS
 62
3
 10
4143.442310401133900
 20
-5670.310830881044200
  0
VERTEX
  8
4
  6
CONTINUOUS
 62
3
 10
4144.368149018950100
 20
-5658.571835813201700
  0
VERTEX
  8
4
  6
CONTINUOUS
 62
3
 10
4145.117850228283700
 20
-5646.809096840091100
  0
SEQEND
  8
4
  0
ENDSEC
  0
EOF
