  0
SECTION
  2
HEADER
  9
$FILLMODE
 70
1
  9
$TEXTSTYLE
  7
STANDARD1
  9
$ACADVER
  1
AC1009
  9
$DIMASZ
 40
1.931851648807023
  9
$DIMEXE
 40
2.000000000000000
  9
$DIMEXO
 40
1.000000000000000
  9
$DIMLFAC
 40
1.000000000000000
  9
$DIMSCALE
 40
1.000000000000000
  9
$DIMTAD
 70
1
  9
$DIMTFAC
 40
0.625000000000000
  9
$DIMTXT
 40
2.000000000000000
  9
$LUPREC
 70
3
  9
$TEXTSIZE
 40
20.000000000000000
  9
$REGENMODE
 70
1
  0
ENDSEC
  0
SECTION
  2
TABLES
  0
TABLE
  2
LTYPE
 70
4
  0
LTYPE
  2
CONTINUOUS
 70
64
  3
Solid line
 72
65
 73
0
 40
0.0
  0
LTYPE
  2
DASHED
 70
64
  3
-- -- -- -- -- -- -- -- -- -- -- -- -- -- --
 72
65
 73
2
 40
0.75
 49
0.5
 49
-0.25
  0
LTYPE
  2
DASHDOT
 70
64
  3
__ . __ . __ . __ . __ . __ . __ . __ . __ . __
 72
65
 73
4
 40
1.0
 49
0.5
 49
-0.25
 49
0.0
 49
-0.25
  0
LTYPE
  2
DIVIDE
 70
64
  3
__ . . __ . . __ . . __ . . __ . . __ . . __
 72
65
 73
6
 40
1.25
 49
0.5
 49
-0.25
 49
0.0
 49
-0.25
 49
0.0
 49
-0.25
  0
ENDTAB
  0
TABLE
  2
LAYER
 70
3
  0
LAYER
  2
0
 70
64
 62
3
  6
CONTINUOUS
  0
LAYER
  2
1
 70
64
 62
4
  6
CONTINUOUS
  0
LAYER
  2
4
 70
64
 62
2
  6
CONTINUOUS
  0
ENDTAB
  0
TABLE
  2
STYLE
 70
4
  0
STYLE
  2
STANDARD1
 70
64
 40
0.0
 41
1.0
 50
0.0
 71
0
 42
20.000000000000000
  3
MONOTXT
  4
BIGFONT
  0
STYLE
  2
STANDARD2
 70
68
 40
0.0
 41
1.0
 50
0.0
 71
0
 42
20.000000000000000
  3
MONOTXT
  4
BIGFONT
  0
STYLE
  2
STANDARD3
 70
64
 40
0.0
 41
1.0
 50
0.0
 71
0
 42
20.000000000000000
  3
MONOTXT
  4

  0
STYLE
  2
STANDARD4
 70
68
 40
0.0
 41
1.0
 50
0.0
 71
0
 42
20.000000000000000
  3
MONOTXT
  4

  0
ENDTAB
  0
TABLE
  2
VIEW
 70
0
  0
ENDTAB
  0
ENDSEC
  0
SECTION
  2
BLOCKS
  0
BLOCK
  8
1
  2
SYM1
 70
64
 10
0.000000000000000
 20
0.000000000000000
  0
POINT
  8
1
  6
CONTINUOUS
 62
3
 10
0.000000000000000
 20
0.000000000000000
  0
CIRCLE
  8
1
  6
CONTINUOUS
 62
3
 10
0.000000000000000
 20
0.000000000000000
 40
3.899999618530273
  0
LINE
  8
1
  6
CONTINUOUS
 62
3
 10
0.000001070378062
 20
4.599999954039447
 11
4.000000095779171
 21
2.299999682491432
  0
LINE
  8
1
  6
CONTINUOUS
 62
3
 10
4.000000000000000
 20
2.299999237060547
 11
4.000000000000000
 21
-2.299999237060547
  0
LINE
  8
1
  6
CONTINUOUS
 62
3
 10
4.000000095779171
 20
-2.299999682491432
 11
0.000001070378062
 21
-4.599999954039447
  0
LINE
  8
1
  6
CONTINUOUS
 62
3
 10
-0.000001070378062
 20
-4.599999954039447
 11
-4.000000095779171
 21
-2.299999682491432
  0
LINE
  8
1
  6
CONTINUOUS
 62
3
 10
-4.000000000000000
 20
-2.299999237060547
 11
-4.000000000000000
 21
2.299999237060547
  0
LINE
  8
1
  6
CONTINUOUS
 62
3
 10
-4.000000095779171
 20
2.299999682491432
 11
-0.000001070378062
 21
4.599999954039447
  0
ENDBLK
  8
1
  0
ENDSEC
  0
SECTION
  2
ENTITIES
  0
LINE
  8
0
  6
CONTINUOUS
 62
3
 10
-3933.673279852304400
 20
-4555.492749254719500
 11
-3871.082032873866400
 21
-4555.492749254719500
  0
LINE
  8
1
  6
DASHED
 62
3
 10
-4049.634204251468000
 20
-4460.292749254726000
 11
-3957.834204251471400
 21
-4460.292749254725100
  0
LINE
  8
1
  6
CONTINUOUS
 62
3
 10
-3957.834204251471400
 20
-4460.292749254726900
 11
-3932.928675640448100
 21
-4460.292749254726900
  0
CIRCLE
  8
1
  6
CONTINUOUS
 62
3
 10
-3977.401432300794100
 20
-4578.453755196629600
 40
2.500000000000000
  0
ARC
  8
1
  6
CONTINUOUS
 62
3
 10
-3932.928675640448100
 20
-4481.492749254725800
 40
21.200000000001133
 50
11.259366798421897
 51
90.000000000000000
  0
LINE
  8
1
  6
CONTINUOUS
 62
3
 10
-4049.634204251468400
 20
-4650.692749254725600
 11
-3932.928675640448100
 21
-4650.692749254726600
  0
ARC
  8
1
  6
CONTINUOUS
 62
3
 10
-3932.928675640448100
 20
-4629.492749254726700
 40
21.199999999999818
 50
270.000000000000000
 51
348.740633201578590
  0
ARC
  8
1
  6
CONTINUOUS
 62
3
 10
-4049.634204251468400
 20
-4642.492749254724900
 40
8.200000000002092
 50
180.000000000006370
 51
270.000000000000000
  0
LINE
  8
1
  6
DASHED
 62
3
 10
-4057.834204251470500
 20
-4626.203427373379800
 11
-4057.834204251470500
 21
-4468.492749254726700
  0
ARC
  8
1
  6
DASHED
 62
3
 10
-4049.634204251468000
 20
-4468.492749254726700
 40
8.200000000000728
 50
90.000000000000000
 51
180.000000000000000
  0
LINE
  8
1
  6
CONTINUOUS
 62
3
 10
-4057.834204251470500
 20
-4642.492749254725800
 11
-4057.834204251470500
 21
-4626.203427373379800
  0
LINE
  8
1
  6
CONTINUOUS
 62
3
 10
-3992.834204251469600
 20
-4430.492749254724900
 11
-3992.834204251469600
 21
-4445.492749254725800
  0
ARC
  8
1
  6
CONTINUOUS
 62
3
 10
-3992.834204251469600
 20
-4443.192749254726600
 40
2.299999999998845
 50
224.999999999967970
 51
315.000000000000000
  0
LINE
  8
1
  6
CONTINUOUS
 62
3
 10
-3994.460549848198800
 20
-4444.819094851453900
 11
-4008.786895444928600
 21
-4430.492749254724900
  0
LINE
  8
1
  6
CONTINUOUS
 62
3
 10
-3991.207858654742300
 20
-4444.819094851453900
 11
-3976.881513058010600
 21
-4430.492749254724900
  0
LINE
  8
1
  6
CONTINUOUS
 62
3
 10
-4074.460549848198800
 20
-4444.819094851453900
 11
-4088.786895444928600
 21
-4430.492749254724900
  0
LINE
  8
1
  6
CONTINUOUS
 62
3
 10
-4072.834204251471400
 20
-4430.492749254726700
 11
-4072.834204251471400
 21
-4445.492749254725800
  0
ARC
  8
1
  6
CONTINUOUS
 62
3
 10
-4072.834204251471400
 20
-4443.192749254726600
 40
2.299999999997559
 50
225.000000000000000
 51
315.000000000064060
  0
LINE
  8
1
  6
CONTINUOUS
 62
3
 10
-4071.207858654740400
 20
-4444.819094851453900
 11
-4056.881513058012400
 21
-4430.492749254724900
  0
LINE
  8
1
  6
CONTINUOUS
 62
3
 10
-3957.834204251471400
 20
-4428.192749254725600
 11
-3957.834204251471400
 21
-4555.492749254724900
  0
LINE
  8
1
  6
CONTINUOUS
 62
3
 10
-4107.834204251471400
 20
-4430.492749254726700
 11
-3957.834204251471400
 21
-4430.492749254724900
  0
LINE
  8
1
  6
CONTINUOUS
 62
3
 10
-4107.834204251471400
 20
-4428.192749254725600
 11
-3957.834204251471400
 21
-4428.192749254725600
  0
CIRCLE
  8
1
  6
CONTINUOUS
 62
3
 10
-4055.795210193374300
 20
-4610.925521205403100
 40
2.500000000000000
  0
ARC
  8
1
  6
CONTINUOUS
 62
3
 10
-4032.834204251471400
 20
-4555.492749254724900
 40
75.000000000000000
 50
180.000000000000000
 51
0.000000000000000
  0
CIRCLE
  8
1
  6
CONTINUOUS
 62
3
 10
-3990.407797380276900
 20
-4597.919156125918600
 40
2.500000000000000
  0
CIRCLE
  8
1
  6
CONTINUOUS
 62
3
 10
-4032.834204251471400
 20
-4615.492749254725800
 40
2.500000000000000
  0
CIRCLE
  8
1
  6
CONTINUOUS
 62
3
 10
-4009.873198309564900
 20
-4610.925521205403100
 40
2.500000000000000
  0
CIRCLE
  8
1
  6
CONTINUOUS
 62
3
 10
-3973.987087427277400
 20
-4567.198168575693700
 40
2.500000000000000
  0
LINE
  8
1
  6
CONTINUOUS
 62
3
 10
-4107.834204251471400
 20
-4428.192749254725600
 11
-4107.834204251471400
 21
-4555.492749254724900
  0
CIRCLE
  8
1
  6
CONTINUOUS
 62
3
 10
-4091.681321075665400
 20
-4567.198168575693700
 40
2.500000000000000
  0
CIRCLE
  8
1
  6
CONTINUOUS
 62
3
 10
-4075.260611122662300
 20
-4597.919156125918600
 40
2.500000000000000
  0
CIRCLE
  8
1
  6
CONTINUOUS
 62
3
 10
-4088.266976202147800
 20
-4578.453755196631400
 40
2.500000000000000
  0
CIRCLE
  8
1
  6
CONTINUOUS
 62
3
 10
-4092.834204251469600
 20
-4555.492749254724900
 40
2.500000000000000
  0
LINE
  8
1
  6
CONTINUOUS
 62
4
 10
-4032.834204426212600
 20
-4562.992749141415500
 11
-4026.334204606489000
 21
-4559.242748419669600
  0
LINE
  8
1
  6
CONTINUOUS
 62
4
 10
-4026.334204251467800
 20
-4559.242748301051500
 11
-4026.334204251467800
 21
-4551.742750208399200
  0
LINE
  8
1
  6
CONTINUOUS
 62
4
 10
-4039.334204251471400
 20
-4551.742750208399200
 11
-4039.334204251471400
 21
-4559.242748301051500
  0
LINE
  8
1
  6
CONTINUOUS
 62
4
 10
-4039.334203896446500
 20
-4559.242748419669600
 11
-4032.834204076726600
 21
-4562.992749141415500
  0
LINE
  8
1
  6
CONTINUOUS
 62
4
 10
-4026.334204606489000
 20
-4551.742750089782900
 11
-4032.834204426212600
 21
-4547.992749368035200
  0
LINE
  8
1
  6
CONTINUOUS
 62
4
 10
-4032.834204076726600
 20
-4547.992749368035200
 11
-4039.334203896446500
 21
-4551.742750089782900
  0
POINT
  8
1
  6
CONTINUOUS
 62
3
 10
-4032.834204251471400
 20
-4555.492749254724900
  0
POINT
  8
1
  6
CONTINUOUS
 62
3
 10
-4032.834204251471400
 20
-4540.492749254725800
  0
CIRCLE
  8
1
  6
CONTINUOUS
 62
4
 10
-4032.834204251471400
 20
-4555.492749254724900
 40
3.000000000000455
  0
CIRCLE
  8
1
  6
CONTINUOUS
 62
4
 10
-4032.834204251471400
 20
-4555.492749254724900
 40
4.000000000000455
  0
LINE
  8
1
  6
DASHDOT
 62
4
 10
-4008.334204251469600
 20
-4555.492749254724900
 11
-4057.334204251467800
 21
-4555.492749254724900
  0
LINE
  8
1
  6
DASHDOT
 62
4
 10
-4032.834204251471400
 20
-4530.992749254726700
 11
-4032.834204251471400
 21
-4579.992749254725800
  0
INSERT
  8
1
  2
SYM1
 10
-3972.834204251472300
 20
-4555.492749254724900
 50
90.000000000000000
  0
ARC
  8
1
  6
CONTINUOUS
 62
3
 10
-4304.634204251468900
 20
-4555.492749254724000
 40
400.200000000000440
 50
348.740633201575970
 51
11.259366798423391
  0
TEXT
  8
4
  6
CONTINUOUS
 62
3
 10
1838.189331054687500
 20
-4888.460937500000000
 40
685.713867187500000
  1
1m/s
 50
0.000002504478167
 41
0.576250121720697
  7
STANDARD1
  0
TEXT
  8
4
  6
CONTINUOUS
 62
3
 10
4369.387695312500000
 20
-4910.281738281250000
 40
685.713867187500000
  1
0.5m/s
 50
0.000002504478167
 41
0.576250121720697
  7
STANDARD1
  0
TEXT
  8
4
  6
CONTINUOUS
 62
3
 10
8438.946289062500000
 20
-4844.819824218750000
 40
685.713867187500000
  1
0.3m/s
 50
0.000002504478167
 41
0.576250121720697
  7
STANDARD1
  0
POLYLINE
  8
4
  6
CONTINUOUS
 62
3
 66
1
  0
VERTEX
  8
4
  6
CONTINUOUS
 62
3
 10
-3912.136704119197000
 20
-4477.353435270557400
  0
VERTEX
  8
4
  6
CONTINUOUS
 62
3
 10
-2940.629402372270300
 20
-4378.977209280288700
  0
VERTEX
  8
4
  6
CONTINUOUS
 62
3
 10
-2454.887037694942600
 20
-4329.673898949135000
  0
VERTEX
  8
4
  6
CONTINUOUS
 62
3
 10
-1969.158216452977100
 20
-4280.232351814755000
  0
VERTEX
  8
4
  6
CONTINUOUS
 62
3
 10
-1483.447453124828100
 20
-4230.606488942741600
  0
VERTEX
  8
4
  6
CONTINUOUS
 62
3
 10
-997.759262188949950
 20
-4180.750231398687900
  0
VERTEX
  8
4
  6
CONTINUOUS
 62
3
 10
-512.098158123796570
 20
-4130.617500248184100
  0
VERTEX
  8
4
  6
CONTINUOUS
 62
3
 10
-26.468655407822098
 20
-4080.162216556822400
  0
VERTEX
  8
4
  6
CONTINUOUS
 62
3
 10
459.124731480519360
 20
-4029.338301390194800
  0
VERTEX
  8
4
  6
CONTINUOUS
 62
3
 10
944.677488062773590
 20
-3978.099675813893100
  0
VERTEX
  8
4
  6
CONTINUOUS
 62
3
 10
1430.185099860486400
 20
-3926.400260893508900
  0
VERTEX
  8
4
  6
CONTINUOUS
 62
3
 10
1915.643052395203500
 20
-3874.193977694633800
  0
VERTEX
  8
4
  6
CONTINUOUS
 62
3
 10
2401.046831188471500
 20
-3821.434747282859500
  0
VERTEX
  8
4
  6
CONTINUOUS
 62
3
 10
2643.726994657545200
 20
-3794.833377205132400
  0
VERTEX
  8
4
  6
CONTINUOUS
 62
3
 10
2886.391921761835400
 20
-3768.076490723777200
  0
VERTEX
  8
4
  6
CONTINUOUS
 62
3
 10
3129.041048191536400
 20
-3741.158327971993500
  0
VERTEX
  8
4
  6
CONTINUOUS
 62
3
 10
3371.673809636841700
 20
-3714.073129082979900
  0
VERTEX
  8
4
  6
CONTINUOUS
 62
3
 10
3614.289641787943800
 20
-3686.815134189934700
  0
VERTEX
  8
4
  6
CONTINUOUS
 62
3
 10
3856.887980335035500
 20
-3659.378583426058000
  0
VERTEX
  8
4
  6
CONTINUOUS
 62
3
 10
3856.887980335035500
 20
-3659.378583426058000
  0
VERTEX
  8
4
  6
CONTINUOUS
 62
3
 10
4084.922319347128500
 20
-3633.422762744896300
  0
VERTEX
  8
4
  6
CONTINUOUS
 62
3
 10
4312.939540326594400
 20
-3607.320035267330200
  0
VERTEX
  8
4
  6
CONTINUOUS
 62
3
 10
4768.917984690033300
 20
-3554.737726684802500
  0
VERTEX
  8
4
  6
CONTINUOUS
 62
3
 10
5224.814026430132800
 20
-3501.759391202109300
  0
VERTEX
  8
4
  6
CONTINUOUS
 62
3
 10
5680.618378551673200
 20
-3448.512762342886600
  0
VERTEX
  8
4
  6
CONTINUOUS
 62
3
 10
5680.618378551673200
 20
-3448.512762342886600
  0
VERTEX
  8
4
  6
CONTINUOUS
 62
3
 10
5992.262292459858100
 20
-3412.139358671549400
  0
VERTEX
  8
4
  6
CONTINUOUS
 62
3
 10
6148.099163790369900
 20
-3394.176735832499600
  0
VERTEX
  8
4
  6
CONTINUOUS
 62
3
 10
6303.963375628063700
 20
-3376.496152839035400
  0
VERTEX
  8
4
  6
CONTINUOUS
 62
3
 10
6459.867976165116500
 20
-3359.197100077037200
  0
VERTEX
  8
4
  6
CONTINUOUS
 62
3
 10
6615.826013593705300
 20
-3342.379067932385200
  0
VERTEX
  8
4
  6
CONTINUOUS
 62
3
 10
6693.829148702381600
 20
-3334.181525337151500
  0
VERTEX
  8
4
  6
CONTINUOUS
 62
3
 10
6771.850536106007900
 20
-3326.141546790959200
  0
VERTEX
  8
4
  6
CONTINUOUS
 62
3
 10
6849.891806828607500
 20
-3318.271568592043900
  0
VERTEX
  8
4
  6
CONTINUOUS
 62
3
 10
6927.954591894200300
 20
-3310.584027038639800
  0
VERTEX
  8
4
  6
CONTINUOUS
 62
3
 10
7006.040522326811700
 20
-3303.091358428982400
  0
VERTEX
  8
4
  6
CONTINUOUS
 62
3
 10
7084.151229150460500
 20
-3295.805999061306500
  0
VERTEX
  8
4
  6
CONTINUOUS
 62
3
 10
7162.288343389171100
 20
-3288.740385233847500
  0
VERTEX
  8
4
  6
CONTINUOUS
 62
3
 10
7240.453496066964400
 20
-3281.906953244840700
  0
VERTEX
  8
4
  6
CONTINUOUS
 62
3
 10
7318.648318207863700
 20
-3275.318139392520600
  0
VERTEX
  8
4
  6
CONTINUOUS
 62
3
 10
7396.874440835890700
 20
-3268.986379975121500
  0
VERTEX
  8
4
  6
CONTINUOUS
 62
3
 10
7475.133494975067200
 20
-3262.924111290879400
  0
VERTEX
  8
4
  6
CONTINUOUS
 62
3
 10
7553.427111649414700
 20
-3257.143769638029000
  0
VERTEX
  8
4
  6
CONTINUOUS
 62
3
 10
7631.756921882955800
 20
-3251.657791314805800
  0
VERTEX
  8
4
  6
CONTINUOUS
 62
3
 10
7710.124556699713100
 20
-3246.478612619443500
  0
VERTEX
  8
4
  6
CONTINUOUS
 62
3
 10
7788.531647123709300
 20
-3241.618669850178800
  0
VERTEX
  8
4
  6
CONTINUOUS
 62
3
 10
7866.979824178965800
 20
-3237.090399305245700
  0
VERTEX
  8
4
  6
CONTINUOUS
 62
3
 10
7945.470718889504500
 20
-3232.906237282879800
  0
VERTEX
  8
4
  6
CONTINUOUS
 62
3
 10
8024.005962279346900
 20
-3229.078620081315400
  0
VERTEX
  8
4
  6
CONTINUOUS
 62
3
 10
8102.587185372516600
 20
-3225.619983998787600
  0
VERTEX
  8
4
  6
CONTINUOUS
 62
3
 10
8181.216019193034300
 20
-3222.542765333532300
  0
VERTEX
  8
4
  6
CONTINUOUS
 62
3
 10
8181.216019193034300
 20
-3222.542765333532300
  0
VERTEX
  8
4
  6
CONTINUOUS
 62
3
 10
8259.315894591916700
 20
-3219.886836112639200
  0
VERTEX
  8
4
  6
CONTINUOUS
 62
3
 10
8337.449268563179400
 20
-3217.686842848595900
  0
VERTEX
  8
4
  6
CONTINUOUS
 62
3
 10
8415.601115348385100
 20
-3216.010605977272500
  0
VERTEX
  8
4
  6
CONTINUOUS
 62
3
 10
8454.679270496704700
 20
-3215.390090075090000
  0
VERTEX
  8
4
  6
CONTINUOUS
 62
3
 10
8493.756409189092700
 20
-3214.925945934538500
  0
VERTEX
  8
4
  6
CONTINUOUS
 62
3
 10
8532.830653205746800
 20
-3214.626651110102100
  0
VERTEX
  8
4
  6
CONTINUOUS
 62
3
 10
8571.900124326861300
 20
-3214.500683156265500
  0
VERTEX
  8
4
  6
CONTINUOUS
 62
3
 10
8610.962944332630300
 20
-3214.556519627511500
  0
VERTEX
  8
4
  6
CONTINUOUS
 62
3
 10
8650.017235003251700
 20
-3214.802638078323500
  0
VERTEX
  8
4
  6
CONTINUOUS
 62
3
 10
8689.061118118916100
 20
-3215.247516063185700
  0
VERTEX
  8
4
  6
CONTINUOUS
 62
3
 10
8728.092715459821200
 20
-3215.899631136582700
  0
VERTEX
  8
4
  6
CONTINUOUS
 62
3
 10
8767.110148806161300
 20
-3216.767460852996900
  0
VERTEX
  8
4
  6
CONTINUOUS
 62
3
 10
8806.111539938130600
 20
-3217.859482766913500
  0
VERTEX
  8
4
  6
CONTINUOUS
 62
3
 10
8845.095010635923200
 20
-3219.184174432815800
  0
VERTEX
  8
4
  6
CONTINUOUS
 62
3
 10
8884.058682679737100
 20
-3220.750013405186100
  0
VERTEX
  8
4
  6
CONTINUOUS
 62
3
 10
8923.000677849766400
 20
-3222.565477238510100
  0
VERTEX
  8
4
  6
CONTINUOUS
 62
3
 10
8961.919117926203400
 20
-3224.639043487271500
  0
VERTEX
  8
4
  6
CONTINUOUS
 62
3
 10
9000.812124689244200
 20
-3226.979189705953600
  0
VERTEX
  8
4
  6
CONTINUOUS
 62
3
 10
9039.677819919086700
 20
-3229.594393449039700
  0
VERTEX
  8
4
  6
CONTINUOUS
 62
3
 10
9078.514325395923200
 20
-3232.493132271013600
  0
VERTEX
  8
4
  6
CONTINUOUS
 62
3
 10
9117.319762899947800
 20
-3235.683883726359900
  0
VERTEX
  8
4
  6
CONTINUOUS
 62
3
 10
9156.092254211358500
 20
-3239.175125369562000
  0
VERTEX
  8
4
  6
CONTINUOUS
 62
3
 10
9194.829921110344000
 20
-3242.975334755104100
  0
VERTEX
  8
4
  6
CONTINUOUS
 62
3
 10
9233.530885377107600
 20
-3247.092989437469400
  0
VERTEX
  8
4
  6
CONTINUOUS
 62
3
 10
9272.193268791839700
 20
-3251.536566971141800
  0
VERTEX
  8
4
  6
CONTINUOUS
 62
3
 10
9310.815193134734700
 20
-3256.314544910605900
  0
VERTEX
  8
4
  6
CONTINUOUS
 62
3
 10
9349.394780185988600
 20
-3261.435400810344200
  0
VERTEX
  8
4
  6
CONTINUOUS
 62
3
 10
9387.930151725797300
 20
-3266.907612224840700
  0
VERTEX
  8
4
  6
CONTINUOUS
 62
3
 10
9426.419429534353200
 20
-3272.739656708580200
  0
VERTEX
  8
4
  6
CONTINUOUS
 62
3
 10
9426.419429534353200
 20
-3272.739656708580200
  0
VERTEX
  8
4
  6
CONTINUOUS
 62
3
 10
9466.850426504443000
 20
-3279.270320149197700
  0
VERTEX
  8
4
  6
CONTINUOUS
 62
3
 10
9507.222679657665100
 20
-3286.211588245064400
  0
VERTEX
  8
4
  6
CONTINUOUS
 62
3
 10
9547.530516673683500
 20
-3293.566602632760800
  0
VERTEX
  8
4
  6
CONTINUOUS
 62
3
 10
9587.768265232163700
 20
-3301.338504948865200
  0
VERTEX
  8
4
  6
CONTINUOUS
 62
3
 10
9627.930253012769800
 20
-3309.530436829956700
  0
VERTEX
  8
4
  6
CONTINUOUS
 62
3
 10
9668.010807695163700
 20
-3318.145539912616200
  0
VERTEX
  8
4
  6
CONTINUOUS
 62
3
 10
9708.004256959009600
 20
-3327.186955833422000
  0
VERTEX
  8
4
  6
CONTINUOUS
 62
3
 10
9747.904928483967500
 20
-3336.657826228954000
  0
VERTEX
  8
4
  6
CONTINUOUS
 62
3
 10
9787.707149949705100
 20
-3346.561292735790600
  0
VERTEX
  8
4
  6
CONTINUOUS
 62
3
 10
9827.405249035884500
 20
-3356.900496990512700
  0
VERTEX
  8
4
  6
CONTINUOUS
 62
3
 10
9866.993553422169500
 20
-3367.678580629698400
  0
VERTEX
  8
4
  6
CONTINUOUS
 62
3
 10
9906.466390788224100
 20
-3378.898685289927900
  0
VERTEX
  8
4
  6
CONTINUOUS
 62
3
 10
9945.818088813712200
 20
-3390.563952607779800
  0
VERTEX
  8
4
  6
CONTINUOUS
 62
3
 10
9985.042975178294000
 20
-3402.677524219834100
  0
VERTEX
  8
4
  6
CONTINUOUS
 62
3
 10
10024.135377561637000
 20
-3415.242541762670000
  0
VERTEX
  8
4
  6
CONTINUOUS
 62
3
 10
10063.089623643403000
 20
-3428.262146872867600
  0
VERTEX
  8
4
  6
CONTINUOUS
 62
3
 10
10063.089623643403000
 20
-3428.262146872867600
  0
VERTEX
  8
4
  6
CONTINUOUS
 62
3
 10
10084.403812229389000
 20
-3435.601591840733800
  0
VERTEX
  8
4
  6
CONTINUOUS
 62
3
 10
10105.670380630555000
 20
-3443.084493968623100
  0
VERTEX
  8
4
  6
CONTINUOUS
 62
3
 10
10126.885016694450000
 20
-3450.716484225099500
  0
VERTEX
  8
4
  6
CONTINUOUS
 62
3
 10
10148.043408268618000
 20
-3458.503193578726500
  0
VERTEX
  8
4
  6
CONTINUOUS
 62
3
 10
10169.141243200610000
 20
-3466.450252998068700
  0
VERTEX
  8
4
  6
CONTINUOUS
 62
3
 10
10190.174209337979000
 20
-3474.563293451688900
  0
VERTEX
  8
4
  6
CONTINUOUS
 62
3
 10
10211.137994528271000
 20
-3482.847945908151800
  0
VERTEX
  8
4
  6
CONTINUOUS
 62
3
 10
10232.028286619033000
 20
-3491.309841336021700
  0
VERTEX
  8
4
  6
CONTINUOUS
 62
3
 10
10252.840773457817000
 20
-3499.954610703861400
  0
VERTEX
  8
4
  6
CONTINUOUS
 62
3
 10
10273.571142892171000
 20
-3508.787884980235500
  0
VERTEX
  8
4
  6
CONTINUOUS
 62
3
 10
10294.215082769642000
 20
-3517.815295133707000
  0
VERTEX
  8
4
  6
CONTINUOUS
 62
3
 10
10314.768280937782000
 20
-3527.042472132840400
  0
VERTEX
  8
4
  6
CONTINUOUS
 62
3
 10
10335.226425244138000
 20
-3536.475046946199700
  0
VERTEX
  8
4
  6
CONTINUOUS
 62
3
 10
10355.585203536260000
 20
-3546.118650542348400
  0
VERTEX
  8
4
  6
CONTINUOUS
 62
3
 10
10375.840303661696000
 20
-3555.978913889851400
  0
VERTEX
  8
4
  6
CONTINUOUS
 62
3
 10
10395.987413467995000
 20
-3566.061467957270900
  0
VERTEX
  8
4
  6
CONTINUOUS
 62
3
 10
10416.022220802706000
 20
-3576.371943713171700
  0
VERTEX
  8
4
  6
CONTINUOUS
 62
3
 10
10435.940413513379000
 20
-3586.915972126117600
  0
VERTEX
  8
4
  6
CONTINUOUS
 62
3
 10
10455.737679447560000
 20
-3597.699184164672300
  0
VERTEX
  8
4
  6
CONTINUOUS
 62
3
 10
10475.409706452803000
 20
-3608.727210797399500
  0
VERTEX
  8
4
  6
CONTINUOUS
 62
3
 10
10494.952182376651000
 20
-3620.005682992863500
  0
VERTEX
  8
4
  6
CONTINUOUS
 62
3
 10
10514.360795066659000
 20
-3631.540231719628500
  0
VERTEX
  8
4
  6
CONTINUOUS
 62
3
 10
10533.631232370371000
 20
-3643.336487946257400
  0
VERTEX
  8
4
  6
CONTINUOUS
 62
3
 10
10552.759182135338000
 20
-3655.400082641314400
  0
VERTEX
  8
4
  6
CONTINUOUS
 62
3
 10
10571.740332209108000
 20
-3667.736646773363200
  0
VERTEX
  8
4
  6
CONTINUOUS
 62
3
 10
10590.570370439232000
 20
-3680.351811310969000
  0
VERTEX
  8
4
  6
CONTINUOUS
 62
3
 10
10609.244984673256000
 20
-3693.251207222694100
  0
VERTEX
  8
4
  6
CONTINUOUS
 62
3
 10
10627.759862758730000
 20
-3706.440465477102900
  0
VERTEX
  8
4
  6
CONTINUOUS
 62
3
 10
10646.110692543203000
 20
-3719.925217042759000
  0
VERTEX
  8
4
  6
CONTINUOUS
 62
3
 10
10664.293161874225000
 20
-3733.711092888226600
  0
VERTEX
  8
4
  6
CONTINUOUS
 62
3
 10
10682.302958599346000
 20
-3747.803723982069600
  0
VERTEX
  8
4
  6
CONTINUOUS
 62
3
 10
10700.135770566110000
 20
-3762.208741292852200
  0
VERTEX
  8
4
  6
CONTINUOUS
 62
3
 10
10700.135770566110000
 20
-3762.208741292852200
  0
VERTEX
  8
4
  6
CONTINUOUS
 62
3
 10
10713.608255365186000
 20
-3773.403532938374200
  0
VERTEX
  8
4
  6
CONTINUOUS
 62
3
 10
10726.965423661245000
 20
-3784.781705242159200
  0
VERTEX
  8
4
  6
CONTINUOUS
 62
3
 10
10740.197333095571000
 20
-3796.341799591642500
  0
VERTEX
  8
4
  6
CONTINUOUS
 62
3
 10
10753.294041309451000
 20
-3808.082357374258700
  0
VERTEX
  8
4
  6
CONTINUOUS
 62
3
 10
10766.245605944172000
 20
-3820.001919977441500
  0
VERTEX
  8
4
  6
CONTINUOUS
 62
3
 10
10779.042084641023000
 20
-3832.099028788625200
  0
VERTEX
  8
4
  6
CONTINUOUS
 62
3
 10
10791.673535041289000
 20
-3844.372225195244900
  0
VERTEX
  8
4
  6
CONTINUOUS
 62
3
 10
10804.130014786256000
 20
-3856.820050584734000
  0
VERTEX
  8
4
  6
CONTINUOUS
 62
3
 10
10816.401581517211000
 20
-3869.441046344527400
  0
VERTEX
  8
4
  6
CONTINUOUS
 62
3
 10
10828.478292875441000
 20
-3882.233753862060400
  0
VERTEX
  8
4
  6
CONTINUOUS
 62
3
 10
10840.350206502231000
 20
-3895.196714524766300
  0
VERTEX
  8
4
  6
CONTINUOUS
 62
3
 10
10852.007380038870000
 20
-3908.328469720079700
  0
VERTEX
  8
4
  6
CONTINUOUS
 62
3
 10
10863.439871126645000
 20
-3921.627560835435400
  0
VERTEX
  8
4
  6
CONTINUOUS
 62
3
 10
10874.637737406839000
 20
-3935.092529258266900
  0
VERTEX
  8
4
  6
CONTINUOUS
 62
3
 10
10885.591036520743000
 20
-3948.721916376009600
  0
VERTEX
  8
4
  6
CONTINUOUS
 62
3
 10
10896.289826109641000
 20
-3962.514263576097200
  0
VERTEX
  8
4
  6
CONTINUOUS
 62
3
 10
10906.724163814822000
 20
-3976.468112245964700
  0
VERTEX
  8
4
  6
CONTINUOUS
 62
3
 10
10916.884107277572000
 20
-3990.582003773045900
  0
VERTEX
  8
4
  6
CONTINUOUS
 62
3
 10
10926.759714139178000
 20
-4004.854479544776000
  0
VERTEX
  8
4
  6
CONTINUOUS
 62
3
 10
10936.341042040923000
 20
-4019.284080948588300
  0
VERTEX
  8
4
  6
CONTINUOUS
 62
3
 10
10945.618148624098000
 20
-4033.869349371918400
  0
VERTEX
  8
4
  6
CONTINUOUS
 62
3
 10
10954.581091529988000
 20
-4048.608826202199500
  0
VERTEX
  8
4
  6
CONTINUOUS
 62
3
 10
10963.219928399878000
 20
-4063.501052826866700
  0
VERTEX
  8
4
  6
CONTINUOUS
 62
3
 10
10971.524716875057000
 20
-4078.544570633354900
  0
VERTEX
  8
4
  6
CONTINUOUS
 62
3
 10
10979.485514596814000
 20
-4093.737921009097600
  0
VERTEX
  8
4
  6
CONTINUOUS
 62
3
 10
10987.092379206429000
 20
-4109.079645341529600
  0
VERTEX
  8
4
  6
CONTINUOUS
 62
3
 10
10994.335368345193000
 20
-4124.568285018085600
  0
VERTEX
  8
4
  6
CONTINUOUS
 62
3
 10
11001.204539654394000
 20
-4140.202381426198400
  0
VERTEX
  8
4
  6
CONTINUOUS
 62
3
 10
11007.689950775315000
 20
-4155.980475953304400
  0
VERTEX
  8
4
  6
CONTINUOUS
 62
3
 10
11013.781659349246000
 20
-4171.901109986836700
  0
VERTEX
  8
4
  6
CONTINUOUS
 62
3
 10
11019.469723017473000
 20
-4187.962824914230600
  0
VERTEX
  8
4
  6
CONTINUOUS
 62
3
 10
11024.744199421282000
 20
-4204.164162122920100
  0
VERTEX
  8
4
  6
CONTINUOUS
 62
3
 10
11024.744199421282000
 20
-4204.164162122920100
  0
VERTEX
  8
4
  6
CONTINUOUS
 62
3
 10
11028.625901356965000
 20
-4217.093191905840300
  0
VERTEX
  8
4
  6
CONTINUOUS
 62
3
 10
11032.262428011567000
 20
-4230.102058317437700
  0
VERTEX
  8
4
  6
CONTINUOUS
 62
3
 10
11035.674288319089000
 20
-4243.183926585209500
  0
VERTEX
  8
4
  6
CONTINUOUS
 62
3
 10
11038.881991213533000
 20
-4256.331961936648400
  0
VERTEX
  8
4
  6
CONTINUOUS
 62
3
 10
11041.906045628900000
 20
-4269.539329599249900
  0
VERTEX
  8
4
  6
CONTINUOUS
 62
3
 10
11044.766960499193000
 20
-4282.799194800509200
  0
VERTEX
  8
4
  6
CONTINUOUS
 62
3
 10
11050.081407340552000
 20
-4309.449078728976000
  0
VERTEX
  8
4
  6
CONTINUOUS
 62
3
 10
11054.989403209627000
 20
-4336.226935542008500
  0
VERTEX
  8
4
  6
CONTINUOUS
 62
3
 10
11059.655019578433000
 20
-4363.078087059564500
  0
VERTEX
  8
4
  6
CONTINUOUS
 62
3
 10
11068.915399703262000
 20
-4416.781561488079200
  0
VERTEX
  8
4
  6
CONTINUOUS
 62
3
 10
11068.915399703262000
 20
-4416.781561488079200
  0
VERTEX
  8
4
  6
CONTINUOUS
 62
3
 10
11075.216998816798000
 20
-4451.054032896898200
  0
VERTEX
  8
4
  6
CONTINUOUS
 62
3
 10
11081.826312128436000
 20
-4485.214742762447700
  0
VERTEX
  8
4
  6
CONTINUOUS
 62
3
 10
11095.557795748536000
 20
-4553.349893254764500
  0
SEQEND
  8
4
  0
POLYLINE
  8
4
  6
CONTINUOUS
 62
3
 66
1
  0
VERTEX
  8
4
  6
CONTINUOUS
 62
3
 10
-3912.136704118671800
 20
-4477.353435270509200
  0
VERTEX
  8
4
  6
CONTINUOUS
 62
3
 10
-1922.345363415194700
 20
-4294.572923534775300
  0
VERTEX
  8
4
  6
CONTINUOUS
 62
3
 10
68.053119771744832
 20
-4111.970446303882500
  0
VERTEX
  8
4
  6
CONTINUOUS
 62
3
 10
1063.669771822594800
 20
-4020.791606410515700
  0
VERTEX
  8
4
  6
CONTINUOUS
 62
3
 10
2059.665887925608300
 20
-3929.724038082676100
  0
VERTEX
  8
4
  6
CONTINUOUS
 62
3
 10
3056.117360891218600
 20
-3838.789995633467700
  0
VERTEX
  8
4
  6
CONTINUOUS
 62
3
 10
4053.100083529858200
 20
-3748.011733375996300
  0
VERTEX
  8
4
  6
CONTINUOUS
 62
3
 10
4053.100083529858200
 20
-3748.011733375996300
  0
VERTEX
  8
4
  6
CONTINUOUS
 62
3
 10
4182.470306956291100
 20
-3736.304744003843100
  0
VERTEX
  8
4
  6
CONTINUOUS
 62
3
 10
4311.853756845857800
 20
-3724.937026385498900
  0
VERTEX
  8
4
  6
CONTINUOUS
 62
3
 10
4376.551382395498000
 20
-3719.485480733212600
  0
VERTEX
  8
4
  6
CONTINUOUS
 62
3
 10
4441.253443378337600
 20
-3714.244856518426800
  0
VERTEX
  8
4
  6
CONTINUOUS
 62
3
 10
4505.960316066850300
 20
-3709.257188240824200
  0
VERTEX
  8
4
  6
CONTINUOUS
 62
3
 10
4570.672376733508800
 20
-3704.564510400088200
  0
VERTEX
  8
4
  6
CONTINUOUS
 62
3
 10
4635.390001650785100
 20
-3700.208857495901600
  0
VERTEX
  8
4
  6
CONTINUOUS
 62
3
 10
4700.113567091152600
 20
-3696.232264027946300
  0
VERTEX
  8
4
  6
CONTINUOUS
 62
3
 10
4764.843449327083400
 20
-3692.676764495906400
  0
VERTEX
  8
4
  6
CONTINUOUS
 62
3
 10
4829.580024631050900
 20
-3689.584393399463800
  0
VERTEX
  8
4
  6
CONTINUOUS
 62
3
 10
4894.323669275526300
 20
-3686.997185238301400
  0
VERTEX
  8
4
  6
CONTINUOUS
 62
3
 10
4959.074759532982200
 20
-3684.957174512102900
  0
VERTEX
  8
4
  6
CONTINUOUS
 62
3
 10
4991.453214351726300
 20
-3684.155503968265300
  0
VERTEX
  8
4
  6
CONTINUOUS
 62
3
 10
5023.833671675891300
 20
-3683.506395720550200
  0
VERTEX
  8
4
  6
CONTINUOUS
 62
3
 10
5056.216178539538300
 20
-3683.015104081417100
  0
VERTEX
  8
4
  6
CONTINUOUS
 62
3
 10
5088.600781976725600
 20
-3682.686883363326200
  0
VERTEX
  8
4
  6
CONTINUOUS
 62
3
 10
5088.600781976725600
 20
-3682.686883363326200
  0
VERTEX
  8
4
  6
CONTINUOUS
 62
3
 10
5124.340911670057700
 20
-3682.521014672777700
  0
VERTEX
  8
4
  6
CONTINUOUS
 62
3
 10
5160.083007617734400
 20
-3682.571727504092000
  0
VERTEX
  8
4
  6
CONTINUOUS
 62
3
 10
5195.826425579969500
 20
-3682.850616219019700
  0
VERTEX
  8
4
  6
CONTINUOUS
 62
3
 10
5231.570521316975800
 20
-3683.369275179313300
  0
VERTEX
  8
4
  6
CONTINUOUS
 62
3
 10
5267.314650588968100
 20
-3684.139298746724300
  0
VERTEX
  8
4
  6
CONTINUOUS
 62
3
 10
5303.058169156159200
 20
-3685.172281283004800
  0
VERTEX
  8
4
  6
CONTINUOUS
 62
3
 10
5338.800432778762100
 20
-3686.479817149907400
  0
VERTEX
  8
4
  6
CONTINUOUS
 62
3
 10
5374.540797216991500
 20
-3688.073500709182600
  0
VERTEX
  8
4
  6
CONTINUOUS
 62
3
 10
5410.278618231060100
 20
-3689.964926322582900
  0
VERTEX
  8
4
  6
CONTINUOUS
 62
3
 10
5446.013251581181100
 20
-3692.165688351860400
  0
VERTEX
  8
4
  6
CONTINUOUS
 62
3
 10
5481.744053027569000
 20
-3694.687381158766600
  0
VERTEX
  8
4
  6
CONTINUOUS
 62
3
 10
5517.470378330434900
 20
-3697.541599105053100
  0
VERTEX
  8
4
  6
CONTINUOUS
 62
3
 10
5553.191583249994400
 20
-3700.739936552472000
  0
VERTEX
  8
4
  6
CONTINUOUS
 62
3
 10
5588.907023546462400
 20
-3704.293987862775800
  0
VERTEX
  8
4
  6
CONTINUOUS
 62
3
 10
5624.616054980049700
 20
-3708.215347397715500
  0
VERTEX
  8
4
  6
CONTINUOUS
 62
3
 10
5660.318033310970300
 20
-3712.515609519043200
  0
VERTEX
  8
4
  6
CONTINUOUS
 62
3
 10
5660.318033310970300
 20
-3712.515609519043200
  0
VERTEX
  8
4
  6
CONTINUOUS
 62
3
 10
5695.121892927552800
 20
-3717.087215479955400
  0
VERTEX
  8
4
  6
CONTINUOUS
 62
3
 10
5729.897705291567900
 20
-3722.054448877986900
  0
VERTEX
  8
4
  6
CONTINUOUS
 62
3
 10
5764.624742620193500
 20
-3727.441610212916200
  0
VERTEX
  8
4
  6
CONTINUOUS
 62
3
 10
5799.282277130610100
 20
-3733.272999984523300
  0
VERTEX
  8
4
  6
CONTINUOUS
 62
3
 10
5833.849581039997200
 20
-3739.572918692587300
  0
VERTEX
  8
4
  6
CONTINUOUS
 62
3
 10
5868.305926565535600
 20
-3746.365666836888500
  0
VERTEX
  8
4
  6
CONTINUOUS
 62
3
 10
5902.630585924403000
 20
-3753.675544917205600
  0
VERTEX
  8
4
  6
CONTINUOUS
 62
3
 10
5936.802831333780000
 20
-3761.526853433319000
  0
VERTEX
  8
4
  6
CONTINUOUS
 62
3
 10
5953.825321375277800
 20
-3765.663138010980200
  0
VERTEX
  8
4
  6
CONTINUOUS
 62
3
 10
5970.801935010846100
 20
-3769.943892885008600
  0
VERTEX
  8
4
  6
CONTINUOUS
 62
3
 10
5987.730081267632200
 20
-3774.372155617875300
  0
VERTEX
  8
4
  6
CONTINUOUS
 62
3
 10
6004.607169172783000
 20
-3778.950963772052500
  0
VERTEX
  8
4
  6
CONTINUOUS
 62
3
 10
6021.430607753445700
 20
-3783.683354910013800
  0
VERTEX
  8
4
  6
CONTINUOUS
 62
3
 10
6038.197806036767400
 20
-3788.572366594231900
  0
VERTEX
  8
4
  6
CONTINUOUS
 62
3
 10
6054.906173049897000
 20
-3793.621036387178300
  0
VERTEX
  8
4
  6
CONTINUOUS
 62
3
 10
6071.553117819980800
 20
-3798.832401851325400
  0
VERTEX
  8
4
  6
CONTINUOUS
 62
3
 10
6088.136049374166800
 20
-3804.209500549146000
  0
VERTEX
  8
4
  6
CONTINUOUS
 62
3
 10
6104.652376739602000
 20
-3809.755370043113100
  0
VERTEX
  8
4
  6
CONTINUOUS
 62
3
 10
6121.099508943434600
 20
-3815.473047895698500
  0
VERTEX
  8
4
  6
CONTINUOUS
 62
3
 10
6137.474855012812400
 20
-3821.365571669374700
  0
VERTEX
  8
4
  6
CONTINUOUS
 62
3
 10
6153.775823974881900
 20
-3827.435978926614600
  0
VERTEX
  8
4
  6
CONTINUOUS
 62
3
 10
6169.999824856789900
 20
-3833.687307229889500
  0
VERTEX
  8
4
  6
CONTINUOUS
 62
3
 10
6186.144266685685600
 20
-3840.122594141673300
  0
VERTEX
  8
4
  6
CONTINUOUS
 62
3
 10
6202.206558488715000
 20
-3846.744877224437900
  0
VERTEX
  8
4
  6
CONTINUOUS
 62
3
 10
6202.206558488715000
 20
-3846.744877224437900
  0
VERTEX
  8
4
  6
CONTINUOUS
 62
3
 10
6224.736962004313700
 20
-3856.415016123484300
  0
VERTEX
  8
4
  6
CONTINUOUS
 62
3
 10
6247.099883152235600
 20
-3866.459398269904300
  0
VERTEX
  8
4
  6
CONTINUOUS
 62
3
 10
6269.296699797119800
 20
-3876.873593767449200
  0
VERTEX
  8
4
  6
CONTINUOUS
 62
3
 10
6291.328789803603300
 20
-3887.653172719869900
  0
VERTEX
  8
4
  6
CONTINUOUS
 62
3
 10
6313.197531036323200
 20
-3898.793705230918000
  0
VERTEX
  8
4
  6
CONTINUOUS
 62
3
 10
6334.904301359918500
 20
-3910.290761404345600
  0
VERTEX
  8
4
  6
CONTINUOUS
 62
3
 10
6356.450478639026200
 20
-3922.139911343903300
  0
VERTEX
  8
4
  6
CONTINUOUS
 62
3
 10
6377.837440738282600
 20
-3934.336725153342700
  0
VERTEX
  8
4
  6
CONTINUOUS
 62
3
 10
6399.066565522326500
 20
-3946.876772936415400
  0
VERTEX
  8
4
  6
CONTINUOUS
 62
3
 10
6420.139230855795200
 20
-3959.755624796872300
  0
VERTEX
  8
4
  6
CONTINUOUS
 62
3
 10
6441.056814603327400
 20
-3972.968850838465600
  0
VERTEX
  8
4
  6
CONTINUOUS
 62
3
 10
6461.820694629558600
 20
-3986.512021164946000
  0
VERTEX
  8
4
  6
CONTINUOUS
 62
3
 10
6482.432248799128500
 20
-4000.380705880064900
  0
VERTEX
  8
4
  6
CONTINUOUS
 62
3
 10
6502.892854976673300
 20
-4014.570475087574300
  0
VERTEX
  8
4
  6
CONTINUOUS
 62
3
 10
6523.203891026831100
 20
-4029.076898891225000
  0
VERTEX
  8
4
  6
CONTINUOUS
 62
3
 10
6543.366734814239000
 20
-4043.895547394768500
  0
VERTEX
  8
4
  6
CONTINUOUS
 62
3
 10
6543.366734814239000
 20
-4043.895547394768500
  0
VERTEX
  8
4
  6
CONTINUOUS
 62
3
 10
6557.070992944573800
 20
-4054.214246734240500
  0
VERTEX
  8
4
  6
CONTINUOUS
 62
3
 10
6570.673131300010900
 20
-4064.692480214664100
  0
VERTEX
  8
4
  6
CONTINUOUS
 62
3
 10
6584.139749769439700
 20
-4075.345711942345600
  0
VERTEX
  8
4
  6
CONTINUOUS
 62
3
 10
6597.437448241751600
 20
-4086.189406023591300
  0
VERTEX
  8
4
  6
CONTINUOUS
 62
3
 10
6610.532826605835000
 20
-4097.239026564706400
  0
VERTEX
  8
4
  6
CONTINUOUS
 62
3
 10
6623.392484750583200
 20
-4108.510037671996500
  0
VERTEX
  8
4
  6
CONTINUOUS
 62
3
 10
6635.983022564885700
 20
-4120.017903451767800
  0
VERTEX
  8
4
  6
CONTINUOUS
 62
3
 10
6648.271039937633800
 20
-4131.778088010327300
  0
VERTEX
  8
4
  6
CONTINUOUS
 62
3
 10
6660.223136757716900
 20
-4143.806055453979800
  0
VERTEX
  8
4
  6
CONTINUOUS
 62
3
 10
6671.805912914025600
 20
-4156.117269889031400
  0
VERTEX
  8
4
  6
CONTINUOUS
 62
3
 10
6682.985968295450200
 20
-4168.727195421786700
  0
VERTEX
  8
4
  6
CONTINUOUS
 62
3
 10
6693.729902790883000
 20
-4181.651296158554000
  0
VERTEX
  8
4
  6
CONTINUOUS
 62
3
 10
6704.004316289213400
 20
-4194.905036205637800
  0
VERTEX
  8
4
  6
CONTINUOUS
 62
3
 10
6708.955015129743500
 20
-4201.660353503768400
  0
VERTEX
  8
4
  6
CONTINUOUS
 62
3
 10
6713.775808679332800
 20
-4208.503879669344300
  0
VERTEX
  8
4
  6
CONTINUOUS
 62
3
 10
6718.462521924091600
 20
-4215.437547715651800
  0
VERTEX
  8
4
  6
CONTINUOUS
 62
3
 10
6723.010979850130800
 20
-4222.463290655980000
  0
VERTEX
  8
4
  6
CONTINUOUS
 62
3
 10
6727.417007443562400
 20
-4229.583041503617100
  0
VERTEX
  8
4
  6
CONTINUOUS
 62
3
 10
6731.676429690498500
 20
-4236.798733271850300
  0
VERTEX
  8
4
  6
CONTINUOUS
 62
3
 10
6731.676429690498500
 20
-4236.798733271850300
  0
VERTEX
  8
4
  6
CONTINUOUS
 62
3
 10
6736.003497055490700
 20
-4244.508013741897200
  0
VERTEX
  8
4
  6
CONTINUOUS
 62
3
 10
6740.166120330501100
 20
-4252.320290030336800
  0
VERTEX
  8
4
  6
CONTINUOUS
 62
3
 10
6744.167329060283000
 20
-4260.229848151369900
  0
VERTEX
  8
4
  6
CONTINUOUS
 62
3
 10
6748.010152789587700
 20
-4268.230974119196600
  0
VERTEX
  8
4
  6
CONTINUOUS
 62
3
 10
6751.697621063167400
 20
-4276.317953948020700
  0
VERTEX
  8
4
  6
CONTINUOUS
 62
3
 10
6755.232763425773600
 20
-4284.485073652043900
  0
VERTEX
  8
4
  6
CONTINUOUS
 62
3
 10
6758.618609422159400
 20
-4292.726619245464500
  0
VERTEX
  8
4
  6
CONTINUOUS
 62
3
 10
6761.858188597076200
 20
-4301.036876742486100
  0
VERTEX
  8
4
  6
CONTINUOUS
 62
3
 10
6764.954530495275300
 20
-4309.410132157308900
  0
VERTEX
  8
4
  6
CONTINUOUS
 62
3
 10
6767.910664661509100
 20
-4317.840671504134700
  0
VERTEX
  8
4
  6
CONTINUOUS
 62
3
 10
6773.414427977087100
 20
-4334.850746050602500
  0
VERTEX
  8
4
  6
CONTINUOUS
 62
3
 10
6778.393714901827500
 20
-4352.021388495496500
  0
VERTEX
  8
4
  6
CONTINUOUS
 62
3
 10
6782.872761793743800
 20
-4369.306886952429500
  0
VERTEX
  8
4
  6
CONTINUOUS
 62
3
 10
6782.872761793743800
 20
-4369.306886952429500
  0
VERTEX
  8
4
  6
CONTINUOUS
 62
3
 10
6785.546880048352300
 20
-4380.666014209808100
  0
VERTEX
  8
4
  6
CONTINUOUS
 62
3
 10
6788.029713728942600
 20
-4392.052927396835000
  0
VERTEX
  8
4
  6
CONTINUOUS
 62
3
 10
6790.334015140447300
 20
-4403.465774118200000
  0
VERTEX
  8
4
  6
CONTINUOUS
 62
3
 10
6792.472536587801200
 20
-4414.902701978594500
  0
VERTEX
  8
4
  6
CONTINUOUS
 62
3
 10
6796.303248809797900
 20
-4437.841391535230300
  0
VERTEX
  8
4
  6
CONTINUOUS
 62
3
 10
6799.623868834407400
 20
-4460.854176904262200
  0
VERTEX
  8
4
  6
CONTINUOUS
 62
3
 10
6802.536415101109000
 20
-4483.926238923209900
  0
VERTEX
  8
4
  6
CONTINUOUS
 62
3
 10
6805.142906049379200
 20
-4507.042758429595800
  0
VERTEX
  8
4
  6
CONTINUOUS
 62
3
 10
6809.845795748533400
 20
-4553.349893254764500
  0
SEQEND
  8
4
  0
POLYLINE
  8
4
  6
CONTINUOUS
 62
3
 66
1
  0
VERTEX
  8
4
  6
CONTINUOUS
 62
3
 10
-3912.136704119197000
 20
-4477.353435270557400
  0
VERTEX
  8
4
  6
CONTINUOUS
 62
3
 10
-3278.365237739280000
 20
-4419.552786258667800
  0
VERTEX
  8
4
  6
CONTINUOUS
 62
3
 10
-2961.470533538547000
 20
-4390.823263108101900
  0
VERTEX
  8
4
  6
CONTINUOUS
 62
3
 10
-2644.565064124884900
 20
-4362.298701583989900
  0
VERTEX
  8
4
  6
CONTINUOUS
 62
3
 10
-2327.645241093983300
 20
-4334.047422228484700
  0
VERTEX
  8
4
  6
CONTINUOUS
 62
3
 10
-2010.707476041532100
 20
-4306.137745583735500
  0
VERTEX
  8
4
  6
CONTINUOUS
 62
3
 10
-1693.748180563221500
 20
-4278.637992191897900
  0
VERTEX
  8
4
  6
CONTINUOUS
 62
3
 10
-1376.763766254741800
 20
-4251.616482595120000
  0
VERTEX
  8
4
  6
CONTINUOUS
 62
3
 10
-1059.750644711783300
 20
-4225.141537335555800
  0
VERTEX
  8
4
  6
CONTINUOUS
 62
3
 10
-901.232197351027480
 20
-4212.130376501649200
  0
VERTEX
  8
4
  6
CONTINUOUS
 62
3
 10
-742.705227530036040
 20
-4199.281476955353400
  0
VERTEX
  8
4
  6
CONTINUOUS
 62
3
 10
-584.169286698269620
 20
-4186.603378764436500
  0
VERTEX
  8
4
  6
CONTINUOUS
 62
3
 10
-425.623926305190030
 20
-4174.104621996667400
  0
VERTEX
  8
4
  6
CONTINUOUS
 62
3
 10
-267.068697800258240
 20
-4161.793746719815300
  0
VERTEX
  8
4
  6
CONTINUOUS
 62
3
 10
-108.503152632935460
 20
-4149.679293001648100
  0
VERTEX
  8
4
  6
CONTINUOUS
 62
3
 10
50.073157747316863
 20
-4137.769800909935800
  0
VERTEX
  8
4
  6
CONTINUOUS
 62
3
 10
208.660681891037540
 20
-4126.073810512447400
  0
VERTEX
  8
4
  6
CONTINUOUS
 62
3
 10
367.259868348765280
 20
-4114.599861876951800
  0
VERTEX
  8
4
  6
CONTINUOUS
 62
3
 10
525.871165671038850
 20
-4103.356495071217100
  0
VERTEX
  8
4
  6
CONTINUOUS
 62
3
 10
684.495022408396950
 20
-4092.352250163013200
  0
VERTEX
  8
4
  6
CONTINUOUS
 62
3
 10
843.131887111378320
 20
-4081.595667220107300
  0
VERTEX
  8
4
  6
CONTINUOUS
 62
3
 10
1001.782208330521800
 20
-4071.095286310271100
  0
VERTEX
  8
4
  6
CONTINUOUS
 62
3
 10
1160.446434616365900
 20
-4060.859647501271000
  0
VERTEX
  8
4
  6
CONTINUOUS
 62
3
 10
1160.446434616365900
 20
-4060.859647501271000
  0
VERTEX
  8
4
  6
CONTINUOUS
 62
3
 10
1251.307873945756700
 20
-4055.143089318133200
  0
VERTEX
  8
4
  6
CONTINUOUS
 62
3
 10
1342.195369232350500
 20
-4049.649109174560200
  0
VERTEX
  8
4
  6
CONTINUOUS
 62
3
 10
1433.130270268253300
 20
-4044.510683236092500
  0
VERTEX
  8
4
  6
CONTINUOUS
 62
3
 10
1524.133926845570400
 20
-4039.860787668274500
  0
VERTEX
  8
4
  6
CONTINUOUS
 62
3
 10
1524.133926845570400
 20
-4039.860787668274500
  0
VERTEX
  8
4
  6
CONTINUOUS
 62
3
 10
1589.083920305882200
 20
-4036.913643600330900
  0
VERTEX
  8
4
  6
CONTINUOUS
 62
3
 10
1654.071525599708800
 20
-4034.312940736992500
  0
VERTEX
  8
4
  6
CONTINUOUS
 62
3
 10
1719.088529090961400
 20
-4032.089036564285400
  0
VERTEX
  8
4
  6
CONTINUOUS
 62
3
 10
1784.126717143550900
 20
-4030.272288568233800
  0
VERTEX
  8
4
  6
CONTINUOUS
 62
3
 10
1849.177876121388200
 20
-4028.893054234864400
  0
VERTEX
  8
4
  6
CONTINUOUS
 62
3
 10
1914.233792388384200
 20
-4027.981691050202700
  0
VERTEX
  8
4
  6
CONTINUOUS
 62
3
 10
1979.286252308449800
 20
-4027.568556500274100
  0
VERTEX
  8
4
  6
CONTINUOUS
 62
3
 10
2044.327042245496200
 20
-4027.684008071104500
  0
VERTEX
  8
4
  6
CONTINUOUS
 62
3
 10
2109.347948563434300
 20
-4028.358403248718800
  0
VERTEX
  8
4
  6
CONTINUOUS
 62
3
 10
2141.848378603959600
 20
-4028.914691404452700
  0
VERTEX
  8
4
  6
CONTINUOUS
 62
3
 10
2174.340757626174800
 20
-4029.622099519142500
  0
VERTEX
  8
4
  6
CONTINUOUS
 62
3
 10
2206.824058925568400
 20
-4030.484422278541400
  0
VERTEX
  8
4
  6
CONTINUOUS
 62
3
 10
2239.297255797629100
 20
-4031.505454368402800
  0
VERTEX
  8
4
  6
CONTINUOUS
 62
3
 10
2271.759321537845600
 20
-4032.688990474478900
  0
VERTEX
  8
4
  6
CONTINUOUS
 62
3
 10
2304.209229441707100
 20
-4034.038825282524200
  0
VERTEX
  8
4
  6
CONTINUOUS
 62
3
 10
2336.645952804702600
 20
-4035.558753478290800
  0
VERTEX
  8
4
  6
CONTINUOUS
 62
3
 10
2369.068464922320800
 20
-4037.252569747531700
  0
VERTEX
  8
4
  6
CONTINUOUS
 62
3
 10
2401.475739090050400
 20
-4039.124068776001000
  0
VERTEX
  8
4
  6
CONTINUOUS
 62
3
 10
2433.866748603381000
 20
-4041.177045249452000
  0
VERTEX
  8
4
  6
CONTINUOUS
 62
3
 10
2466.240466757800300
 20
-4043.415293853637200
  0
VERTEX
  8
4
  6
CONTINUOUS
 62
3
 10
2498.595866848797900
 20
-4045.842609274309300
  0
VERTEX
  8
4
  6
CONTINUOUS
 62
3
 10
2530.931922171862400
 20
-4048.462786197223100
  0
VERTEX
  8
4
  6
CONTINUOUS
 62
3
 10
2563.247606022483500
 20
-4051.279619308131300
  0
VERTEX
  8
4
  6
CONTINUOUS
 62
3
 10
2563.247606022483500
 20
-4051.279619308131300
  0
VERTEX
  8
4
  6
CONTINUOUS
 62
3
 10
2614.828062309286000
 20
-4056.201163097587600
  0
VERTEX
  8
4
  6
CONTINUOUS
 62
3
 10
2666.353473165615000
 20
-4061.674719965090800
  0
VERTEX
  8
4
  6
CONTINUOUS
 62
3
 10
2692.095400177738600
 20
-4064.631145276851400
  0
VERTEX
  8
4
  6
CONTINUOUS
 62
3
 10
2717.823402176708400
 20
-4067.740744226613100
  0
VERTEX
  8
4
  6
CONTINUOUS
 62
3
 10
2743.537424610679400
 20
-4071.008573603872700
  0
VERTEX
  8
4
  6
CONTINUOUS
 62
3
 10
2769.237412927806000
 20
-4074.439690198125400
  0
VERTEX
  8
4
  6
CONTINUOUS
 62
3
 10
2794.923312576243000
 20
-4078.039150798868800
  0
VERTEX
  8
4
  6
CONTINUOUS
 62
3
 10
2820.595069004144500
 20
-4081.812012195599400
  0
VERTEX
  8
4
  6
CONTINUOUS
 62
3
 10
2846.252627659666800
 20
-4085.763331177813100
  0
VERTEX
  8
4
  6
CONTINUOUS
 62
3
 10
2871.895933990963800
 20
-4089.898164535006300
  0
VERTEX
  8
4
  6
CONTINUOUS
 62
3
 10
2897.524933446190100
 20
-4094.221569056675400
  0
VERTEX
  8
4
  6
CONTINUOUS
 62
3
 10
2923.139571473500800
 20
-4098.738601532318200
  0
VERTEX
  8
4
  6
CONTINUOUS
 62
3
 10
2948.739793521051100
 20
-4103.454318751430000
  0
VERTEX
  8
4
  6
CONTINUOUS
 62
3
 10
2974.325545036994300
 20
-4108.373777503507000
  0
VERTEX
  8
4
  6
CONTINUOUS
 62
3
 10
2974.325545036994300
 20
-4108.373777503507000
  0
VERTEX
  8
4
  6
CONTINUOUS
 62
3
 10
3006.401011190543600
 20
-4114.855906271572200
  0
VERTEX
  8
4
  6
CONTINUOUS
 62
3
 10
3038.397070302799400
 20
-4121.755497922678800
  0
VERTEX
  8
4
  6
CONTINUOUS
 62
3
 10
3070.257186016478000
 20
-4129.161248866955200
  0
VERTEX
  8
4
  6
CONTINUOUS
 62
3
 10
3086.118597487200500
 20
-4133.081651702195800
  0
VERTEX
  8
4
  6
CONTINUOUS
 62
3
 10
3101.924821974297600
 20
-4137.161855514526900
  0
VERTEX
  8
4
  6
CONTINUOUS
 62
3
 10
3117.668792433109000
 20
-4141.412947355213000
  0
VERTEX
  8
4
  6
CONTINUOUS
 62
3
 10
3133.343441818975000
 20
-4145.846014275521200
  0
VERTEX
  8
4
  6
CONTINUOUS
 62
3
 10
3148.941703087234600
 20
-4150.472143326715900
  0
VERTEX
  8
4
  6
CONTINUOUS
 62
3
 10
3164.456509193227200
 20
-4155.302421560063500
  0
VERTEX
  8
4
  6
CONTINUOUS
 62
3
 10
3179.880793092293500
 20
-4160.347936026830200
  0
VERTEX
  8
4
  6
CONTINUOUS
 62
3
 10
3195.207487739772200
 20
-4165.619773778280400
  0
VERTEX
  8
4
  6
CONTINUOUS
 62
3
 10
3210.429526091003000
 20
-4171.129021865681400
  0
VERTEX
  8
4
  6
CONTINUOUS
 62
3
 10
3225.539841101326600
 20
-4176.886767340299200
  0
VERTEX
  8
4
  6
CONTINUOUS
 62
3
 10
3225.539841101326600
 20
-4176.886767340299200
  0
VERTEX
  8
4
  6
CONTINUOUS
 62
3
 10
3242.332906538266800
 20
-4183.645616426353600
  0
VERTEX
  8
4
  6
CONTINUOUS
 62
3
 10
3258.977425202933800
 20
-4190.732187556947800
  0
VERTEX
  8
4
  6
CONTINUOUS
 62
3
 10
3275.474023634160400
 20
-4198.148224625987500
  0
VERTEX
  8
4
  6
CONTINUOUS
 62
3
 10
3291.823328370781400
 20
-4205.895471527379400
  0
VERTEX
  8
4
  6
CONTINUOUS
 62
3
 10
3308.025965951629600
 20
-4213.975672155033000
  0
VERTEX
  8
4
  6
CONTINUOUS
 62
3
 10
3324.082562915539300
 20
-4222.390570402853000
  0
VERTEX
  8
4
  6
CONTINUOUS
 62
3
 10
3339.993745801343700
 20
-4231.141910164748000
  0
VERTEX
  8
4
  6
CONTINUOUS
 62
3
 10
3355.760141147877200
 20
-4240.231435334624600
  0
VERTEX
  8
4
  6
CONTINUOUS
 62
3
 10
3371.382375493973500
 20
-4249.660889806391400
  0
VERTEX
  8
4
  6
CONTINUOUS
 62
3
 10
3386.861075378466000
 20
-4259.432017473951400
  0
VERTEX
  8
4
  6
CONTINUOUS
 62
3
 10
3402.196867340189300
 20
-4269.546562231216700
  0
VERTEX
  8
4
  6
CONTINUOUS
 62
3
 10
3417.390377917976400
 20
-4280.006267972092200
  0
VERTEX
  8
4
  6
CONTINUOUS
 62
3
 10
3432.442233650660900
 20
-4290.812878590484600
  0
VERTEX
  8
4
  6
CONTINUOUS
 62
3
 10
3447.353061077077700
 20
-4301.968137980300500
  0
VERTEX
  8
4
  6
CONTINUOUS
 62
3
 10
3462.123486736059500
 20
-4313.473790035449400
  0
VERTEX
  8
4
  6
CONTINUOUS
 62
3
 10
3476.754137166441100
 20
-4325.331578649837900
  0
VERTEX
  8
4
  6
CONTINUOUS
 62
3
 10
3476.754137166441100
 20
-4325.331578649837900
  0
VERTEX
  8
4
  6
CONTINUOUS
 62
3
 10
3492.823631456429700
 20
-4338.946052129638700
  0
VERTEX
  8
4
  6
CONTINUOUS
 62
3
 10
3500.715815291767300
 20
-4345.933977106606100
  0
VERTEX
  8
4
  6
CONTINUOUS
 62
3
 10
3508.471358727135300
 20
-4353.051152039681300
  0
VERTEX
  8
4
  6
CONTINUOUS
 62
3
 10
3516.059063117384500
 20
-4360.304170277408000
  0
VERTEX
  8
4
  6
CONTINUOUS
 62
3
 10
3523.447729817366500
 20
-4367.699625168334000
  0
VERTEX
  8
4
  6
CONTINUOUS
 62
3
 10
3530.606160181931000
 20
-4375.244110061003100
  0
VERTEX
  8
4
  6
CONTINUOUS
 62
3
 10
3537.503155565930700
 20
-4382.944218303961900
  0
VERTEX
  8
4
  6
CONTINUOUS
 62
3
 10
3544.107517324215200
 20
-4390.806543245757000
  0
VERTEX
  8
4
  6
CONTINUOUS
 62
3
 10
3550.388046811636300
 20
-4398.837678234932400
  0
VERTEX
  8
4
  6
CONTINUOUS
 62
3
 10
3556.313545383044600
 20
-4407.044216620035500
  0
VERTEX
  8
4
  6
CONTINUOUS
 62
3
 10
3561.852814393291700
 20
-4415.432751749612200
  0
VERTEX
  8
4
  6
CONTINUOUS
 62
3
 10
3566.974655197227500
 20
-4424.009876972207200
  0
VERTEX
  8
4
  6
CONTINUOUS
 62
3
 10
3571.647869149704100
 20
-4432.782185636368000
  0
VERTEX
  8
4
  6
CONTINUOUS
 62
3
 10
3575.841257605571600
 20
-4441.756271090638600
  0
VERTEX
  8
4
  6
CONTINUOUS
 62
3
 10
3579.523621919681300
 20
-4450.938726683565600
  0
VERTEX
  8
4
  6
CONTINUOUS
 62
3
 10
3579.523621919681300
 20
-4450.938726683565600
  0
VERTEX
  8
4
  6
CONTINUOUS
 62
3
 10
3581.597482952769000
 20
-4456.914639719312600
  0
VERTEX
  8
4
  6
CONTINUOUS
 62
3
 10
3583.463961695124000
 20
-4462.972769182470100
  0
VERTEX
  8
4
  6
CONTINUOUS
 62
3
 10
3585.136883632795600
 20
-4469.107633977877400
  0
VERTEX
  8
4
  6
CONTINUOUS
 62
3
 10
3586.630074251832000
 20
-4475.313753010374100
  0
VERTEX
  8
4
  6
CONTINUOUS
 62
3
 10
3587.957359038282400
 20
-4481.585645184798500
  0
VERTEX
  8
4
  6
CONTINUOUS
 62
3
 10
3589.132563478196100
 20
-4487.917829405990200
  0
VERTEX
  8
4
  6
CONTINUOUS
 62
3
 10
3591.082033262606300
 20
-4500.741149608033100
  0
VERTEX
  8
4
  6
CONTINUOUS
 62
3
 10
3592.589087493453500
 20
-4513.739864855217100
  0
VERTEX
  8
4
  6
CONTINUOUS
 62
3
 10
3593.764330059129000
 20
-4526.870126386256700
  0
VERTEX
  8
4
  6
CONTINUOUS
 62
3
 10
3594.718364848023200
 20
-4540.088085439868300
  0
VERTEX
  8
4
  6
CONTINUOUS
 62
3
 10
3595.561795748526500
 20
-4553.349893254764500
  0
SEQEND
  8
4
  0
LINE
  8
4
  6
CONTINUOUS
 62
3
 10
-3939.811871681028600
 20
-4555.492749254726700
 11
-3859.656075700609100
 21
-4555.492749254726700
  0
LINE
  8
4
  6
CONTINUOUS
 62
3
 10
-3929.907306443877100
 20
-4555.492749254726700
 11
-3872.641606765623700
 21
-4555.492749254726700
  0
POLYLINE
  8
4
  6
CONTINUOUS
 62
3
 66
1
  0
VERTEX
  8
4
  6
CONTINUOUS
 62
3
 10
-3912.136704119197000
 20
-4633.632063238896100
  0
VERTEX
  8
4
  6
CONTINUOUS
 62
3
 10
-2940.629402372270300
 20
-4732.008289229164800
  0
VERTEX
  8
4
  6
CONTINUOUS
 62
3
 10
-2454.887037694942600
 20
-4781.311599560318400
  0
VERTEX
  8
4
  6
CONTINUOUS
 62
3
 10
-1969.158216452977100
 20
-4830.753146694698400
  0
VERTEX
  8
4
  6
CONTINUOUS
 62
3
 10
-1483.447453124828100
 20
-4880.379009566711800
  0
VERTEX
  8
4
  6
CONTINUOUS
 62
3
 10
-997.759262188949950
 20
-4930.235267110765600
  0
VERTEX
  8
4
  6
CONTINUOUS
 62
3
 10
-512.098158123796570
 20
-4980.367998261269300
  0
VERTEX
  8
4
  6
CONTINUOUS
 62
3
 10
-26.468655407822098
 20
-5030.823281952631100
  0
VERTEX
  8
4
  6
CONTINUOUS
 62
3
 10
459.124731480519360
 20
-5081.647197119257700
  0
VERTEX
  8
4
  6
CONTINUOUS
 62
3
 10
944.677488062773590
 20
-5132.885822695559900
  0
VERTEX
  8
4
  6
CONTINUOUS
 62
3
 10
1430.185099860486400
 20
-5184.585237615945500
  0
VERTEX
  8
4
  6
CONTINUOUS
 62
3
 10
1915.643052395203500
 20
-5236.791520814819700
  0
VERTEX
  8
4
  6
CONTINUOUS
 62
3
 10
2401.046831188471500
 20
-5289.550751226594000
  0
VERTEX
  8
4
  6
CONTINUOUS
 62
3
 10
2643.726994657545200
 20
-5316.152121304321600
  0
VERTEX
  8
4
  6
CONTINUOUS
 62
3
 10
2886.391921761835400
 20
-5342.909007785676300
  0
VERTEX
  8
4
  6
CONTINUOUS
 62
3
 10
3129.041048191536400
 20
-5369.827170537460000
  0
VERTEX
  8
4
  6
CONTINUOUS
 62
3
 10
3371.673809636841700
 20
-5396.912369426473600
  0
VERTEX
  8
4
  6
CONTINUOUS
 62
3
 10
3614.289641787943800
 20
-5424.170364319517800
  0
VERTEX
  8
4
  6
CONTINUOUS
 62
3
 10
3856.887980335035500
 20
-5451.606915083395500
  0
VERTEX
  8
4
  6
CONTINUOUS
 62
3
 10
3856.887980335035500
 20
-5451.606915083395500
  0
VERTEX
  8
4
  6
CONTINUOUS
 62
3
 10
4084.922319347128500
 20
-5477.562735764556200
  0
VERTEX
  8
4
  6
CONTINUOUS
 62
3
 10
4312.939540326594400
 20
-5503.665463242122300
  0
VERTEX
  8
4
  6
CONTINUOUS
 62
3
 10
4768.917984690033300
 20
-5556.247771824650000
  0
VERTEX
  8
4
  6
CONTINUOUS
 62
3
 10
5224.814026430132800
 20
-5609.226107307344100
  0
VERTEX
  8
4
  6
CONTINUOUS
 62
3
 10
5680.618378551673200
 20
-5662.472736166566400
  0
VERTEX
  8
4
  6
CONTINUOUS
 62
3
 10
5680.618378551673200
 20
-5662.472736166566400
  0
VERTEX
  8
4
  6
CONTINUOUS
 62
3
 10
5992.262292459858100
 20
-5698.846139837903100
  0
VERTEX
  8
4
  6
CONTINUOUS
 62
3
 10
6148.099163790369900
 20
-5716.808762676953800
  0
VERTEX
  8
4
  6
CONTINUOUS
 62
3
 10
6303.963375628063700
 20
-5734.489345670417600
  0
VERTEX
  8
4
  6
CONTINUOUS
 62
3
 10
6459.867976165116500
 20
-5751.788398432416200
  0
VERTEX
  8
4
  6
CONTINUOUS
 62
3
 10
6615.826013593705300
 20
-5768.606430577068700
  0
VERTEX
  8
4
  6
CONTINUOUS
 62
3
 10
6693.829148702381600
 20
-5776.803973172302000
  0
VERTEX
  8
4
  6
CONTINUOUS
 62
3
 10
6771.850536106007900
 20
-5784.843951718494300
  0
VERTEX
  8
4
  6
CONTINUOUS
 62
3
 10
6849.891806828607500
 20
-5792.713929917409600
  0
VERTEX
  8
4
  6
CONTINUOUS
 62
3
 10
6927.954591894200300
 20
-5800.401471470813700
  0
VERTEX
  8
4
  6
CONTINUOUS
 62
3
 10
7006.040522326811700
 20
-5807.894140080471500
  0
VERTEX
  8
4
  6
CONTINUOUS
 62
3
 10
7084.151229150460500
 20
-5815.179499448146100
  0
VERTEX
  8
4
  6
CONTINUOUS
 62
3
 10
7162.288343389171100
 20
-5822.245113275605000
  0
VERTEX
  8
4
  6
CONTINUOUS
 62
3
 10
7240.453496066964400
 20
-5829.078545264612300
  0
VERTEX
  8
4
  6
CONTINUOUS
 62
3
 10
7318.648318207863700
 20
-5835.667359116932900
  0
VERTEX
  8
4
  6
CONTINUOUS
 62
3
 10
7396.874440835890700
 20
-5841.999118534331500
  0
VERTEX
  8
4
  6
CONTINUOUS
 62
3
 10
7475.133494975067200
 20
-5848.061387218574100
  0
VERTEX
  8
4
  6
CONTINUOUS
 62
3
 10
7553.427111649414700
 20
-5853.841728871424500
  0
VERTEX
  8
4
  6
CONTINUOUS
 62
3
 10
7631.756921882955800
 20
-5859.327707194648600
  0
VERTEX
  8
4
  6
CONTINUOUS
 62
3
 10
7710.124556699713100
 20
-5864.506885890010400
  0
VERTEX
  8
4
  6
CONTINUOUS
 62
3
 10
7788.531647123709300
 20
-5869.366828659274700
  0
VERTEX
  8
4
  6
CONTINUOUS
 62
3
 10
7866.979824178965800
 20
-5873.895099204208200
  0
VERTEX
  8
4
  6
CONTINUOUS
 62
3
 10
7945.470718889504500
 20
-5878.079261226574100
  0
VERTEX
  8
4
  6
CONTINUOUS
 62
3
 10
8024.005962279346900
 20
-5881.906878428139000
  0
VERTEX
  8
4
  6
CONTINUOUS
 62
3
 10
8102.587185372516600
 20
-5885.365514510665900
  0
VERTEX
  8
4
  6
CONTINUOUS
 62
3
 10
8181.216019193034300
 20
-5888.442733175921600
  0
VERTEX
  8
4
  6
CONTINUOUS
 62
3
 10
8181.216019193034300
 20
-5888.442733175921600
  0
VERTEX
  8
4
  6
CONTINUOUS
 62
3
 10
8259.315894591916700
 20
-5891.098662396813800
  0
VERTEX
  8
4
  6
CONTINUOUS
 62
3
 10
8337.449268563179400
 20
-5893.298655660857500
  0
VERTEX
  8
4
  6
CONTINUOUS
 62
3
 10
8415.601115348385100
 20
-5894.974892532181900
  0
VERTEX
  8
4
  6
CONTINUOUS
 62
3
 10
8454.679270496704700
 20
-5895.595408434364800
  0
VERTEX
  8
4
  6
CONTINUOUS
 62
3
 10
8493.756409189092700
 20
-5896.059552574915000
  0
VERTEX
  8
4
  6
CONTINUOUS
 62
3
 10
8532.830653205746800
 20
-5896.358847399350500
  0
VERTEX
  8
4
  6
CONTINUOUS
 62
3
 10
8571.900124326861300
 20
-5896.484815353187500
  0
VERTEX
  8
4
  6
CONTINUOUS
 62
3
 10
8610.962944332630300
 20
-5896.428978881942400
  0
VERTEX
  8
4
  6
CONTINUOUS
 62
3
 10
8650.017235003251700
 20
-5896.182860431130400
  0
VERTEX
  8
4
  6
CONTINUOUS
 62
3
 10
8689.061118118916100
 20
-5895.737982446267800
  0
VERTEX
  8
4
  6
CONTINUOUS
 62
3
 10
8728.092715459821200
 20
-5895.085867372870800
  0
VERTEX
  8
4
  6
CONTINUOUS
 62
3
 10
8767.110148806161300
 20
-5894.218037656457500
  0
VERTEX
  8
4
  6
CONTINUOUS
 62
3
 10
8806.111539938130600
 20
-5893.126015742540400
  0
VERTEX
  8
4
  6
CONTINUOUS
 62
3
 10
8845.095010635923200
 20
-5891.801324076638600
  0
VERTEX
  8
4
  6
CONTINUOUS
 62
3
 10
8884.058682679737100
 20
-5890.235485104268300
  0
VERTEX
  8
4
  6
CONTINUOUS
 62
3
 10
8923.000677849766400
 20
-5888.420021270943800
  0
VERTEX
  8
4
  6
CONTINUOUS
 62
3
 10
8961.919117926203400
 20
-5886.346455022183400
  0
VERTEX
  8
4
  6
CONTINUOUS
 62
3
 10
9000.812124689244200
 20
-5884.006308803502200
  0
VERTEX
  8
4
  6
CONTINUOUS
 62
3
 10
9039.677819919086700
 20
-5881.391105060415600
  0
VERTEX
  8
4
  6
CONTINUOUS
 62
3
 10
9078.514325395923200
 20
-5878.492366238441700
  0
VERTEX
  8
4
  6
CONTINUOUS
 62
3
 10
9117.319762899947800
 20
-5875.301614783094900
  0
VERTEX
  8
4
  6
CONTINUOUS
 62
3
 10
9156.092254211358500
 20
-5871.810373139891500
  0
VERTEX
  8
4
  6
CONTINUOUS
 62
3
 10
9194.829921110344000
 20
-5868.010163754350300
  0
VERTEX
  8
4
  6
CONTINUOUS
 62
3
 10
9233.530885377107600
 20
-5863.892509071985800
  0
VERTEX
  8
4
  6
CONTINUOUS
 62
3
 10
9272.193268791839700
 20
-5859.448931538312500
  0
VERTEX
  8
4
  6
CONTINUOUS
 62
3
 10
9310.815193134734700
 20
-5854.670953598848400
  0
VERTEX
  8
4
  6
CONTINUOUS
 62
3
 10
9349.394780185988600
 20
-5849.550097699109800
  0
VERTEX
  8
4
  6
CONTINUOUS
 62
3
 10
9387.930151725797300
 20
-5844.077886284612800
  0
VERTEX
  8
4
  6
CONTINUOUS
 62
3
 10
9426.419429534353200
 20
-5838.245841800873700
  0
VERTEX
  8
4
  6
CONTINUOUS
 62
3
 10
9426.419429534353200
 20
-5838.245841800873700
  0
VERTEX
  8
4
  6
CONTINUOUS
 62
3
 10
9466.850426504443000
 20
-5831.715178360255800
  0
VERTEX
  8
4
  6
CONTINUOUS
 62
3
 10
9507.222679657665100
 20
-5824.773910264389100
  0
VERTEX
  8
4
  6
CONTINUOUS
 62
3
 10
9547.530516673683500
 20
-5817.418895876693600
  0
VERTEX
  8
4
  6
CONTINUOUS
 62
3
 10
9587.768265232163700
 20
-5809.646993560589200
  0
VERTEX
  8
4
  6
CONTINUOUS
 62
3
 10
9627.930253012769800
 20
-5801.455061679496800
  0
VERTEX
  8
4
  6
CONTINUOUS
 62
3
 10
9668.010807695163700
 20
-5792.839958596837300
  0
VERTEX
  8
4
  6
CONTINUOUS
 62
3
 10
9708.004256959009600
 20
-5783.798542676031500
  0
VERTEX
  8
4
  6
CONTINUOUS
 62
3
 10
9747.904928483967500
 20
-5774.327672280499400
  0
VERTEX
  8
4
  6
CONTINUOUS
 62
3
 10
9787.707149949705100
 20
-5764.424205773662800
  0
VERTEX
  8
4
  6
CONTINUOUS
 62
3
 10
9827.405249035884500
 20
-5754.085001518940800
  0
VERTEX
  8
4
  6
CONTINUOUS
 62
3
 10
9866.993553422169500
 20
-5743.306917879755900
  0
VERTEX
  8
4
  6
CONTINUOUS
 62
3
 10
9906.466390788224100
 20
-5732.086813219525500
  0
VERTEX
  8
4
  6
CONTINUOUS
 62
3
 10
9945.818088813712200
 20
-5720.421545901672300
  0
VERTEX
  8
4
  6
CONTINUOUS
 62
3
 10
9985.042975178294000
 20
-5708.307974289618900
  0
VERTEX
  8
4
  6
CONTINUOUS
 62
3
 10
10024.135377561637000
 20
-5695.742956746782500
  0
VERTEX
  8
4
  6
CONTINUOUS
 62
3
 10
10063.089623643403000
 20
-5682.723351636585900
  0
VERTEX
  8
4
  6
CONTINUOUS
 62
3
 10
10063.089623643403000
 20
-5682.723351636585900
  0
VERTEX
  8
4
  6
CONTINUOUS
 62
3
 10
10084.403812229389000
 20
-5675.383906668719600
  0
VERTEX
  8
4
  6
CONTINUOUS
 62
3
 10
10105.670380630555000
 20
-5667.901004540830400
  0
VERTEX
  8
4
  6
CONTINUOUS
 62
3
 10
10126.885016694450000
 20
-5660.269014284354900
  0
VERTEX
  8
4
  6
CONTINUOUS
 62
3
 10
10148.043408268618000
 20
-5652.482304930727000
  0
VERTEX
  8
4
  6
CONTINUOUS
 62
3
 10
10169.141243200610000
 20
-5644.535245511385300
  0
VERTEX
  8
4
  6
CONTINUOUS
 62
3
 10
10190.174209337979000
 20
-5636.422205057763700
  0
VERTEX
  8
4
  6
CONTINUOUS
 62
3
 10
10211.137994528271000
 20
-5628.137552601300700
  0
VERTEX
  8
4
  6
CONTINUOUS
 62
3
 10
10232.028286619033000
 20
-5619.675657173431300
  0
VERTEX
  8
4
  6
CONTINUOUS
 62
3
 10
10252.840773457817000
 20
-5611.030887805592100
  0
VERTEX
  8
4
  6
CONTINUOUS
 62
3
 10
10273.571142892171000
 20
-5602.197613529218000
  0
VERTEX
  8
4
  6
CONTINUOUS
 62
3
 10
10294.215082769642000
 20
-5593.170203375746500
  0
VERTEX
  8
4
  6
CONTINUOUS
 62
3
 10
10314.768280937782000
 20
-5583.943026376611700
  0
VERTEX
  8
4
  6
CONTINUOUS
 62
3
 10
10335.226425244138000
 20
-5574.510451563252000
  0
VERTEX
  8
4
  6
CONTINUOUS
 62
3
 10
10355.585203536260000
 20
-5564.866847967103200
  0
VERTEX
  8
4
  6
CONTINUOUS
 62
3
 10
10375.840303661696000
 20
-5555.006584619601200
  0
VERTEX
  8
4
  6
CONTINUOUS
 62
3
 10
10395.987413467995000
 20
-5544.924030552181600
  0
VERTEX
  8
4
  6
CONTINUOUS
 62
3
 10
10416.022220802706000
 20
-5534.613554796280400
  0
VERTEX
  8
4
  6
CONTINUOUS
 62
3
 10
10435.940413513379000
 20
-5524.069526383335000
  0
VERTEX
  8
4
  6
CONTINUOUS
 62
3
 10
10455.737679447560000
 20
-5513.286314344781200
  0
VERTEX
  8
4
  6
CONTINUOUS
 62
3
 10
10475.409706452803000
 20
-5502.258287712054000
  0
VERTEX
  8
4
  6
CONTINUOUS
 62
3
 10
10494.952182376651000
 20
-5490.979815516590000
  0
VERTEX
  8
4
  6
CONTINUOUS
 62
3
 10
10514.360795066659000
 20
-5479.445266789825800
  0
VERTEX
  8
4
  6
CONTINUOUS
 62
3
 10
10533.631232370371000
 20
-5467.649010563196500
  0
VERTEX
  8
4
  6
CONTINUOUS
 62
3
 10
10552.759182135338000
 20
-5455.585415868139500
  0
VERTEX
  8
4
  6
CONTINUOUS
 62
3
 10
10571.740332209108000
 20
-5443.248851736089800
  0
VERTEX
  8
4
  6
CONTINUOUS
 62
3
 10
10590.570370439232000
 20
-5430.633687198484900
  0
VERTEX
  8
4
  6
CONTINUOUS
 62
3
 10
10609.244984673256000
 20
-5417.734291286759800
  0
VERTEX
  8
4
  6
CONTINUOUS
 62
3
 10
10627.759862758730000
 20
-5404.545033032351100
  0
VERTEX
  8
4
  6
CONTINUOUS
 62
3
 10
10646.110692543203000
 20
-5391.060281466694500
  0
VERTEX
  8
4
  6
CONTINUOUS
 62
3
 10
10664.293161874225000
 20
-5377.274405621226800
  0
VERTEX
  8
4
  6
CONTINUOUS
 62
3
 10
10682.302958599346000
 20
-5363.181774527383800
  0
VERTEX
  8
4
  6
CONTINUOUS
 62
3
 10
10700.135770566110000
 20
-5348.776757216601300
  0
VERTEX
  8
4
  6
CONTINUOUS
 62
3
 10
10700.135770566110000
 20
-5348.776757216601300
  0
VERTEX
  8
4
  6
CONTINUOUS
 62
3
 10
10713.608255365186000
 20
-5337.581965571080200
  0
VERTEX
  8
4
  6
CONTINUOUS
 62
3
 10
10726.965423661245000
 20
-5326.203793267293800
  0
VERTEX
  8
4
  6
CONTINUOUS
 62
3
 10
10740.197333095571000
 20
-5314.643698917810100
  0
VERTEX
  8
4
  6
CONTINUOUS
 62
3
 10
10753.294041309451000
 20
-5302.903141135195300
  0
VERTEX
  8
4
  6
CONTINUOUS
 62
3
 10
10766.245605944172000
 20
-5290.983578532012000
  0
VERTEX
  8
4
  6
CONTINUOUS
 62
3
 10
10779.042084641023000
 20
-5278.886469720828200
  0
VERTEX
  8
4
  6
CONTINUOUS
 62
3
 10
10791.673535041289000
 20
-5266.613273314208500
  0
VERTEX
  8
4
  6
CONTINUOUS
 62
3
 10
10804.130014786256000
 20
-5254.165447924719000
  0
VERTEX
  8
4
  6
CONTINUOUS
 62
3
 10
10816.401581517211000
 20
-5241.544452164925100
  0
VERTEX
  8
4
  6
CONTINUOUS
 62
3
 10
10828.478292875441000
 20
-5228.751744647392100
  0
VERTEX
  8
4
  6
CONTINUOUS
 62
3
 10
10840.350206502231000
 20
-5215.788783984686200
  0
VERTEX
  8
4
  6
CONTINUOUS
 62
3
 10
10852.007380038870000
 20
-5202.657028789373700
  0
VERTEX
  8
4
  6
CONTINUOUS
 62
3
 10
10863.439871126645000
 20
-5189.357937674019000
  0
VERTEX
  8
4
  6
CONTINUOUS
 62
3
 10
10874.637737406839000
 20
-5175.892969251187400
  0
VERTEX
  8
4
  6
CONTINUOUS
 62
3
 10
10885.591036520743000
 20
-5162.263582133444300
  0
VERTEX
  8
4
  6
CONTINUOUS
 62
3
 10
10896.289826109641000
 20
-5148.471234933356800
  0
VERTEX
  8
4
  6
CONTINUOUS
 62
3
 10
10906.724163814822000
 20
-5134.517386263489200
  0
VERTEX
  8
4
  6
CONTINUOUS
 62
3
 10
10916.884107277572000
 20
-5120.403494736407100
  0
VERTEX
  8
4
  6
CONTINUOUS
 62
3
 10
10926.759714139178000
 20
-5106.131018964677400
  0
VERTEX
  8
4
  6
CONTINUOUS
 62
3
 10
10936.341042040923000
 20
-5091.701417560864700
  0
VERTEX
  8
4
  6
CONTINUOUS
 62
3
 10
10945.618148624098000
 20
-5077.116149137534200
  0
VERTEX
  8
4
  6
CONTINUOUS
 62
3
 10
10954.581091529988000
 20
-5062.376672307253100
  0
VERTEX
  8
4
  6
CONTINUOUS
 62
3
 10
10963.219928399878000
 20
-5047.484445682584900
  0
VERTEX
  8
4
  6
CONTINUOUS
 62
3
 10
10971.524716875057000
 20
-5032.440927876097700
  0
VERTEX
  8
4
  6
CONTINUOUS
 62
3
 10
10979.485514596814000
 20
-5017.247577500355000
  0
VERTEX
  8
4
  6
CONTINUOUS
 62
3
 10
10987.092379206429000
 20
-5001.905853167923900
  0
VERTEX
  8
4
  6
CONTINUOUS
 62
3
 10
10994.335368345193000
 20
-4986.417213491367900
  0
VERTEX
  8
4
  6
CONTINUOUS
 62
3
 10
11001.204539654394000
 20
-4970.783117083255100
  0
VERTEX
  8
4
  6
CONTINUOUS
 62
3
 10
11007.689950775315000
 20
-4955.005022556149000
  0
VERTEX
  8
4
  6
CONTINUOUS
 62
3
 10
11013.781659349246000
 20
-4939.084388522616800
  0
VERTEX
  8
4
  6
CONTINUOUS
 62
3
 10
11019.469723017473000
 20
-4923.022673595222800
  0
VERTEX
  8
4
  6
CONTINUOUS
 62
3
 10
11024.744199421282000
 20
-4906.821336386533400
  0
VERTEX
  8
4
  6
CONTINUOUS
 62
3
 10
11024.744199421282000
 20
-4906.821336386533400
  0
VERTEX
  8
4
  6
CONTINUOUS
 62
3
 10
11028.625901356965000
 20
-4893.892306603613200
  0
VERTEX
  8
4
  6
CONTINUOUS
 62
3
 10
11032.262428011567000
 20
-4880.883440192015800
  0
VERTEX
  8
4
  6
CONTINUOUS
 62
3
 10
11035.674288319089000
 20
-4867.801571924243900
  0
VERTEX
  8
4
  6
CONTINUOUS
 62
3
 10
11038.881991213533000
 20
-4854.653536572805000
  0
VERTEX
  8
4
  6
CONTINUOUS
 62
3
 10
11041.906045628900000
 20
-4841.446168910203600
  0
VERTEX
  8
4
  6
CONTINUOUS
 62
3
 10
11044.766960499193000
 20
-4828.186303708944300
  0
VERTEX
  8
4
  6
CONTINUOUS
 62
3
 10
11050.081407340552000
 20
-4801.536419780477400
  0
VERTEX
  8
4
  6
CONTINUOUS
 62
3
 10
11054.989403209627000
 20
-4774.758562967445000
  0
VERTEX
  8
4
  6
CONTINUOUS
 62
3
 10
11059.655019578433000
 20
-4747.907411449889000
  0
VERTEX
  8
4
  6
CONTINUOUS
 62
3
 10
11068.915399703262000
 20
-4694.203937021374300
  0
VERTEX
  8
4
  6
CONTINUOUS
 62
3
 10
11068.915399703262000
 20
-4694.203937021374300
  0
VERTEX
  8
4
  6
CONTINUOUS
 62
3
 10
11075.216998816798000
 20
-4659.931465612555300
  0
VERTEX
  8
4
  6
CONTINUOUS
 62
3
 10
11081.826312128436000
 20
-4625.770755747005800
  0
VERTEX
  8
4
  6
CONTINUOUS
 62
3
 10
11095.557795748536000
 20
-4557.635605254688900
  0
SEQEND
  8
4
  0
POLYLINE
  8
4
  6
CONTINUOUS
 62
3
 66
1
  0
VERTEX
  8
4
  6
CONTINUOUS
 62
3
 10
-3912.136704118671800
 20
-4633.632063238944300
  0
VERTEX
  8
4
  6
CONTINUOUS
 62
3
 10
-1922.345363415194700
 20
-4816.412574974678100
  0
VERTEX
  8
4
  6
CONTINUOUS
 62
3
 10
68.053119771744832
 20
-4999.015052205571000
  0
VERTEX
  8
4
  6
CONTINUOUS
 62
3
 10
1063.669771822594800
 20
-5090.193892098938700
  0
VERTEX
  8
4
  6
CONTINUOUS
 62
3
 10
2059.665887925608300
 20
-5181.261460426778300
  0
VERTEX
  8
4
  6
CONTINUOUS
 62
3
 10
3056.117360891218600
 20
-5272.195502875985800
  0
VERTEX
  8
4
  6
CONTINUOUS
 62
3
 10
4053.100083529858200
 20
-5362.973765133457200
  0
VERTEX
  8
4
  6
CONTINUOUS
 62
3
 10
4053.100083529858200
 20
-5362.973765133457200
  0
VERTEX
  8
4
  6
CONTINUOUS
 62
3
 10
4182.470306956291100
 20
-5374.680754505610800
  0
VERTEX
  8
4
  6
CONTINUOUS
 62
3
 10
4311.853756845857800
 20
-5386.048472123955400
  0
VERTEX
  8
4
  6
CONTINUOUS
 62
3
 10
4376.551382395498000
 20
-5391.500017776241300
  0
VERTEX
  8
4
  6
CONTINUOUS
 62
3
 10
4441.253443378337600
 20
-5396.740641991027600
  0
VERTEX
  8
4
  6
CONTINUOUS
 62
3
 10
4505.960316066850300
 20
-5401.728310268630600
  0
VERTEX
  8
4
  6
CONTINUOUS
 62
3
 10
4570.672376733508800
 20
-5406.420988109365700
  0
VERTEX
  8
4
  6
CONTINUOUS
 62
3
 10
4635.390001650785100
 20
-5410.776641013552800
  0
VERTEX
  8
4
  6
CONTINUOUS
 62
3
 10
4700.113567091152600
 20
-5414.753234481507200
  0
VERTEX
  8
4
  6
CONTINUOUS
 62
3
 10
4764.843449327083400
 20
-5418.308734013547100
  0
VERTEX
  8
4
  6
CONTINUOUS
 62
3
 10
4829.580024631050900
 20
-5421.401105109989700
  0
VERTEX
  8
4
  6
CONTINUOUS
 62
3
 10
4894.323669275526300
 20
-5423.988313271151100
  0
VERTEX
  8
4
  6
CONTINUOUS
 62
3
 10
4959.074759532982200
 20
-5426.028323997350500
  0
VERTEX
  8
4
  6
CONTINUOUS
 62
3
 10
4991.453214351726300
 20
-5426.829994541188200
  0
VERTEX
  8
4
  6
CONTINUOUS
 62
3
 10
5023.833671675891300
 20
-5427.479102788904100
  0
VERTEX
  8
4
  6
CONTINUOUS
 62
3
 10
5056.216178539538300
 20
-5427.970394428037300
  0
VERTEX
  8
4
  6
CONTINUOUS
 62
3
 10
5088.600781976725600
 20
-5428.298615146127300
  0
VERTEX
  8
4
  6
CONTINUOUS
 62
3
 10
5088.600781976725600
 20
-5428.298615146127300
  0
VERTEX
  8
4
  6
CONTINUOUS
 62
3
 10
5124.340911670057700
 20
-5428.464483836674800
  0
VERTEX
  8
4
  6
CONTINUOUS
 62
3
 10
5160.083007617734400
 20
-5428.413771005361900
  0
VERTEX
  8
4
  6
CONTINUOUS
 62
3
 10
5195.826425579969500
 20
-5428.134882290433800
  0
VERTEX
  8
4
  6
CONTINUOUS
 62
3
 10
5231.570521316975800
 20
-5427.616223330140200
  0
VERTEX
  8
4
  6
CONTINUOUS
 62
3
 10
5267.314650588968100
 20
-5426.846199762729200
  0
VERTEX
  8
4
  6
CONTINUOUS
 62
3
 10
5303.058169156159200
 20
-5425.813217226448600
  0
VERTEX
  8
4
  6
CONTINUOUS
 62
3
 10
5338.800432778762100
 20
-5424.505681359546500
  0
VERTEX
  8
4
  6
CONTINUOUS
 62
3
 10
5374.540797216991500
 20
-5422.911997800270900
  0
VERTEX
  8
4
  6
CONTINUOUS
 62
3
 10
5410.278618231060100
 20
-5421.020572186869700
  0
VERTEX
  8
4
  6
CONTINUOUS
 62
3
 10
5446.013251581181100
 20
-5418.819810157592700
  0
VERTEX
  8
4
  6
CONTINUOUS
 62
3
 10
5481.744053027569000
 20
-5416.298117350687800
  0
VERTEX
  8
4
  6
CONTINUOUS
 62
3
 10
5517.470378330434900
 20
-5413.443899404401200
  0
VERTEX
  8
4
  6
CONTINUOUS
 62
3
 10
5553.191583249994400
 20
-5410.245561956981000
  0
VERTEX
  8
4
  6
CONTINUOUS
 62
3
 10
5588.907023546462400
 20
-5406.691510646677700
  0
VERTEX
  8
4
  6
CONTINUOUS
 62
3
 10
5624.616054980049700
 20
-5402.770151111737500
  0
VERTEX
  8
4
  6
CONTINUOUS
 62
3
 10
5660.318033310970300
 20
-5398.469888990410300
  0
VERTEX
  8
4
  6
CONTINUOUS
 62
3
 10
5660.318033310970300
 20
-5398.469888990410300
  0
VERTEX
  8
4
  6
CONTINUOUS
 62
3
 10
5695.121892927552800
 20
-5393.898283029497200
  0
VERTEX
  8
4
  6
CONTINUOUS
 62
3
 10
5729.897705291567900
 20
-5388.931049631465600
  0
VERTEX
  8
4
  6
CONTINUOUS
 62
3
 10
5764.624742620193500
 20
-5383.543888296536400
  0
VERTEX
  8
4
  6
CONTINUOUS
 62
3
 10
5799.282277130610100
 20
-5377.712498524930200
  0
VERTEX
  8
4
  6
CONTINUOUS
 62
3
 10
5833.849581039997200
 20
-5371.412579816866100
  0
VERTEX
  8
4
  6
CONTINUOUS
 62
3
 10
5868.305926565535600
 20
-5364.619831672565900
  0
VERTEX
  8
4
  6
CONTINUOUS
 62
3
 10
5902.630585924403000
 20
-5357.309953592248300
  0
VERTEX
  8
4
  6
CONTINUOUS
 62
3
 10
5936.802831333780000
 20
-5349.458645076134400
  0
VERTEX
  8
4
  6
CONTINUOUS
 62
3
 10
5953.825321375277800
 20
-5345.322360498473200
  0
VERTEX
  8
4
  6
CONTINUOUS
 62
3
 10
5970.801935010846100
 20
-5341.041605624444900
  0
VERTEX
  8
4
  6
CONTINUOUS
 62
3
 10
5987.730081267632200
 20
-5336.613342891578200
  0
VERTEX
  8
4
  6
CONTINUOUS
 62
3
 10
6004.607169172783000
 20
-5332.034534737400500
  0
VERTEX
  8
4
  6
CONTINUOUS
 62
3
 10
6021.430607753445700
 20
-5327.302143599439700
  0
VERTEX
  8
4
  6
CONTINUOUS
 62
3
 10
6038.197806036767400
 20
-5322.413131915222000
  0
VERTEX
  8
4
  6
CONTINUOUS
 62
3
 10
6054.906173049897000
 20
-5317.364462122275700
  0
VERTEX
  8
4
  6
CONTINUOUS
 62
3
 10
6071.553117819980800
 20
-5312.153096658128600
  0
VERTEX
  8
4
  6
CONTINUOUS
 62
3
 10
6088.136049374166800
 20
-5306.775997960307000
  0
VERTEX
  8
4
  6
CONTINUOUS
 62
3
 10
6104.652376739602000
 20
-5301.230128466340800
  0
VERTEX
  8
4
  6
CONTINUOUS
 62
3
 10
6121.099508943434600
 20
-5295.512450613754500
  0
VERTEX
  8
4
  6
CONTINUOUS
 62
3
 10
6137.474855012812400
 20
-5289.619926840078700
  0
VERTEX
  8
4
  6
CONTINUOUS
 62
3
 10
6153.775823974881900
 20
-5283.549519582839800
  0
VERTEX
  8
4
  6
CONTINUOUS
 62
3
 10
6169.999824856789900
 20
-5277.298191279564000
  0
VERTEX
  8
4
  6
CONTINUOUS
 62
3
 10
6186.144266685685600
 20
-5270.862904367780200
  0
VERTEX
  8
4
  6
CONTINUOUS
 62
3
 10
6202.206558488715000
 20
-5264.240621285015500
  0
VERTEX
  8
4
  6
CONTINUOUS
 62
3
 10
6202.206558488715000
 20
-5264.240621285015500
  0
VERTEX
  8
4
  6
CONTINUOUS
 62
3
 10
6224.736962004313700
 20
-5254.570482385968700
  0
VERTEX
  8
4
  6
CONTINUOUS
 62
3
 10
6247.099883152235600
 20
-5244.526100239549100
  0
VERTEX
  8
4
  6
CONTINUOUS
 62
3
 10
6269.296699797119800
 20
-5234.111904742004300
  0
VERTEX
  8
4
  6
CONTINUOUS
 62
3
 10
6291.328789803603300
 20
-5223.332325789583600
  0
VERTEX
  8
4
  6
CONTINUOUS
 62
3
 10
6313.197531036323200
 20
-5212.191793278535400
  0
VERTEX
  8
4
  6
CONTINUOUS
 62
3
 10
6334.904301359918500
 20
-5200.694737105107400
  0
VERTEX
  8
4
  6
CONTINUOUS
 62
3
 10
6356.450478639026200
 20
-5188.845587165549700
  0
VERTEX
  8
4
  6
CONTINUOUS
 62
3
 10
6377.837440738282600
 20
-5176.648773356110700
  0
VERTEX
  8
4
  6
CONTINUOUS
 62
3
 10
6399.066565522326500
 20
-5164.108725573038100
  0
VERTEX
  8
4
  6
CONTINUOUS
 62
3
 10
6420.139230855795200
 20
-5151.229873712582000
  0
VERTEX
  8
4
  6
CONTINUOUS
 62
3
 10
6441.056814603327400
 20
-5138.016647670989200
  0
VERTEX
  8
4
  6
CONTINUOUS
 62
3
 10
6461.820694629558600
 20
-5124.473477344508900
  0
VERTEX
  8
4
  6
CONTINUOUS
 62
3
 10
6482.432248799128500
 20
-5110.604792629389500
  0
VERTEX
  8
4
  6
CONTINUOUS
 62
3
 10
6502.892854976673300
 20
-5096.415023421880500
  0
VERTEX
  8
4
  6
CONTINUOUS
 62
3
 10
6523.203891026831100
 20
-5081.908599618229300
  0
VERTEX
  8
4
  6
CONTINUOUS
 62
3
 10
6543.366734814239000
 20
-5067.089951114685400
  0
VERTEX
  8
4
  6
CONTINUOUS
 62
3
 10
6543.366734814239000
 20
-5067.089951114685400
  0
VERTEX
  8
4
  6
CONTINUOUS
 62
3
 10
6557.070992944573800
 20
-5056.771251775213400
  0
VERTEX
  8
4
  6
CONTINUOUS
 62
3
 10
6570.673131300010900
 20
-5046.293018294789400
  0
VERTEX
  8
4
  6
CONTINUOUS
 62
3
 10
6584.139749769439700
 20
-5035.639786567107000
  0
VERTEX
  8
4
  6
CONTINUOUS
 62
3
 10
6597.437448241751600
 20
-5024.796092485861700
  0
VERTEX
  8
4
  6
CONTINUOUS
 62
3
 10
6610.532826605835000
 20
-5013.746471944747100
  0
VERTEX
  8
4
  6
CONTINUOUS
 62
3
 10
6623.392484750583200
 20
-5002.475460837456900
  0
VERTEX
  8
4
  6
CONTINUOUS
 62
3
 10
6635.983022564885700
 20
-4990.967595057685700
  0
VERTEX
  8
4
  6
CONTINUOUS
 62
3
 10
6648.271039937633800
 20
-4979.207410499126100
  0
VERTEX
  8
4
  6
CONTINUOUS
 62
3
 10
6660.223136757716900
 20
-4967.179443055473700
  0
VERTEX
  8
4
  6
CONTINUOUS
 62
3
 10
6671.805912914025600
 20
-4954.868228620422100
  0
VERTEX
  8
4
  6
CONTINUOUS
 62
3
 10
6682.985968295450200
 20
-4942.258303087666700
  0
VERTEX
  8
4
  6
CONTINUOUS
 62
3
 10
6693.729902790883000
 20
-4929.334202350899400
  0
VERTEX
  8
4
  6
CONTINUOUS
 62
3
 10
6704.004316289213400
 20
-4916.080462303815700
  0
VERTEX
  8
4
  6
CONTINUOUS
 62
3
 10
6708.955015129743500
 20
-4909.325145005685000
  0
VERTEX
  8
4
  6
CONTINUOUS
 62
3
 10
6713.775808679332800
 20
-4902.481618840109100
  0
VERTEX
  8
4
  6
CONTINUOUS
 62
3
 10
6718.462521924091600
 20
-4895.547950793801600
  0
VERTEX
  8
4
  6
CONTINUOUS
 62
3
 10
6723.010979850130800
 20
-4888.522207853473400
  0
VERTEX
  8
4
  6
CONTINUOUS
 62
3
 10
6727.417007443562400
 20
-4881.402457005836400
  0
VERTEX
  8
4
  6
CONTINUOUS
 62
3
 10
6731.676429690498500
 20
-4874.186765237603100
  0
VERTEX
  8
4
  6
CONTINUOUS
 62
3
 10
6731.676429690498500
 20
-4874.186765237603100
  0
VERTEX
  8
4
  6
CONTINUOUS
 62
3
 10
6736.003497055490700
 20
-4866.477484767556200
  0
VERTEX
  8
4
  6
CONTINUOUS
 62
3
 10
6740.166120330501100
 20
-4858.665208479116700
  0
VERTEX
  8
4
  6
CONTINUOUS
 62
3
 10
6744.167329060283000
 20
-4850.755650358083600
  0
VERTEX
  8
4
  6
CONTINUOUS
 62
3
 10
6748.010152789587700
 20
-4842.754524390256800
  0
VERTEX
  8
4
  6
CONTINUOUS
 62
3
 10
6751.697621063167400
 20
-4834.667544561432800
  0
VERTEX
  8
4
  6
CONTINUOUS
 62
3
 10
6755.232763425773600
 20
-4826.500424857409600
  0
VERTEX
  8
4
  6
CONTINUOUS
 62
3
 10
6758.618609422159400
 20
-4818.258879263989000
  0
VERTEX
  8
4
  6
CONTINUOUS
 62
3
 10
6761.858188597076200
 20
-4809.948621766967300
  0
VERTEX
  8
4
  6
CONTINUOUS
 62
3
 10
6764.954530495275300
 20
-4801.575366352144600
  0
VERTEX
  8
4
  6
CONTINUOUS
 62
3
 10
6767.910664661509100
 20
-4793.144827005318800
  0
VERTEX
  8
4
  6
CONTINUOUS
 62
3
 10
6773.414427977087100
 20
-4776.134752458850900
  0
VERTEX
  8
4
  6
CONTINUOUS
 62
3
 10
6778.393714901827500
 20
-4758.964110013957000
  0
VERTEX
  8
4
  6
CONTINUOUS
 62
3
 10
6782.872761793743800
 20
-4741.678611557023900
  0
VERTEX
  8
4
  6
CONTINUOUS
 62
3
 10
6782.872761793743800
 20
-4741.678611557023900
  0
VERTEX
  8
4
  6
CONTINUOUS
 62
3
 10
6785.546880048352300
 20
-4730.319484299645400
  0
VERTEX
  8
4
  6
CONTINUOUS
 62
3
 10
6788.029713728942600
 20
-4718.932571112618500
  0
VERTEX
  8
4
  6
CONTINUOUS
 62
3
 10
6790.334015140447300
 20
-4707.519724391253500
  0
VERTEX
  8
4
  6
CONTINUOUS
 62
3
 10
6792.472536587801200
 20
-4696.082796530859000
  0
VERTEX
  8
4
  6
CONTINUOUS
 62
3
 10
6796.303248809797900
 20
-4673.144106974223200
  0
VERTEX
  8
4
  6
CONTINUOUS
 62
3
 10
6799.623868834407400
 20
-4650.131321605191300
  0
VERTEX
  8
4
  6
CONTINUOUS
 62
3
 10
6802.536415101109000
 20
-4627.059259586243600
  0
VERTEX
  8
4
  6
CONTINUOUS
 62
3
 10
6805.142906049379200
 20
-4603.942740079857700
  0
VERTEX
  8
4
  6
CONTINUOUS
 62
3
 10
6809.845795748533400
 20
-4557.635605254688900
  0
SEQEND
  8
4
  0
POLYLINE
  8
4
  6
CONTINUOUS
 62
3
 66
1
  0
VERTEX
  8
4
  6
CONTINUOUS
 62
3
 10
-3912.136704119197000
 20
-4633.632063238896100
  0
VERTEX
  8
4
  6
CONTINUOUS
 62
3
 10
-3278.365237739280000
 20
-4691.432712250785700
  0
VERTEX
  8
4
  6
CONTINUOUS
 62
3
 10
-2961.470533538547000
 20
-4720.162235401351600
  0
VERTEX
  8
4
  6
CONTINUOUS
 62
3
 10
-2644.565064124884900
 20
-4748.686796925463600
  0
VERTEX
  8
4
  6
CONTINUOUS
 62
3
 10
-2327.645241093983300
 20
-4776.938076280968700
  0
VERTEX
  8
4
  6
CONTINUOUS
 62
3
 10
-2010.707476041532100
 20
-4804.847752925717900
  0
VERTEX
  8
4
  6
CONTINUOUS
 62
3
 10
-1693.748180563221500
 20
-4832.347506317555600
  0
VERTEX
  8
4
  6
CONTINUOUS
 62
3
 10
-1376.763766254741800
 20
-4859.369015914333400
  0
VERTEX
  8
4
  6
CONTINUOUS
 62
3
 10
-1059.750644711783300
 20
-4885.843961173897700
  0
VERTEX
  8
4
  6
CONTINUOUS
 62
3
 10
-901.232197351027480
 20
-4898.855122007804300
  0
VERTEX
  8
4
  6
CONTINUOUS
 62
3
 10
-742.705227530036040
 20
-4911.704021554100100
  0
VERTEX
  8
4
  6
CONTINUOUS
 62
3
 10
-584.169286698269620
 20
-4924.382119745017000
  0
VERTEX
  8
4
  6
CONTINUOUS
 62
3
 10
-425.623926305190030
 20
-4936.880876512786000
  0
VERTEX
  8
4
  6
CONTINUOUS
 62
3
 10
-267.068697800258240
 20
-4949.191751789638100
  0
VERTEX
  8
4
  6
CONTINUOUS
 62
3
 10
-108.503152632935460
 20
-4961.306205507805300
  0
VERTEX
  8
4
  6
CONTINUOUS
 62
3
 10
50.073157747316863
 20
-4973.215697599517600
  0
VERTEX
  8
4
  6
CONTINUOUS
 62
3
 10
208.660681891037540
 20
-4984.911687997006100
  0
VERTEX
  8
4
  6
CONTINUOUS
 62
3
 10
367.259868348765280
 20
-4996.385636632501700
  0
VERTEX
  8
4
  6
CONTINUOUS
 62
3
 10
525.871165671038850
 20
-5007.629003438236400
  0
VERTEX
  8
4
  6
CONTINUOUS
 62
3
 10
684.495022408396950
 20
-5018.633248346440300
  0
VERTEX
  8
4
  6
CONTINUOUS
 62
3
 10
843.131887111378320
 20
-5029.389831289346100
  0
VERTEX
  8
4
  6
CONTINUOUS
 62
3
 10
1001.782208330521800
 20
-5039.890212199183200
  0
VERTEX
  8
4
  6
CONTINUOUS
 62
3
 10
1160.446434616365900
 20
-5050.125851008182500
  0
VERTEX
  8
4
  6
CONTINUOUS
 62
3
 10
1160.446434616365900
 20
-5050.125851008182500
  0
VERTEX
  8
4
  6
CONTINUOUS
 62
3
 10
1251.307873945756700
 20
-5055.842409191320300
  0
VERTEX
  8
4
  6
CONTINUOUS
 62
3
 10
1342.195369232350500
 20
-5061.336389334894200
  0
VERTEX
  8
4
  6
CONTINUOUS
 62
3
 10
1433.130270268253300
 20
-5066.474815273360900
  0
VERTEX
  8
4
  6
CONTINUOUS
 62
3
 10
1524.133926845570400
 20
-5071.124710841179000
  0
VERTEX
  8
4
  6
CONTINUOUS
 62
3
 10
1524.133926845570400
 20
-5071.124710841179000
  0
VERTEX
  8
4
  6
CONTINUOUS
 62
3
 10
1589.083920305882200
 20
-5074.071854909123400
  0
VERTEX
  8
4
  6
CONTINUOUS
 62
3
 10
1654.071525599708800
 20
-5076.672557772461000
  0
VERTEX
  8
4
  6
CONTINUOUS
 62
3
 10
1719.088529090961400
 20
-5078.896461945169000
  0
VERTEX
  8
4
  6
CONTINUOUS
 62
3
 10
1784.126717143550900
 20
-5080.713209941219200
  0
VERTEX
  8
4
  6
CONTINUOUS
 62
3
 10
1849.177876121388200
 20
-5082.092444274589100
  0
VERTEX
  8
4
  6
CONTINUOUS
 62
3
 10
1914.233792388384200
 20
-5083.003807459250300
  0
VERTEX
  8
4
  6
CONTINUOUS
 62
3
 10
1979.286252308449800
 20
-5083.416942009179400
  0
VERTEX
  8
4
  6
CONTINUOUS
 62
3
 10
2044.327042245496200
 20
-5083.301490438349000
  0
VERTEX
  8
4
  6
CONTINUOUS
 62
3
 10
2109.347948563434300
 20
-5082.627095260734700
  0
VERTEX
  8
4
  6
CONTINUOUS
 62
3
 10
2141.848378603959600
 20
-5082.070807104999400
  0
VERTEX
  8
4
  6
CONTINUOUS
 62
3
 10
2174.340757626174800
 20
-5081.363398990310100
  0
VERTEX
  8
4
  6
CONTINUOUS
 62
3
 10
2206.824058925568400
 20
-5080.501076230911200
  0
VERTEX
  8
4
  6
CONTINUOUS
 62
3
 10
2239.297255797629100
 20
-5079.480044141049800
  0
VERTEX
  8
4
  6
CONTINUOUS
 62
3
 10
2271.759321537845600
 20
-5078.296508034974100
  0
VERTEX
  8
4
  6
CONTINUOUS
 62
3
 10
2304.209229441707100
 20
-5076.946673226929300
  0
VERTEX
  8
4
  6
CONTINUOUS
 62
3
 10
2336.645952804702600
 20
-5075.426745031163600
  0
VERTEX
  8
4
  6
CONTINUOUS
 62
3
 10
2369.068464922320800
 20
-5073.732928761922300
  0
VERTEX
  8
4
  6
CONTINUOUS
 62
3
 10
2401.475739090050400
 20
-5071.861429733452500
  0
VERTEX
  8
4
  6
CONTINUOUS
 62
3
 10
2433.866748603381000
 20
-5069.808453260001400
  0
VERTEX
  8
4
  6
CONTINUOUS
 62
3
 10
2466.240466757800300
 20
-5067.570204655816300
  0
VERTEX
  8
4
  6
CONTINUOUS
 62
3
 10
2498.595866848797900
 20
-5065.142889235143200
  0
VERTEX
  8
4
  6
CONTINUOUS
 62
3
 10
2530.931922171862400
 20
-5062.522712312229500
  0
VERTEX
  8
4
  6
CONTINUOUS
 62
3
 10
2563.247606022483500
 20
-5059.705879201322200
  0
VERTEX
  8
4
  6
CONTINUOUS
 62
3
 10
2563.247606022483500
 20
-5059.705879201322200
  0
VERTEX
  8
4
  6
CONTINUOUS
 62
3
 10
2614.828062309286000
 20
-5054.784335411865900
  0
VERTEX
  8
4
  6
CONTINUOUS
 62
3
 10
2666.353473165615000
 20
-5049.310778544362600
  0
VERTEX
  8
4
  6
CONTINUOUS
 62
3
 10
2692.095400177738600
 20
-5046.354353232602100
  0
VERTEX
  8
4
  6
CONTINUOUS
 62
3
 10
2717.823402176708400
 20
-5043.244754282839500
  0
VERTEX
  8
4
  6
CONTINUOUS
 62
3
 10
2743.537424610679400
 20
-5039.976924905580700
  0
VERTEX
  8
4
  6
CONTINUOUS
 62
3
 10
2769.237412927806000
 20
-5036.545808311327200
  0
VERTEX
  8
4
  6
CONTINUOUS
 62
3
 10
2794.923312576243000
 20
-5032.946347710583700
  0
VERTEX
  8
4
  6
CONTINUOUS
 62
3
 10
2820.595069004144500
 20
-5029.173486313853600
  0
VERTEX
  8
4
  6
CONTINUOUS
 62
3
 10
2846.252627659666800
 20
-5025.222167331639900
  0
VERTEX
  8
4
  6
CONTINUOUS
 62
3
 10
2871.895933990963800
 20
-5021.087333974446700
  0
VERTEX
  8
4
  6
CONTINUOUS
 62
3
 10
2897.524933446190100
 20
-5016.763929452777100
  0
VERTEX
  8
4
  6
CONTINUOUS
 62
3
 10
2923.139571473500800
 20
-5012.246896977134400
  0
VERTEX
  8
4
  6
CONTINUOUS
 62
3
 10
2948.739793521051100
 20
-5007.531179758023400
  0
VERTEX
  8
4
  6
CONTINUOUS
 62
3
 10
2974.325545036994300
 20
-5002.611721005946500
  0
VERTEX
  8
4
  6
CONTINUOUS
 62
3
 10
2974.325545036994300
 20
-5002.611721005946500
  0
VERTEX
  8
4
  6
CONTINUOUS
 62
3
 10
3006.401011190543600
 20
-4996.129592237881300
  0
VERTEX
  8
4
  6
CONTINUOUS
 62
3
 10
3038.397070302799400
 20
-4989.230000586774600
  0
VERTEX
  8
4
  6
CONTINUOUS
 62
3
 10
3070.257186016478000
 20
-4981.824249642498200
  0
VERTEX
  8
4
  6
CONTINUOUS
 62
3
 10
3086.118597487200500
 20
-4977.903846807257700
  0
VERTEX
  8
4
  6
CONTINUOUS
 62
3
 10
3101.924821974297600
 20
-4973.823642994926600
  0
VERTEX
  8
4
  6
CONTINUOUS
 62
3
 10
3117.668792433109000
 20
-4969.572551154240500
  0
VERTEX
  8
4
  6
CONTINUOUS
 62
3
 10
3133.343441818975000
 20
-4965.139484233932300
  0
VERTEX
  8
4
  6
CONTINUOUS
 62
3
 10
3148.941703087234600
 20
-4960.513355182737500
  0
VERTEX
  8
4
  6
CONTINUOUS
 62
3
 10
3164.456509193227200
 20
-4955.683076949389900
  0
VERTEX
  8
4
  6
CONTINUOUS
 62
3
 10
3179.880793092293500
 20
-4950.637562482623300
  0
VERTEX
  8
4
  6
CONTINUOUS
 62
3
 10
3195.207487739772200
 20
-4945.365724731173000
  0
VERTEX
  8
4
  6
CONTINUOUS
 62
3
 10
3210.429526091003000
 20
-4939.856476643772100
  0
VERTEX
  8
4
  6
CONTINUOUS
 62
3
 10
3225.539841101326600
 20
-4934.098731169154200
  0
VERTEX
  8
4
  6
CONTINUOUS
 62
3
 10
3225.539841101326600
 20
-4934.098731169154200
  0
VERTEX
  8
4
  6
CONTINUOUS
 62
3
 10
3242.332906538266800
 20
-4927.339882083099800
  0
VERTEX
  8
4
  6
CONTINUOUS
 62
3
 10
3258.977425202933800
 20
-4920.253310952505700
  0
VERTEX
  8
4
  6
CONTINUOUS
 62
3
 10
3275.474023634160400
 20
-4912.837273883466000
  0
VERTEX
  8
4
  6
CONTINUOUS
 62
3
 10
3291.823328370781400
 20
-4905.090026982074100
  0
VERTEX
  8
4
  6
CONTINUOUS
 62
3
 10
3308.025965951629600
 20
-4897.009826354420500
  0
VERTEX
  8
4
  6
CONTINUOUS
 62
3
 10
3324.082562915539300
 20
-4888.594928106600500
  0
VERTEX
  8
4
  6
CONTINUOUS
 62
3
 10
3339.993745801343700
 20
-4879.843588344705500
  0
VERTEX
  8
4
  6
CONTINUOUS
 62
3
 10
3355.760141147877200
 20
-4870.754063174828800
  0
VERTEX
  8
4
  6
CONTINUOUS
 62
3
 10
3371.382375493973500
 20
-4861.324608703062000
  0
VERTEX
  8
4
  6
CONTINUOUS
 62
3
 10
3386.861075378466000
 20
-4851.553481035502000
  0
VERTEX
  8
4
  6
CONTINUOUS
 62
3
 10
3402.196867340189300
 20
-4841.438936278236700
  0
VERTEX
  8
4
  6
CONTINUOUS
 62
3
 10
3417.390377917976400
 20
-4830.979230537361200
  0
VERTEX
  8
4
  6
CONTINUOUS
 62
3
 10
3432.442233650660900
 20
-4820.172619918968800
  0
VERTEX
  8
4
  6
CONTINUOUS
 62
3
 10
3447.353061077077700
 20
-4809.017360529152900
  0
VERTEX
  8
4
  6
CONTINUOUS
 62
3
 10
3462.123486736059500
 20
-4797.511708474004100
  0
VERTEX
  8
4
  6
CONTINUOUS
 62
3
 10
3476.754137166441100
 20
-4785.653919859615600
  0
VERTEX
  8
4
  6
CONTINUOUS
 62
3
 10
3476.754137166441100
 20
-4785.653919859615600
  0
VERTEX
  8
4
  6
CONTINUOUS
 62
3
 10
3492.823631456429700
 20
-4772.039446379814800
  0
VERTEX
  8
4
  6
CONTINUOUS
 62
3
 10
3500.715815291767300
 20
-4765.051521402847400
  0
VERTEX
  8
4
  6
CONTINUOUS
 62
3
 10
3508.471358727135300
 20
-4757.934346469772200
  0
VERTEX
  8
4
  6
CONTINUOUS
 62
3
 10
3516.059063117384500
 20
-4750.681328232045400
  0
VERTEX
  8
4
  6
CONTINUOUS
 62
3
 10
3523.447729817366500
 20
-4743.285873341119400
  0
VERTEX
  8
4
  6
CONTINUOUS
 62
3
 10
3530.606160181931000
 20
-4735.741388448450400
  0
VERTEX
  8
4
  6
CONTINUOUS
 62
3
 10
3537.503155565930700
 20
-4728.041280205491600
  0
VERTEX
  8
4
  6
CONTINUOUS
 62
3
 10
3544.107517324215200
 20
-4720.178955263696500
  0
VERTEX
  8
4
  6
CONTINUOUS
 62
3
 10
3550.388046811636300
 20
-4712.147820274521100
  0
VERTEX
  8
4
  6
CONTINUOUS
 62
3
 10
3556.313545383044600
 20
-4703.941281889418000
  0
VERTEX
  8
4
  6
CONTINUOUS
 62
3
 10
3561.852814393291700
 20
-4695.552746759841300
  0
VERTEX
  8
4
  6
CONTINUOUS
 62
3
 10
3566.974655197227500
 20
-4686.975621537246300
  0
VERTEX
  8
4
  6
CONTINUOUS
 62
3
 10
3571.647869149704100
 20
-4678.203312873085500
  0
VERTEX
  8
4
  6
CONTINUOUS
 62
3
 10
3575.841257605571600
 20
-4669.229227418814800
  0
VERTEX
  8
4
  6
CONTINUOUS
 62
3
 10
3579.523621919681300
 20
-4660.046771825887800
  0
VERTEX
  8
4
  6
CONTINUOUS
 62
3
 10
3579.523621919681300
 20
-4660.046771825887800
  0
VERTEX
  8
4
  6
CONTINUOUS
 62
3
 10
3581.597482952769000
 20
-4654.070858790140800
  0
VERTEX
  8
4
  6
CONTINUOUS
 62
3
 10
3583.463961695124000
 20
-4648.012729326983400
  0
VERTEX
  8
4
  6
CONTINUOUS
 62
3
 10
3585.136883632795600
 20
-4641.877864531576100
  0
VERTEX
  8
4
  6
CONTINUOUS
 62
3
 10
3586.630074251832000
 20
-4635.671745499079400
  0
VERTEX
  8
4
  6
CONTINUOUS
 62
3
 10
3587.957359038282400
 20
-4629.399853324654900
  0
VERTEX
  8
4
  6
CONTINUOUS
 62
3
 10
3589.132563478196100
 20
-4623.067669103463200
  0
VERTEX
  8
4
  6
CONTINUOUS
 62
3
 10
3591.082033262606300
 20
-4610.244348901420400
  0
VERTEX
  8
4
  6
CONTINUOUS
 62
3
 10
3592.589087493453500
 20
-4597.245633654236400
  0
VERTEX
  8
4
  6
CONTINUOUS
 62
3
 10
3593.764330059129000
 20
-4584.115372123196700
  0
VERTEX
  8
4
  6
CONTINUOUS
 62
3
 10
3594.718364848023200
 20
-4570.897413069585100
  0
VERTEX
  8
4
  6
CONTINUOUS
 62
3
 10
3595.561795748526500
 20
-4557.635605254688900
  0
SEQEND
  8
4
  0
ENDSEC
  0
EOF
