  0
SECTION
  2
HEADER
  9
$ACADVER
  1
AC1009
  9
$INSBASE
 10
0.0
 20
0.0
 30
0.0
  9
$EXTMIN
 10
-96.101573511340703
 20
-999.92493295416079
 30
-0.0015258207003583
  9
$EXTMAX
 10
96.101574406301665
 20
19.331105700423901
 30
0.0000000349246037
  9
$LIMMIN
 10
0.0
 20
0.0
  9
$LIMMAX
 10
12.0
 20
9.0
  9
$ORTHOMODE
 70
     0
  9
$REGENMODE
 70
     1
  9
$FILLMODE
 70
     1
  9
$QTEXTMODE
 70
     0
  9
$MIRRTEXT
 70
     1
  9
$DRAGMODE
 70
     2
  9
$LTSCALE
 40
1.0
  9
$OSMODE
 70
  3071
  9
$ATTMODE
 70
     1
  9
$TEXTSIZE
 40
3.200000047683714
  9
$TRACEWID
 40
0.05
  9
$TEXTSTYLE
  7
STANDARD1
  9
$CLAYER
  8
0
  9
$CELTYPE
  6
CONTINUOUS
  9
$CECOLOR
 62
   256
  9
$DIMSCALE
 40
1.0
  9
$DIMASZ
 40
1.931851648807023
  9
$DIMEXO
 40
1.0
  9
$DIMDLI
 40
0.38
  9
$DIMRND
 40
0.0
  9
$DIMDLE
 40
0.0
  9
$DIMEXE
 40
2.0
  9
$DIMTP
 40
0.0
  9
$DIMTM
 40
0.0
  9
$DIMTXT
 40
2.0
  9
$DIMCEN
 40
0.09
  9
$DIMTSZ
 40
0.0
  9
$DIMTOL
 70
     0
  9
$DIMLIM
 70
     0
  9
$DIMTIH
 70
     1
  9
$DIMTOH
 70
     1
  9
$DIMSE1
 70
     0
  9
$DIMSE2
 70
     0
  9
$DIMTAD
 70
     1
  9
$DIMZIN
 70
     0
  9
$DIMBLK
  1

  9
$DIMASO
 70
     1
  9
$DIMSHO
 70
     1
  9
$DIMPOST
  1

  9
$DIMAPOST
  1

  9
$DIMALT
 70
     0
  9
$DIMALTD
 70
     2
  9
$DIMALTF
 40
25.399999999999999
  9
$DIMLFAC
 40
10.0
  9
$DIMTOFL
 70
     0
  9
$DIMTVP
 40
0.0
  9
$DIMTIX
 70
     0
  9
$DIMSOXD
 70
     0
  9
$DIMSAH
 70
     0
  9
$DIMBLK1
  1

  9
$DIMBLK2
  1

  9
$DIMSTYLE
  2
STANDARD
  9
$DIMCLRD
 70
     0
  9
$DIMCLRE
 70
     0
  9
$DIMCLRT
 70
     0
  9
$DIMTFAC
 40
0.625
  9
$DIMGAP
 40
0.09
  9
$LUNITS
 70
     2
  9
$LUPREC
 70
     3
  9
$SKETCHINC
 40
0.1
  9
$FILLETRAD
 40
0.0
  9
$AUNITS
 70
     0
  9
$AUPREC
 70
     0
  9
$MENU
  1
.
  9
$ELEVATION
 40
0.0
  9
$PELEVATION
 40
0.0
  9
$THICKNESS
 40
0.0
  9
$LIMCHECK
 70
     0
  9
$BLIPMODE
 70
     0
  9
$CHAMFERA
 40
0.0
  9
$CHAMFERB
 40
0.0
  9
$SKPOLY
 70
     0
  9
$TDCREATE
 40
2452723.4802515521
  9
$TDUPDATE
 40
2454284.5520800701
  9
$TDINDWG
 40
0.1165152315
  9
$TDUSRTIMER
 40
0.1164815278
  9
$USRTIMER
 70
     1
  9
$ANGBASE
 50
0.0
  9
$ANGDIR
 70
     0
  9
$PDMODE
 70
     0
  9
$PDSIZE
 40
0.0
  9
$PLINEWID
 40
0.0
  9
$COORDS
 70
     1
  9
$SPLFRAME
 70
     0
  9
$SPLINETYPE
 70
     6
  9
$SPLINESEGS
 70
     8
  9
$ATTDIA
 70
     0
  9
$ATTREQ
 70
     1
  9
$HANDLING
 70
     1
  9
$HANDSEED
  5
18F4
  9
$SURFTAB1
 70
     6
  9
$SURFTAB2
 70
     6
  9
$SURFTYPE
 70
     6
  9
$SURFU
 70
     6
  9
$SURFV
 70
     6
  9
$UCSNAME
  2

  9
$UCSORG
 10
0.0
 20
0.0
 30
0.0
  9
$UCSXDIR
 10
1.0
 20
0.0
 30
0.0
  9
$UCSYDIR
 10
0.0
 20
1.0
 30
0.0
  9
$PUCSNAME
  2

  9
$PUCSORG
 10
0.0
 20
0.0
 30
0.0
  9
$PUCSXDIR
 10
1.0
 20
0.0
 30
0.0
  9
$PUCSYDIR
 10
0.0
 20
1.0
 30
0.0
  9
$USERI1
 70
     0
  9
$USERI2
 70
     0
  9
$USERI3
 70
     0
  9
$USERI4
 70
     0
  9
$USERI5
 70
     0
  9
$USERR1
 40
0.0
  9
$USERR2
 40
0.0
  9
$USERR3
 40
0.0
  9
$USERR4
 40
0.0
  9
$USERR5
 40
0.0
  9
$WORLDVIEW
 70
     1
  9
$SHADEDGE
 70
     3
  9
$SHADEDIF
 70
    70
  9
$TILEMODE
 70
     1
  9
$MAXACTVP
 70
    64
  9
$PLIMCHECK
 70
     0
  9
$PEXTMIN
 10
1.0000000000000000E+020
 20
1.0000000000000000E+020
 30
1.0000000000000000E+020
  9
$PEXTMAX
 10
-1.0000000000000000E+020
 20
-1.0000000000000000E+020
 30
-1.0000000000000000E+020
  9
$PLIMMIN
 10
0.0
 20
0.0
  9
$PLIMMAX
 10
12.0
 20
9.0
  9
$UNITMODE
 70
     0
  9
$VISRETAIN
 70
     1
  9
$PLINEGEN
 70
     0
  9
$PSLTSCALE
 70
     1
  0
ENDSEC
  0
SECTION
  2
TABLES
  0
TABLE
  2
VPORT
 70
     1
  0
VPORT
  2
*ACTIVE
 70
     0
 10
0.0
 20
0.0
 11
1.0
 21
1.0
 12
0.0000004474804882
 22
-490.29691362686839
 13
0.0
 23
0.0
 14
1.0
 24
1.0
 15
0.0
 25
0.0
 16
0.0
 26
0.0
 36
1.0
 17
0.0
 27
0.0
 37
0.0
 40
1028.005017527156
 41
1.6704871060171911
 42
50.0
 43
0.0
 44
0.0
 50
0.0
 51
0.0
 71
     0
 72
   100
 73
     1
 74
     1
 75
     0
 76
     0
 77
     0
 78
     0
  0
ENDTAB
  0
TABLE
  2
LTYPE
 70
     4
  0
LTYPE
  2
CONTINUOUS
 70
     0
  3
Solid line
 72
    65
 73
     0
 40
0.0
  0
LTYPE
  2
DASHED
 70
     0
  3
-- -- -- -- -- -- -- -- -- -- -- -- -- -- --
 72
    65
 73
     2
 40
0.75
 49
0.5
 49
-0.25
  0
LTYPE
  2
DASHDOT
 70
     0
  3
__ . __ . __ . __ . __ . __ . __ . __ . __ . __
 72
    65
 73
     4
 40
1.0
 49
0.5
 49
-0.25
 49
0.0
 49
-0.25
  0
LTYPE
  2
DIVIDE
 70
     0
  3
__ . . __ . . __ . . __ . . __ . . __ . . __
 72
    65
 73
     6
 40
1.25
 49
0.5
 49
-0.25
 49
0.0
 49
-0.25
 49
0.0
 49
-0.25
  0
ENDTAB
  0
TABLE
  2
LAYER
 70
     2
  0
LAYER
  2
0
 70
     0
 62
     7
  6
CONTINUOUS
  0
LAYER
  2
DEFPOINTS
 70
     0
 62
     7
  6
CONTINUOUS
  0
ENDTAB
  0
TABLE
  2
STYLE
 70
     5
  0
STYLE
  2
STANDARD
 70
     0
 40
0.0
 41
1.0
 50
0.0
 71
     0
 42
0.2
  3
txt
  4

  0
STYLE
  2
STANDARD1
 70
     0
 40
0.0
 41
1.0
 50
0.0
 71
     0
 42
3.200000047683714
  3
MONOTXT
  4
BIGFONT
  0
STYLE
  2
STANDARD2
 70
     4
 40
0.0
 41
1.0
 50
0.0
 71
     0
 42
3.200000047683714
  3
MONOTXT
  4
BIGFONT
  0
STYLE
  2
STANDARD3
 70
     0
 40
0.0
 41
1.0
 50
0.0
 71
     0
 42
3.200000047683714
  3
MONOTXT
  4

  0
STYLE
  2
STANDARD4
 70
     4
 40
0.0
 41
1.0
 50
0.0
 71
     0
 42
3.200000047683714
  3
MONOTXT
  4

  0
ENDTAB
  0
TABLE
  2
VIEW
 70
     0
  0
ENDTAB
  0
TABLE
  2
UCS
 70
     0
  0
ENDTAB
  0
TABLE
  2
APPID
 70
     1
  0
APPID
  2
ACAD
 70
     0
  0
ENDTAB
  0
TABLE
  2
DIMSTYLE
 70
     1
  0
DIMSTYLE
  2
STANDARD
 70
     0
  3

  4

  5

  6

  7

 40
1.0
 41
0.18
 42
0.0625
 43
0.38
 44
0.18
 45
0.0
 46
0.0
 47
0.0
 48
0.0
140
0.18
141
0.09
142
0.0
143
25.399999999999999
144
1.0
145
0.0
146
1.0
147
0.09
 71
     0
 72
     0
 73
     1
 74
     1
 75
     0
 76
     0
 77
     0
 78
     0
170
     0
171
     2
172
     0
173
     0
174
     0
175
     0
176
     0
177
     0
178
     0
  0
ENDTAB
  0
ENDSEC
  0
SECTION
  2
BLOCKS
  0
BLOCK
  8
0
  2
$MODEL_SPACE
 70
     0
 10
0.0
 20
0.0
 30
0.0
  3
$MODEL_SPACE
  1

  0
ENDBLK
  5
1344
  8
0
  0
BLOCK
 67
     1
  8
0
  2
$PAPER_SPACE
 70
     0
 10
0.0
 20
0.0
 30
0.0
  3
$PAPER_SPACE
  1

  0
ENDBLK
  5
1340
 67
     1
  8
0
  0
BLOCK
  8
0
  2
A$C0DCE74DC
 70
     0
 10
0.0
 20
0.0
 30
0.0
  3
A$C0DCE74DC
  1

  0
POLYLINE
  5
44B
  8
0
  6
CONTINUOUS
 66
     1
 10
0.0
 20
0.0
 30
0.0
  0
VERTEX
  5
150F
  8
0
  6
CONTINUOUS
 10
-289.6721186087658
 20
3.7766067386907789
 30
0.0
  0
VERTEX
  5
1510
  8
0
  6
CONTINUOUS
 10
-269.17278315711081
 20
-164.48365390275839
 30
0.0
  0
VERTEX
  5
1511
  8
0
  6
CONTINUOUS
 10
-247.0269924953337
 20
-348.03120324021592
 30
0.0
  0
VERTEX
  5
1512
  8
0
  6
CONTINUOUS
 10
-247.0269924953337
 20
-348.03120324021592
 30
0.0
  0
VERTEX
  5
1513
  8
0
  6
CONTINUOUS
 10
-242.44321858344691
 20
-386.90221946622182
 30
0.0
  0
VERTEX
  5
1514
  8
0
  6
CONTINUOUS
 10
-237.6518540448908
 20
-430.95936654022353
 30
0.0
  0
VERTEX
  5
1515
  8
0
  6
CONTINUOUS
 10
-235.15127682972931
 20
-456.20221391789971
 30
0.0
  0
VERTEX
  5
1516
  8
0
  6
CONTINUOUS
 10
-232.56634380484181
 20
-484.26496373478801
 30
0.0
  0
VERTEX
  5
1517
  8
0
  6
CONTINUOUS
 10
-229.8862355858754
 20
-515.65540589995965
 30
0.0
  0
VERTEX
  5
1518
  8
0
  6
CONTINUOUS
 10
-227.10013278847691
 20
-550.88133032248493
 30
0.0
  0
VERTEX
  5
1519
  8
0
  6
CONTINUOUS
 10
-227.10013278847691
 20
-550.88133032248493
 30
0.0
  0
VERTEX
  5
151A
  8
0
  6
CONTINUOUS
 10
-223.4640820822888
 20
-599.98554780294569
 30
0.0
  0
VERTEX
  5
151B
  8
0
  6
CONTINUOUS
 10
-219.923677122257
 20
-647.13958455855732
 30
0.0
  0
VERTEX
  5
151C
  8
0
  6
CONTINUOUS
 10
-219.923677122257
 20
-647.13958455855732
 30
0.0
  0
VERTEX
  5
151D
  8
0
  6
CONTINUOUS
 10
-218.2989038222255
 20
-667.84922108850674
 30
0.0
  0
VERTEX
  5
151E
  8
0
  6
CONTINUOUS
 10
-216.93250760092889
 20
-688.57000846537539
 30
0.0
  0
VERTEX
  5
151F
  8
0
  6
CONTINUOUS
 10
-216.39744502732279
 20
-699.78392000542203
 30
0.0
  0
VERTEX
  5
1520
  8
0
  6
CONTINUOUS
 10
-215.9884696824202
 20
-712.01982279802019
 30
0.0
  0
VERTEX
  5
1521
  8
0
  6
CONTINUOUS
 10
-215.72607921922781
 20
-725.61745135677711
 30
0.0
  0
VERTEX
  5
1522
  8
0
  6
CONTINUOUS
 10
-215.63077129075199
 20
-740.9165401952996
 30
0.0
  0
VERTEX
  5
1523
  8
0
  6
CONTINUOUS
 10
-215.63077129075199
 20
-740.9165401952996
 30
0.0
  0
VERTEX
  5
1524
  8
0
  6
CONTINUOUS
 10
-215.70681489750359
 20
-755.82214911234075
 30
0.0
  0
VERTEX
  5
1525
  8
0
  6
CONTINUOUS
 10
-215.977205629163
 20
-771.55683990445561
 30
0.0
  0
VERTEX
  5
1526
  8
0
  6
CONTINUOUS
 10
-216.4923674753183
 20
-787.3835634068281
 30
0.0
  0
VERTEX
  5
1527
  8
0
  6
CONTINUOUS
 10
-217.30272442555679
 20
-802.5652704546402
 30
0.0
  0
VERTEX
  5
1528
  8
0
  6
CONTINUOUS
 10
-217.30272442555679
 20
-802.5652704546402
 30
0.0
  0
VERTEX
  5
1529
  8
0
  6
CONTINUOUS
 10
-218.41229944504789
 20
-816.58994593909529
 30
0.0
  0
VERTEX
  5
152A
  8
0
  6
CONTINUOUS
 10
-219.63951140128779
 20
-829.84571097548223
 30
0.0
  0
VERTEX
  5
152B
  8
0
  6
CONTINUOUS
 10
-220.7563781373544
 20
-842.94572073510972
 30
0.0
  0
VERTEX
  5
152C
  8
0
  6
CONTINUOUS
 10
-221.5349174963261
 20
-856.50313038928743
 30
0.0
  0
VERTEX
  5
152D
  8
0
  6
CONTINUOUS
 10
-221.5349174963261
 20
-856.50313038928743
 30
0.0
  0
VERTEX
  5
152E
  8
0
  6
CONTINUOUS
 10
-221.9899572456454
 20
-871.1829182495195
 30
0.0
  0
VERTEX
  5
152F
  8
0
  6
CONTINUOUS
 10
-222.3891352291941
 20
-879.21304970823223
 30
0.0
  0
VERTEX
  5
1530
  8
0
  6
CONTINUOUS
 10
-223.10756485021349
 20
-887.85735518808872
 30
0.0
  0
VERTEX
  5
1531
  8
0
  6
CONTINUOUS
 10
-224.29885578236139
 20
-897.23134644064953
 30
0.0
  0
VERTEX
  5
1532
  8
0
  6
CONTINUOUS
 10
-226.1166176992964
 20
-907.45053521747343
 30
0.0
  0
VERTEX
  5
1533
  8
0
  6
CONTINUOUS
 10
-227.30842830007731
 20
-912.91317609984685
 30
0.0
  0
VERTEX
  5
1534
  8
0
  6
CONTINUOUS
 10
-228.7144602746767
 20
-918.63043327012065
 30
0.0
  0
VERTEX
  5
1535
  8
0
  6
CONTINUOUS
 10
-230.3539148323018
 20
-924.61674569724039
 30
0.0
  0
VERTEX
  5
1536
  8
0
  6
CONTINUOUS
 10
-232.2459931821603
 20
-930.88655235015108
 30
0.0
  0
VERTEX
  5
1537
  8
0
  6
CONTINUOUS
 10
-232.2459931821603
 20
-930.88655235015108
 30
0.0
  0
VERTEX
  5
1538
  8
0
  6
CONTINUOUS
 10
-236.89170887803641
 20
-944.84629467450372
 30
0.0
  0
VERTEX
  5
1539
  8
0
  6
CONTINUOUS
 10
-239.27117600938161
 20
-951.97652605349299
 30
0.0
  0
VERTEX
  5
153A
  8
0
  6
CONTINUOUS
 10
-241.4784541999781
 20
-959.02400660639069
 30
0.0
  0
VERTEX
  5
153B
  8
0
  6
CONTINUOUS
 10
-241.4784541999781
 20
-959.02400660639069
 30
0.0
  0
VERTEX
  5
153C
  8
0
  6
CONTINUOUS
 10
-243.51064012962161
 20
-965.96526730888615
 30
0.0
  0
VERTEX
  5
153D
  8
0
  6
CONTINUOUS
 10
-246.3513471538854
 20
-972.37651029083202
 30
0.0
  0
VERTEX
  5
153E
  8
0
  6
CONTINUOUS
 10
-250.82398515154719
 20
-979.70582000939271
 30
0.0
  0
VERTEX
  5
153F
  8
0
  6
CONTINUOUS
 10
-254.67544608339449
 20
-984.83458221576461
 30
0.0
  0
VERTEX
  5
1540
  8
0
  6
CONTINUOUS
 10
-261.4725315409724
 20
-990.20475900619999
 30
0.0
  0
VERTEX
  5
1541
  8
0
  6
CONTINUOUS
 10
-269.2718420883985
 20
-993.92153291900161
 30
0.0
  0
VERTEX
  5
1542
  8
0
  6
CONTINUOUS
 10
-277.55724489175748
 20
-995.58143675953636
 30
0.0
  0
VERTEX
  5
1543
  8
0
  6
CONTINUOUS
 10
-277.55724489175748
 20
-995.58143675953636
 30
0.0
  0
VERTEX
  5
1544
  8
0
  6
CONTINUOUS
 10
-289.0845749379597
 20
-996.01559399550433
 30
0.0
  0
VERTEX
  5
1545
  8
0
  6
CONTINUOUS
 10
-302.1721186087658
 20
-996.22339326130862
 30
0.0
  0
SEQEND
  5
1546
  8
0
  6
CONTINUOUS
  0
POLYLINE
  5
44C
  8
0
  6
CONTINUOUS
 66
     1
 10
0.0
 20
0.0
 30
0.0
  0
VERTEX
  5
1547
  8
0
  6
CONTINUOUS
 10
-62.499999999999929
 20
-0.0000000000000004
 30
0.0
  0
VERTEX
  5
1548
  8
0
  6
CONTINUOUS
 10
-65.961798884418442
 20
-82.452168228651544
 30
0.0
  0
VERTEX
  5
1549
  8
0
  6
CONTINUOUS
 10
-69.038134912473964
 20
-153.5172099571331
 30
0.0
  0
VERTEX
  5
154A
  8
0
  6
CONTINUOUS
 10
-69.038134912473964
 20
-153.5172099571331
 30
0.0
  0
VERTEX
  5
154B
  8
0
  6
CONTINUOUS
 10
-71.548229095948543
 20
-207.22612628461039
 30
0.0
  0
VERTEX
  5
154C
  8
0
  6
CONTINUOUS
 10
-74.130037919204625
 20
-259.28242870758947
 30
0.0
  0
VERTEX
  5
154D
  8
0
  6
CONTINUOUS
 10
-74.130037919204625
 20
-259.28242870758947
 30
0.0
  0
VERTEX
  5
154E
  8
0
  6
CONTINUOUS
 10
-77.506282250511262
 20
-325.61558401726319
 30
0.0
  0
VERTEX
  5
154F
  8
0
  6
CONTINUOUS
 10
-79.575763615484902
 20
-362.94823526508731
 30
0.0
  0
VERTEX
  5
1550
  8
0
  6
CONTINUOUS
 10
-81.920005021185062
 20
-401.38636978622691
 30
0.0
  0
VERTEX
  5
1551
  8
0
  6
CONTINUOUS
 10
-81.920005021185062
 20
-401.38636978622691
 30
0.0
  0
VERTEX
  5
1552
  8
0
  6
CONTINUOUS
 10
-87.371291258564256
 20
-483.46637340527639
 30
0.0
  0
VERTEX
  5
1553
  8
0
  6
CONTINUOUS
 10
-90.339939124870256
 20
-534.09199423909195
 30
0.0
  0
VERTEX
  5
1554
  8
0
  6
CONTINUOUS
 10
-91.851375576962269
 20
-563.51765852172355
 30
0.0
  0
VERTEX
  5
1555
  8
0
  6
CONTINUOUS
 10
-93.368072311026992
 20
-596.33911075660967
 30
0.0
  0
VERTEX
  5
1556
  8
0
  6
CONTINUOUS
 10
-93.368072311026992
 20
-596.33911075660967
 30
0.0
  0
VERTEX
  5
1557
  8
0
  6
CONTINUOUS
 10
-94.494574912498592
 20
-623.71508501709889
 30
0.0
  0
VERTEX
  5
1558
  8
0
  6
CONTINUOUS
 10
-95.450992324700877
 20
-652.20502903446697
 30
0.0
  0
VERTEX
  5
1559
  8
0
  6
CONTINUOUS
 10
-96.069767384542274
 20
-680.66482277019452
 30
0.0
  0
VERTEX
  5
155A
  8
0
  6
CONTINUOUS
 10
-96.200177418861543
 20
-694.52587577040538
 30
0.0
  0
VERTEX
  5
155B
  8
0
  6
CONTINUOUS
 10
-96.183342928931125
 20
-707.95034618576153
 30
0.0
  0
VERTEX
  5
155C
  8
0
  6
CONTINUOUS
 10
-96.183342928931125
 20
-707.95034618576153
 30
0.0
  0
VERTEX
  5
155D
  8
0
  6
CONTINUOUS
 10
-96.008074555501423
 20
-720.83159113139925
 30
0.0
  0
VERTEX
  5
155E
  8
0
  6
CONTINUOUS
 10
-95.702204083869404
 20
-733.20845620225953
 30
0.0
  0
VERTEX
  5
155F
  8
0
  6
CONTINUOUS
 10
-94.849005131733477
 20
-756.74991757921771
 30
0.0
  0
VERTEX
  5
1560
  8
0
  6
CONTINUOUS
 10
-93.924442643993231
 20
-779.17647203577656
 30
0.0
  0
VERTEX
  5
1561
  8
0
  6
CONTINUOUS
 10
-93.229213192118834
 20
-801.08986129107711
 30
0.0
  0
VERTEX
  5
1562
  8
0
  6
CONTINUOUS
 10
-93.229213192118834
 20
-801.08986129107711
 30
0.0
  0
VERTEX
  5
1563
  8
0
  6
CONTINUOUS
 10
-93.014756833505217
 20
-812.08545529471269
 30
0.0
  0
VERTEX
  5
1564
  8
0
  6
CONTINUOUS
 10
-92.689539749896952
 20
-823.43816337806368
 30
0.0
  0
VERTEX
  5
1565
  8
0
  6
CONTINUOUS
 10
-92.010293814465356
 20
-835.48295549137663
 30
0.0
  0
VERTEX
  5
1566
  8
0
  6
CONTINUOUS
 10
-91.461888737681903
 20
-841.86956116872011
 30
0.0
  0
VERTEX
  5
1567
  8
0
  6
CONTINUOUS
 10
-90.73375090038185
 20
-848.55480158489593
 30
0.0
  0
VERTEX
  5
1568
  8
0
  6
CONTINUOUS
 10
-89.795471786711616
 20
-855.58054798368516
 30
0.0
  0
VERTEX
  5
1569
  8
0
  6
CONTINUOUS
 10
-88.616642880817736
 20
-862.98867160886755
 30
0.0
  0
VERTEX
  5
156A
  8
0
  6
CONTINUOUS
 10
-87.166855666846487
 20
-870.82104370422519
 30
0.0
  0
VERTEX
  5
156B
  8
0
  6
CONTINUOUS
 10
-85.415701628944419
 20
-879.1195355135377
 30
0.0
  0
VERTEX
  5
156C
  8
0
  6
CONTINUOUS
 10
-83.332772251257808
 20
-887.92601828058594
 30
0.0
  0
VERTEX
  5
156D
  8
0
  6
CONTINUOUS
 10
-80.887659017933231
 20
-897.28236324915065
 30
0.0
  0
VERTEX
  5
156E
  8
0
  6
CONTINUOUS
 10
-78.049953413117066
 20
-907.2304416630119
 30
0.0
  0
VERTEX
  5
156F
  8
0
  6
CONTINUOUS
 10
-74.789246920955634
 20
-917.81212476595203
 30
0.0
  0
VERTEX
  5
1570
  8
0
  6
CONTINUOUS
 10
-74.789246920955634
 20
-917.81212476595203
 30
0.0
  0
VERTEX
  5
1571
  8
0
  6
CONTINUOUS
 10
-70.631973448983985
 20
-930.41550668100933
 30
0.0
  0
VERTEX
  5
1572
  8
0
  6
CONTINUOUS
 10
-64.641897973406543
 20
-949.30636034454949
 30
0.0
  0
VERTEX
  5
1573
  8
0
  6
CONTINUOUS
 10
-59.958896864746151
 20
-961.78445874156762
 30
0.0
  0
VERTEX
  5
1574
  8
0
  6
CONTINUOUS
 10
-59.958896864746151
 20
-961.78445874156762
 30
0.0
  0
VERTEX
  5
1575
  8
0
  6
CONTINUOUS
 10
-55.269056044691318
 20
-973.06928567654268
 30
0.0
  0
VERTEX
  5
1576
  8
0
  6
CONTINUOUS
 10
-52.12789369480501
 20
-979.07269871897631
 30
0.0
  0
VERTEX
  5
1577
  8
0
  6
CONTINUOUS
 10
-48.498418444161267
 20
-985.02031216716421
 30
0.0
  0
VERTEX
  5
1578
  8
0
  6
CONTINUOUS
 10
-42.836441547383743
 20
-990.96792561535131
 30
0.0
  0
VERTEX
  5
1579
  8
0
  6
CONTINUOUS
 10
-37.319644825801667
 20
-994.88464678216474
 30
0.0
  0
VERTEX
  5
157A
  8
0
  6
CONTINUOUS
 10
-30.641415025296169
 20
-997.64085841235931
 30
0.0
  0
VERTEX
  5
157B
  8
0
  6
CONTINUOUS
 10
-23.96318522479157
 20
-999.38162390186631
 30
0.0
  0
VERTEX
  5
157C
  8
0
  6
CONTINUOUS
 10
-23.96318522479157
 20
-999.38162390186631
 30
0.0
  0
VERTEX
  5
157D
  8
0
  6
CONTINUOUS
 10
-12.432621831991471
 20
-999.78766399945539
 30
0.0
  0
VERTEX
  5
157E
  8
0
  6
CONTINUOUS
 10
0.0
 20
-999.99999999999955
 30
0.0
  0
SEQEND
  5
157F
  8
0
  6
CONTINUOUS
  0
POLYLINE
  5
44D
  8
0
  6
CONTINUOUS
 66
     1
 10
0.0
 20
0.0
 30
0.0
  0
VERTEX
  5
1580
  8
0
  6
CONTINUOUS
 10
62.5
 20
-0.0000000000000004
 30
0.0
  0
VERTEX
  5
1581
  8
0
  6
CONTINUOUS
 10
65.961798884418499
 20
-82.452168228651544
 30
0.0
  0
VERTEX
  5
1582
  8
0
  6
CONTINUOUS
 10
69.038134912474092
 20
-153.5172099571331
 30
0.0
  0
VERTEX
  5
1583
  8
0
  6
CONTINUOUS
 10
69.038134912474092
 20
-153.5172099571331
 30
0.0
  0
VERTEX
  5
1584
  8
0
  6
CONTINUOUS
 10
71.548229095948614
 20
-207.22612628461039
 30
0.0
  0
VERTEX
  5
1585
  8
0
  6
CONTINUOUS
 10
74.130037919204653
 20
-259.28242870758947
 30
0.0
  0
VERTEX
  5
1586
  8
0
  6
CONTINUOUS
 10
74.130037919204653
 20
-259.28242870758947
 30
0.0
  0
VERTEX
  5
1587
  8
0
  6
CONTINUOUS
 10
77.50628225051139
 20
-325.61558401726319
 30
0.0
  0
VERTEX
  5
1588
  8
0
  6
CONTINUOUS
 10
79.575763615485016
 20
-362.94823526508731
 30
0.0
  0
VERTEX
  5
1589
  8
0
  6
CONTINUOUS
 10
81.920005021185148
 20
-401.38636978622691
 30
0.0
  0
VERTEX
  5
158A
  8
0
  6
CONTINUOUS
 10
81.920005021185148
 20
-401.38636978622691
 30
0.0
  0
VERTEX
  5
158B
  8
0
  6
CONTINUOUS
 10
87.371291258564383
 20
-483.46637340527639
 30
0.0
  0
VERTEX
  5
158C
  8
0
  6
CONTINUOUS
 10
90.339939124870412
 20
-534.09199423909195
 30
0.0
  0
VERTEX
  5
158D
  8
0
  6
CONTINUOUS
 10
91.851375576962354
 20
-563.51765852172355
 30
0.0
  0
VERTEX
  5
158E
  8
0
  6
CONTINUOUS
 10
93.368072311027063
 20
-596.33911075660967
 30
0.0
  0
VERTEX
  5
158F
  8
0
  6
CONTINUOUS
 10
93.368072311027063
 20
-596.33911075660967
 30
0.0
  0
VERTEX
  5
1590
  8
0
  6
CONTINUOUS
 10
94.494574912498706
 20
-623.71508501709889
 30
0.0
  0
VERTEX
  5
1591
  8
0
  6
CONTINUOUS
 10
95.450992324701005
 20
-652.20502903446697
 30
0.0
  0
VERTEX
  5
1592
  8
0
  6
CONTINUOUS
 10
96.069767384542416
 20
-680.66482277019452
 30
0.0
  0
VERTEX
  5
1593
  8
0
  6
CONTINUOUS
 10
96.200177418861585
 20
-694.52587577040538
 30
0.0
  0
VERTEX
  5
1594
  8
0
  6
CONTINUOUS
 10
96.183342928931225
 20
-707.95034618576153
 30
0.0
  0
VERTEX
  5
1595
  8
0
  6
CONTINUOUS
 10
96.183342928931225
 20
-707.95034618576153
 30
0.0
  0
VERTEX
  5
1596
  8
0
  6
CONTINUOUS
 10
96.00807455550148
 20
-720.83159113139925
 30
0.0
  0
VERTEX
  5
1597
  8
0
  6
CONTINUOUS
 10
95.702204083869404
 20
-733.20845620225953
 30
0.0
  0
VERTEX
  5
1598
  8
0
  6
CONTINUOUS
 10
94.849005131733477
 20
-756.74991757921771
 30
0.0
  0
VERTEX
  5
1599
  8
0
  6
CONTINUOUS
 10
93.924442643993302
 20
-779.17647203577656
 30
0.0
  0
VERTEX
  5
159A
  8
0
  6
CONTINUOUS
 10
93.229213192118877
 20
-801.08986129107711
 30
0.0
  0
VERTEX
  5
159B
  8
0
  6
CONTINUOUS
 10
93.229213192118877
 20
-801.08986129107711
 30
0.0
  0
VERTEX
  5
159C
  8
0
  6
CONTINUOUS
 10
93.014756833505288
 20
-812.08545529471269
 30
0.0
  0
VERTEX
  5
159D
  8
0
  6
CONTINUOUS
 10
92.689539749897108
 20
-823.43816337806368
 30
0.0
  0
VERTEX
  5
159E
  8
0
  6
CONTINUOUS
 10
92.010293814465484
 20
-835.48295549137663
 30
0.0
  0
VERTEX
  5
159F
  8
0
  6
CONTINUOUS
 10
91.461888737682017
 20
-841.86956116872011
 30
0.0
  0
VERTEX
  5
15A0
  8
0
  6
CONTINUOUS
 10
90.73375090038185
 20
-848.55480158489593
 30
0.0
  0
VERTEX
  5
15A1
  8
0
  6
CONTINUOUS
 10
89.795471786711815
 20
-855.58054798368516
 30
0.0
  0
VERTEX
  5
15A2
  8
0
  6
CONTINUOUS
 10
88.616642880817793
 20
-862.98867160886755
 30
0.0
  0
VERTEX
  5
15A3
  8
0
  6
CONTINUOUS
 10
87.166855666846587
 20
-870.82104370422519
 30
0.0
  0
VERTEX
  5
15A4
  8
0
  6
CONTINUOUS
 10
85.415701628944504
 20
-879.1195355135377
 30
0.0
  0
VERTEX
  5
15A5
  8
0
  6
CONTINUOUS
 10
83.332772251257879
 20
-887.92601828058594
 30
0.0
  0
VERTEX
  5
15A6
  8
0
  6
CONTINUOUS
 10
80.88765901793326
 20
-897.28236324915065
 30
0.0
  0
VERTEX
  5
15A7
  8
0
  6
CONTINUOUS
 10
78.049953413117123
 20
-907.2304416630119
 30
0.0
  0
VERTEX
  5
15A8
  8
0
  6
CONTINUOUS
 10
74.789246920955733
 20
-917.81212476595203
 30
0.0
  0
VERTEX
  5
15A9
  8
0
  6
CONTINUOUS
 10
74.789246920955733
 20
-917.81212476595203
 30
0.0
  0
VERTEX
  5
15AA
  8
0
  6
CONTINUOUS
 10
70.631973448984127
 20
-930.41550668100933
 30
0.0
  0
VERTEX
  5
15AB
  8
0
  6
CONTINUOUS
 10
64.641897973406685
 20
-949.30636034454949
 30
0.0
  0
VERTEX
  5
15AC
  8
0
  6
CONTINUOUS
 10
59.958896864746301
 20
-961.78445874156762
 30
0.0
  0
VERTEX
  5
15AD
  8
0
  6
CONTINUOUS
 10
59.958896864746301
 20
-961.78445874156762
 30
0.0
  0
VERTEX
  5
15AE
  8
0
  6
CONTINUOUS
 10
55.269056044691411
 20
-973.06928567654268
 30
0.0
  0
VERTEX
  5
15AF
  8
0
  6
CONTINUOUS
 10
52.127893694805138
 20
-979.07269871897631
 30
0.0
  0
VERTEX
  5
15B0
  8
0
  6
CONTINUOUS
 10
48.498418444161409
 20
-985.02031216716421
 30
0.0
  0
VERTEX
  5
15B1
  8
0
  6
CONTINUOUS
 10
42.836441547383849
 20
-990.96792561535131
 30
0.0
  0
VERTEX
  5
15B2
  8
0
  6
CONTINUOUS
 10
37.319644825801781
 20
-994.88464678216474
 30
0.0
  0
VERTEX
  5
15B3
  8
0
  6
CONTINUOUS
 10
30.641415025296279
 20
-997.64085841235931
 30
0.0
  0
VERTEX
  5
15B4
  8
0
  6
CONTINUOUS
 10
23.963185224791658
 20
-999.38162390186631
 30
0.0
  0
VERTEX
  5
15B5
  8
0
  6
CONTINUOUS
 10
23.963185224791658
 20
-999.38162390186631
 30
0.0
  0
VERTEX
  5
15B6
  8
0
  6
CONTINUOUS
 10
12.43262183199157
 20
-999.78766399945539
 30
0.0
  0
VERTEX
  5
15B7
  8
0
  6
CONTINUOUS
 10
0.0000000000001137
 20
-999.99999999999955
 30
0.0
  0
SEQEND
  5
15B8
  8
0
  6
CONTINUOUS
  0
POLYLINE
  5
44E
  8
0
  6
CONTINUOUS
 66
     1
 10
0.0
 20
0.0
 30
0.0
  0
VERTEX
  5
15B9
  8
0
  6
CONTINUOUS
 10
62.5
 20
-0.0000000000000004
 30
0.0
  0
VERTEX
  5
15BA
  8
0
  6
CONTINUOUS
 10
63.85866578368757
 20
-147.94096749370141
 30
0.0
  0
VERTEX
  5
15BB
  8
0
  6
CONTINUOUS
 10
64.303798534791085
 20
-218.0750382768725
 30
0.0
  0
VERTEX
  5
15BC
  8
0
  6
CONTINUOUS
 10
64.467891117006374
 20
-283.60541350362831
 30
0.0
  0
VERTEX
  5
15BD
  8
0
  6
CONTINUOUS
 10
64.467891117006374
 20
-283.60541350362831
 30
0.0
  0
VERTEX
  5
15BE
  8
0
  6
CONTINUOUS
 10
64.344742881120283
 20
-344.01046042361457
 30
0.0
  0
VERTEX
  5
15BF
  8
0
  6
CONTINUOUS
 10
64.27807080625179
 20
-402.82027602695121
 30
0.0
  0
VERTEX
  5
15C0
  8
0
  6
CONTINUOUS
 10
64.400662199887151
 20
-433.04666878026251
 30
0.0
  0
VERTEX
  5
15C1
  8
0
  6
CONTINUOUS
 10
64.699071278602673
 20
-464.57788973887568
 30
0.0
  0
VERTEX
  5
15C2
  8
0
  6
CONTINUOUS
 10
65.22719759067364
 20
-497.98181758094478
 30
0.0
  0
VERTEX
  5
15C3
  8
0
  6
CONTINUOUS
 10
66.038940684375234
 20
-533.8263309846252
 30
0.0
  0
VERTEX
  5
15C4
  8
0
  6
CONTINUOUS
 10
66.038940684375234
 20
-533.8263309846252
 30
0.0
  0
VERTEX
  5
15C5
  8
0
  6
CONTINUOUS
 10
66.77187439872273
 20
-561.79140038021058
 30
0.0
  0
VERTEX
  5
15C6
  8
0
  6
CONTINUOUS
 10
67.334419576017353
 20
-592.76995191752724
 30
0.0
  0
VERTEX
  5
15C7
  8
0
  6
CONTINUOUS
 10
67.443400415237292
 20
-609.83941839824945
 30
0.0
  0
VERTEX
  5
15C8
  8
0
  6
CONTINUOUS
 10
67.379708862554935
 20
-628.20241730510236
 30
0.0
  0
VERTEX
  5
15C9
  8
0
  6
CONTINUOUS
 10
67.099986498757175
 20
-648.03900260165165
 30
0.0
  0
VERTEX
  5
15CA
  8
0
  6
CONTINUOUS
 10
66.560874904631063
 20
-669.52922825146356
 30
0.0
  0
VERTEX
  5
15CB
  8
0
  6
CONTINUOUS
 10
66.560874904631063
 20
-669.52922825146356
 30
0.0
  0
VERTEX
  5
15CC
  8
0
  6
CONTINUOUS
 10
65.846201094895264
 20
-689.39553803973729
 30
0.0
  0
VERTEX
  5
15CD
  8
0
  6
CONTINUOUS
 10
64.80632671907199
 20
-710.57150716377521
 30
0.0
  0
VERTEX
  5
15CE
  8
0
  6
CONTINUOUS
 10
63.338890885385688
 20
-733.01709052739
 30
0.0
  0
VERTEX
  5
15CF
  8
0
  6
CONTINUOUS
 10
61.341532702060128
 20
-756.69224303439375
 30
0.0
  0
VERTEX
  5
15D0
  8
0
  6
CONTINUOUS
 10
61.341532702060128
 20
-756.69224303439375
 30
0.0
  0
VERTEX
  5
15D1
  8
0
  6
CONTINUOUS
 10
60.209105919357171
 20
-767.28691127682964
 30
0.0
  0
VERTEX
  5
15D2
  8
0
  6
CONTINUOUS
 10
59.411894583512421
 20
-773.00212763512513
 30
0.0
  0
VERTEX
  5
15D3
  8
0
  6
CONTINUOUS
 10
58.360282320300144
 20
-779.17591507741452
 30
0.0
  0
VERTEX
  5
15D4
  8
0
  6
CONTINUOUS
 10
56.978967406441249
 20
-785.94326079815312
 30
0.0
  0
VERTEX
  5
15D5
  8
0
  6
CONTINUOUS
 10
55.192648118656727
 20
-793.43915199179764
 30
0.0
  0
VERTEX
  5
15D6
  8
0
  6
CONTINUOUS
 10
52.92602273366753
 20
-801.79857585280445
 30
0.0
  0
VERTEX
  5
15D7
  8
0
  6
CONTINUOUS
 10
50.103789528194511
 20
-811.15651957562955
 30
0.0
  0
VERTEX
  5
15D8
  8
0
  6
CONTINUOUS
 10
50.103789528194511
 20
-811.15651957562955
 30
0.0
  0
VERTEX
  5
15D9
  8
0
  6
CONTINUOUS
 10
47.362274563121311
 20
-819.55437589439668
 30
0.0
  0
VERTEX
  5
15DA
  8
0
  6
CONTINUOUS
 10
44.389748643720161
 20
-828.11454094499095
 30
0.0
  0
VERTEX
  5
15DB
  8
0
  6
CONTINUOUS
 10
41.379123987963048
 20
-836.23769302921835
 30
0.0
  0
VERTEX
  5
15DC
  8
0
  6
CONTINUOUS
 10
38.523312813822201
 20
-843.32451044888433
 30
0.0
  0
VERTEX
  5
15DD
  8
0
  6
CONTINUOUS
 10
38.523312813822201
 20
-843.32451044888433
 30
0.0
  0
VERTEX
  5
15DE
  8
0
  6
CONTINUOUS
 10
35.89143675816365
 20
-849.01704397735182
 30
0.0
  0
VERTEX
  5
15DF
  8
0
  6
CONTINUOUS
 10
34.534073596222569
 20
-851.51522495903703
 30
0.0
  0
VERTEX
  5
15E0
  8
0
  6
CONTINUOUS
 10
33.057455133429571
 20
-853.9228342742141
 30
0.0
  0
VERTEX
  5
15E1
  8
0
  6
CONTINUOUS
 10
29.47153667095586
 20
-858.89079447062068
 30
0.0
  0
VERTEX
  5
15E2
  8
0
  6
CONTINUOUS
 10
24.5838501020786
 20
-864.76983769772175
 30
0.0
  0
VERTEX
  5
15E3
  8
0
  6
CONTINUOUS
 10
24.5838501020786
 20
-864.76983769772175
 30
0.0
  0
VERTEX
  5
15E4
  8
0
  6
CONTINUOUS
 10
22.27901777653619
 20
-867.37521158209722
 30
0.0
  0
VERTEX
  5
15E5
  8
0
  6
CONTINUOUS
 10
19.7170355974099
 20
-870.02645291424881
 30
0.0
  0
VERTEX
  5
15E6
  8
0
  6
CONTINUOUS
 10
16.907794764513589
 20
-872.51559927175344
 30
0.0
  0
VERTEX
  5
15E7
  8
0
  6
CONTINUOUS
 10
13.861186477661301
 20
-874.63468823218705
 30
0.0
  0
VERTEX
  5
15E8
  8
0
  6
CONTINUOUS
 10
13.861186477661301
 20
-874.63468823218705
 30
0.0
  0
VERTEX
  5
15E9
  8
0
  6
CONTINUOUS
 10
10.594931580620351
 20
-876.21973735652125
 30
0.0
  0
VERTEX
  5
15EA
  8
0
  6
CONTINUOUS
 10
7.1580694929729107
 20
-877.28268413930527
 30
0.0
  0
VERTEX
  5
15EB
  8
0
  6
CONTINUOUS
 10
3.607469278254257
 20
-877.87944605848327
 30
0.0
  0
VERTEX
  5
15EC
  8
0
  6
CONTINUOUS
 10
0.0000000000000568
 20
-878.06594059199983
 30
0.0
  0
VERTEX
  5
15ED
  8
0
  6
CONTINUOUS
 10
0.0000000000000568
 20
-878.06594059199983
 30
0.0
  0
VERTEX
  5
15EE
  8
0
  6
CONTINUOUS
 10
-3.6074692782541402
 20
-877.87944605848327
 30
0.0
  0
VERTEX
  5
15EF
  8
0
  6
CONTINUOUS
 10
-7.1580694929727411
 20
-877.28268413930527
 30
0.0
  0
VERTEX
  5
15F0
  8
0
  6
CONTINUOUS
 10
-10.59493158062025
 20
-876.21973735652125
 30
0.0
  0
VERTEX
  5
15F1
  8
0
  6
CONTINUOUS
 10
-13.861186477661191
 20
-874.63468823218705
 30
0.0
  0
VERTEX
  5
15F2
  8
0
  6
CONTINUOUS
 10
-13.861186477661191
 20
-874.63468823218705
 30
0.0
  0
VERTEX
  5
15F3
  8
0
  6
CONTINUOUS
 10
-16.907794764513461
 20
-872.51559927175344
 30
0.0
  0
VERTEX
  5
15F4
  8
0
  6
CONTINUOUS
 10
-19.71703559740979
 20
-870.02645291424881
 30
0.0
  0
VERTEX
  5
15F5
  8
0
  6
CONTINUOUS
 10
-22.279017776536062
 20
-867.37521158209722
 30
0.0
  0
VERTEX
  5
15F6
  8
0
  6
CONTINUOUS
 10
-24.583850102078479
 20
-864.76983769772175
 30
0.0
  0
VERTEX
  5
15F7
  8
0
  6
CONTINUOUS
 10
-24.583850102078479
 20
-864.76983769772175
 30
0.0
  0
VERTEX
  5
15F8
  8
0
  6
CONTINUOUS
 10
-29.471536670955729
 20
-858.89079447062068
 30
0.0
  0
VERTEX
  5
15F9
  8
0
  6
CONTINUOUS
 10
-33.057455133429471
 20
-853.9228342742141
 30
0.0
  0
VERTEX
  5
15FA
  8
0
  6
CONTINUOUS
 10
-34.534073596222463
 20
-851.51522495903703
 30
0.0
  0
VERTEX
  5
15FB
  8
0
  6
CONTINUOUS
 10
-35.89143675816355
 20
-849.01704397735182
 30
0.0
  0
VERTEX
  5
15FC
  8
0
  6
CONTINUOUS
 10
-38.523312813822031
 20
-843.32451044888433
 30
0.0
  0
VERTEX
  5
15FD
  8
0
  6
CONTINUOUS
 10
-38.523312813822031
 20
-843.32451044888433
 30
0.0
  0
VERTEX
  5
15FE
  8
0
  6
CONTINUOUS
 10
-41.37912398796292
 20
-836.23769302921835
 30
0.0
  0
VERTEX
  5
15FF
  8
0
  6
CONTINUOUS
 10
-44.389748643720047
 20
-828.11454094499095
 30
0.0
  0
VERTEX
  5
1600
  8
0
  6
CONTINUOUS
 10
-47.36227456312124
 20
-819.55437589439668
 30
0.0
  0
VERTEX
  5
1601
  8
0
  6
CONTINUOUS
 10
-50.103789528194397
 20
-811.15651957562955
 30
0.0
  0
VERTEX
  5
1602
  8
0
  6
CONTINUOUS
 10
-50.103789528194397
 20
-811.15651957562955
 30
0.0
  0
VERTEX
  5
1603
  8
0
  6
CONTINUOUS
 10
-52.926022733667381
 20
-801.79857585280445
 30
0.0
  0
VERTEX
  5
1604
  8
0
  6
CONTINUOUS
 10
-55.192648118656642
 20
-793.43915199179764
 30
0.0
  0
VERTEX
  5
1605
  8
0
  6
CONTINUOUS
 10
-56.978967406441171
 20
-785.94326079815312
 30
0.0
  0
VERTEX
  5
1606
  8
0
  6
CONTINUOUS
 10
-58.360282320300023
 20
-779.17591507741452
 30
0.0
  0
VERTEX
  5
1607
  8
0
  6
CONTINUOUS
 10
-59.411894583512279
 20
-773.00212763512513
 30
0.0
  0
VERTEX
  5
1608
  8
0
  6
CONTINUOUS
 10
-60.209105919357008
 20
-767.28691127682964
 30
0.0
  0
VERTEX
  5
1609
  8
0
  6
CONTINUOUS
 10
-61.341532702059993
 20
-756.69224303439375
 30
0.0
  0
VERTEX
  5
160A
  8
0
  6
CONTINUOUS
 10
-61.341532702059993
 20
-756.69224303439375
 30
0.0
  0
VERTEX
  5
160B
  8
0
  6
CONTINUOUS
 10
-63.338890885385489
 20
-733.01709052739
 30
0.0
  0
VERTEX
  5
160C
  8
0
  6
CONTINUOUS
 10
-64.806326719071933
 20
-710.57150716377521
 30
0.0
  0
VERTEX
  5
160D
  8
0
  6
CONTINUOUS
 10
-65.84620109489515
 20
-689.39553803973729
 30
0.0
  0
VERTEX
  5
160E
  8
0
  6
CONTINUOUS
 10
-66.56087490463095
 20
-669.52922825146356
 30
0.0
  0
VERTEX
  5
160F
  8
0
  6
CONTINUOUS
 10
-66.56087490463095
 20
-669.52922825146356
 30
0.0
  0
VERTEX
  5
1610
  8
0
  6
CONTINUOUS
 10
-67.099986498757033
 20
-648.03900260165199
 30
0.0
  0
VERTEX
  5
1611
  8
0
  6
CONTINUOUS
 10
-67.379708862554736
 20
-628.20241730510236
 30
0.0
  0
VERTEX
  5
1612
  8
0
  6
CONTINUOUS
 10
-67.443400415237093
 20
-609.83941839824945
 30
0.0
  0
VERTEX
  5
1613
  8
0
  6
CONTINUOUS
 10
-67.334419576017211
 20
-592.76995191752724
 30
0.0
  0
VERTEX
  5
1614
  8
0
  6
CONTINUOUS
 10
-66.771874398722531
 20
-561.79140038021058
 30
0.0
  0
VERTEX
  5
1615
  8
0
  6
CONTINUOUS
 10
-66.038940684375035
 20
-533.8263309846252
 30
0.0
  0
VERTEX
  5
1616
  8
0
  6
CONTINUOUS
 10
-66.038940684375035
 20
-533.8263309846252
 30
0.0
  0
VERTEX
  5
1617
  8
0
  6
CONTINUOUS
 10
-65.227197590673455
 20
-497.98181758094478
 30
0.0
  0
VERTEX
  5
1618
  8
0
  6
CONTINUOUS
 10
-64.699071278602531
 20
-464.57788973887568
 30
0.0
  0
VERTEX
  5
1619
  8
0
  6
CONTINUOUS
 10
-64.400662199886966
 20
-433.04666878026251
 30
0.0
  0
VERTEX
  5
161A
  8
0
  6
CONTINUOUS
 10
-64.278070806251534
 20
-402.82027602695121
 30
0.0
  0
VERTEX
  5
161B
  8
0
  6
CONTINUOUS
 10
-64.344742881120112
 20
-344.01046042361457
 30
0.0
  0
VERTEX
  5
161C
  8
0
  6
CONTINUOUS
 10
-64.467891117006261
 20
-283.60541350362831
 30
0.0
  0
VERTEX
  5
161D
  8
0
  6
CONTINUOUS
 10
-64.467891117006261
 20
-283.60541350362831
 30
0.0
  0
VERTEX
  5
161E
  8
0
  6
CONTINUOUS
 10
-64.303798534790971
 20
-218.0750382768725
 30
0.0
  0
VERTEX
  5
161F
  8
0
  6
CONTINUOUS
 10
-63.8586657836874
 20
-147.94096749370141
 30
0.0
  0
VERTEX
  5
1620
  8
0
  6
CONTINUOUS
 10
-62.499999999999773
 20
-0.0000000000000004
 30
0.0
  0
SEQEND
  5
1621
  8
0
  6
CONTINUOUS
  0
POLYLINE
  5
44F
  8
0
  6
CONTINUOUS
 66
     1
 10
0.0
 20
0.0
 30
0.0
  0
VERTEX
  5
1622
  8
0
  6
CONTINUOUS
 10
-289.6721186087658
 20
3.7766067386907789
 30
0.0
  0
VERTEX
  5
1623
  8
0
  6
CONTINUOUS
 10
-278.48805486617903
 20
-113.7165166788036
 30
0.0
  0
VERTEX
  5
1624
  8
0
  6
CONTINUOUS
 10
-272.96883624495712
 20
-170.41947956166831
 30
0.0
  0
VERTEX
  5
1625
  8
0
  6
CONTINUOUS
 10
-267.53699352382159
 20
-224.6701238534738
 30
0.0
  0
VERTEX
  5
1626
  8
0
  6
CONTINUOUS
 10
-267.53699352382159
 20
-224.6701238534738
 30
0.0
  0
VERTEX
  5
1627
  8
0
  6
CONTINUOUS
 10
-262.23320171509772
 20
-276.94158767735871
 30
0.0
  0
VERTEX
  5
1628
  8
0
  6
CONTINUOUS
 10
-259.65575112759478
 20
-304.01554354083231
 30
0.0
  0
VERTEX
  5
1629
  8
0
  6
CONTINUOUS
 10
-257.14433468030012
 20
-332.86931977042627
 30
0.0
  0
VERTEX
  5
162A
  8
0
  6
CONTINUOUS
 10
-254.7112553199398
 20
-364.36866966496478
 30
0.0
  0
VERTEX
  5
162B
  8
0
  6
CONTINUOUS
 10
-252.3688159932405
 20
-399.37934652327232
 30
0.0
  0
VERTEX
  5
162C
  8
0
  6
CONTINUOUS
 10
-250.12931964692871
 20
-438.76710364417278
 30
0.0
  0
VERTEX
  5
162D
  8
0
  6
CONTINUOUS
 10
-248.00506922773059
 20
-483.39769432649138
 30
0.0
  0
VERTEX
  5
162E
  8
0
  6
CONTINUOUS
 10
-248.00506922773059
 20
-483.39769432649138
 30
0.0
  0
VERTEX
  5
162F
  8
0
  6
CONTINUOUS
 10
-246.77115025839649
 20
-513.74687134827275
 30
0.0
  0
VERTEX
  5
1630
  8
0
  6
CONTINUOUS
 10
-245.69661526473359
 20
-544.9337968933803
 30
0.0
  0
VERTEX
  5
1631
  8
0
  6
CONTINUOUS
 10
-244.89197099519339
 20
-575.45538511344944
 30
0.0
  0
VERTEX
  5
1632
  8
0
  6
CONTINUOUS
 10
-244.4677241982279
 20
-603.80855016011537
 30
0.0
  0
VERTEX
  5
1633
  8
0
  6
CONTINUOUS
 10
-244.4677241982279
 20
-603.80855016011537
 30
0.0
  0
VERTEX
  5
1634
  8
0
  6
CONTINUOUS
 10
-244.4921486349802
 20
-628.82669789655006
 30
0.0
  0
VERTEX
  5
1635
  8
0
  6
CONTINUOUS
 10
-244.86458611735659
 20
-650.68920103207427
 30
0.0
  0
VERTEX
  5
1636
  8
0
  6
CONTINUOUS
 10
-245.4421454699544
 20
-669.9119239875447
 30
0.0
  0
VERTEX
  5
1637
  8
0
  6
CONTINUOUS
 10
-246.08193551737079
 20
-687.01073118381805
 30
0.0
  0
VERTEX
  5
1638
  8
0
  6
CONTINUOUS
 10
-246.08193551737079
 20
-687.01073118381805
 30
0.0
  0
VERTEX
  5
1639
  8
0
  6
CONTINUOUS
 10
-246.751834622318
 20
-702.77961687795073
 30
0.0
  0
VERTEX
  5
163A
  8
0
  6
CONTINUOUS
 10
-247.21957588622411
 20
-710.74374154752911
 30
0.0
  0
VERTEX
  5
163B
  8
0
  6
CONTINUOUS
 10
-247.8627992999661
 20
-719.12509467179075
 30
0.0
  0
VERTEX
  5
163C
  8
0
  6
CONTINUOUS
 10
-248.74672062020429
 20
-728.19675668049103
 30
0.0
  0
VERTEX
  5
163D
  8
0
  6
CONTINUOUS
 10
-249.9365556035998
 20
-738.2318080033865
 30
0.0
  0
VERTEX
  5
163E
  8
0
  6
CONTINUOUS
 10
-251.49752000681281
 20
-749.50332907023255
 30
0.0
  0
VERTEX
  5
163F
  8
0
  6
CONTINUOUS
 10
-253.49482958650401
 20
-762.28440031078503
 30
0.0
  0
VERTEX
  5
1640
  8
0
  6
CONTINUOUS
 10
-253.49482958650401
 20
-762.28440031078503
 30
0.0
  0
VERTEX
  5
1641
  8
0
  6
CONTINUOUS
 10
-255.62664441217751
 20
-774.73478974219961
 30
0.0
  0
VERTEX
  5
1642
  8
0
  6
CONTINUOUS
 10
-257.91752801239932
 20
-786.93050328311153
 30
0.0
  0
VERTEX
  5
1643
  8
0
  6
CONTINUOUS
 10
-257.91752801239932
 20
-786.93050328311153
 30
0.0
  0
VERTEX
  5
1644
  8
0
  6
CONTINUOUS
 10
-260.73714341619581
 20
-800.04663675824975
 30
0.0
  0
VERTEX
  5
1645
  8
0
  6
CONTINUOUS
 10
-263.3705203645145
 20
-810.799542936904
 30
0.0
  0
VERTEX
  5
1646
  8
0
  6
CONTINUOUS
 10
-267.79548421549902
 20
-827.8178404659875
 30
0.0
  0
VERTEX
  5
1647
  8
0
  6
CONTINUOUS
 10
-267.79548421549902
 20
-827.8178404659875
 30
0.0
  0
VERTEX
  5
1648
  8
0
  6
CONTINUOUS
 10
-269.57204839348339
 20
-835.34352136345774
 30
0.0
  0
VERTEX
  5
1649
  8
0
  6
CONTINUOUS
 10
-270.52597600181821
 20
-839.0788166444421
 30
0.0
  0
VERTEX
  5
164A
  8
0
  6
CONTINUOUS
 10
-271.63838712634202
 20
-842.86337812423642
 30
0.0
  0
VERTEX
  5
164B
  8
0
  6
CONTINUOUS
 10
-272.99532164452592
 20
-846.74792803582545
 30
0.0
  0
VERTEX
  5
164C
  8
0
  6
CONTINUOUS
 10
-274.68281943384062
 20
-850.78318861219304
 30
0.0
  0
VERTEX
  5
164D
  8
0
  6
CONTINUOUS
 10
-276.78692037175699
 20
-855.01988208632145
 30
0.0
  0
VERTEX
  5
164E
  8
0
  6
CONTINUOUS
 10
-279.39366433574571
 20
-859.50873069119632
 30
0.0
  0
VERTEX
  5
164F
  8
0
  6
CONTINUOUS
 10
-279.39366433574571
 20
-859.50873069119632
 30
0.0
  0
VERTEX
  5
1650
  8
0
  6
CONTINUOUS
 10
-281.15129197912501
 20
-862.19338414654862
 30
0.0
  0
VERTEX
  5
1651
  8
0
  6
CONTINUOUS
 10
-283.20298109711109
 20
-864.95360575765812
 30
0.0
  0
VERTEX
  5
1652
  8
0
  6
CONTINUOUS
 10
-285.65165560975407
 20
-867.76662340526082
 30
0.0
  0
VERTEX
  5
1653
  8
0
  6
CONTINUOUS
 10
-288.60023943710451
 20
-870.60966497009508
 30
0.0
  0
VERTEX
  5
1654
  8
0
  6
CONTINUOUS
 10
-288.60023943710451
 20
-870.60966497009508
 30
0.0
  0
VERTEX
  5
1655
  8
0
  6
CONTINUOUS
 10
-290.10793170285831
 20
-871.85959964153426
 30
0.0
  0
VERTEX
  5
1656
  8
0
  6
CONTINUOUS
 10
-291.8891220584855
 20
-873.07732795216145
 30
0.0
  0
VERTEX
  5
1657
  8
0
  6
CONTINUOUS
 10
-294.10048274537883
 20
-874.22923818160405
 30
0.0
  0
VERTEX
  5
1658
  8
0
  6
CONTINUOUS
 10
-296.89868600493139
 20
-875.2817186094876
 30
0.0
  0
VERTEX
  5
1659
  8
0
  6
CONTINUOUS
 10
-296.89868600493139
 20
-875.2817186094876
 30
0.0
  0
VERTEX
  5
165A
  8
0
  6
CONTINUOUS
 10
-299.43084469143332
 20
-875.93847449019825
 30
0.0
  0
VERTEX
  5
165B
  8
0
  6
CONTINUOUS
 10
-302.1721186087658
 20
-876.22339326130896
 30
0.0
  0
VERTEX
  5
165C
  8
0
  6
CONTINUOUS
 10
-302.1721186087658
 20
-876.22339326130896
 30
0.0
  0
VERTEX
  5
165D
  8
0
  6
CONTINUOUS
 10
-304.91339252609851
 20
-875.93847449019825
 30
0.0
  0
VERTEX
  5
165E
  8
0
  6
CONTINUOUS
 10
-307.44555121260032
 20
-875.2817186094876
 30
0.0
  0
VERTEX
  5
165F
  8
0
  6
CONTINUOUS
 10
-307.44555121260032
 20
-875.2817186094876
 30
0.0
  0
VERTEX
  5
1660
  8
0
  6
CONTINUOUS
 10
-310.24375447215277
 20
-874.22923818160405
 30
0.0
  0
VERTEX
  5
1661
  8
0
  6
CONTINUOUS
 10
-312.45511515904639
 20
-873.07732795216145
 30
0.0
  0
VERTEX
  5
1662
  8
0
  6
CONTINUOUS
 10
-314.23630551467352
 20
-871.85959964153426
 30
0.0
  0
VERTEX
  5
1663
  8
0
  6
CONTINUOUS
 10
-315.74399778042732
 20
-870.60966497009508
 30
0.0
  0
VERTEX
  5
1664
  8
0
  6
CONTINUOUS
 10
-315.74399778042732
 20
-870.60966497009508
 30
0.0
  0
VERTEX
  5
1665
  8
0
  6
CONTINUOUS
 10
-318.69258160777758
 20
-867.76662340526082
 30
0.0
  0
VERTEX
  5
1666
  8
0
  6
CONTINUOUS
 10
-321.14125612042062
 20
-864.95360575765812
 30
0.0
  0
VERTEX
  5
1667
  8
0
  6
CONTINUOUS
 10
-323.19294523840682
 20
-862.19338414654862
 30
0.0
  0
VERTEX
  5
1668
  8
0
  6
CONTINUOUS
 10
-324.95057288178612
 20
-859.50873069119632
 30
0.0
  0
VERTEX
  5
1669
  8
0
  6
CONTINUOUS
 10
-324.95057288178612
 20
-859.50873069119632
 30
0.0
  0
VERTEX
  5
166A
  8
0
  6
CONTINUOUS
 10
-327.55731684577489
 20
-855.01988208632145
 30
0.0
  0
VERTEX
  5
166B
  8
0
  6
CONTINUOUS
 10
-329.66141778369092
 20
-850.78318861219304
 30
0.0
  0
VERTEX
  5
166C
  8
0
  6
CONTINUOUS
 10
-331.34891557300602
 20
-846.74792803582545
 30
0.0
  0
VERTEX
  5
166D
  8
0
  6
CONTINUOUS
 10
-332.7058500911898
 20
-842.86337812423642
 30
0.0
  0
VERTEX
  5
166E
  8
0
  6
CONTINUOUS
 10
-333.81826121571362
 20
-839.0788166444421
 30
0.0
  0
VERTEX
  5
166F
  8
0
  6
CONTINUOUS
 10
-334.77218882404821
 20
-835.34352136345774
 30
0.0
  0
VERTEX
  5
1670
  8
0
  6
CONTINUOUS
 10
-336.5487530020327
 20
-827.8178404659875
 30
0.0
  0
VERTEX
  5
1671
  8
0
  6
CONTINUOUS
 10
-336.5487530020327
 20
-827.8178404659875
 30
0.0
  0
VERTEX
  5
1672
  8
0
  6
CONTINUOUS
 10
-340.97371685301721
 20
-810.799542936904
 30
0.0
  0
VERTEX
  5
1673
  8
0
  6
CONTINUOUS
 10
-343.60709380133579
 20
-800.04663675824975
 30
0.0
  0
VERTEX
  5
1674
  8
0
  6
CONTINUOUS
 10
-346.42670920513223
 20
-786.93050328311153
 30
0.0
  0
VERTEX
  5
1675
  8
0
  6
CONTINUOUS
 10
-346.42670920513223
 20
-786.93050328311153
 30
0.0
  0
VERTEX
  5
1676
  8
0
  6
CONTINUOUS
 10
-348.71759280535417
 20
-774.73478974219961
 30
0.0
  0
VERTEX
  5
1677
  8
0
  6
CONTINUOUS
 10
-350.84940763102782
 20
-762.28440031078503
 30
0.0
  0
VERTEX
  5
1678
  8
0
  6
CONTINUOUS
 10
-350.84940763102782
 20
-762.28440031078503
 30
0.0
  0
VERTEX
  5
1679
  8
0
  6
CONTINUOUS
 10
-352.84671721071919
 20
-749.50332907023255
 30
0.0
  0
VERTEX
  5
167A
  8
0
  6
CONTINUOUS
 10
-354.40768161393203
 20
-738.2318080033865
 30
0.0
  0
VERTEX
  5
167B
  8
0
  6
CONTINUOUS
 10
-355.59751659732751
 20
-728.19675668049103
 30
0.0
  0
VERTEX
  5
167C
  8
0
  6
CONTINUOUS
 10
-356.48143791756593
 20
-719.12509467179075
 30
0.0
  0
VERTEX
  5
167D
  8
0
  6
CONTINUOUS
 10
-357.12466133130778
 20
-710.74374154752911
 30
0.0
  0
VERTEX
  5
167E
  8
0
  6
CONTINUOUS
 10
-357.59240259521368
 20
-702.77961687795073
 30
0.0
  0
VERTEX
  5
167F
  8
0
  6
CONTINUOUS
 10
-358.262301700161
 20
-687.01073118381805
 30
0.0
  0
VERTEX
  5
1680
  8
0
  6
CONTINUOUS
 10
-358.262301700161
 20
-687.01073118381805
 30
0.0
  0
VERTEX
  5
1681
  8
0
  6
CONTINUOUS
 10
-358.90209174757717
 20
-669.9119239875447
 30
0.0
  0
VERTEX
  5
1682
  8
0
  6
CONTINUOUS
 10
-359.47965110017492
 20
-650.68920103207427
 30
0.0
  0
VERTEX
  5
1683
  8
0
  6
CONTINUOUS
 10
-359.85208858255129
 20
-628.82669789655006
 30
0.0
  0
VERTEX
  5
1684
  8
0
  6
CONTINUOUS
 10
-359.87651301930367
 20
-603.80855016011537
 30
0.0
  0
VERTEX
  5
1685
  8
0
  6
CONTINUOUS
 10
-359.87651301930367
 20
-603.80855016011537
 30
0.0
  0
VERTEX
  5
1686
  8
0
  6
CONTINUOUS
 10
-359.45226622233849
 20
-575.45538511344944
 30
0.0
  0
VERTEX
  5
1687
  8
0
  6
CONTINUOUS
 10
-358.64762195279809
 20
-544.9337968933803
 30
0.0
  0
VERTEX
  5
1688
  8
0
  6
CONTINUOUS
 10
-357.57308695913508
 20
-513.74687134827275
 30
0.0
  0
VERTEX
  5
1689
  8
0
  6
CONTINUOUS
 10
-356.33916798980118
 20
-483.39769432649138
 30
0.0
  0
VERTEX
  5
168A
  8
0
  6
CONTINUOUS
 10
-356.33916798980118
 20
-483.39769432649138
 30
0.0
  0
VERTEX
  5
168B
  8
0
  6
CONTINUOUS
 10
-354.21491757060312
 20
-438.76710364417278
 30
0.0
  0
VERTEX
  5
168C
  8
0
  6
CONTINUOUS
 10
-351.9754212242911
 20
-399.37934652327232
 30
0.0
  0
VERTEX
  5
168D
  8
0
  6
CONTINUOUS
 10
-349.63298189759172
 20
-364.36866966496478
 30
0.0
  0
VERTEX
  5
168E
  8
0
  6
CONTINUOUS
 10
-347.19990253723159
 20
-332.86931977042627
 30
0.0
  0
VERTEX
  5
168F
  8
0
  6
CONTINUOUS
 10
-344.68848608993687
 20
-304.01554354083231
 30
0.0
  0
VERTEX
  5
1690
  8
0
  6
CONTINUOUS
 10
-342.11103550243411
 20
-276.94158767735871
 30
0.0
  0
VERTEX
  5
1691
  8
0
  6
CONTINUOUS
 10
-336.80724369371012
 20
-224.6701238534738
 30
0.0
  0
VERTEX
  5
1692
  8
0
  6
CONTINUOUS
 10
-336.80724369371012
 20
-224.6701238534738
 30
0.0
  0
VERTEX
  5
1693
  8
0
  6
CONTINUOUS
 10
-331.37540097257431
 20
-170.41947956166831
 30
0.0
  0
VERTEX
  5
1694
  8
0
  6
CONTINUOUS
 10
-325.85618235135257
 20
-113.7165166788036
 30
0.0
  0
VERTEX
  5
1695
  8
0
  6
CONTINUOUS
 10
-314.6721186087658
 20
3.7766067386907789
 30
0.0
  0
SEQEND
  5
1696
  8
0
  6
CONTINUOUS
  0
POLYLINE
  5
450
  8
0
  6
CONTINUOUS
 66
     1
 10
0.0
 20
0.0
 30
0.0
  0
VERTEX
  5
1697
  8
0
  6
CONTINUOUS
 10
-314.6721186087658
 20
3.7766067386907789
 30
0.0
  0
VERTEX
  5
1698
  8
0
  6
CONTINUOUS
 10
-335.1714540604209
 20
-164.48365390275839
 30
0.0
  0
VERTEX
  5
1699
  8
0
  6
CONTINUOUS
 10
-357.31724472219781
 20
-348.03120324021592
 30
0.0
  0
VERTEX
  5
169A
  8
0
  6
CONTINUOUS
 10
-357.31724472219781
 20
-348.03120324021592
 30
0.0
  0
VERTEX
  5
169B
  8
0
  6
CONTINUOUS
 10
-361.90101863408478
 20
-386.90221946622182
 30
0.0
  0
VERTEX
  5
169C
  8
0
  6
CONTINUOUS
 10
-366.69238317264092
 20
-430.95936654022353
 30
0.0
  0
VERTEX
  5
169D
  8
0
  6
CONTINUOUS
 10
-369.1929603878022
 20
-456.20221391789971
 30
0.0
  0
VERTEX
  5
169E
  8
0
  6
CONTINUOUS
 10
-371.77789341268982
 20
-484.26496373478801
 30
0.0
  0
VERTEX
  5
169F
  8
0
  6
CONTINUOUS
 10
-374.45800163165632
 20
-515.65540589995965
 30
0.0
  0
VERTEX
  5
16A0
  8
0
  6
CONTINUOUS
 10
-377.24410442905452
 20
-550.88133032248493
 30
0.0
  0
VERTEX
  5
16A1
  8
0
  6
CONTINUOUS
 10
-377.24410442905452
 20
-550.88133032248493
 30
0.0
  0
VERTEX
  5
16A2
  8
0
  6
CONTINUOUS
 10
-380.88015513524289
 20
-599.98554780294569
 30
0.0
  0
VERTEX
  5
16A3
  8
0
  6
CONTINUOUS
 10
-384.42056009527471
 20
-647.13958455855732
 30
0.0
  0
VERTEX
  5
16A4
  8
0
  6
CONTINUOUS
 10
-384.42056009527471
 20
-647.13958455855732
 30
0.0
  0
VERTEX
  5
16A5
  8
0
  6
CONTINUOUS
 10
-386.04533339530639
 20
-667.84922108850674
 30
0.0
  0
VERTEX
  5
16A6
  8
0
  6
CONTINUOUS
 10
-387.41172961660283
 20
-688.57000846537539
 30
0.0
  0
VERTEX
  5
16A7
  8
0
  6
CONTINUOUS
 10
-387.94679219020878
 20
-699.78392000542203
 30
0.0
  0
VERTEX
  5
16A8
  8
0
  6
CONTINUOUS
 10
-388.35576753511128
 20
-712.01982279802019
 30
0.0
  0
VERTEX
  5
16A9
  8
0
  6
CONTINUOUS
 10
-388.61815799830401
 20
-725.61745135677711
 30
0.0
  0
VERTEX
  5
16AA
  8
0
  6
CONTINUOUS
 10
-388.71346592677958
 20
-740.9165401952996
 30
0.0
  0
VERTEX
  5
16AB
  8
0
  6
CONTINUOUS
 10
-388.71346592677958
 20
-740.9165401952996
 30
0.0
  0
VERTEX
  5
16AC
  8
0
  6
CONTINUOUS
 10
-388.63742232002818
 20
-755.82214911234075
 30
0.0
  0
VERTEX
  5
16AD
  8
0
  6
CONTINUOUS
 10
-388.3670315883686
 20
-771.55683990445561
 30
0.0
  0
VERTEX
  5
16AE
  8
0
  6
CONTINUOUS
 10
-387.8518697422133
 20
-787.3835634068281
 30
0.0
  0
VERTEX
  5
16AF
  8
0
  6
CONTINUOUS
 10
-387.04151279197481
 20
-802.5652704546402
 30
0.0
  0
VERTEX
  5
16B0
  8
0
  6
CONTINUOUS
 10
-387.04151279197481
 20
-802.5652704546402
 30
0.0
  0
VERTEX
  5
16B1
  8
0
  6
CONTINUOUS
 10
-385.93193777248382
 20
-816.58994593909529
 30
0.0
  0
VERTEX
  5
16B2
  8
0
  6
CONTINUOUS
 10
-384.70472581624398
 20
-829.84571097548223
 30
0.0
  0
VERTEX
  5
16B3
  8
0
  6
CONTINUOUS
 10
-383.58785908017722
 20
-842.94572073510972
 30
0.0
  0
VERTEX
  5
16B4
  8
0
  6
CONTINUOUS
 10
-382.8093197212055
 20
-856.50313038928743
 30
0.0
  0
VERTEX
  5
16B5
  8
0
  6
CONTINUOUS
 10
-382.8093197212055
 20
-856.50313038928743
 30
0.0
  0
VERTEX
  5
16B6
  8
0
  6
CONTINUOUS
 10
-382.35427997188623
 20
-871.1829182495195
 30
0.0
  0
VERTEX
  5
16B7
  8
0
  6
CONTINUOUS
 10
-381.9551019883375
 20
-879.21304970823223
 30
0.0
  0
VERTEX
  5
16B8
  8
0
  6
CONTINUOUS
 10
-381.23667236731819
 20
-887.85735518808872
 30
0.0
  0
VERTEX
  5
16B9
  8
0
  6
CONTINUOUS
 10
-380.04538143517033
 20
-897.23134644064953
 30
0.0
  0
VERTEX
  5
16BA
  8
0
  6
CONTINUOUS
 10
-378.22761951823509
 20
-907.45053521747343
 30
0.0
  0
VERTEX
  5
16BB
  8
0
  6
CONTINUOUS
 10
-377.0358089174544
 20
-912.91317609984685
 30
0.0
  0
VERTEX
  5
16BC
  8
0
  6
CONTINUOUS
 10
-375.62977694285507
 20
-918.63043327012065
 30
0.0
  0
VERTEX
  5
16BD
  8
0
  6
CONTINUOUS
 10
-373.99032238522972
 20
-924.61674569724039
 30
0.0
  0
VERTEX
  5
16BE
  8
0
  6
CONTINUOUS
 10
-372.09824403537141
 20
-930.88655235015108
 30
0.0
  0
VERTEX
  5
16BF
  8
0
  6
CONTINUOUS
 10
-372.09824403537141
 20
-930.88655235015108
 30
0.0
  0
VERTEX
  5
16C0
  8
0
  6
CONTINUOUS
 10
-367.45252833949542
 20
-944.84629467450372
 30
0.0
  0
VERTEX
  5
16C1
  8
0
  6
CONTINUOUS
 10
-365.07306120815019
 20
-951.97652605349299
 30
0.0
  0
VERTEX
  5
16C2
  8
0
  6
CONTINUOUS
 10
-362.8657830175535
 20
-959.02400660639069
 30
0.0
  0
VERTEX
  5
16C3
  8
0
  6
CONTINUOUS
 10
-362.8657830175535
 20
-959.02400660639069
 30
0.0
  0
VERTEX
  5
16C4
  8
0
  6
CONTINUOUS
 10
-360.83359708791022
 20
-965.96526730888615
 30
0.0
  0
VERTEX
  5
16C5
  8
0
  6
CONTINUOUS
 10
-357.99289006364631
 20
-972.37651029083202
 30
0.0
  0
VERTEX
  5
16C6
  8
0
  6
CONTINUOUS
 10
-353.52025206598432
 20
-979.70582000939271
 30
0.0
  0
VERTEX
  5
16C7
  8
0
  6
CONTINUOUS
 10
-349.66879113413711
 20
-984.83458221576461
 30
0.0
  0
VERTEX
  5
16C8
  8
0
  6
CONTINUOUS
 10
-342.8717056765592
 20
-990.20475900619999
 30
0.0
  0
VERTEX
  5
16C9
  8
0
  6
CONTINUOUS
 10
-335.07239512913321
 20
-993.92153291900161
 30
0.0
  0
VERTEX
  5
16CA
  8
0
  6
CONTINUOUS
 10
-326.78699232577412
 20
-995.58143675953636
 30
0.0
  0
VERTEX
  5
16CB
  8
0
  6
CONTINUOUS
 10
-326.78699232577412
 20
-995.58143675953636
 30
0.0
  0
VERTEX
  5
16CC
  8
0
  6
CONTINUOUS
 10
-315.25966227957213
 20
-996.01559399550433
 30
0.0
  0
VERTEX
  5
16CD
  8
0
  6
CONTINUOUS
 10
-302.1721186087658
 20
-996.22339326130862
 30
0.0
  0
SEQEND
  5
16CE
  8
0
  6
CONTINUOUS
  0
POINT
  5
451
  8
0
  6
CONTINUOUS
 10
-362.8657830175535
 20
-959.02400660639069
 30
0.0
  0
POINT
  5
452
  8
0
  6
CONTINUOUS
 10
-372.09824403537141
 20
-930.88655235015108
 30
0.0
  0
POINT
  5
453
  8
0
  6
CONTINUOUS
 10
-382.8093197212055
 20
-856.50313038928743
 30
0.0
  0
TEXT
  5
454
  8
0
  6
CONTINUOUS
 10
-309.24575404102882
 20
-955.26260004952803
 30
0.0
 40
10.0
  1
0.3m/s
 50
0.0000025044781673
 41
0.5833333271245161
  7
STANDARD1
  0
TEXT
  5
455
  8
0
  6
CONTINUOUS
 10
-310.93799639970922
 20
-806.662566230989
 30
0.0
 40
10.0
  1
0.5m/s
 50
0.0000025044781673
 41
0.5833333271245161
  7
STANDARD1
  0
POINT
  5
456
  8
0
  6
CONTINUOUS
 10
-324.95057288178612
 20
-859.50873069119632
 30
0.0
  0
POINT
  5
457
  8
0
  6
CONTINUOUS
 10
-315.74399778042732
 20
-870.60966497009508
 30
0.0
  0
POINT
  5
458
  8
0
  6
CONTINUOUS
 10
-307.44555121260032
 20
-875.2817186094876
 30
0.0
  0
POINT
  5
459
  8
0
  6
CONTINUOUS
 10
-336.5487530020327
 20
-827.8178404659875
 30
0.0
  0
POINT
  5
45A
  8
0
  6
CONTINUOUS
 10
-296.89868600493139
 20
-875.2817186094876
 30
0.0
  0
POINT
  5
45B
  8
0
  6
CONTINUOUS
 10
-302.1721186087658
 20
-876.22339326130896
 30
0.0
  0
POINT
  5
45C
  8
0
  6
CONTINUOUS
 10
-302.1721186087658
 20
-876.22339326130896
 30
0.0
  0
POINT
  5
45D
  8
0
  6
CONTINUOUS
 10
-288.60023943710451
 20
-870.60966497009508
 30
0.0
  0
POINT
  5
45E
  8
0
  6
CONTINUOUS
 10
-279.39366433574571
 20
-859.50873069119632
 30
0.0
  0
POINT
  5
45F
  8
0
  6
CONTINUOUS
 10
-241.4784541999781
 20
-959.02400660639069
 30
0.0
  0
POINT
  5
460
  8
0
  6
CONTINUOUS
 10
-232.24599318216011
 20
-930.88655235015108
 30
0.0
  0
POINT
  5
461
  8
0
  6
CONTINUOUS
 10
-267.79548421549902
 20
-827.8178404659875
 30
0.0
  0
POINT
  5
462
  8
0
  6
CONTINUOUS
 10
-221.5349174963261
 20
-856.50313038928743
 30
0.0
  0
POINT
  5
463
  8
0
  6
CONTINUOUS
 10
-217.30272442555679
 20
-802.5652704546402
 30
0.0
  0
POINT
  5
464
  8
0
  6
CONTINUOUS
 10
-388.71346592677958
 20
-740.9165401952996
 30
0.0
  0
POINT
  5
465
  8
0
  6
CONTINUOUS
 10
-346.42670920513223
 20
-786.93050328311153
 30
0.0
  0
POINT
  5
466
  8
0
  6
CONTINUOUS
 10
-350.84940763102782
 20
-762.28440031078503
 30
0.0
  0
POINT
  5
467
  8
0
  6
CONTINUOUS
 10
-358.262301700161
 20
-687.01073118381805
 30
0.0
  0
POINT
  5
468
  8
0
  6
CONTINUOUS
 10
-359.87651301930367
 20
-603.80855016011537
 30
0.0
  0
POINT
  5
469
  8
0
  6
CONTINUOUS
 10
-377.24410442905452
 20
-550.88133032248493
 30
0.0
  0
POINT
  5
46A
  8
0
  6
CONTINUOUS
 10
-356.33916798980118
 20
-483.39769432649138
 30
0.0
  0
POINT
  5
46B
  8
0
  6
CONTINUOUS
 10
-257.91752801239932
 20
-786.93050328311153
 30
0.0
  0
POINT
  5
46C
  8
0
  6
CONTINUOUS
 10
-253.49482958650401
 20
-762.28440031078503
 30
0.0
  0
POINT
  5
46D
  8
0
  6
CONTINUOUS
 10
-215.63077129075199
 20
-740.9165401952996
 30
0.0
  0
POINT
  5
46E
  8
0
  6
CONTINUOUS
 10
-246.08193551737079
 20
-687.01073118381805
 30
0.0
  0
POINT
  5
46F
  8
0
  6
CONTINUOUS
 10
-219.923677122257
 20
-647.13958455855732
 30
0.0
  0
POINT
  5
470
  8
0
  6
CONTINUOUS
 10
-219.923677122257
 20
-647.13958455855732
 30
0.0
  0
POINT
  5
471
  8
0
  6
CONTINUOUS
 10
-244.4677241982279
 20
-603.80855016011537
 30
0.0
  0
POINT
  5
472
  8
0
  6
CONTINUOUS
 10
-227.10013278847691
 20
-550.88133032248493
 30
0.0
  0
POINT
  5
473
  8
0
  6
CONTINUOUS
 10
-248.00506922773059
 20
-483.39769432649138
 30
0.0
  0
POINT
  5
474
  8
0
  6
CONTINUOUS
 10
-58.329556678230631
 20
-965.02533357483583
 30
0.0
  0
POINT
  5
475
  8
0
  6
CONTINUOUS
 10
-74.789246920955634
 20
-917.81212476595203
 30
0.0
  0
POINT
  5
476
  8
0
  6
CONTINUOUS
 10
-93.229213192118834
 20
-801.08986129107711
 30
0.0
  0
TEXT
  5
477
  8
0
  6
CONTINUOUS
 10
-13.617407267666181
 20
-959.14310642112173
 30
0.0
 40
10.0
  1
0.3m/s
 50
0.0000025044781673
 41
0.5833333271245161
  7
STANDARD1
  0
TEXT
  5
478
  8
0
  6
CONTINUOUS
 10
-15.30964962634641
 20
-810.5430726025819
 30
0.0
 40
10.0
  1
0.5m/s
 50
0.0000025044781673
 41
0.5833333271245161
  7
STANDARD1
  0
POINT
  5
479
  8
0
  6
CONTINUOUS
 10
58.329556678230567
 20
-965.02533357483583
 30
0.0
  0
POINT
  5
47A
  8
0
  6
CONTINUOUS
 10
74.789246920955634
 20
-917.81212476595203
 30
0.0
  0
POINT
  5
47B
  8
0
  6
CONTINUOUS
 10
93.229213192118763
 20
-801.08986129107711
 30
0.0
  0
POINT
  5
47C
  8
0
  6
CONTINUOUS
 10
-93.368072311026992
 20
-596.33911075660967
 30
0.0
  0
POINT
  5
47D
  8
0
  6
CONTINUOUS
 10
96.183342928931097
 20
-707.95034618576153
 30
0.0
  0
POINT
  5
47E
  8
0
  6
CONTINUOUS
 10
93.368072311027063
 20
-596.33911075660967
 30
0.0
  0
POLYLINE
  5
47F
  8
0
  6
CONTINUOUS
 66
     1
 10
0.0
 20
0.0
 30
0.0
  0
VERTEX
  5
16CF
  8
0
  6
CONTINUOUS
 10
-289.6721186087658
 20
3.7766067386907789
 30
0.0
  0
VERTEX
  5
16D0
  8
0
  6
CONTINUOUS
 10
-285.87657415197663
 20
-56.214803781637137
 30
0.0
  0
VERTEX
  5
16D1
  8
0
  6
CONTINUOUS
 10
-282.15658473650973
 20
-114.99925615427649
 30
0.0
  0
VERTEX
  5
16D2
  8
0
  6
CONTINUOUS
 10
-282.15658473650973
 20
-114.99925615427649
 30
0.0
  0
VERTEX
  5
16D3
  8
0
  6
CONTINUOUS
 10
-280.36331428332522
 20
-144.19719353441761
 30
0.0
  0
VERTEX
  5
16D4
  8
0
  6
CONTINUOUS
 10
-278.70594671280742
 20
-176.45375159439641
 30
0.0
  0
VERTEX
  5
16D5
  8
0
  6
CONTINUOUS
 10
-277.9588906841758
 20
-194.8734195523505
 30
0.0
  0
VERTEX
  5
16D6
  8
0
  6
CONTINUOUS
 10
-277.28260738696309
 20
-215.4310300878945
 30
0.0
  0
VERTEX
  5
16D7
  8
0
  6
CONTINUOUS
 10
-276.6893624914199
 20
-238.58434567023889
 30
0.0
  0
VERTEX
  5
16D8
  8
0
  6
CONTINUOUS
 10
-276.1914216677979
 20
-264.79112876859392
 30
0.0
  0
VERTEX
  5
16D9
  8
0
  6
CONTINUOUS
 10
-276.1914216677979
 20
-264.79112876859392
 30
0.0
  0
VERTEX
  5
16DA
  8
0
  6
CONTINUOUS
 10
-275.83173271403638
 20
-294.72660154311382
 30
0.0
  0
VERTEX
  5
16DB
  8
0
  6
CONTINUOUS
 10
-275.860023719536
 20
-323.11716771216612
 30
0.0
  0
VERTEX
  5
16DC
  8
0
  6
CONTINUOUS
 10
-275.860023719536
 20
-323.11716771216612
 30
0.0
  0
VERTEX
  5
16DD
  8
0
  6
CONTINUOUS
 10
-276.10488313753461
 20
-335.38456796006221
 30
0.0
  0
VERTEX
  5
16DE
  8
0
  6
CONTINUOUS
 10
-276.54979352182221
 20
-347.16157325607031
 30
0.0
  0
VERTEX
  5
16DF
  8
0
  6
CONTINUOUS
 10
-277.22976541442449
 20
-359.67519677582868
 30
0.0
  0
VERTEX
  5
16E0
  8
0
  6
CONTINUOUS
 10
-278.17980935736767
 20
-374.15245169497632
 30
0.0
  0
VERTEX
  5
16E1
  8
0
  6
CONTINUOUS
 10
-278.17980935736767
 20
-374.15245169497632
 30
0.0
  0
VERTEX
  5
16E2
  8
0
  6
CONTINUOUS
 10
-278.77017526519637
 20
-381.7387261277882
 30
0.0
  0
VERTEX
  5
16E3
  8
0
  6
CONTINUOUS
 10
-279.84898275067991
 20
-391.14604253485987
 30
0.0
  0
VERTEX
  5
16E4
  8
0
  6
CONTINUOUS
 10
-279.84898275067991
 20
-391.14604253485987
 30
0.0
  0
VERTEX
  5
16E5
  8
0
  6
CONTINUOUS
 10
-280.62399263978091
 20
-396.06675282645722
 30
0.0
  0
VERTEX
  5
16E6
  8
0
  6
CONTINUOUS
 10
-281.95047099789201
 20
-401.90288165644682
 30
0.0
  0
VERTEX
  5
16E7
  8
0
  6
CONTINUOUS
 10
-281.95047099789201
 20
-401.90288165644682
 30
0.0
  0
VERTEX
  5
16E8
  8
0
  6
CONTINUOUS
 10
-284.02610007160951
 20
-408.89741475467679
 30
0.0
  0
VERTEX
  5
16E9
  8
0
  6
CONTINUOUS
 10
-286.30454978071077
 20
-416.80710218791529
 30
0.0
  0
VERTEX
  5
16EA
  8
0
  6
CONTINUOUS
 10
-286.30454978071077
 20
-416.80710218791529
 30
0.0
  0
VERTEX
  5
16EB
  8
0
  6
CONTINUOUS
 10
-287.37672209135019
 20
-420.97758083896002
 30
0.0
  0
VERTEX
  5
16EC
  8
0
  6
CONTINUOUS
 10
-288.73943761064521
 20
-425.15877370004682
 30
0.0
  0
VERTEX
  5
16ED
  8
0
  6
CONTINUOUS
 10
-289.66191199238028
 20
-427.21374040889981
 30
0.0
  0
VERTEX
  5
16EE
  8
0
  6
CONTINUOUS
 10
-290.8156176788886
 20
-429.2238086097156
 30
0.0
  0
VERTEX
  5
16EF
  8
0
  6
CONTINUOUS
 10
-292.25341983770682
 20
-431.1731192823126
 30
0.0
  0
VERTEX
  5
16F0
  8
0
  6
CONTINUOUS
 10
-294.0281836363713
 20
-433.04581340650719
 30
0.0
  0
VERTEX
  5
16F1
  8
0
  6
CONTINUOUS
 10
-294.0281836363713
 20
-433.04581340650719
 30
0.0
  0
VERTEX
  5
16F2
  8
0
  6
CONTINUOUS
 10
-295.42290040189039
 20
-434.21891548011149
 30
0.0
  0
VERTEX
  5
16F3
  8
0
  6
CONTINUOUS
 10
-297.44948253874412
 20
-435.57747339974031
 30
0.0
  0
VERTEX
  5
16F4
  8
0
  6
CONTINUOUS
 10
-297.44948253874412
 20
-435.57747339974031
 30
0.0
  0
VERTEX
  5
16F5
  8
0
  6
CONTINUOUS
 10
-298.48109523163282
 20
-436.1651876221697
 30
0.0
  0
VERTEX
  5
16F6
  8
0
  6
CONTINUOUS
 10
-299.63822285913972
 20
-436.65960010853712
 30
0.0
  0
VERTEX
  5
16F7
  8
0
  6
CONTINUOUS
 10
-299.63822285913972
 20
-436.65960010853712
 30
0.0
  0
VERTEX
  5
16F8
  8
0
  6
CONTINUOUS
 10
-300.88294546106857
 20
-436.94123414021311
 30
0.0
  0
VERTEX
  5
16F9
  8
0
  6
CONTINUOUS
 10
-302.1721186087658
 20
-437.02447785135951
 30
0.0
  0
VERTEX
  5
16FA
  8
0
  6
CONTINUOUS
 10
-302.1721186087658
 20
-437.02447785135951
 30
0.0
  0
VERTEX
  5
16FB
  8
0
  6
CONTINUOUS
 10
-303.46129175646303
 20
-436.94123414021311
 30
0.0
  0
VERTEX
  5
16FC
  8
0
  6
CONTINUOUS
 10
-304.70601435839228
 20
-436.65960010853712
 30
0.0
  0
VERTEX
  5
16FD
  8
0
  6
CONTINUOUS
 10
-304.70601435839228
 20
-436.65960010853712
 30
0.0
  0
VERTEX
  5
16FE
  8
0
  6
CONTINUOUS
 10
-305.86314198589901
 20
-436.1651876221697
 30
0.0
  0
VERTEX
  5
16FF
  8
0
  6
CONTINUOUS
 10
-306.89475467878748
 20
-435.57747339974031
 30
0.0
  0
VERTEX
  5
1700
  8
0
  6
CONTINUOUS
 10
-306.89475467878748
 20
-435.57747339974031
 30
0.0
  0
VERTEX
  5
1701
  8
0
  6
CONTINUOUS
 10
-308.92133681564133
 20
-434.21891548011149
 30
0.0
  0
VERTEX
  5
1702
  8
0
  6
CONTINUOUS
 10
-310.3160535811603
 20
-433.04581340650719
 30
0.0
  0
VERTEX
  5
1703
  8
0
  6
CONTINUOUS
 10
-310.3160535811603
 20
-433.04581340650719
 30
0.0
  0
VERTEX
  5
1704
  8
0
  6
CONTINUOUS
 10
-312.0908173798249
 20
-431.1731192823126
 30
0.0
  0
VERTEX
  5
1705
  8
0
  6
CONTINUOUS
 10
-313.52861953864328
 20
-429.2238086097156
 30
0.0
  0
VERTEX
  5
1706
  8
0
  6
CONTINUOUS
 10
-314.68232522515149
 20
-427.21374040889981
 30
0.0
  0
VERTEX
  5
1707
  8
0
  6
CONTINUOUS
 10
-315.60479960688627
 20
-425.15877370004682
 30
0.0
  0
VERTEX
  5
1708
  8
0
  6
CONTINUOUS
 10
-316.96751512618169
 20
-420.97758083896002
 30
0.0
  0
VERTEX
  5
1709
  8
0
  6
CONTINUOUS
 10
-318.03968743682083
 20
-416.80710218791529
 30
0.0
  0
VERTEX
  5
170A
  8
0
  6
CONTINUOUS
 10
-318.03968743682083
 20
-416.80710218791529
 30
0.0
  0
VERTEX
  5
170B
  8
0
  6
CONTINUOUS
 10
-320.31813714592221
 20
-408.89741475467679
 30
0.0
  0
VERTEX
  5
170C
  8
0
  6
CONTINUOUS
 10
-322.39376621963982
 20
-401.90288165644682
 30
0.0
  0
VERTEX
  5
170D
  8
0
  6
CONTINUOUS
 10
-322.39376621963982
 20
-401.90288165644682
 30
0.0
  0
VERTEX
  5
170E
  8
0
  6
CONTINUOUS
 10
-323.72024457775092
 20
-396.06675282645722
 30
0.0
  0
VERTEX
  5
170F
  8
0
  6
CONTINUOUS
 10
-324.49525446685169
 20
-391.14604253485987
 30
0.0
  0
VERTEX
  5
1710
  8
0
  6
CONTINUOUS
 10
-324.49525446685169
 20
-391.14604253485987
 30
0.0
  0
VERTEX
  5
1711
  8
0
  6
CONTINUOUS
 10
-325.57406195233523
 20
-381.7387261277882
 30
0.0
  0
VERTEX
  5
1712
  8
0
  6
CONTINUOUS
 10
-326.16442786016381
 20
-374.15245169497632
 30
0.0
  0
VERTEX
  5
1713
  8
0
  6
CONTINUOUS
 10
-326.16442786016381
 20
-374.15245169497632
 30
0.0
  0
VERTEX
  5
1714
  8
0
  6
CONTINUOUS
 10
-327.11447180310711
 20
-359.67519677582868
 30
0.0
  0
VERTEX
  5
1715
  8
0
  6
CONTINUOUS
 10
-327.7944436957095
 20
-347.16157325607031
 30
0.0
  0
VERTEX
  5
1716
  8
0
  6
CONTINUOUS
 10
-328.23935407999687
 20
-335.38456796006221
 30
0.0
  0
VERTEX
  5
1717
  8
0
  6
CONTINUOUS
 10
-328.48421349799582
 20
-323.11716771216612
 30
0.0
  0
VERTEX
  5
1718
  8
0
  6
CONTINUOUS
 10
-328.48421349799582
 20
-323.11716771216612
 30
0.0
  0
VERTEX
  5
1719
  8
0
  6
CONTINUOUS
 10
-328.51250450349522
 20
-294.72660154311382
 30
0.0
  0
VERTEX
  5
171A
  8
0
  6
CONTINUOUS
 10
-328.15281554973399
 20
-264.79112876859392
 30
0.0
  0
VERTEX
  5
171B
  8
0
  6
CONTINUOUS
 10
-328.15281554973399
 20
-264.79112876859392
 30
0.0
  0
VERTEX
  5
171C
  8
0
  6
CONTINUOUS
 10
-327.6548747261117
 20
-238.58434567023889
 30
0.0
  0
VERTEX
  5
171D
  8
0
  6
CONTINUOUS
 10
-327.06162983056862
 20
-215.4310300878945
 30
0.0
  0
VERTEX
  5
171E
  8
0
  6
CONTINUOUS
 10
-326.3853465333558
 20
-194.8734195523505
 30
0.0
  0
VERTEX
  5
171F
  8
0
  6
CONTINUOUS
 10
-325.63829050472413
 20
-176.45375159439641
 30
0.0
  0
VERTEX
  5
1720
  8
0
  6
CONTINUOUS
 10
-323.98092293420649
 20
-144.19719353441761
 30
0.0
  0
VERTEX
  5
1721
  8
0
  6
CONTINUOUS
 10
-322.18765248102198
 20
-114.99925615427649
 30
0.0
  0
VERTEX
  5
1722
  8
0
  6
CONTINUOUS
 10
-322.18765248102198
 20
-114.99925615427649
 30
0.0
  0
VERTEX
  5
1723
  8
0
  6
CONTINUOUS
 10
-318.4676630655548
 20
-56.214803781637137
 30
0.0
  0
VERTEX
  5
1724
  8
0
  6
CONTINUOUS
 10
-314.6721186087658
 20
3.7766067386907789
 30
0.0
  0
SEQEND
  5
1725
  8
0
  6
CONTINUOUS
  0
POINT
  5
480
  8
0
  6
CONTINUOUS
 10
-357.31724472219781
 20
-348.03120324021592
 30
0.0
  0
POINT
  5
481
  8
0
  6
CONTINUOUS
 10
-306.89475467878748
 20
-435.57747339974031
 30
0.0
  0
POINT
  5
482
  8
0
  6
CONTINUOUS
 10
-310.3160535811603
 20
-433.04581340650719
 30
0.0
  0
POINT
  5
483
  8
0
  6
CONTINUOUS
 10
-324.49525446685169
 20
-391.14604253485987
 30
0.0
  0
POINT
  5
484
  8
0
  6
CONTINUOUS
 10
-318.03968743682083
 20
-416.80710218791529
 30
0.0
  0
POINT
  5
485
  8
0
  6
CONTINUOUS
 10
-322.39376621963982
 20
-401.90288165644682
 30
0.0
  0
POINT
  5
486
  8
0
  6
CONTINUOUS
 10
-299.63822285913972
 20
-436.65960010853712
 30
0.0
  0
POINT
  5
487
  8
0
  6
CONTINUOUS
 10
-297.44948253874412
 20
-435.57747339974031
 30
0.0
  0
POINT
  5
488
  8
0
  6
CONTINUOUS
 10
-304.70601435839228
 20
-436.65960010853712
 30
0.0
  0
POINT
  5
489
  8
0
  6
CONTINUOUS
 10
-302.1721186087658
 20
-437.02447785135951
 30
0.0
  0
POINT
  5
48A
  8
0
  6
CONTINUOUS
 10
-302.1721186087658
 20
-437.02447785135951
 30
0.0
  0
POINT
  5
48B
  8
0
  6
CONTINUOUS
 10
-294.0281836363713
 20
-433.04581340650719
 30
0.0
  0
POINT
  5
48C
  8
0
  6
CONTINUOUS
 10
-286.30454978071077
 20
-416.80710218791529
 30
0.0
  0
POINT
  5
48D
  8
0
  6
CONTINUOUS
 10
-279.84898275067991
 20
-391.14604253485987
 30
0.0
  0
POINT
  5
48E
  8
0
  6
CONTINUOUS
 10
-281.95047099789201
 20
-401.90288165644682
 30
0.0
  0
TEXT
  5
48F
  8
0
  6
CONTINUOUS
 10
-311.38842314557439
 20
-376.70409153520552
 30
0.0
 40
10.0
  1
1m/s
 50
0.0000025044781673
 41
0.5833333271245161
  7
STANDARD1
  0
POINT
  5
490
  8
0
  6
CONTINUOUS
 10
-326.16442786016381
 20
-374.15245169497632
 30
0.0
  0
POINT
  5
491
  8
0
  6
CONTINUOUS
 10
-326.16442786016381
 20
-374.15245169497632
 30
0.0
  0
POINT
  5
492
  8
0
  6
CONTINUOUS
 10
-328.48421349799582
 20
-323.11716771216612
 30
0.0
  0
POINT
  5
493
  8
0
  6
CONTINUOUS
 10
-278.17980935736767
 20
-374.15245169497632
 30
0.0
  0
POINT
  5
494
  8
0
  6
CONTINUOUS
 10
-278.17980935736767
 20
-374.15245169497632
 30
0.0
  0
POINT
  5
495
  8
0
  6
CONTINUOUS
 10
-275.860023719536
 20
-323.11716771216612
 30
0.0
  0
POINT
  5
496
  8
0
  6
CONTINUOUS
 10
-328.15281554973399
 20
-264.79112876859392
 30
0.0
  0
POINT
  5
497
  8
0
  6
CONTINUOUS
 10
-336.80724369371012
 20
-224.6701238534738
 30
0.0
  0
POINT
  5
498
  8
0
  6
CONTINUOUS
 10
-276.1914216677979
 20
-264.79112876859392
 30
0.0
  0
POINT
  5
499
  8
0
  6
CONTINUOUS
 10
-247.0269924953337
 20
-348.03120324021592
 30
0.0
  0
POINT
  5
49A
  8
0
  6
CONTINUOUS
 10
-267.53699352382159
 20
-224.6701238534738
 30
0.0
  0
POLYLINE
  5
49B
  8
0
  6
CONTINUOUS
 66
     1
 10
0.0
 20
0.0
 30
0.0
  0
VERTEX
  5
1726
  8
0
  6
CONTINUOUS
 10
-289.6721186087658
 20
3.7766067386907789
 30
0.0
  0
VERTEX
  5
1727
  8
0
  6
CONTINUOUS
 10
-289.56853021856028
 20
-1.7440919980364851
 30
0.0
  0
VERTEX
  5
1728
  8
0
  6
CONTINUOUS
 10
-289.47796975378532
 20
-6.7897443064449252
 30
0.0
  0
VERTEX
  5
1729
  8
0
  6
CONTINUOUS
 10
-289.47796975378532
 20
-6.7897443064449252
 30
0.0
  0
VERTEX
  5
172A
  8
0
  6
CONTINUOUS
 10
-289.3399243141958
 20
-16.925908919841859
 30
0.0
  0
VERTEX
  5
172B
  8
0
  6
CONTINUOUS
 10
-289.28962561018881
 20
-25.981186273735769
 30
0.0
  0
VERTEX
  5
172C
  8
0
  6
CONTINUOUS
 10
-289.28962561018881
 20
-25.981186273735769
 30
0.0
  0
VERTEX
  5
172D
  8
0
  6
CONTINUOUS
 10
-289.28348561739892
 20
-30.115112168634919
 30
0.0
  0
VERTEX
  5
172E
  8
0
  6
CONTINUOUS
 10
-289.33156823431511
 20
-35.980635971998069
 30
0.0
  0
VERTEX
  5
172F
  8
0
  6
CONTINUOUS
 10
-289.33156823431511
 20
-35.980635971998069
 30
0.0
  0
VERTEX
  5
1730
  8
0
  6
CONTINUOUS
 10
-289.37006730719349
 20
-38.61281445744671
 30
0.0
  0
VERTEX
  5
1731
  8
0
  6
CONTINUOUS
 10
-289.41311932195089
 20
-41.270909278262053
 30
0.0
  0
VERTEX
  5
1732
  8
0
  6
CONTINUOUS
 10
-289.41311932195089
 20
-41.270909278262053
 30
0.0
  0
VERTEX
  5
1733
  8
0
  6
CONTINUOUS
 10
-289.5838831522164
 20
-49.688772634745462
 30
0.0
  0
VERTEX
  5
1734
  8
0
  6
CONTINUOUS
 10
-289.89391610358138
 20
-55.770004182319141
 30
0.0
  0
VERTEX
  5
1735
  8
0
  6
CONTINUOUS
 10
-289.89391610358138
 20
-55.770004182319141
 30
0.0
  0
VERTEX
  5
1736
  8
0
  6
CONTINUOUS
 10
-290.48668834337462
 20
-62.027158519025207
 30
0.0
  0
VERTEX
  5
1737
  8
0
  6
CONTINUOUS
 10
-291.2074558986572
 20
-69.685515190007749
 30
0.0
  0
VERTEX
  5
1738
  8
0
  6
CONTINUOUS
 10
-291.2074558986572
 20
-69.685515190007749
 30
0.0
  0
VERTEX
  5
1739
  8
0
  6
CONTINUOUS
 10
-291.63881565639002
 20
-73.50718252286218
 30
0.0
  0
VERTEX
  5
173A
  8
0
  6
CONTINUOUS
 10
-292.127078018605
 20
-75.69117949306991
 30
0.0
  0
VERTEX
  5
173B
  8
0
  6
CONTINUOUS
 10
-292.94586156257918
 20
-78.12511604649653
 30
0.0
  0
VERTEX
  5
173C
  8
0
  6
CONTINUOUS
 10
-292.94586156257918
 20
-78.12511604649653
 30
0.0
  0
VERTEX
  5
173D
  8
0
  6
CONTINUOUS
 10
-294.0400522757098
 20
-80.435902146698325
 30
0.0
  0
VERTEX
  5
173E
  8
0
  6
CONTINUOUS
 10
-294.81081795774912
 20
-81.651309157729088
 30
0.0
  0
VERTEX
  5
173F
  8
0
  6
CONTINUOUS
 10
-295.78476809038301
 20
-82.894358217572915
 30
0.0
  0
VERTEX
  5
1740
  8
0
  6
CONTINUOUS
 10
-295.78476809038301
 20
-82.894358217572915
 30
0.0
  0
VERTEX
  5
1741
  8
0
  6
CONTINUOUS
 10
-296.83278913416018
 20
-83.907756588130184
 30
0.0
  0
VERTEX
  5
1742
  8
0
  6
CONTINUOUS
 10
-298.53610404880908
 20
-84.863207068911393
 30
0.0
  0
VERTEX
  5
1743
  8
0
  6
CONTINUOUS
 10
-298.53610404880908
 20
-84.863207068911393
 30
0.0
  0
VERTEX
  5
1744
  8
0
  6
CONTINUOUS
 10
-299.42271415067881
 20
-85.178133158971391
 30
0.0
  0
VERTEX
  5
1745
  8
0
  6
CONTINUOUS
 10
-300.36562266972669
 20
-85.386730485626984
 30
0.0
  0
VERTEX
  5
1746
  8
0
  6
CONTINUOUS
 10
-300.36562266972669
 20
-85.386730485626984
 30
0.0
  0
VERTEX
  5
1747
  8
0
  6
CONTINUOUS
 10
-301.28113154401069
 20
-85.437336634918239
 30
0.0
  0
VERTEX
  5
1748
  8
0
  6
CONTINUOUS
 10
-302.1721186087658
 20
-85.424947475849635
 30
0.0
  0
VERTEX
  5
1749
  8
0
  6
CONTINUOUS
 10
-302.1721186087658
 20
-85.424947475849635
 30
0.0
  0
VERTEX
  5
174A
  8
0
  6
CONTINUOUS
 10
-303.06310567352108
 20
-85.437336634918239
 30
0.0
  0
VERTEX
  5
174B
  8
0
  6
CONTINUOUS
 10
-303.97861454780508
 20
-85.386730485626984
 30
0.0
  0
VERTEX
  5
174C
  8
0
  6
CONTINUOUS
 10
-303.97861454780508
 20
-85.386730485626984
 30
0.0
  0
VERTEX
  5
174D
  8
0
  6
CONTINUOUS
 10
-304.92152306685301
 20
-85.178133158971391
 30
0.0
  0
VERTEX
  5
174E
  8
0
  6
CONTINUOUS
 10
-305.80813316872269
 20
-84.863207068911393
 30
0.0
  0
VERTEX
  5
174F
  8
0
  6
CONTINUOUS
 10
-305.80813316872269
 20
-84.863207068911393
 30
0.0
  0
VERTEX
  5
1750
  8
0
  6
CONTINUOUS
 10
-307.51144808337142
 20
-83.907756588130184
 30
0.0
  0
VERTEX
  5
1751
  8
0
  6
CONTINUOUS
 10
-308.55946912714882
 20
-82.894358217572915
 30
0.0
  0
VERTEX
  5
1752
  8
0
  6
CONTINUOUS
 10
-308.55946912714882
 20
-82.894358217572915
 30
0.0
  0
VERTEX
  5
1753
  8
0
  6
CONTINUOUS
 10
-309.53341925978248
 20
-81.651309157729088
 30
0.0
  0
VERTEX
  5
1754
  8
0
  6
CONTINUOUS
 10
-310.30418494182157
 20
-80.435902146698325
 30
0.0
  0
VERTEX
  5
1755
  8
0
  6
CONTINUOUS
 10
-311.39837565495247
 20
-78.12511604649653
 30
0.0
  0
VERTEX
  5
1756
  8
0
  6
CONTINUOUS
 10
-311.39837565495247
 20
-78.12511604649653
 30
0.0
  0
VERTEX
  5
1757
  8
0
  6
CONTINUOUS
 10
-312.21715919892682
 20
-75.69117949306991
 30
0.0
  0
VERTEX
  5
1758
  8
0
  6
CONTINUOUS
 10
-312.7054215611418
 20
-73.50718252286218
 30
0.0
  0
VERTEX
  5
1759
  8
0
  6
CONTINUOUS
 10
-313.13678131887451
 20
-69.685515190007749
 30
0.0
  0
VERTEX
  5
175A
  8
0
  6
CONTINUOUS
 10
-313.13678131887451
 20
-69.685515190007749
 30
0.0
  0
VERTEX
  5
175B
  8
0
  6
CONTINUOUS
 10
-313.85754887415709
 20
-62.027158519025207
 30
0.0
  0
VERTEX
  5
175C
  8
0
  6
CONTINUOUS
 10
-314.45032111395022
 20
-55.770004182319141
 30
0.0
  0
VERTEX
  5
175D
  8
0
  6
CONTINUOUS
 10
-314.45032111395022
 20
-55.770004182319141
 30
0.0
  0
VERTEX
  5
175E
  8
0
  6
CONTINUOUS
 10
-314.76035406531531
 20
-49.688772634745462
 30
0.0
  0
VERTEX
  5
175F
  8
0
  6
CONTINUOUS
 10
-314.93111789558083
 20
-41.270909278262053
 30
0.0
  0
VERTEX
  5
1760
  8
0
  6
CONTINUOUS
 10
-314.93111789558083
 20
-41.270909278262053
 30
0.0
  0
VERTEX
  5
1761
  8
0
  6
CONTINUOUS
 10
-314.97416991033828
 20
-38.61281445744671
 30
0.0
  0
VERTEX
  5
1762
  8
0
  6
CONTINUOUS
 10
-315.01266898321632
 20
-35.980635971998069
 30
0.0
  0
VERTEX
  5
1763
  8
0
  6
CONTINUOUS
 10
-315.01266898321632
 20
-35.980635971998069
 30
0.0
  0
VERTEX
  5
1764
  8
0
  6
CONTINUOUS
 10
-315.0607516001329
 20
-30.115112168634919
 30
0.0
  0
VERTEX
  5
1765
  8
0
  6
CONTINUOUS
 10
-315.05461160734279
 20
-25.981186273735769
 30
0.0
  0
VERTEX
  5
1766
  8
0
  6
CONTINUOUS
 10
-315.05461160734279
 20
-25.981186273735769
 30
0.0
  0
VERTEX
  5
1767
  8
0
  6
CONTINUOUS
 10
-315.00431290333569
 20
-16.925908919841859
 30
0.0
  0
VERTEX
  5
1768
  8
0
  6
CONTINUOUS
 10
-314.86626746374628
 20
-6.7897443064449252
 30
0.0
  0
VERTEX
  5
1769
  8
0
  6
CONTINUOUS
 10
-314.86626746374628
 20
-6.7897443064449252
 30
0.0
  0
VERTEX
  5
176A
  8
0
  6
CONTINUOUS
 10
-314.77570699897132
 20
-1.7440919980364851
 30
0.0
  0
VERTEX
  5
176B
  8
0
  6
CONTINUOUS
 10
-314.6721186087658
 20
3.7766067386907789
 30
0.0
  0
SEQEND
  5
176C
  8
0
  6
CONTINUOUS
  0
TEXT
  5
49C
  8
0
  6
CONTINUOUS
 10
-308.68198061636599
 20
-75.958065408205741
 30
0.0
 40
10.0
  1
2m/s
 50
0.0000025044781673
 41
0.5833333271245161
  7
STANDARD1
  0
POINT
  5
49D
  8
0
  6
CONTINUOUS
 10
-322.18765248102198
 20
-114.99925615427649
 30
0.0
  0
POINT
  5
49E
  8
0
  6
CONTINUOUS
 10
-311.39837565495247
 20
-78.12511604649653
 30
0.0
  0
POINT
  5
49F
  8
0
  6
CONTINUOUS
 10
-308.55946912714882
 20
-82.894358217572915
 30
0.0
  0
POINT
  5
4A0
  8
0
  6
CONTINUOUS
 10
-305.80813316872269
 20
-84.863207068911393
 30
0.0
  0
POINT
  5
4A1
  8
0
  6
CONTINUOUS
 10
-314.45032111395022
 20
-55.770004182319141
 30
0.0
  0
POINT
  5
4A2
  8
0
  6
CONTINUOUS
 10
-313.13678131887451
 20
-69.685515190007749
 30
0.0
  0
POINT
  5
4A3
  8
0
  6
CONTINUOUS
 10
-282.15658473650973
 20
-114.99925615427649
 30
0.0
  0
POINT
  5
4A4
  8
0
  6
CONTINUOUS
 10
-298.53610404880908
 20
-84.863207068911393
 30
0.0
  0
POINT
  5
4A5
  8
0
  6
CONTINUOUS
 10
-295.78476809038301
 20
-82.894358217572915
 30
0.0
  0
POINT
  5
4A6
  8
0
  6
CONTINUOUS
 10
-302.1721186087658
 20
-85.424947475849635
 30
0.0
  0
POINT
  5
4A7
  8
0
  6
CONTINUOUS
 10
-303.97861454780508
 20
-85.386730485626984
 30
0.0
  0
POINT
  5
4A8
  8
0
  6
CONTINUOUS
 10
-302.1721186087658
 20
-85.424947475849635
 30
0.0
  0
POINT
  5
4A9
  8
0
  6
CONTINUOUS
 10
-300.36562266972669
 20
-85.386730485626984
 30
0.0
  0
POINT
  5
4AA
  8
0
  6
CONTINUOUS
 10
-292.94586156257918
 20
-78.12511604649653
 30
0.0
  0
POINT
  5
4AB
  8
0
  6
CONTINUOUS
 10
-289.89391610358138
 20
-55.770004182319141
 30
0.0
  0
POINT
  5
4AC
  8
0
  6
CONTINUOUS
 10
-291.2074558986572
 20
-69.685515190007749
 30
0.0
  0
LINE
  5
4AD
  8
0
  6
CONTINUOUS
 10
-288.97211860876581
 20
3.7766067386907789
 30
0.0
 11
-315.3721186087659
 21
3.7766067386907789
 31
0.0
  0
LINE
  5
4AE
  8
0
  6
CONTINUOUS
 10
-288.97211860876581
 20
3.0766067386907761
 30
0.0
 11
-315.3721186087659
 21
3.0766067386907761
 31
0.0
  0
POINT
  5
4AF
  8
0
  6
CONTINUOUS
 10
-315.01266898321632
 20
-35.980635971998069
 30
0.0
  0
POINT
  5
4B0
  8
0
  6
CONTINUOUS
 10
-314.93111789558083
 20
-41.270909278262053
 30
0.0
  0
POINT
  5
4B1
  8
0
  6
CONTINUOUS
 10
-315.05461160734279
 20
-25.981186273735769
 30
0.0
  0
POINT
  5
4B2
  8
0
  6
CONTINUOUS
 10
-314.6721186087658
 20
3.7766067386907789
 30
0.0
  0
POINT
  5
4B3
  8
0
  6
CONTINUOUS
 10
-314.6721186087658
 20
3.7766067386907789
 30
0.0
  0
POINT
  5
4B4
  8
0
  6
CONTINUOUS
 10
-314.6721186087658
 20
3.7766067386907789
 30
0.0
  0
POINT
  5
4B5
  8
0
  6
CONTINUOUS
 10
-314.6721186087658
 20
3.7766067386907789
 30
0.0
  0
LINE
  5
4B6
  8
0
  6
CONTINUOUS
 10
-315.3721186087659
 20
3.7766067386907789
 30
0.0
 11
-315.3721186087659
 21
3.0766067386907761
 31
0.0
  0
POINT
  5
4B7
  8
0
  6
CONTINUOUS
 10
-314.86626746374628
 20
-6.7897443064449252
 30
0.0
  0
POINT
  5
4B8
  8
0
  6
CONTINUOUS
 10
-289.33156823431511
 20
-35.980635971998069
 30
0.0
  0
POINT
  5
4B9
  8
0
  6
CONTINUOUS
 10
-289.41311932195089
 20
-41.270909278262053
 30
0.0
  0
POINT
  5
4BA
  8
0
  6
CONTINUOUS
 10
-289.28962561018881
 20
-25.981186273735769
 30
0.0
  0
LINE
  5
4BB
  8
0
  6
DASHDOT
 10
-302.1721186087658
 20
8.7766067386907824
 30
0.0
 11
-302.1721186087658
 21
-1.2233932613092171
 31
0.0
  0
POINT
  5
4BC
  8
0
  6
CONTINUOUS
 10
-289.6721186087658
 20
3.7766067386907789
 30
0.0
  0
POINT
  5
4BD
  8
0
  6
CONTINUOUS
 10
-289.6721186087658
 20
3.7766067386907789
 30
0.0
  0
POINT
  5
4BE
  8
0
  6
CONTINUOUS
 10
-289.6721186087658
 20
3.7766067386907789
 30
0.0
  0
POINT
  5
4BF
  8
0
  6
CONTINUOUS
 10
-289.6721186087658
 20
3.7766067386907789
 30
0.0
  0
LINE
  5
4C0
  8
0
  6
CONTINUOUS
 10
-288.97211860876581
 20
3.7766067386907789
 30
0.0
 11
-288.97211860876581
 21
3.0766067386907761
 31
0.0
  0
POINT
  5
4C1
  8
0
  6
CONTINUOUS
 10
-289.47796975378532
 20
-6.7897443064449252
 30
0.0
  0
POLYLINE
  5
4C2
  8
0
  6
CONTINUOUS
 66
     1
 10
0.0
 20
0.0
 30
0.0
  0
VERTEX
  5
176D
  8
0
  6
CONTINUOUS
 10
62.5
 20
-0.0000000000000004
 30
0.0
  0
VERTEX
  5
176E
  8
0
  6
CONTINUOUS
 10
59.248438763486433
 20
-59.16247225339621
 30
0.0
  0
VERTEX
  5
176F
  8
0
  6
CONTINUOUS
 10
56.006701235297783
 20
-119.56017712177299
 30
0.0
  0
VERTEX
  5
1770
  8
0
  6
CONTINUOUS
 10
56.006701235297783
 20
-119.56017712177299
 30
0.0
  0
VERTEX
  5
1771
  8
0
  6
CONTINUOUS
 10
52.917835164945473
 20
-180.5223195674846
 30
0.0
  0
VERTEX
  5
1772
  8
0
  6
CONTINUOUS
 10
51.633634897089557
 20
-208.7420235950828
 30
0.0
  0
VERTEX
  5
1773
  8
0
  6
CONTINUOUS
 10
50.657784466687637
 20
-233.75399394237971
 30
0.0
  0
VERTEX
  5
1774
  8
0
  6
CONTINUOUS
 10
50.657784466687637
 20
-233.75399394237971
 30
0.0
  0
VERTEX
  5
1775
  8
0
  6
CONTINUOUS
 10
49.981012096466657
 20
-254.9833655073229
 30
0.0
  0
VERTEX
  5
1776
  8
0
  6
CONTINUOUS
 10
49.152374922338879
 20
-274.6562794300404
 30
0.0
  0
VERTEX
  5
1777
  8
0
  6
CONTINUOUS
 10
48.505681835125067
 20
-284.82356249452459
 30
0.0
  0
VERTEX
  5
1778
  8
0
  6
CONTINUOUS
 10
47.610512308512789
 20
-295.69912841120481
 30
0.0
  0
VERTEX
  5
1779
  8
0
  6
CONTINUOUS
 10
46.396696263028034
 20
-307.6487762676648
 30
0.0
  0
VERTEX
  5
177A
  8
0
  6
CONTINUOUS
 10
44.794063619196884
 20
-321.03830515148849
 30
0.0
  0
VERTEX
  5
177B
  8
0
  6
CONTINUOUS
 10
44.794063619196884
 20
-321.03830515148849
 30
0.0
  0
VERTEX
  5
177C
  8
0
  6
CONTINUOUS
 10
42.396778112236632
 20
-339.99622216644519
 30
0.0
  0
VERTEX
  5
177D
  8
0
  6
CONTINUOUS
 10
41.325460343916113
 20
-350.42372339538161
 30
0.0
  0
VERTEX
  5
177E
  8
0
  6
CONTINUOUS
 10
40.547673536169732
 20
-361.43579274782371
 30
0.0
  0
VERTEX
  5
177F
  8
0
  6
CONTINUOUS
 10
40.547673536169732
 20
-361.43579274782371
 30
0.0
  0
VERTEX
  5
1780
  8
0
  6
CONTINUOUS
 10
40.018487446261013
 20
-373.03903040467799
 30
0.0
  0
VERTEX
  5
1781
  8
0
  6
CONTINUOUS
 10
39.593897504568133
 20
-379.1148038744887
 30
0.0
  0
VERTEX
  5
1782
  8
0
  6
CONTINUOUS
 10
38.887307949103899
 20
-385.40981834287862
 30
0.0
  0
VERTEX
  5
1783
  8
0
  6
CONTINUOUS
 10
37.767217517909152
 20
-391.9514272380905
 30
0.0
  0
VERTEX
  5
1784
  8
0
  6
CONTINUOUS
 10
36.102124949024727
 20
-398.7669839883668
 30
0.0
  0
VERTEX
  5
1785
  8
0
  6
CONTINUOUS
 10
35.02410871858666
 20
-402.2860407554802
 30
0.0
  0
VERTEX
  5
1786
  8
0
  6
CONTINUOUS
 10
33.760528980491472
 20
-405.88384202195061
 30
0.0
  0
VERTEX
  5
1787
  8
0
  6
CONTINUOUS
 10
32.29494807699416
 20
-409.5638069663085
 30
0.0
  0
VERTEX
  5
1788
  8
0
  6
CONTINUOUS
 10
30.610928350350029
 20
-413.32935476708388
 30
0.0
  0
VERTEX
  5
1789
  8
0
  6
CONTINUOUS
 10
30.610928350350029
 20
-413.32935476708388
 30
0.0
  0
VERTEX
  5
178A
  8
0
  6
CONTINUOUS
 10
27.027644971778841
 20
-420.53240689786293
 30
0.0
  0
VERTEX
  5
178B
  8
0
  6
CONTINUOUS
 10
24.99992791799809
 20
-424.6512055133432
 30
0.0
  0
VERTEX
  5
178C
  8
0
  6
CONTINUOUS
 10
22.84041113843163
 20
-429.33332662651083
 30
0.0
  0
VERTEX
  5
178D
  8
0
  6
CONTINUOUS
 10
22.84041113843163
 20
-429.33332662651083
 30
0.0
  0
VERTEX
  5
178E
  8
0
  6
CONTINUOUS
 10
21.881638152714441
 20
-431.43141961227849
 30
0.0
  0
VERTEX
  5
178F
  8
0
  6
CONTINUOUS
 10
20.635561990603371
 20
-433.60094260982157
 30
0.0
  0
VERTEX
  5
1790
  8
0
  6
CONTINUOUS
 10
18.833595897562962
 20
-435.79246647200603
 30
0.0
  0
VERTEX
  5
1791
  8
0
  6
CONTINUOUS
 10
17.64022076615197
 20
-436.8810321188592
 30
0.0
  0
VERTEX
  5
1792
  8
0
  6
CONTINUOUS
 10
16.20715311905775
 20
-437.9565620516974
 30
0.0
  0
VERTEX
  5
1793
  8
0
  6
CONTINUOUS
 10
16.20715311905775
 20
-437.9565620516974
 30
0.0
  0
VERTEX
  5
1794
  8
0
  6
CONTINUOUS
 10
13.693405750451801
 20
-439.44177398633951
 30
0.0
  0
VERTEX
  5
1795
  8
0
  6
CONTINUOUS
 10
10.90054670355817
 20
-440.60986525944458
 30
0.0
  0
VERTEX
  5
1796
  8
0
  6
CONTINUOUS
 10
10.90054670355817
 20
-440.60986525944458
 30
0.0
  0
VERTEX
  5
1797
  8
0
  6
CONTINUOUS
 10
8.0835404237286621
 20
-441.2745641329908
 30
0.0
  0
VERTEX
  5
1798
  8
0
  6
CONTINUOUS
 10
5.3220140446774691
 20
-441.61045427400018
 30
0.0
  0
VERTEX
  5
1799
  8
0
  6
CONTINUOUS
 10
5.3220140446774691
 20
-441.61045427400018
 30
0.0
  0
VERTEX
  5
179A
  8
0
  6
CONTINUOUS
 10
2.638188845693036
 20
-441.82722284890548
 30
0.0
  0
VERTEX
  5
179B
  8
0
  6
CONTINUOUS
 10
0.0000000000000568
 20
-441.91411561672538
 30
0.0
  0
VERTEX
  5
179C
  8
0
  6
CONTINUOUS
 10
0.0000000000000568
 20
-441.91411561672538
 30
0.0
  0
VERTEX
  5
179D
  8
0
  6
CONTINUOUS
 10
-2.6381888456929801
 20
-441.82722284890548
 30
0.0
  0
VERTEX
  5
179E
  8
0
  6
CONTINUOUS
 10
-5.3220140446773012
 20
-441.61045427400018
 30
0.0
  0
VERTEX
  5
179F
  8
0
  6
CONTINUOUS
 10
-5.3220140446773012
 20
-441.61045427400018
 30
0.0
  0
VERTEX
  5
17A0
  8
0
  6
CONTINUOUS
 10
-8.083540423728607
 20
-441.2745641329908
 30
0.0
  0
VERTEX
  5
17A1
  8
0
  6
CONTINUOUS
 10
-10.90054670355806
 20
-440.60986525944458
 30
0.0
  0
VERTEX
  5
17A2
  8
0
  6
CONTINUOUS
 10
-10.90054670355806
 20
-440.60986525944458
 30
0.0
  0
VERTEX
  5
17A3
  8
0
  6
CONTINUOUS
 10
-13.69340575045169
 20
-439.44177398633951
 30
0.0
  0
VERTEX
  5
17A4
  8
0
  6
CONTINUOUS
 10
-16.207153119057619
 20
-437.9565620516974
 30
0.0
  0
VERTEX
  5
17A5
  8
0
  6
CONTINUOUS
 10
-16.207153119057619
 20
-437.9565620516974
 30
0.0
  0
VERTEX
  5
17A6
  8
0
  6
CONTINUOUS
 10
-17.640220766151849
 20
-436.8810321188592
 30
0.0
  0
VERTEX
  5
17A7
  8
0
  6
CONTINUOUS
 10
-18.833595897562851
 20
-435.79246647200603
 30
0.0
  0
VERTEX
  5
17A8
  8
0
  6
CONTINUOUS
 10
-20.635561990603261
 20
-433.60094260982157
 30
0.0
  0
VERTEX
  5
17A9
  8
0
  6
CONTINUOUS
 10
-21.88163815271432
 20
-431.43141961227849
 30
0.0
  0
VERTEX
  5
17AA
  8
0
  6
CONTINUOUS
 10
-22.840411138431531
 20
-429.33332662651083
 30
0.0
  0
VERTEX
  5
17AB
  8
0
  6
CONTINUOUS
 10
-22.840411138431531
 20
-429.33332662651083
 30
0.0
  0
VERTEX
  5
17AC
  8
0
  6
CONTINUOUS
 10
-24.999927917997969
 20
-424.6512055133432
 30
0.0
  0
VERTEX
  5
17AD
  8
0
  6
CONTINUOUS
 10
-27.02764497177871
 20
-420.53240689786293
 30
0.0
  0
VERTEX
  5
17AE
  8
0
  6
CONTINUOUS
 10
-30.61092835034993
 20
-413.32935476708388
 30
0.0
  0
VERTEX
  5
17AF
  8
0
  6
CONTINUOUS
 10
-30.61092835034993
 20
-413.32935476708388
 30
0.0
  0
VERTEX
  5
17B0
  8
0
  6
CONTINUOUS
 10
-32.294948076994046
 20
-409.5638069663085
 30
0.0
  0
VERTEX
  5
17B1
  8
0
  6
CONTINUOUS
 10
-33.760528980491351
 20
-405.88384202195061
 30
0.0
  0
VERTEX
  5
17B2
  8
0
  6
CONTINUOUS
 10
-35.02410871858649
 20
-402.2860407554802
 30
0.0
  0
VERTEX
  5
17B3
  8
0
  6
CONTINUOUS
 10
-36.102124949024642
 20
-398.7669839883668
 30
0.0
  0
VERTEX
  5
17B4
  8
0
  6
CONTINUOUS
 10
-37.767217517909032
 20
-391.9514272380905
 30
0.0
  0
VERTEX
  5
17B5
  8
0
  6
CONTINUOUS
 10
-38.887307949103779
 20
-385.40981834287862
 30
0.0
  0
VERTEX
  5
17B6
  8
0
  6
CONTINUOUS
 10
-39.593897504568041
 20
-379.1148038744887
 30
0.0
  0
VERTEX
  5
17B7
  8
0
  6
CONTINUOUS
 10
-40.018487446260899
 20
-373.03903040467799
 30
0.0
  0
VERTEX
  5
17B8
  8
0
  6
CONTINUOUS
 10
-40.547673536169611
 20
-361.43579274782371
 30
0.0
  0
VERTEX
  5
17B9
  8
0
  6
CONTINUOUS
 10
-40.547673536169611
 20
-361.43579274782371
 30
0.0
  0
VERTEX
  5
17BA
  8
0
  6
CONTINUOUS
 10
-41.325460343915942
 20
-350.42372339538161
 30
0.0
  0
VERTEX
  5
17BB
  8
0
  6
CONTINUOUS
 10
-42.396778112236447
 20
-339.99622216644519
 30
0.0
  0
VERTEX
  5
17BC
  8
0
  6
CONTINUOUS
 10
-44.794063619196777
 20
-321.03830515148849
 30
0.0
  0
VERTEX
  5
17BD
  8
0
  6
CONTINUOUS
 10
-44.794063619196777
 20
-321.03830515148849
 30
0.0
  0
VERTEX
  5
17BE
  8
0
  6
CONTINUOUS
 10
-46.396696263027877
 20
-307.6487762676648
 30
0.0
  0
VERTEX
  5
17BF
  8
0
  6
CONTINUOUS
 10
-47.610512308512682
 20
-295.69912841120481
 30
0.0
  0
VERTEX
  5
17C0
  8
0
  6
CONTINUOUS
 10
-48.505681835124982
 20
-284.82356249452459
 30
0.0
  0
VERTEX
  5
17C1
  8
0
  6
CONTINUOUS
 10
-49.152374922338772
 20
-274.6562794300404
 30
0.0
  0
VERTEX
  5
17C2
  8
0
  6
CONTINUOUS
 10
-49.981012096466543
 20
-254.9833655073229
 30
0.0
  0
VERTEX
  5
17C3
  8
0
  6
CONTINUOUS
 10
-50.657784466687481
 20
-233.75399394237971
 30
0.0
  0
VERTEX
  5
17C4
  8
0
  6
CONTINUOUS
 10
-50.657784466687481
 20
-233.75399394237971
 30
0.0
  0
VERTEX
  5
17C5
  8
0
  6
CONTINUOUS
 10
-51.633634897089379
 20
-208.7420235950828
 30
0.0
  0
VERTEX
  5
17C6
  8
0
  6
CONTINUOUS
 10
-52.917835164945402
 20
-180.5223195674846
 30
0.0
  0
VERTEX
  5
17C7
  8
0
  6
CONTINUOUS
 10
-56.006701235297577
 20
-119.56017712177299
 30
0.0
  0
VERTEX
  5
17C8
  8
0
  6
CONTINUOUS
 10
-56.006701235297577
 20
-119.56017712177299
 30
0.0
  0
VERTEX
  5
17C9
  8
0
  6
CONTINUOUS
 10
-59.24843876348622
 20
-59.16247225339621
 30
0.0
  0
VERTEX
  5
17CA
  8
0
  6
CONTINUOUS
 10
-62.499999999999922
 20
-0.0000000000000004
 30
0.0
  0
SEQEND
  5
17CB
  8
0
  6
CONTINUOUS
  0
POINT
  5
4C3
  8
0
  6
CONTINUOUS
 10
-81.920005021185062
 20
-401.38636978622691
 30
0.0
  0
POINT
  5
4C4
  8
0
  6
CONTINUOUS
 10
-22.840411138431531
 20
-429.33332662651083
 30
0.0
  0
POINT
  5
4C5
  8
0
  6
CONTINUOUS
 10
-16.207153119057619
 20
-437.9565620516974
 30
0.0
  0
POINT
  5
4C6
  8
0
  6
CONTINUOUS
 10
-30.61092835034993
 20
-413.32935476708388
 30
0.0
  0
POINT
  5
4C7
  8
0
  6
CONTINUOUS
 10
-5.3220140446773012
 20
-441.61045427400018
 30
0.0
  0
POINT
  5
4C8
  8
0
  6
CONTINUOUS
 10
-10.90054670355806
 20
-440.60986525944458
 30
0.0
  0
POINT
  5
4C9
  8
0
  6
CONTINUOUS
 10
5.3220140446774691
 20
-441.61045427400018
 30
0.0
  0
POINT
  5
4CA
  8
0
  6
CONTINUOUS
 10
0.0000000000000568
 20
-441.91411561672538
 30
0.0
  0
POINT
  5
4CB
  8
0
  6
CONTINUOUS
 10
0.0000000000000568
 20
-441.91411561672538
 30
0.0
  0
POINT
  5
4CC
  8
0
  6
CONTINUOUS
 10
10.90054670355817
 20
-440.60986525944458
 30
0.0
  0
POINT
  5
4CD
  8
0
  6
CONTINUOUS
 10
22.84041113843163
 20
-429.33332662651083
 30
0.0
  0
POINT
  5
4CE
  8
0
  6
CONTINUOUS
 10
16.20715311905775
 20
-437.9565620516974
 30
0.0
  0
TEXT
  5
4CF
  8
0
  6
CONTINUOUS
 10
-15.76007637221152
 20
-380.58459790679882
 30
0.0
 40
10.0
  1
1m/s
 50
0.0000025044781673
 41
0.5833333271245161
  7
STANDARD1
  0
POINT
  5
4D0
  8
0
  6
CONTINUOUS
 10
-40.547673536169611
 20
-361.43579274782371
 30
0.0
  0
POINT
  5
4D1
  8
0
  6
CONTINUOUS
 10
-44.794063619196777
 20
-321.03830515148849
 30
0.0
  0
POINT
  5
4D2
  8
0
  6
CONTINUOUS
 10
-74.130037919204625
 20
-259.28242870758947
 30
0.0
  0
POINT
  5
4D3
  8
0
  6
CONTINUOUS
 10
-74.130037919204625
 20
-259.28242870758947
 30
0.0
  0
POINT
  5
4D4
  8
0
  6
CONTINUOUS
 10
-50.657784466687481
 20
-233.75399394237971
 30
0.0
  0
POINT
  5
4D5
  8
0
  6
CONTINUOUS
 10
-69.038134912473964
 20
-153.5172099571331
 30
0.0
  0
POINT
  5
4D6
  8
0
  6
CONTINUOUS
 10
30.610928350350029
 20
-413.32935476708388
 30
0.0
  0
POINT
  5
4D7
  8
0
  6
CONTINUOUS
 10
81.920005021184991
 20
-401.38636978622691
 30
0.0
  0
POINT
  5
4D8
  8
0
  6
CONTINUOUS
 10
40.547673536169732
 20
-361.43579274782371
 30
0.0
  0
POINT
  5
4D9
  8
0
  6
CONTINUOUS
 10
44.794063619196884
 20
-321.03830515148849
 30
0.0
  0
POINT
  5
4DA
  8
0
  6
CONTINUOUS
 10
50.657784466687637
 20
-233.75399394237971
 30
0.0
  0
POINT
  5
4DB
  8
0
  6
CONTINUOUS
 10
74.130037919204653
 20
-259.2824287075897
 30
0.0
  0
POINT
  5
4DC
  8
0
  6
CONTINUOUS
 10
74.130037919204653
 20
-259.2824287075897
 30
0.0
  0
POINT
  5
4DD
  8
0
  6
CONTINUOUS
 10
69.038134912473993
 20
-153.5172099571331
 30
0.0
  0
POLYLINE
  5
4DE
  8
0
  6
CONTINUOUS
 66
     1
 10
0.0
 20
0.0
 30
0.0
  0
VERTEX
  5
17CC
  8
0
  6
CONTINUOUS
 10
62.500086156808607
 20
-0.0021903049312191
 30
0.0
  0
VERTEX
  5
17CD
  8
0
  6
CONTINUOUS
 10
59.961261400850489
 20
-20.12991709228822
 30
0.0
  0
VERTEX
  5
17CE
  8
0
  6
CONTINUOUS
 10
58.163663949855128
 20
-33.03847981145902
 30
0.0
  0
VERTEX
  5
17CF
  8
0
  6
CONTINUOUS
 10
55.73224441124011
 20
-49.360681721220601
 30
0.0
  0
VERTEX
  5
17D0
  8
0
  6
CONTINUOUS
 10
55.73224441124011
 20
-49.360681721220601
 30
0.0
  0
VERTEX
  5
17D1
  8
0
  6
CONTINUOUS
 10
54.008170132915332
 20
-60.028017031570641
 30
0.0
  0
VERTEX
  5
17D2
  8
0
  6
CONTINUOUS
 10
53.024195341460057
 20
-65.218894669052503
 30
0.0
  0
VERTEX
  5
17D3
  8
0
  6
CONTINUOUS
 10
51.946962732597612
 20
-69.952614053033642
 30
0.0
  0
VERTEX
  5
17D4
  8
0
  6
CONTINUOUS
 10
51.946962732597612
 20
-69.952614053033642
 30
0.0
  0
VERTEX
  5
17D5
  8
0
  6
CONTINUOUS
 10
50.766528898501861
 20
-74.028780372268244
 30
0.0
  0
VERTEX
  5
17D6
  8
0
  6
CONTINUOUS
 10
49.469074947680582
 20
-77.531314295642986
 30
0.0
  0
VERTEX
  5
17D7
  8
0
  6
CONTINUOUS
 10
48.039813117724741
 20
-80.615215362076938
 30
0.0
  0
VERTEX
  5
17D8
  8
0
  6
CONTINUOUS
 10
46.463955646225251
 20
-83.435483110490239
 30
0.0
  0
VERTEX
  5
17D9
  8
0
  6
CONTINUOUS
 10
46.463955646225251
 20
-83.435483110490239
 30
0.0
  0
VERTEX
  5
17DA
  8
0
  6
CONTINUOUS
 10
44.727037200413399
 20
-86.09137329972998
 30
0.0
  0
VERTEX
  5
17DB
  8
0
  6
CONTINUOUS
 10
42.815882166080769
 20
-88.459166568356466
 30
0.0
  0
VERTEX
  5
17DC
  8
0
  6
CONTINUOUS
 10
40.71763735865931
 20
-90.359399774857508
 30
0.0
  0
VERTEX
  5
17DD
  8
0
  6
CONTINUOUS
 10
39.594339669862791
 20
-91.078099123088563
 30
0.0
  0
VERTEX
  5
17DE
  8
0
  6
CONTINUOUS
 10
38.419449593581142
 20
-91.612609777721232
 30
0.0
  0
VERTEX
  5
17DF
  8
0
  6
CONTINUOUS
 10
38.419449593581142
 20
-91.612609777721232
 30
0.0
  0
VERTEX
  5
17E0
  8
0
  6
CONTINUOUS
 10
37.195248603686359
 20
-91.947566584214215
 30
0.0
  0
VERTEX
  5
17E1
  8
0
  6
CONTINUOUS
 10
35.939570661823829
 20
-92.095875340616288
 30
0.0
  0
VERTEX
  5
17E2
  8
0
  6
CONTINUOUS
 10
34.674137851581811
 20
-92.077509583124225
 30
0.0
  0
VERTEX
  5
17E3
  8
0
  6
CONTINUOUS
 10
33.420672256548741
 20
-91.912442847934358
 30
0.0
  0
VERTEX
  5
17E4
  8
0
  6
CONTINUOUS
 10
31.036531046463079
 20
-91.222100589247589
 30
0.0
  0
VERTEX
  5
17E5
  8
0
  6
CONTINUOUS
 10
28.960923700273842
 20
-90.184636854128513
 30
0.0
  0
VERTEX
  5
17E6
  8
0
  6
CONTINUOUS
 10
28.960923700273842
 20
-90.184636854128513
 30
0.0
  0
VERTEX
  5
17E7
  8
0
  6
CONTINUOUS
 10
27.322342177497259
 20
-88.945429517156583
 30
0.0
  0
VERTEX
  5
17E8
  8
0
  6
CONTINUOUS
 10
26.068139600885718
 20
-87.592214792940439
 30
0.0
  0
VERTEX
  5
17E9
  8
0
  6
CONTINUOUS
 10
25.10038438400068
 20
-86.198318481095967
 30
0.0
  0
VERTEX
  5
17EA
  8
0
  6
CONTINUOUS
 10
24.321144940403482
 20
-84.837066381239055
 30
0.0
  0
VERTEX
  5
17EB
  8
0
  6
CONTINUOUS
 10
24.321144940403482
 20
-84.837066381239055
 30
0.0
  0
VERTEX
  5
17EC
  8
0
  6
CONTINUOUS
 10
22.069340780987091
 20
-80.191741883123996
 30
0.0
  0
VERTEX
  5
17ED
  8
0
  6
CONTINUOUS
 10
21.3323693889166
 20
-78.203193955199282
 30
0.0
  0
VERTEX
  5
17EE
  8
0
  6
CONTINUOUS
 10
20.765368188037058
 20
-76.268433833263089
 30
0.0
  0
VERTEX
  5
17EF
  8
0
  6
CONTINUOUS
 10
19.873325558148501
 20
-72.053411783056248
 30
0.0
  0
VERTEX
  5
17F0
  8
0
  6
CONTINUOUS
 10
18.85731128791582
 20
-66.532945283903331
 30
0.0
  0
VERTEX
  5
17F1
  8
0
  6
CONTINUOUS
 10
18.85731128791582
 20
-66.532945283903331
 30
0.0
  0
VERTEX
  5
17F2
  8
0
  6
CONTINUOUS
 10
18.162521113650289
 20
-63.025052491839382
 30
0.0
  0
VERTEX
  5
17F3
  8
0
  6
CONTINUOUS
 10
17.451455240589191
 20
-59.422233971927092
 30
0.0
  0
VERTEX
  5
17F4
  8
0
  6
CONTINUOUS
 10
17.451455240589191
 20
-59.422233971927092
 30
0.0
  0
VERTEX
  5
17F5
  8
0
  6
CONTINUOUS
 10
16.380877832685421
 20
-53.300599568737461
 30
0.0
  0
VERTEX
  5
17F6
  8
0
  6
CONTINUOUS
 10
15.706869411626251
 20
-48.368406683638739
 30
0.0
  0
VERTEX
  5
17F7
  8
0
  6
CONTINUOUS
 10
15.033583278810511
 20
-40.607739645314929
 30
0.0
  0
VERTEX
  5
17F8
  8
0
  6
CONTINUOUS
 10
15.033583278810511
 20
-40.607739645314929
 30
0.0
  0
VERTEX
  5
17F9
  8
0
  6
CONTINUOUS
 10
13.666089631201711
 20
-19.390820070701452
 30
0.0
  0
VERTEX
  5
17FA
  8
0
  6
CONTINUOUS
 10
12.512031544056979
 20
-0.0526150496368705
 30
0.0
  0
SEQEND
  5
17FB
  8
0
  6
CONTINUOUS
  0
LINE
  5
4DF
  8
0
  6
CONTINUOUS
 10
78.75
 20
-0.0000000000000004
 30
0.0
 11
-78.749999999999901
 21
0.0000000000000004
 31
0.0
  0
LINE
  5
4E0
  8
0
  6
CONTINUOUS
 10
78.75
 20
-0.7000000000000007
 30
0.0
 11
-78.749999999999901
 21
-0.7000000000000007
 31
0.0
  0
POLYLINE
  5
4E1
  8
0
  6
CONTINUOUS
 66
     1
 10
0.0
 20
0.0
 30
0.0
  0
VERTEX
  5
17FC
  8
0
  6
CONTINUOUS
 10
-62.500086156808457
 20
-0.0021903049312191
 30
0.0
  0
VERTEX
  5
17FD
  8
0
  6
CONTINUOUS
 10
-59.961261400850418
 20
-20.12991709228822
 30
0.0
  0
VERTEX
  5
17FE
  8
0
  6
CONTINUOUS
 10
-58.163663949855021
 20
-33.03847981145902
 30
0.0
  0
VERTEX
  5
17FF
  8
0
  6
CONTINUOUS
 10
-55.73224441124006
 20
-49.360681721220601
 30
0.0
  0
VERTEX
  5
1800
  8
0
  6
CONTINUOUS
 10
-55.73224441124006
 20
-49.360681721220601
 30
0.0
  0
VERTEX
  5
1801
  8
0
  6
CONTINUOUS
 10
-54.008170132915239
 20
-60.028017031570641
 30
0.0
  0
VERTEX
  5
1802
  8
0
  6
CONTINUOUS
 10
-53.024195341460029
 20
-65.218894669052503
 30
0.0
  0
VERTEX
  5
1803
  8
0
  6
CONTINUOUS
 10
-51.946962732597449
 20
-69.952614053033642
 30
0.0
  0
VERTEX
  5
1804
  8
0
  6
CONTINUOUS
 10
-51.946962732597449
 20
-69.952614053033642
 30
0.0
  0
VERTEX
  5
1805
  8
0
  6
CONTINUOUS
 10
-50.766528898501718
 20
-74.028780372268244
 30
0.0
  0
VERTEX
  5
1806
  8
0
  6
CONTINUOUS
 10
-49.469074947680483
 20
-77.531314295642986
 30
0.0
  0
VERTEX
  5
1807
  8
0
  6
CONTINUOUS
 10
-48.039813117724648
 20
-80.615215362076938
 30
0.0
  0
VERTEX
  5
1808
  8
0
  6
CONTINUOUS
 10
-46.463955646225202
 20
-83.435483110490239
 30
0.0
  0
VERTEX
  5
1809
  8
0
  6
CONTINUOUS
 10
-46.463955646225202
 20
-83.435483110490239
 30
0.0
  0
VERTEX
  5
180A
  8
0
  6
CONTINUOUS
 10
-44.727037200413278
 20
-86.09137329972998
 30
0.0
  0
VERTEX
  5
180B
  8
0
  6
CONTINUOUS
 10
-42.815882166080641
 20
-88.459166568356466
 30
0.0
  0
VERTEX
  5
180C
  8
0
  6
CONTINUOUS
 10
-40.717637358659204
 20
-90.359399774857508
 30
0.0
  0
VERTEX
  5
180D
  8
0
  6
CONTINUOUS
 10
-39.594339669862727
 20
-91.078099123088563
 30
0.0
  0
VERTEX
  5
180E
  8
0
  6
CONTINUOUS
 10
-38.419449593580971
 20
-91.612609777721232
 30
0.0
  0
VERTEX
  5
180F
  8
0
  6
CONTINUOUS
 10
-38.419449593580971
 20
-91.612609777721232
 30
0.0
  0
VERTEX
  5
1810
  8
0
  6
CONTINUOUS
 10
-37.195248603686252
 20
-91.947566584214215
 30
0.0
  0
VERTEX
  5
1811
  8
0
  6
CONTINUOUS
 10
-35.939570661823723
 20
-92.095875340616288
 30
0.0
  0
VERTEX
  5
1812
  8
0
  6
CONTINUOUS
 10
-34.67413785158169
 20
-92.077509583124225
 30
0.0
  0
VERTEX
  5
1813
  8
0
  6
CONTINUOUS
 10
-33.420672256548642
 20
-91.912442847934358
 30
0.0
  0
VERTEX
  5
1814
  8
0
  6
CONTINUOUS
 10
-31.036531046462979
 20
-91.222100589247589
 30
0.0
  0
VERTEX
  5
1815
  8
0
  6
CONTINUOUS
 10
-28.96092370027371
 20
-90.184636854128513
 30
0.0
  0
VERTEX
  5
1816
  8
0
  6
CONTINUOUS
 10
-28.96092370027371
 20
-90.184636854128513
 30
0.0
  0
VERTEX
  5
1817
  8
0
  6
CONTINUOUS
 10
-27.322342177497148
 20
-88.945429517156583
 30
0.0
  0
VERTEX
  5
1818
  8
0
  6
CONTINUOUS
 10
-26.068139600885608
 20
-87.592214792940439
 30
0.0
  0
VERTEX
  5
1819
  8
0
  6
CONTINUOUS
 10
-25.100384384000559
 20
-86.198318481095967
 30
0.0
  0
VERTEX
  5
181A
  8
0
  6
CONTINUOUS
 10
-24.321144940403428
 20
-84.837066381239055
 30
0.0
  0
VERTEX
  5
181B
  8
0
  6
CONTINUOUS
 10
-24.321144940403428
 20
-84.837066381239055
 30
0.0
  0
VERTEX
  5
181C
  8
0
  6
CONTINUOUS
 10
-22.069340780986909
 20
-80.191741883123996
 30
0.0
  0
VERTEX
  5
181D
  8
0
  6
CONTINUOUS
 10
-21.332369388916501
 20
-78.203193955199282
 30
0.0
  0
VERTEX
  5
181E
  8
0
  6
CONTINUOUS
 10
-20.76536818803697
 20
-76.268433833263089
 30
0.0
  0
VERTEX
  5
181F
  8
0
  6
CONTINUOUS
 10
-19.873325558148391
 20
-72.053411783056248
 30
0.0
  0
VERTEX
  5
1820
  8
0
  6
CONTINUOUS
 10
-18.857311287915689
 20
-66.532945283903331
 30
0.0
  0
VERTEX
  5
1821
  8
0
  6
CONTINUOUS
 10
-18.857311287915689
 20
-66.532945283903331
 30
0.0
  0
VERTEX
  5
1822
  8
0
  6
CONTINUOUS
 10
-18.1625211136502
 20
-63.025052491839382
 30
0.0
  0
VERTEX
  5
1823
  8
0
  6
CONTINUOUS
 10
-17.451455240589091
 20
-59.422233971927092
 30
0.0
  0
VERTEX
  5
1824
  8
0
  6
CONTINUOUS
 10
-17.451455240589091
 20
-59.422233971927092
 30
0.0
  0
VERTEX
  5
1825
  8
0
  6
CONTINUOUS
 10
-16.380877832685311
 20
-53.300599568737461
 30
0.0
  0
VERTEX
  5
1826
  8
0
  6
CONTINUOUS
 10
-15.70686941162614
 20
-48.368406683638739
 30
0.0
  0
VERTEX
  5
1827
  8
0
  6
CONTINUOUS
 10
-15.03358327881039
 20
-40.607739645314929
 30
0.0
  0
VERTEX
  5
1828
  8
0
  6
CONTINUOUS
 10
-15.03358327881039
 20
-40.607739645314929
 30
0.0
  0
VERTEX
  5
1829
  8
0
  6
CONTINUOUS
 10
-13.66608963120159
 20
-19.390820070701452
 30
0.0
  0
VERTEX
  5
182A
  8
0
  6
CONTINUOUS
 10
-12.512031544056841
 20
-0.0526150496368705
 30
0.0
  0
SEQEND
  5
182B
  8
0
  6
CONTINUOUS
  0
POINT
  5
4E2
  8
0
  6
CONTINUOUS
 10
-56.006701235297577
 20
-119.56017712177299
 30
0.0
  0
LINE
  5
4E3
  8
0
  6
CONTINUOUS
 10
-78.749999999999901
 20
-0.0000000000000004
 30
0.0
 11
-78.749999999999901
 21
-0.7000000000000007
 31
0.0
  0
POINT
  5
4E4
  8
0
  6
CONTINUOUS
 10
-62.499999999999922
 20
-0.0000000000000004
 30
0.0
  0
POLYLINE
  5
4E5
  8
0
  6
CONTINUOUS
 66
     1
 10
0.0
 20
0.0
 30
0.0
  0
VERTEX
  5
182C
  8
0
  6
CONTINUOUS
 10
12.50000000000005
 20
-0.0000000000000004
 30
0.0
  0
VERTEX
  5
182D
  8
0
  6
CONTINUOUS
 10
11.36809907389636
 20
-19.536549552962171
 30
0.0
  0
VERTEX
  5
182E
  8
0
  6
CONTINUOUS
 10
9.3829807086638066
 20
-47.328897546577807
 30
0.0
  0
VERTEX
  5
182F
  8
0
  6
CONTINUOUS
 10
9.3829807086638066
 20
-47.328897546577807
 30
0.0
  0
VERTEX
  5
1830
  8
0
  6
CONTINUOUS
 10
8.7592483048498462
 20
-55.103890910881368
 30
0.0
  0
VERTEX
  5
1831
  8
0
  6
CONTINUOUS
 10
8.0713258837318431
 20
-62.74084173953954
 30
0.0
  0
VERTEX
  5
1832
  8
0
  6
CONTINUOUS
 10
8.0713258837318431
 20
-62.74084173953954
 30
0.0
  0
VERTEX
  5
1833
  8
0
  6
CONTINUOUS
 10
7.3390456573271159
 20
-69.480641672648503
 30
0.0
  0
VERTEX
  5
1834
  8
0
  6
CONTINUOUS
 10
6.5957142056822651
 20
-75.201562576401088
 30
0.0
  0
VERTEX
  5
1835
  8
0
  6
CONTINUOUS
 10
6.5957142056822651
 20
-75.201562576401088
 30
0.0
  0
VERTEX
  5
1836
  8
0
  6
CONTINUOUS
 10
5.8856893340839598
 20
-79.939981867484775
 30
0.0
  0
VERTEX
  5
1837
  8
0
  6
CONTINUOUS
 10
5.28405938074917
 20
-83.727318938466652
 30
0.0
  0
VERTEX
  5
1838
  8
0
  6
CONTINUOUS
 10
5.28405938074917
 20
-83.727318938466652
 30
0.0
  0
VERTEX
  5
1839
  8
0
  6
CONTINUOUS
 10
4.7370231589918603
 20
-86.685301923153716
 30
0.0
  0
VERTEX
  5
183A
  8
0
  6
CONTINUOUS
 10
4.3049853888289791
 20
-88.000039218583808
 30
0.0
  0
VERTEX
  5
183B
  8
0
  6
CONTINUOUS
 10
3.6444908495821511
 20
-89.301851944430808
 30
0.0
  0
VERTEX
  5
183C
  8
0
  6
CONTINUOUS
 10
3.6444908495821511
 20
-89.301851944430808
 30
0.0
  0
VERTEX
  5
183D
  8
0
  6
CONTINUOUS
 10
2.9409413234604891
 20
-90.282454785124926
 30
0.0
  0
VERTEX
  5
183E
  8
0
  6
CONTINUOUS
 10
1.677008612183555
 20
-91.597247888064473
 30
0.0
  0
VERTEX
  5
183F
  8
0
  6
CONTINUOUS
 10
1.677008612183555
 20
-91.597247888064473
 30
0.0
  0
VERTEX
  5
1840
  8
0
  6
CONTINUOUS
 10
0.882919212048989
 20
-92.258870557593511
 30
0.0
  0
VERTEX
  5
1841
  8
0
  6
CONTINUOUS
 10
0.4470114692691709
 20
-92.490936498284213
 30
0.0
  0
VERTEX
  5
1842
  8
0
  6
CONTINUOUS
 10
0.0000000000000568
 20
-92.580989006763787
 30
0.0
  0
VERTEX
  5
1843
  8
0
  6
CONTINUOUS
 10
0.0000000000000568
 20
-92.580989006763787
 30
0.0
  0
VERTEX
  5
1844
  8
0
  6
CONTINUOUS
 10
-0.4470114692690573
 20
-92.490936498284213
 30
0.0
  0
VERTEX
  5
1845
  8
0
  6
CONTINUOUS
 10
-0.8829192120488187
 20
-92.258870557593497
 30
0.0
  0
VERTEX
  5
1846
  8
0
  6
CONTINUOUS
 10
-1.677008612183438
 20
-91.597247888064473
 30
0.0
  0
VERTEX
  5
1847
  8
0
  6
CONTINUOUS
 10
-1.677008612183438
 20
-91.597247888064473
 30
0.0
  0
VERTEX
  5
1848
  8
0
  6
CONTINUOUS
 10
-2.9409413234603781
 20
-90.282454785124784
 30
0.0
  0
VERTEX
  5
1849
  8
0
  6
CONTINUOUS
 10
-3.6444908495819832
 20
-89.301851944430808
 30
0.0
  0
VERTEX
  5
184A
  8
0
  6
CONTINUOUS
 10
-3.6444908495819832
 20
-89.301851944430808
 30
0.0
  0
VERTEX
  5
184B
  8
0
  6
CONTINUOUS
 10
-4.3049853888288681
 20
-88.000039218583808
 30
0.0
  0
VERTEX
  5
184C
  8
0
  6
CONTINUOUS
 10
-4.737023158991744
 20
-86.685301923153716
 30
0.0
  0
VERTEX
  5
184D
  8
0
  6
CONTINUOUS
 10
-5.2840593807490572
 20
-83.727318938466652
 30
0.0
  0
VERTEX
  5
184E
  8
0
  6
CONTINUOUS
 10
-5.2840593807490572
 20
-83.727318938466652
 30
0.0
  0
VERTEX
  5
184F
  8
0
  6
CONTINUOUS
 10
-5.885689334083847
 20
-79.939981867484775
 30
0.0
  0
VERTEX
  5
1850
  8
0
  6
CONTINUOUS
 10
-6.5957142056822109
 20
-75.201562576401088
 30
0.0
  0
VERTEX
  5
1851
  8
0
  6
CONTINUOUS
 10
-6.5957142056822109
 20
-75.201562576401088
 30
0.0
  0
VERTEX
  5
1852
  8
0
  6
CONTINUOUS
 10
-7.3390456573270031
 20
-69.480641672648503
 30
0.0
  0
VERTEX
  5
1853
  8
0
  6
CONTINUOUS
 10
-8.0713258837317312
 20
-62.74084173953954
 30
0.0
  0
VERTEX
  5
1854
  8
0
  6
CONTINUOUS
 10
-8.0713258837317312
 20
-62.74084173953954
 30
0.0
  0
VERTEX
  5
1855
  8
0
  6
CONTINUOUS
 10
-8.7592483048497272
 20
-55.103890910881368
 30
0.0
  0
VERTEX
  5
1856
  8
0
  6
CONTINUOUS
 10
-9.3829807086637516
 20
-47.328897546577807
 30
0.0
  0
VERTEX
  5
1857
  8
0
  6
CONTINUOUS
 10
-9.3829807086637516
 20
-47.328897546577807
 30
0.0
  0
VERTEX
  5
1858
  8
0
  6
CONTINUOUS
 10
-11.368099073896239
 20
-19.536549552962171
 30
0.0
  0
VERTEX
  5
1859
  8
0
  6
CONTINUOUS
 10
-12.49999999999994
 20
-0.0000000000000004
 30
0.0
  0
SEQEND
  5
185A
  8
0
  6
CONTINUOUS
  0
POINT
  5
4E6
  8
0
  6
CONTINUOUS
 10
0.0000000000000568
 20
-92.580989006763787
 30
0.0
  0
POINT
  5
4E7
  8
0
  6
CONTINUOUS
 10
-6.5957142056822109
 20
-75.201562576401088
 30
0.0
  0
POINT
  5
4E8
  8
0
  6
CONTINUOUS
 10
-5.2840593807490572
 20
-83.727318938466652
 30
0.0
  0
POINT
  5
4E9
  8
0
  6
CONTINUOUS
 10
-3.6444908495819832
 20
-89.301851944430808
 30
0.0
  0
POINT
  5
4EA
  8
0
  6
CONTINUOUS
 10
6.5957142056822651
 20
-75.201562576401088
 30
0.0
  0
POINT
  5
4EB
  8
0
  6
CONTINUOUS
 10
3.6444908495821511
 20
-89.301851944430808
 30
0.0
  0
POINT
  5
4EC
  8
0
  6
CONTINUOUS
 10
5.28405938074917
 20
-83.727318938466652
 30
0.0
  0
POINT
  5
4ED
  8
0
  6
CONTINUOUS
 10
-1.677008612183438
 20
-91.597247888064473
 30
0.0
  0
POINT
  5
4EE
  8
0
  6
CONTINUOUS
 10
1.677008612183555
 20
-91.597247888064473
 30
0.0
  0
POINT
  5
4EF
  8
0
  6
CONTINUOUS
 10
-8.0713258837317312
 20
-62.74084173953954
 30
0.0
  0
POINT
  5
4F0
  8
0
  6
CONTINUOUS
 10
24.321144940403482
 20
-84.837066381239055
 30
0.0
  0
POINT
  5
4F1
  8
0
  6
CONTINUOUS
 10
8.0713258837318431
 20
-62.74084173953954
 30
0.0
  0
POINT
  5
4F2
  8
0
  6
CONTINUOUS
 10
17.451455240589191
 20
-59.422233971927092
 30
0.0
  0
POINT
  5
4F3
  8
0
  6
CONTINUOUS
 10
18.85731128791582
 20
-66.532945283903331
 30
0.0
  0
POLYLINE
  5
4F4
  8
0
  6
CONTINUOUS
 66
     1
 10
0.0
 20
0.0
 30
0.0
  0
VERTEX
  5
185B
  8
0
  6
CONTINUOUS
 10
12.50000000000005
 20
-0.0000000000000004
 30
0.0
  0
VERTEX
  5
185C
  8
0
  6
CONTINUOUS
 10
11.850770049366639
 20
-4.8204564492784812
 30
0.0
  0
VERTEX
  5
185D
  8
0
  6
CONTINUOUS
 10
11.233093281605299
 20
-9.5541378568350392
 30
0.0
  0
VERTEX
  5
185E
  8
0
  6
CONTINUOUS
 10
11.233093281605299
 20
-9.5541378568350392
 30
0.0
  0
VERTEX
  5
185F
  8
0
  6
CONTINUOUS
 10
10.654855049548811
 20
-14.135361892815411
 30
0.0
  0
VERTEX
  5
1860
  8
0
  6
CONTINUOUS
 10
10.029269385871711
 20
-18.582817074834612
 30
0.0
  0
VERTEX
  5
1861
  8
0
  6
CONTINUOUS
 10
10.029269385871711
 20
-18.582817074834612
 30
0.0
  0
VERTEX
  5
1862
  8
0
  6
CONTINUOUS
 10
9.2871636109603042
 20
-22.908039451131451
 30
0.0
  0
VERTEX
  5
1863
  8
0
  6
CONTINUOUS
 10
8.524489516205449
 20
-27.009584344967891
 30
0.0
  0
VERTEX
  5
1864
  8
0
  6
CONTINUOUS
 10
8.524489516205449
 20
-27.009584344967891
 30
0.0
  0
VERTEX
  5
1865
  8
0
  6
CONTINUOUS
 10
7.807607883852822
 20
-30.834126910605729
 30
0.0
  0
VERTEX
  5
1866
  8
0
  6
CONTINUOUS
 10
6.919390988561017
 20
-34.633802351279492
 30
0.0
  0
VERTEX
  5
1867
  8
0
  6
CONTINUOUS
 10
6.919390988561017
 20
-34.633802351279492
 30
0.0
  0
VERTEX
  5
1868
  8
0
  6
CONTINUOUS
 10
5.7011878777028624
 20
-38.51005534372603
 30
0.0
  0
VERTEX
  5
1869
  8
0
  6
CONTINUOUS
 10
4.5117431970948561
 20
-41.656108409721391
 30
0.0
  0
VERTEX
  5
186A
  8
0
  6
CONTINUOUS
 10
4.5117431970948561
 20
-41.656108409721391
 30
0.0
  0
VERTEX
  5
186B
  8
0
  6
CONTINUOUS
 10
3.568184672078301
 20
-43.594109365581382
 30
0.0
  0
VERTEX
  5
186C
  8
0
  6
CONTINUOUS
 10
2.00377674765042
 20
-46.070129360742897
 30
0.0
  0
VERTEX
  5
186D
  8
0
  6
CONTINUOUS
 10
2.00377674765042
 20
-46.070129360742897
 30
0.0
  0
VERTEX
  5
186E
  8
0
  6
CONTINUOUS
 10
1.062846386324622
 20
-47.400287113159777
 30
0.0
  0
VERTEX
  5
186F
  8
0
  6
CONTINUOUS
 10
0.5390429447247698
 20
-47.885620903857379
 30
0.0
  0
VERTEX
  5
1870
  8
0
  6
CONTINUOUS
 10
0.0000000000000568
 20
-48.07650252029822
 30
0.0
  0
VERTEX
  5
1871
  8
0
  6
CONTINUOUS
 10
0.0000000000000568
 20
-48.07650252029822
 30
0.0
  0
VERTEX
  5
1872
  8
0
  6
CONTINUOUS
 10
-0.5390429447246561
 20
-47.885620903857379
 30
0.0
  0
VERTEX
  5
1873
  8
0
  6
CONTINUOUS
 10
-1.062846386324507
 20
-47.400287113159777
 30
0.0
  0
VERTEX
  5
1874
  8
0
  6
CONTINUOUS
 10
-2.003776747650305
 20
-46.070129360742897
 30
0.0
  0
VERTEX
  5
1875
  8
0
  6
CONTINUOUS
 10
-2.003776747650305
 20
-46.070129360742897
 30
0.0
  0
VERTEX
  5
1876
  8
0
  6
CONTINUOUS
 10
-3.5681846720781301
 20
-43.594109365581382
 30
0.0
  0
VERTEX
  5
1877
  8
0
  6
CONTINUOUS
 10
-4.511743197094745
 20
-41.656108409721391
 30
0.0
  0
VERTEX
  5
1878
  8
0
  6
CONTINUOUS
 10
-4.511743197094745
 20
-41.656108409721391
 30
0.0
  0
VERTEX
  5
1879
  8
0
  6
CONTINUOUS
 10
-5.701187877702746
 20
-38.51005534372603
 30
0.0
  0
VERTEX
  5
187A
  8
0
  6
CONTINUOUS
 10
-6.9193909885609051
 20
-34.633802351279492
 30
0.0
  0
VERTEX
  5
187B
  8
0
  6
CONTINUOUS
 10
-6.9193909885609051
 20
-34.633802351279492
 30
0.0
  0
VERTEX
  5
187C
  8
0
  6
CONTINUOUS
 10
-7.8076078838527092
 20
-30.834126910605729
 30
0.0
  0
VERTEX
  5
187D
  8
0
  6
CONTINUOUS
 10
-8.5244895162053922
 20
-27.009584344967891
 30
0.0
  0
VERTEX
  5
187E
  8
0
  6
CONTINUOUS
 10
-8.5244895162053922
 20
-27.009584344967891
 30
0.0
  0
VERTEX
  5
187F
  8
0
  6
CONTINUOUS
 10
-9.287163610960194
 20
-22.908039451131451
 30
0.0
  0
VERTEX
  5
1880
  8
0
  6
CONTINUOUS
 10
-10.029269385871601
 20
-18.582817074834612
 30
0.0
  0
VERTEX
  5
1881
  8
0
  6
CONTINUOUS
 10
-10.029269385871601
 20
-18.582817074834612
 30
0.0
  0
VERTEX
  5
1882
  8
0
  6
CONTINUOUS
 10
-10.65485504954869
 20
-14.135361892815411
 30
0.0
  0
VERTEX
  5
1883
  8
0
  6
CONTINUOUS
 10
-11.23309328160525
 20
-9.5541378568350392
 30
0.0
  0
VERTEX
  5
1884
  8
0
  6
CONTINUOUS
 10
-11.23309328160525
 20
-9.5541378568350392
 30
0.0
  0
VERTEX
  5
1885
  8
0
  6
CONTINUOUS
 10
-11.85077004936652
 20
-4.8204564492784812
 30
0.0
  0
VERTEX
  5
1886
  8
0
  6
CONTINUOUS
 10
-12.49999999999994
 20
-0.0000000000000004
 30
0.0
  0
SEQEND
  5
1887
  8
0
  6
CONTINUOUS
  0
POLYLINE
  5
4F5
  8
0
  6
CONTINUOUS
 66
     1
 10
0.0
 20
0.0
 30
0.0
  0
VERTEX
  5
1888
  8
0
  6
CONTINUOUS
 10
12.50000000000005
 20
-0.0000000000000004
 30
0.0
  0
VERTEX
  5
1889
  8
0
  6
CONTINUOUS
 10
11.45883568982196
 20
-3.537308847590281
 30
0.0
  0
VERTEX
  5
188A
  8
0
  6
CONTINUOUS
 10
10.43054401778255
 20
-6.9458527494123219
 30
0.0
  0
VERTEX
  5
188B
  8
0
  6
CONTINUOUS
 10
10.43054401778255
 20
-6.9458527494123219
 30
0.0
  0
VERTEX
  5
188C
  8
0
  6
CONTINUOUS
 10
9.4230103367144675
 20
-10.084710382128369
 30
0.0
  0
VERTEX
  5
188D
  8
0
  6
CONTINUOUS
 10
8.4241708582272281
 20
-12.764334912122919
 30
0.0
  0
VERTEX
  5
188E
  8
0
  6
CONTINUOUS
 10
8.4241708582272281
 20
-12.764334912122919
 30
0.0
  0
VERTEX
  5
188F
  8
0
  6
CONTINUOUS
 10
7.4211529441821531
 20
-14.86269464021972
 30
0.0
  0
VERTEX
  5
1890
  8
0
  6
CONTINUOUS
 10
6.4177976986729801
 20
-16.576443915279341
 30
0.0
  0
VERTEX
  5
1891
  8
0
  6
CONTINUOUS
 10
6.4177976986729801
 20
-16.576443915279341
 30
0.0
  0
VERTEX
  5
1892
  8
0
  6
CONTINUOUS
 10
5.4182835572575501
 20
-18.135732236277011
 30
0.0
  0
VERTEX
  5
1893
  8
0
  6
CONTINUOUS
 10
4.411424539117716
 20
-19.586003654612849
 30
0.0
  0
VERTEX
  5
1894
  8
0
  6
CONTINUOUS
 10
4.411424539117716
 20
-19.586003654612849
 30
0.0
  0
VERTEX
  5
1895
  8
0
  6
CONTINUOUS
 10
3.3808397079123971
 20
-20.90616147288705
 30
0.0
  0
VERTEX
  5
1896
  8
0
  6
CONTINUOUS
 10
2.3047327215841151
 20
-21.993651446077848
 30
0.0
  0
VERTEX
  5
1897
  8
0
  6
CONTINUOUS
 10
2.3047327215841151
 20
-21.993651446077848
 30
0.0
  0
VERTEX
  5
1898
  8
0
  6
CONTINUOUS
 10
1.1695344479445551
 20
-22.72779052930256
 30
0.0
  0
VERTEX
  5
1899
  8
0
  6
CONTINUOUS
 10
0.0000000000000568
 20
-22.996838025857301
 30
0.0
  0
VERTEX
  5
189A
  8
0
  6
CONTINUOUS
 10
0.0000000000000568
 20
-22.996838025857301
 30
0.0
  0
VERTEX
  5
189B
  8
0
  6
CONTINUOUS
 10
-1.1695344479444421
 20
-22.72779052930256
 30
0.0
  0
VERTEX
  5
189C
  8
0
  6
CONTINUOUS
 10
-2.3047327215840592
 20
-21.993651446077848
 30
0.0
  0
VERTEX
  5
189D
  8
0
  6
CONTINUOUS
 10
-2.3047327215840592
 20
-21.993651446077848
 30
0.0
  0
VERTEX
  5
189E
  8
0
  6
CONTINUOUS
 10
-3.380839707912342
 20
-20.90616147288705
 30
0.0
  0
VERTEX
  5
189F
  8
0
  6
CONTINUOUS
 10
-4.4114245391176032
 20
-19.586003654612849
 30
0.0
  0
VERTEX
  5
18A0
  8
0
  6
CONTINUOUS
 10
-4.4114245391176032
 20
-19.586003654612849
 30
0.0
  0
VERTEX
  5
18A1
  8
0
  6
CONTINUOUS
 10
-5.4182835572574941
 20
-18.135732236277011
 30
0.0
  0
VERTEX
  5
18A2
  8
0
  6
CONTINUOUS
 10
-6.417797698672925
 20
-16.576443915279341
 30
0.0
  0
VERTEX
  5
18A3
  8
0
  6
CONTINUOUS
 10
-6.417797698672925
 20
-16.576443915279341
 30
0.0
  0
VERTEX
  5
18A4
  8
0
  6
CONTINUOUS
 10
-7.4211529441820359
 20
-14.86269464021972
 30
0.0
  0
VERTEX
  5
18A5
  8
0
  6
CONTINUOUS
 10
-8.4241708582271126
 20
-12.764334912122919
 30
0.0
  0
VERTEX
  5
18A6
  8
0
  6
CONTINUOUS
 10
-8.4241708582271126
 20
-12.764334912122919
 30
0.0
  0
VERTEX
  5
18A7
  8
0
  6
CONTINUOUS
 10
-9.4230103367144125
 20
-10.084710382128369
 30
0.0
  0
VERTEX
  5
18A8
  8
0
  6
CONTINUOUS
 10
-10.430544017782429
 20
-6.9458527494123219
 30
0.0
  0
VERTEX
  5
18A9
  8
0
  6
CONTINUOUS
 10
-10.430544017782429
 20
-6.9458527494123219
 30
0.0
  0
VERTEX
  5
18AA
  8
0
  6
CONTINUOUS
 10
-11.458835689821839
 20
-3.537308847590281
 30
0.0
  0
VERTEX
  5
18AB
  8
0
  6
CONTINUOUS
 10
-12.49999999999994
 20
-0.0000000000000004
 30
0.0
  0
SEQEND
  5
18AC
  8
0
  6
CONTINUOUS
  0
POINT
  5
4F6
  8
0
  6
CONTINUOUS
 10
-12.49999999999994
 20
-0.0000000000000004
 30
0.0
  0
POINT
  5
4F7
  8
0
  6
CONTINUOUS
 10
-12.49999999999994
 20
-0.0000000000000004
 30
0.0
  0
POINT
  5
4F8
  8
0
  6
CONTINUOUS
 10
-12.49999999999994
 20
-0.0000000000000004
 30
0.0
  0
POINT
  5
4F9
  8
0
  6
CONTINUOUS
 10
-12.49999999999994
 20
-0.0021903049312191
 30
0.0
  0
POINT
  5
4FA
  8
0
  6
CONTINUOUS
 10
-4.511743197094745
 20
-41.656108409721391
 30
0.0
  0
POINT
  5
4FB
  8
0
  6
CONTINUOUS
 10
-6.9193909885609051
 20
-34.633802351279492
 30
0.0
  0
POINT
  5
4FC
  8
0
  6
CONTINUOUS
 10
-9.3829807086637516
 20
-47.328897546577807
 30
0.0
  0
POINT
  5
4FD
  8
0
  6
CONTINUOUS
 10
4.5117431970948561
 20
-41.656108409721391
 30
0.0
  0
POINT
  5
4FE
  8
0
  6
CONTINUOUS
 10
-2.003776747650305
 20
-46.070129360742897
 30
0.0
  0
POINT
  5
4FF
  8
0
  6
CONTINUOUS
 10
0.0000000000000568
 20
-48.07650252029822
 30
0.0
  0
POINT
  5
500
  8
0
  6
CONTINUOUS
 10
0.0000000000000568
 20
-48.07650252029822
 30
0.0
  0
POINT
  5
501
  8
0
  6
CONTINUOUS
 10
2.00377674765042
 20
-46.070129360742897
 30
0.0
  0
POINT
  5
502
  8
0
  6
CONTINUOUS
 10
-6.417797698672925
 20
-16.576443915279341
 30
0.0
  0
POINT
  5
503
  8
0
  6
CONTINUOUS
 10
-8.4241708582271126
 20
-12.764334912122919
 30
0.0
  0
POINT
  5
504
  8
0
  6
CONTINUOUS
 10
-4.4114245391176032
 20
-19.586003654612849
 30
0.0
  0
POINT
  5
505
  8
0
  6
CONTINUOUS
 10
-8.5244895162053922
 20
-27.009584344967891
 30
0.0
  0
POINT
  5
506
  8
0
  6
CONTINUOUS
 10
-10.029269385871601
 20
-18.582817074834612
 30
0.0
  0
POINT
  5
507
  8
0
  6
CONTINUOUS
 10
6.4177976986729801
 20
-16.576443915279341
 30
0.0
  0
POINT
  5
508
  8
0
  6
CONTINUOUS
 10
4.411424539117716
 20
-19.586003654612849
 30
0.0
  0
POINT
  5
509
  8
0
  6
CONTINUOUS
 10
-2.3047327215840592
 20
-21.993651446077848
 30
0.0
  0
POINT
  5
50A
  8
0
  6
CONTINUOUS
 10
0.0000000000000568
 20
-22.996838025857301
 30
0.0
  0
POINT
  5
50B
  8
0
  6
CONTINUOUS
 10
2.3047327215841151
 20
-21.993651446077848
 30
0.0
  0
POINT
  5
50C
  8
0
  6
CONTINUOUS
 10
15.033583278810511
 20
-40.607739645314929
 30
0.0
  0
POINT
  5
50D
  8
0
  6
CONTINUOUS
 10
6.919390988561017
 20
-34.633802351279492
 30
0.0
  0
POINT
  5
50E
  8
0
  6
CONTINUOUS
 10
9.3829807086638066
 20
-47.328897546577807
 30
0.0
  0
POINT
  5
50F
  8
0
  6
CONTINUOUS
 10
8.4241708582272281
 20
-12.764334912122919
 30
0.0
  0
POINT
  5
510
  8
0
  6
CONTINUOUS
 10
8.524489516205449
 20
-27.009584344967891
 30
0.0
  0
POINT
  5
511
  8
0
  6
CONTINUOUS
 10
10.029269385871711
 20
-18.582817074834612
 30
0.0
  0
POINT
  5
512
  8
0
  6
CONTINUOUS
 10
-11.23309328160525
 20
-9.5541378568350392
 30
0.0
  0
POINT
  5
513
  8
0
  6
CONTINUOUS
 10
-10.430544017782429
 20
-6.9458527494123219
 30
0.0
  0
LINE
  5
514
  8
0
  6
DASHDOT
 10
0.0
 20
5.0
 30
0.0
 11
0.0
 21
-5.0
 31
0.0
  0
POINT
  5
515
  8
0
  6
CONTINUOUS
 10
12.50000000000005
 20
-0.0000000000000004
 30
0.0
  0
POINT
  5
516
  8
0
  6
CONTINUOUS
 10
12.50000000000005
 20
-0.0000000000000004
 30
0.0
  0
POINT
  5
517
  8
0
  6
CONTINUOUS
 10
12.50000000000005
 20
-0.0000000000000004
 30
0.0
  0
POINT
  5
518
  8
0
  6
CONTINUOUS
 10
12.50000000000005
 20
-0.0021903049312191
 30
0.0
  0
POINT
  5
519
  8
0
  6
CONTINUOUS
 10
10.43054401778255
 20
-6.9458527494123219
 30
0.0
  0
POINT
  5
51A
  8
0
  6
CONTINUOUS
 10
11.233093281605299
 20
-9.5541378568350392
 30
0.0
  0
POINT
  5
51B
  8
0
  6
CONTINUOUS
 10
56.006701235297783
 20
-119.56017712177299
 30
0.0
  0
TEXT
  5
51C
  8
0
  6
CONTINUOUS
 10
25.81814783360425
 20
-75.163269544215552
 30
0.0
 40
10.0
  1
2m/s
 50
0.0000025044781673
 41
0.5833333271245161
  7
STANDARD1
  0
POINT
  5
51D
  8
0
  6
CONTINUOUS
 10
28.960923700273842
 20
-90.184636854128513
 30
0.0
  0
POINT
  5
51E
  8
0
  6
CONTINUOUS
 10
38.419449593581142
 20
-91.612609777721232
 30
0.0
  0
POINT
  5
51F
  8
0
  6
CONTINUOUS
 10
46.463955646225251
 20
-83.435483110490239
 30
0.0
  0
POINT
  5
520
  8
0
  6
CONTINUOUS
 10
51.946962732597612
 20
-69.952614053033642
 30
0.0
  0
POINT
  5
521
  8
0
  6
CONTINUOUS
 10
55.73224441124011
 20
-49.360681721220601
 30
0.0
  0
POINT
  5
522
  8
0
  6
CONTINUOUS
 10
62.5
 20
-0.0000000000000004
 30
0.0
  0
POINT
  5
523
  8
0
  6
CONTINUOUS
 10
62.5
 20
-0.0000000000000004
 30
0.0
  0
POINT
  5
524
  8
0
  6
CONTINUOUS
 10
62.5
 20
-0.0000000000000004
 30
0.0
  0
LINE
  5
525
  8
0
  6
CONTINUOUS
 10
78.75
 20
-0.0000000000000004
 30
0.0
 11
78.75
 21
-0.7000000000000007
 31
0.0
  0
ENDBLK
  5
527
  8
0
  0
BLOCK
  8
0
  2
A$C56ED2CAA
 70
     0
 10
0.0
 20
0.0
 30
0.0
  3
A$C56ED2CAA
  1

  0
LINE
  5
580
  8
0
  6
CONTINUOUS
 10
26.400001356282701
 20
4.300000258310785
 30
0.0
 11
0.0000013562826098
 21
4.300000258310785
 31
0.0
  0
LINE
  5
581
  8
0
  6
CONTINUOUS
 10
26.40000135628264
 20
5.0000002583107852
 30
0.0
 11
0.0000013562826098
 21
5.0000002583107852
 31
0.0
  0
LINE
  5
582
  8
0
  6
DASHDOT
 10
13.20000135628265
 20
10.00000025831077
 30
0.0
 11
13.20000135628265
 21
0.0000002583107857
 31
0.0
  0
LINE
  5
583
  8
0
  6
CONTINUOUS
 10
0.0000013562826666
 20
5.0000002583107852
 30
0.0
 11
0.0000013562826098
 21
4.300000258310785
 31
0.0
  0
LINE
  5
584
  8
0
  6
CONTINUOUS
 10
26.40000135628264
 20
5.0000002583107852
 30
0.0
 11
26.400001356282701
 21
4.300000258310785
 31
0.0
  0
ENDBLK
  5
586
  8
0
  0
BLOCK
  8
0
  2
*D4
 70
     1
 10
0.0
 20
0.0
 30
0.0
  3
*D4
  1

  0
LINE
  5
6DC
  8
0
  6
CONTINUOUS
 62
     0
 10
-301.17211860876608
 20
23.076606738690781
 30
0.0
 11
-293.08689009956089
 21
23.07660673869076
 31
0.0
  0
LINE
  5
6DD
  8
0
  6
CONTINUOUS
 62
     0
 10
-301.17211860876608
 20
3.7766067386907789
 30
0.0
 11
-293.08689009956089
 21
3.776606738690778
 31
0.0
  0
LINE
  5
6DE
  8
0
  6
CONTINUOUS
 62
     0
 10
-295.086890099561
 20
21.144755089883748
 30
0.0
 11
-295.086890099561
 21
14.516606738690781
 31
0.0
  0
LINE
  5
6DF
  8
0
  6
CONTINUOUS
 62
     0
 10
-295.086890099561
 20
5.7084583874978012
 30
0.0
 11
-295.086890099561
 21
12.336606738690779
 31
0.0
  0
SOLID
  5
6E0
  8
0
  6
CONTINUOUS
 62
     0
 10
-295.40886537436211
 20
21.144755089883748
 30
0.0
 11
-294.76491482475973
 21
21.144755089883748
 31
0.0
 12
-295.086890099561
 22
23.07660673869076
 32
0.0
 13
-295.086890099561
 23
23.07660673869076
 33
0.0
  0
SOLID
  5
6E1
  8
0
  6
CONTINUOUS
 62
     0
 10
-295.40886537436211
 20
5.7084583874978012
 30
0.0
 11
-294.76491482475973
 21
5.7084583874978012
 31
0.0
 12
-295.086890099561
 22
3.776606738690778
 32
0.0
 13
-295.086890099561
 23
3.776606738690778
 33
0.0
  0
INSERT
  5
6E2
  8
0
  6
CONTINUOUS
  2
*U5
 10
0.0
 20
0.0
 30
0.0
  0
POINT
  5
6E3
  8
DEFPOINTS
  6
CONTINUOUS
 62
     0
 10
-302.1721186087658
 20
23.076606738690781
 30
0.0
  0
POINT
  5
6E4
  8
DEFPOINTS
  6
CONTINUOUS
 62
     0
 10
-302.1721186087658
 20
3.7766067386907789
 30
0.0
  0
POINT
  5
6E5
  8
DEFPOINTS
  6
CONTINUOUS
 62
     0
 10
-295.086890099561
 20
3.776606738690778
 30
0.0
  0
ENDBLK
  5
6E7
  8
0
  0
BLOCK
  8
0
  2
*U5
 70
     1
 10
0.0
 20
0.0
 30
0.0
  3
*U5
  1

  0
TEXT
  5
D05
  8
0
  6
CONTINUOUS
 62
     0
 10
-301.086890099561
 20
12.42660673869073
 30
0.0
 40
2.0
  1
193.0000
  0
ENDBLK
  5
D07
  8
0
  0
ENDSEC
  0
SECTION
  2
ENTITIES
  0
POLYLINE
  5
372
  8
0
  6
CONTINUOUS
 66
     1
 10
0.0
 20
0.0
 30
0.0
  0
VERTEX
  5
1366
  8
0
  6
CONTINUOUS
 10
62.499999999999957
 20
-0.7000000000000007
 30
0.0
  0
VERTEX
  5
1367
  8
0
  6
CONTINUOUS
 10
63.858665783687528
 20
-147.94096749370141
 30
0.0
  0
VERTEX
  5
1368
  8
0
  6
CONTINUOUS
 10
63.858665783687528
 20
-147.94096749370141
 30
0.0
  0
VERTEX
  5
1369
  8
0
  6
CONTINUOUS
 10
64.467891117006332
 20
-283.60541350362831
 30
0.0
  0
VERTEX
  5
136A
  8
0
  6
CONTINUOUS
 10
64.467891117006332
 20
-283.60541350362831
 30
0.0
  0
VERTEX
  5
136B
  8
0
  6
CONTINUOUS
 10
64.467891117006332
 20
-283.60541350362831
 30
0.0
  0
VERTEX
  5
136C
  8
0
  6
CONTINUOUS
 10
64.278070806251762
 20
-402.82027602695121
 30
0.0
  0
VERTEX
  5
136D
  8
0
  6
CONTINUOUS
 10
64.278070806251762
 20
-402.82027602695121
 30
0.0
  0
VERTEX
  5
136E
  8
0
  6
CONTINUOUS
 10
64.699071278602645
 20
-464.57788973887568
 30
0.0
  0
VERTEX
  5
136F
  8
0
  6
CONTINUOUS
 10
65.227197590673597
 20
-497.98181758094478
 30
0.0
  0
VERTEX
  5
1370
  8
0
  6
CONTINUOUS
 10
66.038940684375206
 20
-533.8263309846252
 30
0.0
  0
VERTEX
  5
1371
  8
0
  6
CONTINUOUS
 10
66.038940684375206
 20
-533.8263309846252
 30
0.0
  0
VERTEX
  5
1372
  8
0
  6
CONTINUOUS
 10
66.771874398722701
 20
-561.79140038021058
 30
0.0
  0
VERTEX
  5
1373
  8
0
  6
CONTINUOUS
 10
67.334419576017325
 20
-592.76995191752724
 30
0.0
  0
VERTEX
  5
1374
  8
0
  6
CONTINUOUS
 10
67.334419576017325
 20
-592.76995191752724
 30
0.0
  0
VERTEX
  5
1375
  8
0
  6
CONTINUOUS
 10
67.379708862554907
 20
-628.20241730510236
 30
0.0
  0
VERTEX
  5
1376
  8
0
  6
CONTINUOUS
 10
67.099986498757147
 20
-648.03900260165165
 30
0.0
  0
VERTEX
  5
1377
  8
0
  6
CONTINUOUS
 10
67.099986498757147
 20
-648.03900260165165
 30
0.0
  0
VERTEX
  5
1378
  8
0
  6
CONTINUOUS
 10
67.099986498757147
 20
-648.03900260165165
 30
0.0
  0
VERTEX
  5
1379
  8
0
  6
CONTINUOUS
 10
65.846201094895235
 20
-689.39553803973729
 30
0.0
  0
VERTEX
  5
137A
  8
0
  6
CONTINUOUS
 10
64.806326719071961
 20
-710.57150716377521
 30
0.0
  0
VERTEX
  5
137B
  8
0
  6
CONTINUOUS
 10
63.338890885385652
 20
-733.01709052739
 30
0.0
  0
VERTEX
  5
137C
  8
0
  6
CONTINUOUS
 10
61.341532702060093
 20
-756.69224303439375
 30
0.0
  0
VERTEX
  5
137D
  8
0
  6
CONTINUOUS
 10
61.341532702060093
 20
-756.69224303439375
 30
0.0
  0
VERTEX
  5
137E
  8
0
  6
CONTINUOUS
 10
60.209105919357128
 20
-767.28691127682964
 30
0.0
  0
VERTEX
  5
137F
  8
0
  6
CONTINUOUS
 10
60.209105919357128
 20
-767.28691127682964
 30
0.0
  0
VERTEX
  5
1380
  8
0
  6
CONTINUOUS
 10
58.360282320300101
 20
-779.17591507741452
 30
0.0
  0
VERTEX
  5
1381
  8
0
  6
CONTINUOUS
 10
58.360282320300101
 20
-779.17591507741452
 30
0.0
  0
VERTEX
  5
1382
  8
0
  6
CONTINUOUS
 10
55.192648118656678
 20
-793.43915199179764
 30
0.0
  0
VERTEX
  5
1383
  8
0
  6
CONTINUOUS
 10
52.926022733667502
 20
-801.79857585280445
 30
0.0
  0
VERTEX
  5
1384
  8
0
  6
CONTINUOUS
 10
50.103789528194469
 20
-811.15651957562955
 30
0.0
  0
VERTEX
  5
1385
  8
0
  6
CONTINUOUS
 10
50.103789528194469
 20
-811.15651957562955
 30
0.0
  0
VERTEX
  5
1386
  8
0
  6
CONTINUOUS
 10
47.362274563121282
 20
-819.55437589439668
 30
0.0
  0
VERTEX
  5
1387
  8
0
  6
CONTINUOUS
 10
44.389748643720132
 20
-828.11454094499095
 30
0.0
  0
VERTEX
  5
1388
  8
0
  6
CONTINUOUS
 10
41.379123987962998
 20
-836.23769302921835
 30
0.0
  0
VERTEX
  5
1389
  8
0
  6
CONTINUOUS
 10
38.523312813822152
 20
-843.32451044888433
 30
0.0
  0
VERTEX
  5
138A
  8
0
  6
CONTINUOUS
 10
38.523312813822152
 20
-843.32451044888433
 30
0.0
  0
VERTEX
  5
138B
  8
0
  6
CONTINUOUS
 10
35.891436758163607
 20
-849.01704397735182
 30
0.0
  0
VERTEX
  5
138C
  8
0
  6
CONTINUOUS
 10
34.534073596222541
 20
-851.51522495903703
 30
0.0
  0
VERTEX
  5
138D
  8
0
  6
CONTINUOUS
 10
33.057455133429549
 20
-853.9228342742141
 30
0.0
  0
VERTEX
  5
138E
  8
0
  6
CONTINUOUS
 10
29.471536670955821
 20
-858.89079447062068
 30
0.0
  0
VERTEX
  5
138F
  8
0
  6
CONTINUOUS
 10
24.583850102078571
 20
-864.76983769772175
 30
0.0
  0
VERTEX
  5
1390
  8
0
  6
CONTINUOUS
 10
24.583850102078571
 20
-864.76983769772175
 30
0.0
  0
VERTEX
  5
1391
  8
0
  6
CONTINUOUS
 10
22.279017776536161
 20
-867.37521158209722
 30
0.0
  0
VERTEX
  5
1392
  8
0
  6
CONTINUOUS
 10
19.717035597409851
 20
-870.02645291424881
 30
0.0
  0
VERTEX
  5
1393
  8
0
  6
CONTINUOUS
 10
16.90779476451355
 20
-872.51559927175344
 30
0.0
  0
VERTEX
  5
1394
  8
0
  6
CONTINUOUS
 10
13.86118647766126
 20
-874.63468823218705
 30
0.0
  0
VERTEX
  5
1395
  8
0
  6
CONTINUOUS
 10
13.86118647766126
 20
-874.63468823218705
 30
0.0
  0
VERTEX
  5
1396
  8
0
  6
CONTINUOUS
 10
10.59493158062031
 20
-876.21973735652125
 30
0.0
  0
VERTEX
  5
1397
  8
0
  6
CONTINUOUS
 10
7.1580694929728761
 20
-877.28268413930527
 30
0.0
  0
VERTEX
  5
1398
  8
0
  6
CONTINUOUS
 10
3.607469278254221
 20
-877.87944605848327
 30
0.0
  0
VERTEX
  5
1399
  8
0
  6
CONTINUOUS
 10
0.0000000000000213
 20
-878.06594059199983
 30
0.0
  0
VERTEX
  5
139A
  8
0
  6
CONTINUOUS
 10
0.0000000000000213
 20
-878.06594059199983
 30
0.0
  0
VERTEX
  5
139B
  8
0
  6
CONTINUOUS
 10
-3.6074692782541762
 20
-877.87944605848327
 30
0.0
  0
VERTEX
  5
139C
  8
0
  6
CONTINUOUS
 10
-7.158069492972774
 20
-877.28268413930527
 30
0.0
  0
VERTEX
  5
139D
  8
0
  6
CONTINUOUS
 10
-10.59493158062028
 20
-876.21973735652125
 30
0.0
  0
VERTEX
  5
139E
  8
0
  6
CONTINUOUS
 10
-13.861186477661221
 20
-874.63468823218705
 30
0.0
  0
VERTEX
  5
139F
  8
0
  6
CONTINUOUS
 10
-13.861186477661221
 20
-874.63468823218705
 30
0.0
  0
VERTEX
  5
13A0
  8
0
  6
CONTINUOUS
 10
-16.907794764513511
 20
-872.51559927175344
 30
0.0
  0
VERTEX
  5
13A1
  8
0
  6
CONTINUOUS
 10
-19.717035597409811
 20
-870.02645291424881
 30
0.0
  0
VERTEX
  5
13A2
  8
0
  6
CONTINUOUS
 10
-22.279017776536101
 20
-867.37521158209722
 30
0.0
  0
VERTEX
  5
13A3
  8
0
  6
CONTINUOUS
 10
-24.583850102078522
 20
-864.76983769772175
 30
0.0
  0
VERTEX
  5
13A4
  8
0
  6
CONTINUOUS
 10
-24.583850102078522
 20
-864.76983769772175
 30
0.0
  0
VERTEX
  5
13A5
  8
0
  6
CONTINUOUS
 10
-29.471536670955771
 20
-858.89079447062068
 30
0.0
  0
VERTEX
  5
13A6
  8
0
  6
CONTINUOUS
 10
-33.057455133429521
 20
-853.9228342742141
 30
0.0
  0
VERTEX
  5
13A7
  8
0
  6
CONTINUOUS
 10
-34.534073596222498
 20
-851.51522495903703
 30
0.0
  0
VERTEX
  5
13A8
  8
0
  6
CONTINUOUS
 10
-35.891436758163572
 20
-849.01704397735182
 30
0.0
  0
VERTEX
  5
13A9
  8
0
  6
CONTINUOUS
 10
-38.523312813822081
 20
-843.32451044888433
 30
0.0
  0
VERTEX
  5
13AA
  8
0
  6
CONTINUOUS
 10
-38.523312813822081
 20
-843.32451044888433
 30
0.0
  0
VERTEX
  5
13AB
  8
0
  6
CONTINUOUS
 10
-41.37912398796292
 20
-836.23769302921835
 30
0.0
  0
VERTEX
  5
13AC
  8
0
  6
CONTINUOUS
 10
-44.389748643720068
 20
-828.11454094499095
 30
0.0
  0
VERTEX
  5
13AD
  8
0
  6
CONTINUOUS
 10
-47.362274563121282
 20
-819.55437589439668
 30
0.0
  0
VERTEX
  5
13AE
  8
0
  6
CONTINUOUS
 10
-50.10378952819444
 20
-811.15651957562955
 30
0.0
  0
VERTEX
  5
13AF
  8
0
  6
CONTINUOUS
 10
-50.10378952819444
 20
-811.15651957562955
 30
0.0
  0
VERTEX
  5
13B0
  8
0
  6
CONTINUOUS
 10
-52.92602273366743
 20
-801.79857585280445
 30
0.0
  0
VERTEX
  5
13B1
  8
0
  6
CONTINUOUS
 10
-55.19264811865667
 20
-793.43915199179764
 30
0.0
  0
VERTEX
  5
13B2
  8
0
  6
CONTINUOUS
 10
-56.978967406441221
 20
-785.94326079815312
 30
0.0
  0
VERTEX
  5
13B3
  8
0
  6
CONTINUOUS
 10
-58.360282320300058
 20
-779.17591507741452
 30
0.0
  0
VERTEX
  5
13B4
  8
0
  6
CONTINUOUS
 10
-60.209105919357043
 20
-767.28691127682964
 30
0.0
  0
VERTEX
  5
13B5
  8
0
  6
CONTINUOUS
 10
-60.209105919357043
 20
-767.28691127682964
 30
0.0
  0
VERTEX
  5
13B6
  8
0
  6
CONTINUOUS
 10
-61.341532702060022
 20
-756.69224303439375
 30
0.0
  0
VERTEX
  5
13B7
  8
0
  6
CONTINUOUS
 10
-61.341532702060022
 20
-756.69224303439375
 30
0.0
  0
VERTEX
  5
13B8
  8
0
  6
CONTINUOUS
 10
-63.338890885385531
 20
-733.01709052739
 30
0.0
  0
VERTEX
  5
13B9
  8
0
  6
CONTINUOUS
 10
-64.806326719071961
 20
-710.57150716377521
 30
0.0
  0
VERTEX
  5
13BA
  8
0
  6
CONTINUOUS
 10
-65.846201094895179
 20
-689.39553803973729
 30
0.0
  0
VERTEX
  5
13BB
  8
0
  6
CONTINUOUS
 10
-67.099986498757062
 20
-648.03900260165199
 30
0.0
  0
VERTEX
  5
13BC
  8
0
  6
CONTINUOUS
 10
-67.099986498757062
 20
-648.03900260165199
 30
0.0
  0
VERTEX
  5
13BD
  8
0
  6
CONTINUOUS
 10
-67.099986498757062
 20
-648.03900260165199
 30
0.0
  0
VERTEX
  5
13BE
  8
0
  6
CONTINUOUS
 10
-67.379708862554764
 20
-628.20241730510236
 30
0.0
  0
VERTEX
  5
13BF
  8
0
  6
CONTINUOUS
 10
-67.33441957601724
 20
-592.76995191752724
 30
0.0
  0
VERTEX
  5
13C0
  8
0
  6
CONTINUOUS
 10
-67.33441957601724
 20
-592.76995191752724
 30
0.0
  0
VERTEX
  5
13C1
  8
0
  6
CONTINUOUS
 10
-66.771874398722545
 20
-561.79140038021058
 30
0.0
  0
VERTEX
  5
13C2
  8
0
  6
CONTINUOUS
 10
-66.038940684375063
 20
-533.8263309846252
 30
0.0
  0
VERTEX
  5
13C3
  8
0
  6
CONTINUOUS
 10
-66.038940684375063
 20
-533.8263309846252
 30
0.0
  0
VERTEX
  5
13C4
  8
0
  6
CONTINUOUS
 10
-65.22719759067347
 20
-497.98181758094478
 30
0.0
  0
VERTEX
  5
13C5
  8
0
  6
CONTINUOUS
 10
-64.69907127860256
 20
-464.57788973887568
 30
0.0
  0
VERTEX
  5
13C6
  8
0
  6
CONTINUOUS
 10
-64.278070806251577
 20
-402.82027602695121
 30
0.0
  0
VERTEX
  5
13C7
  8
0
  6
CONTINUOUS
 10
-64.278070806251577
 20
-402.82027602695121
 30
0.0
  0
VERTEX
  5
13C8
  8
0
  6
CONTINUOUS
 10
-64.467891117006289
 20
-283.60541350362831
 30
0.0
  0
VERTEX
  5
13C9
  8
0
  6
CONTINUOUS
 10
-64.467891117006289
 20
-283.60541350362831
 30
0.0
  0
VERTEX
  5
13CA
  8
0
  6
CONTINUOUS
 10
-64.467891117006289
 20
-283.60541350362831
 30
0.0
  0
VERTEX
  5
13CB
  8
0
  6
CONTINUOUS
 10
-63.858665783687442
 20
-147.94096749370141
 30
0.0
  0
VERTEX
  5
13CC
  8
0
  6
CONTINUOUS
 10
-63.858665783687442
 20
-147.94096749370141
 30
0.0
  0
VERTEX
  5
13CD
  8
0
  6
CONTINUOUS
 10
-62.499999999999822
 20
-0.7000000000000007
 30
0.0
  0
SEQEND
  5
13CE
  8
0
  6
CONTINUOUS
  0
TEXT
  5
39B
  8
0
  6
CONTINUOUS
 10
-13.6174072676662
 20
-959.14310642112173
 30
0.0
 40
10.0
  1
0.3m/s
 50
0.0000025044781673
 41
0.5833333271245161
  7
STANDARD1
  0
TEXT
  5
39C
  8
0
  6
CONTINUOUS
 10
-15.30964962634644
 20
-810.5430726025819
 30
0.0
 40
10.0
  1
0.5m/s
 50
0.0000025044781673
 41
0.5833333271245161
  7
STANDARD1
  0
POLYLINE
  5
3E6
  8
0
  6
CONTINUOUS
 66
     1
 10
0.0
 20
0.0
 30
0.0
  0
VERTEX
  5
13CF
  8
0
  6
CONTINUOUS
 10
62.499999999999957
 20
-0.7000000000000007
 30
0.0
  0
VERTEX
  5
13D0
  8
0
  6
CONTINUOUS
 10
56.00670123529774
 20
-119.56017712177299
 30
0.0
  0
VERTEX
  5
13D1
  8
0
  6
CONTINUOUS
 10
56.00670123529774
 20
-119.56017712177299
 30
0.0
  0
VERTEX
  5
13D2
  8
0
  6
CONTINUOUS
 10
56.00670123529774
 20
-119.56017712177299
 30
0.0
  0
VERTEX
  5
13D3
  8
0
  6
CONTINUOUS
 10
52.91783516494543
 20
-180.5223195674846
 30
0.0
  0
VERTEX
  5
13D4
  8
0
  6
CONTINUOUS
 10
52.91783516494543
 20
-180.5223195674846
 30
0.0
  0
VERTEX
  5
13D5
  8
0
  6
CONTINUOUS
 10
50.657784466687623
 20
-233.75399394237971
 30
0.0
  0
VERTEX
  5
13D6
  8
0
  6
CONTINUOUS
 10
50.657784466687623
 20
-233.75399394237971
 30
0.0
  0
VERTEX
  5
13D7
  8
0
  6
CONTINUOUS
 10
49.981012096466621
 20
-254.9833655073229
 30
0.0
  0
VERTEX
  5
13D8
  8
0
  6
CONTINUOUS
 10
49.152374922338851
 20
-274.6562794300404
 30
0.0
  0
VERTEX
  5
13D9
  8
0
  6
CONTINUOUS
 10
49.152374922338851
 20
-274.6562794300404
 30
0.0
  0
VERTEX
  5
13DA
  8
0
  6
CONTINUOUS
 10
47.610512308512753
 20
-295.69912841120481
 30
0.0
  0
VERTEX
  5
13DB
  8
0
  6
CONTINUOUS
 10
47.610512308512753
 20
-295.69912841120481
 30
0.0
  0
VERTEX
  5
13DC
  8
0
  6
CONTINUOUS
 10
44.794063619196848
 20
-321.03830515148849
 30
0.0
  0
VERTEX
  5
13DD
  8
0
  6
CONTINUOUS
 10
44.794063619196848
 20
-321.03830515148849
 30
0.0
  0
VERTEX
  5
13DE
  8
0
  6
CONTINUOUS
 10
42.396778112236603
 20
-339.99622216644519
 30
0.0
  0
VERTEX
  5
13DF
  8
0
  6
CONTINUOUS
 10
42.396778112236603
 20
-339.99622216644519
 30
0.0
  0
VERTEX
  5
13E0
  8
0
  6
CONTINUOUS
 10
40.54767353616969
 20
-361.43579274782371
 30
0.0
  0
VERTEX
  5
13E1
  8
0
  6
CONTINUOUS
 10
40.54767353616969
 20
-361.43579274782371
 30
0.0
  0
VERTEX
  5
13E2
  8
0
  6
CONTINUOUS
 10
40.01848744626097
 20
-373.03903040467799
 30
0.0
  0
VERTEX
  5
13E3
  8
0
  6
CONTINUOUS
 10
40.01848744626097
 20
-373.03903040467799
 30
0.0
  0
VERTEX
  5
13E4
  8
0
  6
CONTINUOUS
 10
38.887307949103871
 20
-385.40981834287862
 30
0.0
  0
VERTEX
  5
13E5
  8
0
  6
CONTINUOUS
 10
37.767217517909117
 20
-391.9514272380905
 30
0.0
  0
VERTEX
  5
13E6
  8
0
  6
CONTINUOUS
 10
36.10212494902472
 20
-398.7669839883668
 30
0.0
  0
VERTEX
  5
13E7
  8
0
  6
CONTINUOUS
 10
36.10212494902472
 20
-398.7669839883668
 30
0.0
  0
VERTEX
  5
13E8
  8
0
  6
CONTINUOUS
 10
33.760528980491429
 20
-405.88384202195061
 30
0.0
  0
VERTEX
  5
13E9
  8
0
  6
CONTINUOUS
 10
33.760528980491429
 20
-405.88384202195061
 30
0.0
  0
VERTEX
  5
13EA
  8
0
  6
CONTINUOUS
 10
30.610928350350001
 20
-413.32935476708388
 30
0.0
  0
VERTEX
  5
13EB
  8
0
  6
CONTINUOUS
 10
30.610928350350001
 20
-413.32935476708388
 30
0.0
  0
VERTEX
  5
13EC
  8
0
  6
CONTINUOUS
 10
27.027644971778809
 20
-420.53240689786293
 30
0.0
  0
VERTEX
  5
13ED
  8
0
  6
CONTINUOUS
 10
24.99992791799805
 20
-424.6512055133432
 30
0.0
  0
VERTEX
  5
13EE
  8
0
  6
CONTINUOUS
 10
22.840411138431591
 20
-429.33332662651083
 30
0.0
  0
VERTEX
  5
13EF
  8
0
  6
CONTINUOUS
 10
22.840411138431591
 20
-429.33332662651083
 30
0.0
  0
VERTEX
  5
13F0
  8
0
  6
CONTINUOUS
 10
21.881638152714402
 20
-431.43141961227849
 30
0.0
  0
VERTEX
  5
13F1
  8
0
  6
CONTINUOUS
 10
20.635561990603339
 20
-433.60094260982157
 30
0.0
  0
VERTEX
  5
13F2
  8
0
  6
CONTINUOUS
 10
18.833595897562919
 20
-435.79246647200603
 30
0.0
  0
VERTEX
  5
13F3
  8
0
  6
CONTINUOUS
 10
17.640220766151931
 20
-436.8810321188592
 30
0.0
  0
VERTEX
  5
13F4
  8
0
  6
CONTINUOUS
 10
16.207153119057711
 20
-437.9565620516974
 30
0.0
  0
VERTEX
  5
13F5
  8
0
  6
CONTINUOUS
 10
16.207153119057711
 20
-437.9565620516974
 30
0.0
  0
VERTEX
  5
13F6
  8
0
  6
CONTINUOUS
 10
13.69340575045176
 20
-439.44177398633951
 30
0.0
  0
VERTEX
  5
13F7
  8
0
  6
CONTINUOUS
 10
10.90054670355812
 20
-440.60986525944458
 30
0.0
  0
VERTEX
  5
13F8
  8
0
  6
CONTINUOUS
 10
10.90054670355812
 20
-440.60986525944458
 30
0.0
  0
VERTEX
  5
13F9
  8
0
  6
CONTINUOUS
 10
8.0835404237286248
 20
-441.2745641329908
 30
0.0
  0
VERTEX
  5
13FA
  8
0
  6
CONTINUOUS
 10
5.3220140446774362
 20
-441.61045427400018
 30
0.0
  0
VERTEX
  5
13FB
  8
0
  6
CONTINUOUS
 10
5.3220140446774362
 20
-441.61045427400018
 30
0.0
  0
VERTEX
  5
13FC
  8
0
  6
CONTINUOUS
 10
2.6381888456930001
 20
-441.82722284890548
 30
0.0
  0
VERTEX
  5
13FD
  8
0
  6
CONTINUOUS
 10
0.0000000000000213
 20
-441.91411561672538
 30
0.0
  0
VERTEX
  5
13FE
  8
0
  6
CONTINUOUS
 10
0.0000000000000213
 20
-441.91411561672538
 30
0.0
  0
VERTEX
  5
13FF
  8
0
  6
CONTINUOUS
 10
-2.6381888456930151
 20
-441.82722284890548
 30
0.0
  0
VERTEX
  5
1400
  8
0
  6
CONTINUOUS
 10
-5.3220140446773341
 20
-441.61045427400018
 30
0.0
  0
VERTEX
  5
1401
  8
0
  6
CONTINUOUS
 10
-5.3220140446773341
 20
-441.61045427400018
 30
0.0
  0
VERTEX
  5
1402
  8
0
  6
CONTINUOUS
 10
-8.0835404237286408
 20
-441.2745641329908
 30
0.0
  0
VERTEX
  5
1403
  8
0
  6
CONTINUOUS
 10
-10.900546703558099
 20
-440.60986525944458
 30
0.0
  0
VERTEX
  5
1404
  8
0
  6
CONTINUOUS
 10
-10.900546703558099
 20
-440.60986525944458
 30
0.0
  0
VERTEX
  5
1405
  8
0
  6
CONTINUOUS
 10
-13.693405750451721
 20
-439.44177398633951
 30
0.0
  0
VERTEX
  5
1406
  8
0
  6
CONTINUOUS
 10
-16.207153119057669
 20
-437.9565620516974
 30
0.0
  0
VERTEX
  5
1407
  8
0
  6
CONTINUOUS
 10
-16.207153119057669
 20
-437.9565620516974
 30
0.0
  0
VERTEX
  5
1408
  8
0
  6
CONTINUOUS
 10
-17.640220766151891
 20
-436.8810321188592
 30
0.0
  0
VERTEX
  5
1409
  8
0
  6
CONTINUOUS
 10
-18.83359589756288
 20
-435.79246647200603
 30
0.0
  0
VERTEX
  5
140A
  8
0
  6
CONTINUOUS
 10
-20.6355619906033
 20
-433.60094260982157
 30
0.0
  0
VERTEX
  5
140B
  8
0
  6
CONTINUOUS
 10
-21.881638152714348
 20
-431.43141961227849
 30
0.0
  0
VERTEX
  5
140C
  8
0
  6
CONTINUOUS
 10
-22.84041113843157
 20
-429.33332662651083
 30
0.0
  0
VERTEX
  5
140D
  8
0
  6
CONTINUOUS
 10
-22.84041113843157
 20
-429.33332662651083
 30
0.0
  0
VERTEX
  5
140E
  8
0
  6
CONTINUOUS
 10
-24.999927917998011
 20
-424.6512055133432
 30
0.0
  0
VERTEX
  5
140F
  8
0
  6
CONTINUOUS
 10
-27.027644971778749
 20
-420.53240689786293
 30
0.0
  0
VERTEX
  5
1410
  8
0
  6
CONTINUOUS
 10
-30.610928350349958
 20
-413.32935476708388
 30
0.0
  0
VERTEX
  5
1411
  8
0
  6
CONTINUOUS
 10
-30.610928350349958
 20
-413.32935476708388
 30
0.0
  0
VERTEX
  5
1412
  8
0
  6
CONTINUOUS
 10
-33.760528980491387
 20
-405.88384202195061
 30
0.0
  0
VERTEX
  5
1413
  8
0
  6
CONTINUOUS
 10
-33.760528980491387
 20
-405.88384202195061
 30
0.0
  0
VERTEX
  5
1414
  8
0
  6
CONTINUOUS
 10
-36.102124949024677
 20
-398.7669839883668
 30
0.0
  0
VERTEX
  5
1415
  8
0
  6
CONTINUOUS
 10
-36.102124949024677
 20
-398.7669839883668
 30
0.0
  0
VERTEX
  5
1416
  8
0
  6
CONTINUOUS
 10
-37.767217517909067
 20
-391.9514272380905
 30
0.0
  0
VERTEX
  5
1417
  8
0
  6
CONTINUOUS
 10
-38.887307949103828
 20
-385.40981834287862
 30
0.0
  0
VERTEX
  5
1418
  8
0
  6
CONTINUOUS
 10
-40.018487446260927
 20
-373.03903040467799
 30
0.0
  0
VERTEX
  5
1419
  8
0
  6
CONTINUOUS
 10
-40.018487446260927
 20
-373.03903040467799
 30
0.0
  0
VERTEX
  5
141A
  8
0
  6
CONTINUOUS
 10
-40.547673536169647
 20
-361.43579274782371
 30
0.0
  0
VERTEX
  5
141B
  8
0
  6
CONTINUOUS
 10
-40.547673536169647
 20
-361.43579274782371
 30
0.0
  0
VERTEX
  5
141C
  8
0
  6
CONTINUOUS
 10
-42.39677811223649
 20
-339.99622216644519
 30
0.0
  0
VERTEX
  5
141D
  8
0
  6
CONTINUOUS
 10
-42.39677811223649
 20
-339.99622216644519
 30
0.0
  0
VERTEX
  5
141E
  8
0
  6
CONTINUOUS
 10
-44.794063619196812
 20
-321.03830515148849
 30
0.0
  0
VERTEX
  5
141F
  8
0
  6
CONTINUOUS
 10
-44.794063619196812
 20
-321.03830515148849
 30
0.0
  0
VERTEX
  5
1420
  8
0
  6
CONTINUOUS
 10
-47.610512308512703
 20
-295.69912841120481
 30
0.0
  0
VERTEX
  5
1421
  8
0
  6
CONTINUOUS
 10
-47.610512308512703
 20
-295.69912841120481
 30
0.0
  0
VERTEX
  5
1422
  8
0
  6
CONTINUOUS
 10
-49.152374922338808
 20
-274.6562794300404
 30
0.0
  0
VERTEX
  5
1423
  8
0
  6
CONTINUOUS
 10
-49.152374922338808
 20
-274.6562794300404
 30
0.0
  0
VERTEX
  5
1424
  8
0
  6
CONTINUOUS
 10
-49.981012096466578
 20
-254.9833655073229
 30
0.0
  0
VERTEX
  5
1425
  8
0
  6
CONTINUOUS
 10
-50.657784466687509
 20
-233.75399394237971
 30
0.0
  0
VERTEX
  5
1426
  8
0
  6
CONTINUOUS
 10
-50.657784466687509
 20
-233.75399394237971
 30
0.0
  0
VERTEX
  5
1427
  8
0
  6
CONTINUOUS
 10
-52.91783516494543
 20
-180.5223195674846
 30
0.0
  0
VERTEX
  5
1428
  8
0
  6
CONTINUOUS
 10
-52.91783516494543
 20
-180.5223195674846
 30
0.0
  0
VERTEX
  5
1429
  8
0
  6
CONTINUOUS
 10
-56.006701235297612
 20
-119.56017712177299
 30
0.0
  0
VERTEX
  5
142A
  8
0
  6
CONTINUOUS
 10
-56.006701235297612
 20
-119.56017712177299
 30
0.0
  0
VERTEX
  5
142B
  8
0
  6
CONTINUOUS
 10
-56.006701235297612
 20
-119.56017712177299
 30
0.0
  0
VERTEX
  5
142C
  8
0
  6
CONTINUOUS
 10
-62.499999999999957
 20
-0.7000000000000007
 30
0.0
  0
SEQEND
  5
142D
  8
0
  6
CONTINUOUS
  0
TEXT
  5
3F3
  8
0
  6
CONTINUOUS
 10
-15.76007637221155
 20
-380.58459790679882
 30
0.0
 40
10.0
  1
1m/s
 50
0.0000025044781673
 41
0.5833333271245161
  7
STANDARD1
  0
POLYLINE
  5
402
  8
0
  6
CONTINUOUS
 66
     1
 10
0.0
 20
0.0
 30
0.0
  0
VERTEX
  5
142E
  8
0
  6
CONTINUOUS
 10
62.499999999999957
 20
-0.7000000000000007
 30
0.0
  0
VERTEX
  5
142F
  8
0
  6
CONTINUOUS
 10
58.163663949855099
 20
-33.03847981145902
 30
0.0
  0
VERTEX
  5
1430
  8
0
  6
CONTINUOUS
 10
58.163663949855099
 20
-33.03847981145902
 30
0.0
  0
VERTEX
  5
1431
  8
0
  6
CONTINUOUS
 10
55.732244411240082
 20
-49.360681721220601
 30
0.0
  0
VERTEX
  5
1432
  8
0
  6
CONTINUOUS
 10
55.732244411240082
 20
-49.360681721220601
 30
0.0
  0
VERTEX
  5
1433
  8
0
  6
CONTINUOUS
 10
54.008170132915289
 20
-60.028017031570641
 30
0.0
  0
VERTEX
  5
1434
  8
0
  6
CONTINUOUS
 10
54.008170132915289
 20
-60.028017031570641
 30
0.0
  0
VERTEX
  5
1435
  8
0
  6
CONTINUOUS
 10
51.946962732597576
 20
-69.952614053033642
 30
0.0
  0
VERTEX
  5
1436
  8
0
  6
CONTINUOUS
 10
51.946962732597576
 20
-69.952614053033642
 30
0.0
  0
VERTEX
  5
1437
  8
0
  6
CONTINUOUS
 10
51.946962732597576
 20
-69.952614053033642
 30
0.0
  0
VERTEX
  5
1438
  8
0
  6
CONTINUOUS
 10
49.469074947680561
 20
-77.531314295642986
 30
0.0
  0
VERTEX
  5
1439
  8
0
  6
CONTINUOUS
 10
48.039813117724712
 20
-80.615215362076938
 30
0.0
  0
VERTEX
  5
143A
  8
0
  6
CONTINUOUS
 10
46.463955646225223
 20
-83.435483110490239
 30
0.0
  0
VERTEX
  5
143B
  8
0
  6
CONTINUOUS
 10
46.463955646225223
 20
-83.435483110490239
 30
0.0
  0
VERTEX
  5
143C
  8
0
  6
CONTINUOUS
 10
44.727037200413363
 20
-86.09137329972998
 30
0.0
  0
VERTEX
  5
143D
  8
0
  6
CONTINUOUS
 10
42.815882166080719
 20
-88.459166568356466
 30
0.0
  0
VERTEX
  5
143E
  8
0
  6
CONTINUOUS
 10
40.717637358659267
 20
-90.359399774857508
 30
0.0
  0
VERTEX
  5
143F
  8
0
  6
CONTINUOUS
 10
39.594339669862762
 20
-91.078099123088563
 30
0.0
  0
VERTEX
  5
1440
  8
0
  6
CONTINUOUS
 10
38.419449593581092
 20
-91.612609777721232
 30
0.0
  0
VERTEX
  5
1441
  8
0
  6
CONTINUOUS
 10
38.419449593581092
 20
-91.612609777721232
 30
0.0
  0
VERTEX
  5
1442
  8
0
  6
CONTINUOUS
 10
37.195248603686331
 20
-91.947566584214215
 30
0.0
  0
VERTEX
  5
1443
  8
0
  6
CONTINUOUS
 10
35.939570661823801
 20
-92.095875340616288
 30
0.0
  0
VERTEX
  5
1444
  8
0
  6
CONTINUOUS
 10
34.674137851581769
 20
-92.077509583124225
 30
0.0
  0
VERTEX
  5
1445
  8
0
  6
CONTINUOUS
 10
33.420672256548713
 20
-91.912442847934358
 30
0.0
  0
VERTEX
  5
1446
  8
0
  6
CONTINUOUS
 10
31.03653104646304
 20
-91.222100589247589
 30
0.0
  0
VERTEX
  5
1447
  8
0
  6
CONTINUOUS
 10
28.960923700273799
 20
-90.184636854128513
 30
0.0
  0
VERTEX
  5
1448
  8
0
  6
CONTINUOUS
 10
28.960923700273799
 20
-90.184636854128513
 30
0.0
  0
VERTEX
  5
1449
  8
0
  6
CONTINUOUS
 10
27.32234217749723
 20
-88.945429517156583
 30
0.0
  0
VERTEX
  5
144A
  8
0
  6
CONTINUOUS
 10
26.06813960088569
 20
-87.592214792940439
 30
0.0
  0
VERTEX
  5
144B
  8
0
  6
CONTINUOUS
 10
24.32114494040345
 20
-84.837066381239055
 30
0.0
  0
VERTEX
  5
144C
  8
0
  6
CONTINUOUS
 10
24.32114494040345
 20
-84.837066381239055
 30
0.0
  0
VERTEX
  5
144D
  8
0
  6
CONTINUOUS
 10
24.32114494040345
 20
-84.837066381239055
 30
0.0
  0
VERTEX
  5
144E
  8
0
  6
CONTINUOUS
 10
22.069340780987051
 20
-80.191741883123996
 30
0.0
  0
VERTEX
  5
144F
  8
0
  6
CONTINUOUS
 10
20.765368188037041
 20
-76.268433833263089
 30
0.0
  0
VERTEX
  5
1450
  8
0
  6
CONTINUOUS
 10
20.765368188037041
 20
-76.268433833263089
 30
0.0
  0
VERTEX
  5
1451
  8
0
  6
CONTINUOUS
 10
18.857311287915781
 20
-66.532945283903331
 30
0.0
  0
VERTEX
  5
1452
  8
0
  6
CONTINUOUS
 10
18.857311287915781
 20
-66.532945283903331
 30
0.0
  0
VERTEX
  5
1453
  8
0
  6
CONTINUOUS
 10
18.857311287915781
 20
-66.532945283903331
 30
0.0
  0
VERTEX
  5
1454
  8
0
  6
CONTINUOUS
 10
18.857311287915781
 20
-66.532945283903331
 30
0.0
  0
VERTEX
  5
1455
  8
0
  6
CONTINUOUS
 10
18.857311287915781
 20
-66.532945283903331
 30
0.0
  0
VERTEX
  5
1456
  8
0
  6
CONTINUOUS
 10
18.857311287915781
 20
-66.532945283903331
 30
0.0
  0
VERTEX
  5
1457
  8
0
  6
CONTINUOUS
 10
16.380877832685378
 20
-53.300599568737461
 30
0.0
  0
VERTEX
  5
1458
  8
0
  6
CONTINUOUS
 10
16.380877832685378
 20
-53.300599568737461
 30
0.0
  0
VERTEX
  5
1459
  8
0
  6
CONTINUOUS
 10
15.03358327881047
 20
-40.607739645314929
 30
0.0
  0
VERTEX
  5
145A
  8
0
  6
CONTINUOUS
 10
15.03358327881047
 20
-40.607739645314929
 30
0.0
  0
VERTEX
  5
145B
  8
0
  6
CONTINUOUS
 10
15.03358327881047
 20
-40.607739645314929
 30
0.0
  0
VERTEX
  5
145C
  8
0
  6
CONTINUOUS
 10
12.500000000000011
 20
-0.7000000000000007
 30
0.0
  0
SEQEND
  5
145D
  8
0
  6
CONTINUOUS
  0
LINE
  5
403
  8
0
  6
CONTINUOUS
 10
78.749999999999972
 20
-0.0000000000000004
 30
0.0
 11
-78.749999999999972
 21
0.0000000000000004
 31
0.0
  0
LINE
  5
404
  8
0
  6
CONTINUOUS
 10
78.749999999999972
 20
-0.7000000000000007
 30
0.0
 11
-78.749999999999972
 21
-0.7000000000000007
 31
0.0
  0
POLYLINE
  5
405
  8
0
  6
CONTINUOUS
 66
     1
 10
0.0
 20
0.0
 30
0.0
  0
VERTEX
  5
145E
  8
0
  6
CONTINUOUS
 10
-62.499999999999957
 20
-0.7000000000000007
 30
0.0
  0
VERTEX
  5
145F
  8
0
  6
CONTINUOUS
 10
-58.163663949855057
 20
-33.03847981145902
 30
0.0
  0
VERTEX
  5
1460
  8
0
  6
CONTINUOUS
 10
-58.163663949855057
 20
-33.03847981145902
 30
0.0
  0
VERTEX
  5
1461
  8
0
  6
CONTINUOUS
 10
-55.732244411240089
 20
-49.360681721220601
 30
0.0
  0
VERTEX
  5
1462
  8
0
  6
CONTINUOUS
 10
-55.732244411240089
 20
-49.360681721220601
 30
0.0
  0
VERTEX
  5
1463
  8
0
  6
CONTINUOUS
 10
-54.008170132915268
 20
-60.028017031570641
 30
0.0
  0
VERTEX
  5
1464
  8
0
  6
CONTINUOUS
 10
-53.024195341460057
 20
-65.218894669052503
 30
0.0
  0
VERTEX
  5
1465
  8
0
  6
CONTINUOUS
 10
-51.946962732597491
 20
-69.952614053033642
 30
0.0
  0
VERTEX
  5
1466
  8
0
  6
CONTINUOUS
 10
-51.946962732597491
 20
-69.952614053033642
 30
0.0
  0
VERTEX
  5
1467
  8
0
  6
CONTINUOUS
 10
-50.766528898501747
 20
-74.028780372268244
 30
0.0
  0
VERTEX
  5
1468
  8
0
  6
CONTINUOUS
 10
-49.469074947680511
 20
-77.531314295642986
 30
0.0
  0
VERTEX
  5
1469
  8
0
  6
CONTINUOUS
 10
-48.03981311772467
 20
-80.615215362076938
 30
0.0
  0
VERTEX
  5
146A
  8
0
  6
CONTINUOUS
 10
-46.463955646225223
 20
-83.435483110490239
 30
0.0
  0
VERTEX
  5
146B
  8
0
  6
CONTINUOUS
 10
-46.463955646225223
 20
-83.435483110490239
 30
0.0
  0
VERTEX
  5
146C
  8
0
  6
CONTINUOUS
 10
-44.727037200413321
 20
-86.09137329972998
 30
0.0
  0
VERTEX
  5
146D
  8
0
  6
CONTINUOUS
 10
-42.815882166080641
 20
-88.459166568356466
 30
0.0
  0
VERTEX
  5
146E
  8
0
  6
CONTINUOUS
 10
-40.717637358659239
 20
-90.359399774857508
 30
0.0
  0
VERTEX
  5
146F
  8
0
  6
CONTINUOUS
 10
-39.594339669862762
 20
-91.078099123088563
 30
0.0
  0
VERTEX
  5
1470
  8
0
  6
CONTINUOUS
 10
-38.419449593581
 20
-91.612609777721232
 30
0.0
  0
VERTEX
  5
1471
  8
0
  6
CONTINUOUS
 10
-38.419449593581
 20
-91.612609777721232
 30
0.0
  0
VERTEX
  5
1472
  8
0
  6
CONTINUOUS
 10
-37.195248603686288
 20
-91.947566584214215
 30
0.0
  0
VERTEX
  5
1473
  8
0
  6
CONTINUOUS
 10
-35.939570661823758
 20
-92.095875340616288
 30
0.0
  0
VERTEX
  5
1474
  8
0
  6
CONTINUOUS
 10
-34.67413785158174
 20
-92.077509583124225
 30
0.0
  0
VERTEX
  5
1475
  8
0
  6
CONTINUOUS
 10
-33.420672256548691
 20
-91.912442847934358
 30
0.0
  0
VERTEX
  5
1476
  8
0
  6
CONTINUOUS
 10
-31.036531046463018
 20
-91.222100589247589
 30
0.0
  0
VERTEX
  5
1477
  8
0
  6
CONTINUOUS
 10
-28.960923700273749
 20
-90.184636854128513
 30
0.0
  0
VERTEX
  5
1478
  8
0
  6
CONTINUOUS
 10
-28.960923700273749
 20
-90.184636854128513
 30
0.0
  0
VERTEX
  5
1479
  8
0
  6
CONTINUOUS
 10
-27.322342177497191
 20
-88.945429517156583
 30
0.0
  0
VERTEX
  5
147A
  8
0
  6
CONTINUOUS
 10
-26.068139600885651
 20
-87.592214792940439
 30
0.0
  0
VERTEX
  5
147B
  8
0
  6
CONTINUOUS
 10
-25.100384384000598
 20
-86.198318481095967
 30
0.0
  0
VERTEX
  5
147C
  8
0
  6
CONTINUOUS
 10
-24.321144940403471
 20
-84.837066381239055
 30
0.0
  0
VERTEX
  5
147D
  8
0
  6
CONTINUOUS
 10
-24.321144940403471
 20
-84.837066381239055
 30
0.0
  0
VERTEX
  5
147E
  8
0
  6
CONTINUOUS
 10
-22.069340780986948
 20
-80.191741883123996
 30
0.0
  0
VERTEX
  5
147F
  8
0
  6
CONTINUOUS
 10
-20.765368188037009
 20
-76.268433833263089
 30
0.0
  0
VERTEX
  5
1480
  8
0
  6
CONTINUOUS
 10
-20.765368188037009
 20
-76.268433833263089
 30
0.0
  0
VERTEX
  5
1481
  8
0
  6
CONTINUOUS
 10
-19.87332555814843
 20
-72.053411783056248
 30
0.0
  0
VERTEX
  5
1482
  8
0
  6
CONTINUOUS
 10
-18.857311287915721
 20
-66.532945283903331
 30
0.0
  0
VERTEX
  5
1483
  8
0
  6
CONTINUOUS
 10
-18.857311287915721
 20
-66.532945283903331
 30
0.0
  0
VERTEX
  5
1484
  8
0
  6
CONTINUOUS
 10
-18.857311287915721
 20
-66.532945283903331
 30
0.0
  0
VERTEX
  5
1485
  8
0
  6
CONTINUOUS
 10
-17.451455240589119
 20
-59.422233971927092
 30
0.0
  0
VERTEX
  5
1486
  8
0
  6
CONTINUOUS
 10
-17.451455240589119
 20
-59.422233971927092
 30
0.0
  0
VERTEX
  5
1487
  8
0
  6
CONTINUOUS
 10
-16.380877832685339
 20
-53.300599568737461
 30
0.0
  0
VERTEX
  5
1488
  8
0
  6
CONTINUOUS
 10
-16.380877832685339
 20
-53.300599568737461
 30
0.0
  0
VERTEX
  5
1489
  8
0
  6
CONTINUOUS
 10
-15.03358327881042
 20
-40.607739645314929
 30
0.0
  0
VERTEX
  5
148A
  8
0
  6
CONTINUOUS
 10
-15.03358327881042
 20
-40.607739645314929
 30
0.0
  0
VERTEX
  5
148B
  8
0
  6
CONTINUOUS
 10
-13.66608963120162
 20
-19.390820070701452
 30
0.0
  0
VERTEX
  5
148C
  8
0
  6
CONTINUOUS
 10
-12.49999999999997
 20
-0.7000000000000007
 30
0.0
  0
SEQEND
  5
148D
  8
0
  6
CONTINUOUS
  0
LINE
  5
407
  8
0
  6
CONTINUOUS
 10
-78.749999999999972
 20
-0.0000000000000004
 30
0.0
 11
-78.749999999999972
 21
-0.7000000000000007
 31
0.0
  0
POINT
  5
408
  8
0
  6
CONTINUOUS
 10
-62.499999999999957
 20
-0.0000000000000004
 30
0.0
  0
POLYLINE
  5
409
  8
0
  6
CONTINUOUS
 66
     1
 10
0.0
 20
0.0
 30
0.0
  0
VERTEX
  5
148E
  8
0
  6
CONTINUOUS
 10
12.500000000000011
 20
-0.7000000000000007
 30
0.0
  0
VERTEX
  5
148F
  8
0
  6
CONTINUOUS
 10
11.368099073896319
 20
-19.536549552962171
 30
0.0
  0
VERTEX
  5
1490
  8
0
  6
CONTINUOUS
 10
9.3829807086637746
 20
-47.328897546577807
 30
0.0
  0
VERTEX
  5
1491
  8
0
  6
CONTINUOUS
 10
9.3829807086637746
 20
-47.328897546577807
 30
0.0
  0
VERTEX
  5
1492
  8
0
  6
CONTINUOUS
 10
8.7592483048498089
 20
-55.103890910881368
 30
0.0
  0
VERTEX
  5
1493
  8
0
  6
CONTINUOUS
 10
8.071325883731804
 20
-62.74084173953954
 30
0.0
  0
VERTEX
  5
1494
  8
0
  6
CONTINUOUS
 10
8.071325883731804
 20
-62.74084173953954
 30
0.0
  0
VERTEX
  5
1495
  8
0
  6
CONTINUOUS
 10
7.3390456573270813
 20
-69.480641672648503
 30
0.0
  0
VERTEX
  5
1496
  8
0
  6
CONTINUOUS
 10
6.5957142056822322
 20
-75.201562576401088
 30
0.0
  0
VERTEX
  5
1497
  8
0
  6
CONTINUOUS
 10
6.5957142056822322
 20
-75.201562576401088
 30
0.0
  0
VERTEX
  5
1498
  8
0
  6
CONTINUOUS
 10
5.8856893340839243
 20
-79.939981867484775
 30
0.0
  0
VERTEX
  5
1499
  8
0
  6
CONTINUOUS
 10
5.2840593807491292
 20
-83.727318938466652
 30
0.0
  0
VERTEX
  5
149A
  8
0
  6
CONTINUOUS
 10
5.2840593807491292
 20
-83.727318938466652
 30
0.0
  0
VERTEX
  5
149B
  8
0
  6
CONTINUOUS
 10
4.737023158991823
 20
-86.685301923153716
 30
0.0
  0
VERTEX
  5
149C
  8
0
  6
CONTINUOUS
 10
4.3049853888289444
 20
-88.000039218583808
 30
0.0
  0
VERTEX
  5
149D
  8
0
  6
CONTINUOUS
 10
3.6444908495821182
 20
-89.301851944430808
 30
0.0
  0
VERTEX
  5
149E
  8
0
  6
CONTINUOUS
 10
3.6444908495821182
 20
-89.301851944430808
 30
0.0
  0
VERTEX
  5
149F
  8
0
  6
CONTINUOUS
 10
2.9409413234604509
 20
-90.282454785124926
 30
0.0
  0
VERTEX
  5
14A0
  8
0
  6
CONTINUOUS
 10
1.6770086121835159
 20
-91.597247888064473
 30
0.0
  0
VERTEX
  5
14A1
  8
0
  6
CONTINUOUS
 10
1.6770086121835159
 20
-91.597247888064473
 30
0.0
  0
VERTEX
  5
14A2
  8
0
  6
CONTINUOUS
 10
0.8829192120489535
 20
-92.258870557593511
 30
0.0
  0
VERTEX
  5
14A3
  8
0
  6
CONTINUOUS
 10
0.4470114692691354
 20
-92.490936498284213
 30
0.0
  0
VERTEX
  5
14A4
  8
0
  6
CONTINUOUS
 10
0.0000000000000213
 20
-92.580989006763787
 30
0.0
  0
VERTEX
  5
14A5
  8
0
  6
CONTINUOUS
 10
0.0000000000000213
 20
-92.580989006763787
 30
0.0
  0
VERTEX
  5
14A6
  8
0
  6
CONTINUOUS
 10
-0.447011469269093
 20
-92.490936498284213
 30
0.0
  0
VERTEX
  5
14A7
  8
0
  6
CONTINUOUS
 10
-0.8829192120488539
 20
-92.258870557593497
 30
0.0
  0
VERTEX
  5
14A8
  8
0
  6
CONTINUOUS
 10
-1.6770086121834751
 20
-91.597247888064473
 30
0.0
  0
VERTEX
  5
14A9
  8
0
  6
CONTINUOUS
 10
-1.6770086121834751
 20
-91.597247888064473
 30
0.0
  0
VERTEX
  5
14AA
  8
0
  6
CONTINUOUS
 10
-2.9409413234604109
 20
-90.282454785124784
 30
0.0
  0
VERTEX
  5
14AB
  8
0
  6
CONTINUOUS
 10
-3.6444908495820161
 20
-89.301851944430808
 30
0.0
  0
VERTEX
  5
14AC
  8
0
  6
CONTINUOUS
 10
-3.6444908495820161
 20
-89.301851944430808
 30
0.0
  0
VERTEX
  5
14AD
  8
0
  6
CONTINUOUS
 10
-4.3049853888289027
 20
-88.000039218583808
 30
0.0
  0
VERTEX
  5
14AE
  8
0
  6
CONTINUOUS
 10
-4.7370231589917822
 20
-86.685301923153716
 30
0.0
  0
VERTEX
  5
14AF
  8
0
  6
CONTINUOUS
 10
-5.2840593807490892
 20
-83.727318938466652
 30
0.0
  0
VERTEX
  5
14B0
  8
0
  6
CONTINUOUS
 10
-5.2840593807490892
 20
-83.727318938466652
 30
0.0
  0
VERTEX
  5
14B1
  8
0
  6
CONTINUOUS
 10
-5.8856893340838798
 20
-79.939981867484775
 30
0.0
  0
VERTEX
  5
14B2
  8
0
  6
CONTINUOUS
 10
-6.5957142056822491
 20
-75.201562576401088
 30
0.0
  0
VERTEX
  5
14B3
  8
0
  6
CONTINUOUS
 10
-6.5957142056822491
 20
-75.201562576401088
 30
0.0
  0
VERTEX
  5
14B4
  8
0
  6
CONTINUOUS
 10
-7.3390456573270351
 20
-69.480641672648503
 30
0.0
  0
VERTEX
  5
14B5
  8
0
  6
CONTINUOUS
 10
-8.0713258837317667
 20
-62.74084173953954
 30
0.0
  0
VERTEX
  5
14B6
  8
0
  6
CONTINUOUS
 10
-8.0713258837317667
 20
-62.74084173953954
 30
0.0
  0
VERTEX
  5
14B7
  8
0
  6
CONTINUOUS
 10
-8.759248304849768
 20
-55.103890910881368
 30
0.0
  0
VERTEX
  5
14B8
  8
0
  6
CONTINUOUS
 10
-9.3829807086637906
 20
-47.328897546577807
 30
0.0
  0
VERTEX
  5
14B9
  8
0
  6
CONTINUOUS
 10
-9.3829807086637906
 20
-47.328897546577807
 30
0.0
  0
VERTEX
  5
14BA
  8
0
  6
CONTINUOUS
 10
-11.36809907389627
 20
-19.536549552962171
 30
0.0
  0
VERTEX
  5
14BB
  8
0
  6
CONTINUOUS
 10
-12.49999999999997
 20
-0.7000000000000007
 30
0.0
  0
SEQEND
  5
14BC
  8
0
  6
CONTINUOUS
  0
POLYLINE
  5
418
  8
0
  6
CONTINUOUS
 66
     1
 10
0.0
 20
0.0
 30
0.0
  0
VERTEX
  5
14BD
  8
0
  6
CONTINUOUS
 10
12.500000000000011
 20
-0.7000000000000007
 30
0.0
  0
VERTEX
  5
14BE
  8
0
  6
CONTINUOUS
 10
11.23309328160526
 20
-9.5541378568350392
 30
0.0
  0
VERTEX
  5
14BF
  8
0
  6
CONTINUOUS
 10
11.23309328160526
 20
-9.5541378568350392
 30
0.0
  0
VERTEX
  5
14C0
  8
0
  6
CONTINUOUS
 10
11.23309328160526
 20
-9.5541378568350392
 30
0.0
  0
VERTEX
  5
14C1
  8
0
  6
CONTINUOUS
 10
10.02926938587167
 20
-18.582817074834612
 30
0.0
  0
VERTEX
  5
14C2
  8
0
  6
CONTINUOUS
 10
10.02926938587167
 20
-18.582817074834612
 30
0.0
  0
VERTEX
  5
14C3
  8
0
  6
CONTINUOUS
 10
10.02926938587167
 20
-18.582817074834612
 30
0.0
  0
VERTEX
  5
14C4
  8
0
  6
CONTINUOUS
 10
10.02926938587167
 20
-18.582817074834612
 30
0.0
  0
VERTEX
  5
14C5
  8
0
  6
CONTINUOUS
 10
8.5244895162054117
 20
-27.009584344967891
 30
0.0
  0
VERTEX
  5
14C6
  8
0
  6
CONTINUOUS
 10
8.5244895162054117
 20
-27.009584344967891
 30
0.0
  0
VERTEX
  5
14C7
  8
0
  6
CONTINUOUS
 10
7.8076078838527874
 20
-30.834126910605729
 30
0.0
  0
VERTEX
  5
14C8
  8
0
  6
CONTINUOUS
 10
6.9193909885609832
 20
-34.633802351279492
 30
0.0
  0
VERTEX
  5
14C9
  8
0
  6
CONTINUOUS
 10
6.9193909885609832
 20
-34.633802351279492
 30
0.0
  0
VERTEX
  5
14CA
  8
0
  6
CONTINUOUS
 10
5.7011878777028251
 20
-38.51005534372603
 30
0.0
  0
VERTEX
  5
14CB
  8
0
  6
CONTINUOUS
 10
4.5117431970948232
 20
-41.656108409721391
 30
0.0
  0
VERTEX
  5
14CC
  8
0
  6
CONTINUOUS
 10
4.5117431970948232
 20
-41.656108409721391
 30
0.0
  0
VERTEX
  5
14CD
  8
0
  6
CONTINUOUS
 10
3.5681846720782642
 20
-43.594109365581382
 30
0.0
  0
VERTEX
  5
14CE
  8
0
  6
CONTINUOUS
 10
2.003776747650384
 20
-46.070129360742897
 30
0.0
  0
VERTEX
  5
14CF
  8
0
  6
CONTINUOUS
 10
2.003776747650384
 20
-46.070129360742897
 30
0.0
  0
VERTEX
  5
14D0
  8
0
  6
CONTINUOUS
 10
1.0628463863245861
 20
-47.400287113159777
 30
0.0
  0
VERTEX
  5
14D1
  8
0
  6
CONTINUOUS
 10
0.5390429447247344
 20
-47.885620903857379
 30
0.0
  0
VERTEX
  5
14D2
  8
0
  6
CONTINUOUS
 10
0.0000000000000213
 20
-48.07650252029822
 30
0.0
  0
VERTEX
  5
14D3
  8
0
  6
CONTINUOUS
 10
0.0000000000000213
 20
-48.07650252029822
 30
0.0
  0
VERTEX
  5
14D4
  8
0
  6
CONTINUOUS
 10
-0.5390429447246916
 20
-47.885620903857379
 30
0.0
  0
VERTEX
  5
14D5
  8
0
  6
CONTINUOUS
 10
-1.0628463863245421
 20
-47.400287113159777
 30
0.0
  0
VERTEX
  5
14D6
  8
0
  6
CONTINUOUS
 10
-2.0037767476503401
 20
-46.070129360742897
 30
0.0
  0
VERTEX
  5
14D7
  8
0
  6
CONTINUOUS
 10
-2.0037767476503401
 20
-46.070129360742897
 30
0.0
  0
VERTEX
  5
14D8
  8
0
  6
CONTINUOUS
 10
-3.568184672078166
 20
-43.594109365581382
 30
0.0
  0
VERTEX
  5
14D9
  8
0
  6
CONTINUOUS
 10
-4.5117431970947779
 20
-41.656108409721391
 30
0.0
  0
VERTEX
  5
14DA
  8
0
  6
CONTINUOUS
 10
-4.5117431970947779
 20
-41.656108409721391
 30
0.0
  0
VERTEX
  5
14DB
  8
0
  6
CONTINUOUS
 10
-5.7011878777027798
 20
-38.51005534372603
 30
0.0
  0
VERTEX
  5
14DC
  8
0
  6
CONTINUOUS
 10
-6.919390988560937
 20
-34.633802351279492
 30
0.0
  0
VERTEX
  5
14DD
  8
0
  6
CONTINUOUS
 10
-6.919390988560937
 20
-34.633802351279492
 30
0.0
  0
VERTEX
  5
14DE
  8
0
  6
CONTINUOUS
 10
-7.8076078838527421
 20
-30.834126910605729
 30
0.0
  0
VERTEX
  5
14DF
  8
0
  6
CONTINUOUS
 10
-9.287163610960226
 20
-22.908039451131451
 30
0.0
  0
VERTEX
  5
14E0
  8
0
  6
CONTINUOUS
 10
-9.287163610960226
 20
-22.908039451131451
 30
0.0
  0
VERTEX
  5
14E1
  8
0
  6
CONTINUOUS
 10
-9.287163610960226
 20
-22.908039451131451
 30
0.0
  0
VERTEX
  5
14E2
  8
0
  6
CONTINUOUS
 10
-10.029269385871631
 20
-18.582817074834612
 30
0.0
  0
VERTEX
  5
14E3
  8
0
  6
CONTINUOUS
 10
-10.029269385871631
 20
-18.582817074834612
 30
0.0
  0
VERTEX
  5
14E4
  8
0
  6
CONTINUOUS
 10
-10.029269385871631
 20
-18.582817074834612
 30
0.0
  0
VERTEX
  5
14E5
  8
0
  6
CONTINUOUS
 10
-11.23309328160528
 20
-9.5541378568350392
 30
0.0
  0
VERTEX
  5
14E6
  8
0
  6
CONTINUOUS
 10
-11.23309328160528
 20
-9.5541378568350392
 30
0.0
  0
VERTEX
  5
14E7
  8
0
  6
CONTINUOUS
 10
-11.23309328160528
 20
-9.5541378568350392
 30
0.0
  0
VERTEX
  5
14E8
  8
0
  6
CONTINUOUS
 10
-12.49999999999997
 20
-0.7000000000000007
 30
0.0
  0
SEQEND
  5
14E9
  8
0
  6
CONTINUOUS
  0
POLYLINE
  5
419
  8
0
  6
CONTINUOUS
 66
     1
 10
0.0
 20
0.0
 30
0.0
  0
VERTEX
  5
14EA
  8
0
  6
CONTINUOUS
 10
12.500000000000011
 20
-0.7000000000000007
 30
0.0
  0
VERTEX
  5
14EB
  8
0
  6
CONTINUOUS
 10
10.430544017782511
 20
-6.9458527494123219
 30
0.0
  0
VERTEX
  5
14EC
  8
0
  6
CONTINUOUS
 10
10.430544017782511
 20
-6.9458527494123219
 30
0.0
  0
VERTEX
  5
14ED
  8
0
  6
CONTINUOUS
 10
10.430544017782511
 20
-6.9458527494123219
 30
0.0
  0
VERTEX
  5
14EE
  8
0
  6
CONTINUOUS
 10
9.4230103367144302
 20
-10.084710382128369
 30
0.0
  0
VERTEX
  5
14EF
  8
0
  6
CONTINUOUS
 10
9.4230103367144302
 20
-10.084710382128369
 30
0.0
  0
VERTEX
  5
14F0
  8
0
  6
CONTINUOUS
 10
9.4230103367144302
 20
-10.084710382128369
 30
0.0
  0
VERTEX
  5
14F1
  8
0
  6
CONTINUOUS
 10
7.4211529441821131
 20
-14.86269464021972
 30
0.0
  0
VERTEX
  5
14F2
  8
0
  6
CONTINUOUS
 10
7.4211529441821131
 20
-14.86269464021972
 30
0.0
  0
VERTEX
  5
14F3
  8
0
  6
CONTINUOUS
 10
7.4211529441821131
 20
-14.86269464021972
 30
0.0
  0
VERTEX
  5
14F4
  8
0
  6
CONTINUOUS
 10
5.418283557257511
 20
-18.135732236277011
 30
0.0
  0
VERTEX
  5
14F5
  8
0
  6
CONTINUOUS
 10
5.418283557257511
 20
-18.135732236277011
 30
0.0
  0
VERTEX
  5
14F6
  8
0
  6
CONTINUOUS
 10
5.418283557257511
 20
-18.135732236277011
 30
0.0
  0
VERTEX
  5
14F7
  8
0
  6
CONTINUOUS
 10
3.3808397079123611
 20
-20.90616147288705
 30
0.0
  0
VERTEX
  5
14F8
  8
0
  6
CONTINUOUS
 10
2.3047327215840792
 20
-21.993651446077848
 30
0.0
  0
VERTEX
  5
14F9
  8
0
  6
CONTINUOUS
 10
2.3047327215840792
 20
-21.993651446077848
 30
0.0
  0
VERTEX
  5
14FA
  8
0
  6
CONTINUOUS
 10
1.1695344479445191
 20
-22.72779052930256
 30
0.0
  0
VERTEX
  5
14FB
  8
0
  6
CONTINUOUS
 10
0.0000000000000213
 20
-22.996838025857301
 30
0.0
  0
VERTEX
  5
14FC
  8
0
  6
CONTINUOUS
 10
0.0000000000000213
 20
-22.996838025857301
 30
0.0
  0
VERTEX
  5
14FD
  8
0
  6
CONTINUOUS
 10
-1.1695344479444749
 20
-22.72779052930256
 30
0.0
  0
VERTEX
  5
14FE
  8
0
  6
CONTINUOUS
 10
-2.304732721584092
 20
-21.993651446077848
 30
0.0
  0
VERTEX
  5
14FF
  8
0
  6
CONTINUOUS
 10
-2.304732721584092
 20
-21.993651446077848
 30
0.0
  0
VERTEX
  5
1500
  8
0
  6
CONTINUOUS
 10
-3.3808397079123762
 20
-20.90616147288705
 30
0.0
  0
VERTEX
  5
1501
  8
0
  6
CONTINUOUS
 10
-4.4114245391176361
 20
-19.586003654612849
 30
0.0
  0
VERTEX
  5
1502
  8
0
  6
CONTINUOUS
 10
-4.4114245391176361
 20
-19.586003654612849
 30
0.0
  0
VERTEX
  5
1503
  8
0
  6
CONTINUOUS
 10
-6.4177976986729632
 20
-16.576443915279341
 30
0.0
  0
VERTEX
  5
1504
  8
0
  6
CONTINUOUS
 10
-6.4177976986729632
 20
-16.576443915279341
 30
0.0
  0
VERTEX
  5
1505
  8
0
  6
CONTINUOUS
 10
-6.4177976986729632
 20
-16.576443915279341
 30
0.0
  0
VERTEX
  5
1506
  8
0
  6
CONTINUOUS
 10
-8.4241708582271482
 20
-12.764334912122919
 30
0.0
  0
VERTEX
  5
1507
  8
0
  6
CONTINUOUS
 10
-8.4241708582271482
 20
-12.764334912122919
 30
0.0
  0
VERTEX
  5
1508
  8
0
  6
CONTINUOUS
 10
-8.4241708582271482
 20
-12.764334912122919
 30
0.0
  0
VERTEX
  5
1509
  8
0
  6
CONTINUOUS
 10
-8.4241708582271482
 20
-12.764334912122919
 30
0.0
  0
VERTEX
  5
150A
  8
0
  6
CONTINUOUS
 10
-10.430544017782459
 20
-6.9458527494123219
 30
0.0
  0
VERTEX
  5
150B
  8
0
  6
CONTINUOUS
 10
-10.430544017782459
 20
-6.9458527494123219
 30
0.0
  0
VERTEX
  5
150C
  8
0
  6
CONTINUOUS
 10
-10.430544017782459
 20
-6.9458527494123219
 30
0.0
  0
VERTEX
  5
150D
  8
0
  6
CONTINUOUS
 10
-12.49999999999997
 20
-0.7000000000000007
 30
0.0
  0
SEQEND
  5
150E
  8
0
  6
CONTINUOUS
  0
POINT
  5
41A
  8
0
  6
CONTINUOUS
 10
-12.49999999999997
 20
-0.0000000000000004
 30
0.0
  0
POINT
  5
41B
  8
0
  6
CONTINUOUS
 10
-12.49999999999997
 20
-0.0000000000000004
 30
0.0
  0
POINT
  5
41C
  8
0
  6
CONTINUOUS
 10
-12.49999999999997
 20
-0.0000000000000004
 30
0.0
  0
POINT
  5
41D
  8
0
  6
CONTINUOUS
 10
-12.49999999999997
 20
-0.0021903049312191
 30
0.0
  0
POINT
  5
436
  8
0
  6
CONTINUOUS
 10
-11.23309328160528
 20
-9.5541378568350392
 30
0.0
  0
POINT
  5
437
  8
0
  6
CONTINUOUS
 10
-10.430544017782459
 20
-6.9458527494123219
 30
0.0
  0
LINE
  5
438
  8
0
  6
CONTINUOUS
 10
-0.0000000000000355
 20
5.0
 30
0.0
 11
-0.0000000000000355
 21
-5.0
 31
0.0
  0
POINT
  5
439
  8
0
  6
CONTINUOUS
 10
12.500000000000011
 20
-0.0000000000000004
 30
0.0
  0
POINT
  5
43A
  8
0
  6
CONTINUOUS
 10
12.500000000000011
 20
-0.0000000000000004
 30
0.0
  0
POINT
  5
43B
  8
0
  6
CONTINUOUS
 10
12.500000000000011
 20
-0.0000000000000004
 30
0.0
  0
POINT
  5
43C
  8
0
  6
CONTINUOUS
 10
12.500000000000011
 20
-0.0021903049312191
 30
0.0
  0
POINT
  5
43D
  8
0
  6
CONTINUOUS
 10
10.430544017782511
 20
-6.9458527494123219
 30
0.0
  0
POINT
  5
43E
  8
0
  6
CONTINUOUS
 10
11.23309328160526
 20
-9.5541378568350392
 30
0.0
  0
TEXT
  5
440
  8
0
  6
CONTINUOUS
 10
25.818147833604211
 20
-75.163269544215552
 30
0.0
 40
10.0
  1
2m/s
 50
0.0000025044781673
 41
0.5833333271245161
  7
STANDARD1
  0
POINT
  5
446
  8
0
  6
CONTINUOUS
 10
62.499999999999957
 20
-0.0000000000000004
 30
0.0
  0
POINT
  5
447
  8
0
  6
CONTINUOUS
 10
62.499999999999957
 20
-0.0000000000000004
 30
0.0
  0
POINT
  5
448
  8
0
  6
CONTINUOUS
 10
62.499999999999957
 20
-0.0000000000000004
 30
0.0
  0
LINE
  5
449
  8
0
  6
CONTINUOUS
 10
78.749999999999972
 20
-0.0000000000000004
 30
0.0
 11
78.749999999999972
 21
-0.7000000000000007
 31
0.0
  0
LINE
  5
6EF
  8
0
  6
CONTINUOUS
 10
77.749999999999972
 20
19.299999999999969
 30
0.0
 11
-77.750000000000028
 21
19.299999999999969
 31
0.0
  0
LINE
  5
6F0
  8
0
  6
CONTINUOUS
 10
-77.750000000000028
 20
19.299999999999969
 30
0.0
 11
-77.750000000000028
 21
-0.0000000000000004
 31
0.0
  0
LINE
  5
6F1
  8
0
  6
CONTINUOUS
 10
77.749999999999972
 20
19.299999999999969
 30
0.0
 11
77.749999999999972
 21
-0.0000000000000004
 31
0.0
  0
POLYLINE
  5
7AD
  8
0
  6
CONTINUOUS
 66
     1
 10
0.0
 20
0.0
 30
0.0
  0
VERTEX
  5
18AD
  8
0
  6
CONTINUOUS
 10
-62.499999999999851
 20
-0.7000000000023193
 30
0.0
  0
VERTEX
  5
18AE
  8
0
  6
CONTINUOUS
 10
-70.293182004211289
 20
-180.3716681208717
 30
0.0
  0
VERTEX
  5
18AF
  8
0
  6
CONTINUOUS
 10
-77.50628225051129
 20
-325.61558401726319
 30
0.0
  0
VERTEX
  5
18B0
  8
0
  6
CONTINUOUS
 10
-84.645648139874652
 20
-442.42637159575168
 30
0.0
  0
VERTEX
  5
18B1
  8
0
  6
CONTINUOUS
 10
-88.855615191717263
 20
-508.77918382218422
 30
0.0
  0
VERTEX
  5
18B2
  8
0
  6
CONTINUOUS
 10
-93.368072311026992
 20
-596.33911075660967
 30
0.0
  0
VERTEX
  5
18B3
  8
0
  6
CONTINUOUS
 10
-95.450992324700934
 20
-652.20502903446697
 30
0.0
  0
VERTEX
  5
18B4
  8
0
  6
CONTINUOUS
 10
-96.095708742216317
 20
-714.39096865858028
 30
0.0
  0
VERTEX
  5
18B5
  8
0
  6
CONTINUOUS
 10
-94.849005131733477
 20
-756.74991757921771
 30
0.0
  0
VERTEX
  5
18B6
  8
0
  6
CONTINUOUS
 10
-93.576827918056054
 20
-790.13316666342655
 30
0.0
  0
VERTEX
  5
18B7
  8
0
  6
CONTINUOUS
 10
-92.349916782181225
 20
-829.46055943472015
 30
0.0
  0
VERTEX
  5
18B8
  8
0
  6
CONTINUOUS
 10
-89.206057333764704
 20
-859.28460979627641
 30
0.0
  0
VERTEX
  5
18B9
  8
0
  6
CONTINUOUS
 10
-85.415701628944419
 20
-879.1195355135377
 30
0.0
  0
VERTEX
  5
18BA
  8
0
  6
CONTINUOUS
 10
-79.468806215525191
 20
-902.25640245608156
 30
0.0
  0
VERTEX
  5
18BB
  8
0
  6
CONTINUOUS
 10
-74.789246920955662
 20
-917.81212476595203
 30
0.0
  0
VERTEX
  5
18BC
  8
0
  6
CONTINUOUS
 10
-67.636935711195292
 20
-939.86093351277941
 30
0.0
  0
VERTEX
  5
18BD
  8
0
  6
CONTINUOUS
 10
-64.641897973406572
 20
-949.30636034454949
 30
0.0
  0
VERTEX
  5
18BE
  8
0
  6
CONTINUOUS
 10
-62.300397419076383
 20
-955.54540954305878
 30
0.0
  0
VERTEX
  5
18BF
  8
0
  6
CONTINUOUS
 10
-57.613976454718767
 20
-967.42687220905543
 30
0.0
  0
VERTEX
  5
18C0
  8
0
  6
CONTINUOUS
 10
-52.127893694805032
 20
-979.07269871897631
 30
0.0
  0
VERTEX
  5
18C1
  8
0
  6
CONTINUOUS
 10
-48.49841844416131
 20
-985.02031216716421
 30
0.0
  0
VERTEX
  5
18C2
  8
0
  6
CONTINUOUS
 10
-45.667429995772537
 20
-987.99411889125781
 30
0.0
  0
VERTEX
  5
18C3
  8
0
  6
CONTINUOUS
 10
-40.078043186592737
 20
-992.92628619875813
 30
0.0
  0
VERTEX
  5
18C4
  8
0
  6
CONTINUOUS
 10
-33.980529925548971
 20
-996.26275259726185
 30
0.0
  0
VERTEX
  5
18C5
  8
0
  6
CONTINUOUS
 10
-30.641415025296212
 20
-997.64085841235931
 30
0.0
  0
VERTEX
  5
18C6
  8
0
  6
CONTINUOUS
 10
-27.30230012504391
 20
-998.51124115711275
 30
0.0
  0
VERTEX
  5
18C7
  8
0
  6
CONTINUOUS
 10
-18.19790352839156
 20
-999.58464395066073
 30
0.0
  0
VERTEX
  5
18C8
  8
0
  6
CONTINUOUS
 10
-6.2163109159957672
 20
-999.89383199972735
 30
0.0
  0
VERTEX
  5
18C9
  8
0
  6
CONTINUOUS
 10
6.2163109159958001
 20
-999.89383199972735
 30
0.0
  0
VERTEX
  5
18CA
  8
0
  6
CONTINUOUS
 10
18.197903528391581
 20
-999.58464395066073
 30
0.0
  0
VERTEX
  5
18CB
  8
0
  6
CONTINUOUS
 10
23.963185224791609
 20
-999.38162390186631
 30
0.0
  0
VERTEX
  5
18CC
  8
0
  6
CONTINUOUS
 10
30.641415025296251
 20
-997.64085841235931
 30
0.0
  0
VERTEX
  5
18CD
  8
0
  6
CONTINUOUS
 10
33.980529925549
 20
-996.26275259726185
 30
0.0
  0
VERTEX
  5
18CE
  8
0
  6
CONTINUOUS
 10
40.078043186592772
 20
-992.92628619875813
 30
0.0
  0
VERTEX
  5
18CF
  8
0
  6
CONTINUOUS
 10
48.498418444161359
 20
-985.02031216716421
 30
0.0
  0
VERTEX
  5
18D0
  8
0
  6
CONTINUOUS
 10
52.127893694805103
 20
-979.07269871897631
 30
0.0
  0
VERTEX
  5
18D1
  8
0
  6
CONTINUOUS
 10
57.613976454718802
 20
-967.42687220905543
 30
0.0
  0
VERTEX
  5
18D2
  8
0
  6
CONTINUOUS
 10
64.641897973406643
 20
-949.30636034454949
 30
0.0
  0
VERTEX
  5
18D3
  8
0
  6
CONTINUOUS
 10
67.636935711195378
 20
-939.86093351277941
 30
0.0
  0
VERTEX
  5
18D4
  8
0
  6
CONTINUOUS
 10
74.789246920955563
 20
-917.81212476595203
 30
0.0
  0
VERTEX
  5
18D5
  8
0
  6
CONTINUOUS
 10
80.88765901793326
 20
-897.28236324915065
 30
0.0
  0
VERTEX
  5
18D6
  8
0
  6
CONTINUOUS
 10
85.415701628944504
 20
-879.1195355135377
 30
0.0
  0
VERTEX
  5
18D7
  8
0
  6
CONTINUOUS
 10
88.616642880817793
 20
-862.98867160886755
 30
0.0
  0
VERTEX
  5
18D8
  8
0
  6
CONTINUOUS
 10
90.26461134354679
 20
-852.06767478429049
 30
0.0
  0
VERTEX
  5
18D9
  8
0
  6
CONTINUOUS
 10
91.736091276073694
 20
-838.6762583300482
 30
0.0
  0
VERTEX
  5
18DA
  8
0
  6
CONTINUOUS
 10
92.852148291701226
 20
-817.76180933638796
 30
0.0
  0
VERTEX
  5
18DB
  8
0
  6
CONTINUOUS
 10
94.849005131733477
 20
-756.74991757921771
 30
0.0
  0
VERTEX
  5
18DC
  8
0
  6
CONTINUOUS
 10
96.095708742216317
 20
-714.39096865858028
 30
0.0
  0
VERTEX
  5
18DD
  8
0
  6
CONTINUOUS
 10
96.069767384542345
 20
-680.66482277019452
 30
0.0
  0
VERTEX
  5
18DE
  8
0
  6
CONTINUOUS
 10
91.095657350916312
 20
-548.80482638040792
 30
0.0
  0
VERTEX
  5
18DF
  8
0
  6
CONTINUOUS
 10
80.747884318335068
 20
-382.16730252565719
 30
0.0
  0
VERTEX
  5
18E0
  8
0
  6
CONTINUOUS
 10
75.818160084858022
 20
-292.4490063624263
 30
0.0
  0
VERTEX
  5
18E1
  8
0
  6
CONTINUOUS
 10
69.038134912474078
 20
-153.5172099571331
 30
0.0
  0
VERTEX
  5
18E2
  8
0
  6
CONTINUOUS
 10
62.499999999999957
 20
-0.7000000000000007
 30
0.0
  0
SEQEND
  5
18E3
  8
0
  6
CONTINUOUS
  0
ENDSEC
  0
EOF
