  0
SECTION
  2
HEADER
  9
$ACADVER
  1
AC1009
  9
$INSBASE
 10
0.0
 20
0.0
 30
0.0
  9
$EXTMIN
 10
-746.19381637870902
 20
-9543.3630029777523
 30
-0.0015258207003583
  9
$EXTMAX
 10
970.5166432592232
 20
193.2739831139406
 30
0.0000000349246037
  9
$LIMMIN
 10
0.0
 20
0.0
  9
$LIMMAX
 10
12.0
 20
9.0
  9
$ORTHOMODE
 70
     0
  9
$REGENMODE
 70
     1
  9
$FILLMODE
 70
     1
  9
$QTEXTMODE
 70
     0
  9
$MIRRTEXT
 70
     0
  9
$DRAGMODE
 70
     2
  9
$LTSCALE
 40
1.0
  9
$OSMODE
 70
  3071
  9
$ATTMODE
 70
     1
  9
$TEXTSIZE
 40
3.2000000476837149
  9
$TRACEWID
 40
0.05
  9
$TEXTSTYLE
  7
STANDARD1
  9
$CLAYER
  8
0
  9
$CELTYPE
  6
CONTINUOUS
  9
$CECOLOR
 62
   256
  9
$DIMSCALE
 40
1.0
  9
$DIMASZ
 40
1.931851648807023
  9
$DIMEXO
 40
1.0
  9
$DIMDLI
 40
0.38
  9
$DIMRND
 40
0.0
  9
$DIMDLE
 40
0.0
  9
$DIMEXE
 40
2.0
  9
$DIMTP
 40
0.0
  9
$DIMTM
 40
0.0
  9
$DIMTXT
 40
2.0
  9
$DIMCEN
 40
0.09
  9
$DIMTSZ
 40
0.0
  9
$DIMTOL
 70
     0
  9
$DIMLIM
 70
     0
  9
$DIMTIH
 70
     1
  9
$DIMTOH
 70
     1
  9
$DIMSE1
 70
     0
  9
$DIMSE2
 70
     0
  9
$DIMTAD
 70
     1
  9
$DIMZIN
 70
     0
  9
$DIMBLK
  1

  9
$DIMASO
 70
     1
  9
$DIMSHO
 70
     1
  9
$DIMPOST
  1

  9
$DIMAPOST
  1

  9
$DIMALT
 70
     0
  9
$DIMALTD
 70
     2
  9
$DIMALTF
 40
25.399999999999999
  9
$DIMLFAC
 40
1.0
  9
$DIMTOFL
 70
     0
  9
$DIMTVP
 40
0.0
  9
$DIMTIX
 70
     0
  9
$DIMSOXD
 70
     0
  9
$DIMSAH
 70
     0
  9
$DIMBLK1
  1

  9
$DIMBLK2
  1

  9
$DIMSTYLE
  2
STANDARD
  9
$DIMCLRD
 70
     0
  9
$DIMCLRE
 70
     0
  9
$DIMCLRT
 70
     0
  9
$DIMTFAC
 40
0.625
  9
$DIMGAP
 40
0.09
  9
$LUNITS
 70
     2
  9
$LUPREC
 70
     3
  9
$SKETCHINC
 40
0.1
  9
$FILLETRAD
 40
0.0
  9
$AUNITS
 70
     0
  9
$AUPREC
 70
     0
  9
$MENU
  1
.
  9
$ELEVATION
 40
0.0
  9
$PELEVATION
 40
0.0
  9
$THICKNESS
 40
0.0
  9
$LIMCHECK
 70
     0
  9
$BLIPMODE
 70
     0
  9
$CHAMFERA
 40
0.0
  9
$CHAMFERB
 40
0.0
  9
$SKPOLY
 70
     0
  9
$TDCREATE
 40
2453297.5458544912
  9
$TDUPDATE
 40
2454284.5525594559
  9
$TDINDWG
 40
0.1015639583
  9
$TDUSRTIMER
 40
0.1015406944
  9
$USRTIMER
 70
     1
  9
$ANGBASE
 50
0.0
  9
$ANGDIR
 70
     0
  9
$PDMODE
 70
     0
  9
$PDSIZE
 40
0.0
  9
$PLINEWID
 40
0.0
  9
$COORDS
 70
     1
  9
$SPLFRAME
 70
     0
  9
$SPLINETYPE
 70
     6
  9
$SPLINESEGS
 70
     8
  9
$ATTDIA
 70
     0
  9
$ATTREQ
 70
     1
  9
$HANDLING
 70
     1
  9
$HANDSEED
  5
AA9
  9
$SURFTAB1
 70
     6
  9
$SURFTAB2
 70
     6
  9
$SURFTYPE
 70
     6
  9
$SURFU
 70
     6
  9
$SURFV
 70
     6
  9
$UCSNAME
  2

  9
$UCSORG
 10
0.0
 20
0.0
 30
0.0
  9
$UCSXDIR
 10
1.0
 20
0.0
 30
0.0
  9
$UCSYDIR
 10
0.0
 20
1.0
 30
0.0
  9
$PUCSNAME
  2

  9
$PUCSORG
 10
0.0
 20
0.0
 30
0.0
  9
$PUCSXDIR
 10
1.0
 20
0.0
 30
0.0
  9
$PUCSYDIR
 10
0.0
 20
1.0
 30
0.0
  9
$USERI1
 70
     0
  9
$USERI2
 70
     0
  9
$USERI3
 70
     0
  9
$USERI4
 70
     0
  9
$USERI5
 70
     0
  9
$USERR1
 40
0.0
  9
$USERR2
 40
0.0
  9
$USERR3
 40
0.0
  9
$USERR4
 40
0.0
  9
$USERR5
 40
0.0
  9
$WORLDVIEW
 70
     1
  9
$SHADEDGE
 70
     3
  9
$SHADEDIF
 70
    70
  9
$TILEMODE
 70
     1
  9
$MAXACTVP
 70
    64
  9
$PLIMCHECK
 70
     0
  9
$PEXTMIN
 10
1.0000000000000000E+020
 20
1.0000000000000000E+020
 30
1.0000000000000000E+020
  9
$PEXTMAX
 10
-1.0000000000000000E+020
 20
-1.0000000000000000E+020
 30
-1.0000000000000000E+020
  9
$PLIMMIN
 10
0.0
 20
0.0
  9
$PLIMMAX
 10
12.0
 20
9.0
  9
$UNITMODE
 70
     0
  9
$VISRETAIN
 70
     1
  9
$PLINEGEN
 70
     0
  9
$PSLTSCALE
 70
     1
  0
ENDSEC
  0
SECTION
  2
TABLES
  0
TABLE
  2
VPORT
 70
     1
  0
VPORT
  2
*ACTIVE
 70
     0
 10
0.0
 20
0.0
 11
1.0
 21
1.0
 12
112.16141344025711
 22
-4675.0445099319058
 13
0.0
 23
0.0
 14
1.0
 24
1.0
 15
0.0
 25
0.0
 16
0.0
 26
0.0
 36
1.0
 17
0.0
 27
0.0
 37
0.0
 40
9820.2132692341111
 41
1.6704871060171911
 42
50.0
 43
0.0
 44
0.0
 50
0.0
 51
0.0
 71
     0
 72
   100
 73
     1
 74
     1
 75
     0
 76
     0
 77
     0
 78
     0
  0
ENDTAB
  0
TABLE
  2
LTYPE
 70
     4
  0
LTYPE
  2
CONTINUOUS
 70
     0
  3
Solid line
 72
    65
 73
     0
 40
0.0
  0
LTYPE
  2
DASHED
 70
     0
  3
-- -- -- -- -- -- -- -- -- -- -- -- -- -- --
 72
    65
 73
     2
 40
0.75
 49
0.5
 49
-0.25
  0
LTYPE
  2
DASHDOT
 70
     0
  3
__ . __ . __ . __ . __ . __ . __ . __ . __ . __
 72
    65
 73
     4
 40
1.0
 49
0.5
 49
-0.25
 49
0.0
 49
-0.25
  0
LTYPE
  2
DIVIDE
 70
     0
  3
__ . . __ . . __ . . __ . . __ . . __ . . __
 72
    65
 73
     6
 40
1.25
 49
0.5
 49
-0.25
 49
0.0
 49
-0.25
 49
0.0
 49
-0.25
  0
ENDTAB
  0
TABLE
  2
LAYER
 70
     2
  0
LAYER
  2
0
 70
     0
 62
     7
  6
CONTINUOUS
  0
LAYER
  2
DEFPOINTS
 70
     0
 62
     7
  6
CONTINUOUS
  0
ENDTAB
  0
TABLE
  2
STYLE
 70
     5
  0
STYLE
  2
STANDARD
 70
     0
 40
0.0
 41
1.0
 50
0.0
 71
     0
 42
0.2
  3
txt
  4

  0
STYLE
  2
STANDARD1
 70
     0
 40
0.0
 41
1.0
 50
0.0
 71
     0
 42
3.2000000476837149
  3
MONOTXT
  4
BIGFONT
  0
STYLE
  2
STANDARD2
 70
     4
 40
0.0
 41
1.0
 50
0.0
 71
     0
 42
3.2000000476837149
  3
MONOTXT
  4
BIGFONT
  0
STYLE
  2
STANDARD3
 70
     0
 40
0.0
 41
1.0
 50
0.0
 71
     0
 42
3.2000000476837149
  3
MONOTXT
  4

  0
STYLE
  2
STANDARD4
 70
     4
 40
0.0
 41
1.0
 50
0.0
 71
     0
 42
3.2000000476837149
  3
MONOTXT
  4

  0
ENDTAB
  0
TABLE
  2
VIEW
 70
     0
  0
ENDTAB
  0
TABLE
  2
UCS
 70
     0
  0
ENDTAB
  0
TABLE
  2
APPID
 70
     1
  0
APPID
  2
ACAD
 70
     0
  0
ENDTAB
  0
TABLE
  2
DIMSTYLE
 70
     1
  0
DIMSTYLE
  2
STANDARD
 70
     0
  3

  4

  5

  6

  7

 40
1.0
 41
0.18
 42
0.0625
 43
0.38
 44
0.18
 45
0.0
 46
0.0
 47
0.0
 48
0.0
140
0.18
141
0.09
142
0.0
143
25.399999999999999
144
1.0
145
0.0
146
1.0
147
0.09
 71
     0
 72
     0
 73
     1
 74
     1
 75
     0
 76
     0
 77
     0
 78
     0
170
     0
171
     2
172
     0
173
     0
174
     0
175
     0
176
     0
177
     0
178
     0
  0
ENDTAB
  0
ENDSEC
  0
SECTION
  2
BLOCKS
  0
BLOCK
  8
0
  2
$MODEL_SPACE
 70
     0
 10
0.0
 20
0.0
 30
0.0
  3
$MODEL_SPACE
  1

  0
ENDBLK
  5
9A0
  8
0
  0
BLOCK
 67
     1
  8
0
  2
$PAPER_SPACE
 70
     0
 10
0.0
 20
0.0
 30
0.0
  3
$PAPER_SPACE
  1

  0
ENDBLK
  5
99C
 67
     1
  8
0
  0
BLOCK
  8
0
  2
*D2
 70
     1
 10
0.0
 20
0.0
 30
0.0
  3
*D2
  1

  0
LINE
  5
5CF
  8
0
  6
CONTINUOUS
 62
     0
 10
828.49533137712206
 20
-1586.6798851790079
 30
0.0
 11
828.49533137712206
 21
-1470.2961660154181
 31
0.0
  0
LINE
  5
5D0
  8
0
  6
CONTINUOUS
 62
     0
 10
2383.4953313771221
 20
-1586.6798851790079
 30
0.0
 11
2383.4953313771221
 21
-1470.2961660154181
 31
0.0
  0
LINE
  5
5D1
  8
0
  6
CONTINUOUS
 62
     0
 10
830.4271830259288
 20
-1472.2961660154181
 30
0.0
 11
2381.5634797283151
 21
-1472.2961660154181
 31
0.0
  0
SOLID
  5
5D2
  8
0
  6
CONTINUOUS
 62
     0
 10
830.4271830259288
 20
-1471.974190740616
 30
0.0
 11
830.4271830259288
 21
-1472.618141290219
 31
0.0
 12
828.49533137712206
 22
-1472.2961660154181
 32
0.0
 13
828.49533137712206
 23
-1472.2961660154181
 33
0.0
  0
SOLID
  5
5D3
  8
0
  6
CONTINUOUS
 62
     0
 10
2381.5634797283151
 20
-1471.974190740616
 30
0.0
 11
2381.5634797283151
 21
-1472.618141290219
 31
0.0
 12
2383.4953313771221
 22
-1472.2961660154181
 32
0.0
 13
2383.4953313771221
 23
-1472.2961660154181
 33
0.0
  0
INSERT
  5
5D4
  8
0
  6
CONTINUOUS
  2
*U3
 10
0.0
 20
0.0
 30
0.0
  0
POINT
  5
5D5
  8
DEFPOINTS
  6
CONTINUOUS
 62
     0
 10
828.49533137712206
 20
-1587.6798851790079
 30
0.0
  0
POINT
  5
5D6
  8
DEFPOINTS
  6
CONTINUOUS
 62
     0
 10
2383.4953313771221
 20
-1587.6798851790079
 30
0.0
  0
POINT
  5
5D7
  8
DEFPOINTS
  6
CONTINUOUS
 62
     0
 10
2383.4953313771221
 20
-1472.2961660154181
 30
0.0
  0
ENDBLK
  5
5CE
  8
0
  0
BLOCK
  8
0
  2
*U3
 70
     1
 10
0.0
 20
0.0
 30
0.0
  3
*U3
  1

  0
TEXT
  5
88B
  8
0
  6
CONTINUOUS
 62
     0
 10
1598.9953313771221
 20
-1472.2061660154179
 30
0.0
 40
2.0
  1
1555.0000
  0
ENDBLK
  5
88D
  8
0
  0
BLOCK
  8
0
  2
*D4
 70
     1
 10
0.0
 20
0.0
 30
0.0
  3
*D4
  1

  0
LINE
  5
5DA
  8
0
  6
CONTINUOUS
 62
     0
 10
828.49533137712251
 20
-1586.6798851790099
 30
0.0
 11
828.49533137712251
 21
-1458.931159396572
 31
0.0
  0
LINE
  5
5DB
  8
0
  6
CONTINUOUS
 62
     0
 10
2383.495331377123
 20
-1586.6798851790099
 30
0.0
 11
2383.495331377123
 21
-1458.931159396572
 31
0.0
  0
LINE
  5
5DC
  8
0
  6
CONTINUOUS
 62
     0
 10
830.42718302592925
 20
-1460.931159396572
 30
0.0
 11
2381.563479728316
 21
-1460.931159396572
 31
0.0
  0
SOLID
  5
5DD
  8
0
  6
CONTINUOUS
 62
     0
 10
830.42718302592925
 20
-1460.609184121771
 30
0.0
 11
830.42718302592925
 21
-1461.2531346713729
 31
0.0
 12
828.49533137712251
 22
-1460.931159396572
 32
0.0
 13
828.49533137712251
 23
-1460.931159396572
 33
0.0
  0
SOLID
  5
5DE
  8
0
  6
CONTINUOUS
 62
     0
 10
2381.563479728316
 20
-1460.609184121771
 30
0.0
 11
2381.563479728316
 21
-1461.2531346713729
 31
0.0
 12
2383.495331377123
 22
-1460.931159396572
 32
0.0
 13
2383.495331377123
 23
-1460.931159396572
 33
0.0
  0
INSERT
  5
5DF
  8
0
  6
CONTINUOUS
  2
*U5
 10
0.0
 20
0.0
 30
0.0
  0
POINT
  5
5E0
  8
DEFPOINTS
  6
CONTINUOUS
 62
     0
 10
828.49533137712251
 20
-1587.6798851790099
 30
0.0
  0
POINT
  5
5E1
  8
DEFPOINTS
  6
CONTINUOUS
 62
     0
 10
2383.495331377123
 20
-1587.6798851790099
 30
0.0
  0
POINT
  5
5E2
  8
DEFPOINTS
  6
CONTINUOUS
 62
     0
 10
2383.495331377123
 20
-1460.931159396572
 30
0.0
  0
ENDBLK
  5
5E4
  8
0
  0
BLOCK
  8
0
  2
*U5
 70
     1
 10
0.0
 20
0.0
 30
0.0
  3
*U5
  1

  0
TEXT
  5
88F
  8
0
  6
CONTINUOUS
 62
     0
 10
1598.995331377123
 20
-1460.841159396572
 30
0.0
 40
2.0
  1
1555.0000
  0
ENDBLK
  5
891
  8
0
  0
BLOCK
  8
0
  2
*D6
 70
     1
 10
0.0
 20
0.0
 30
0.0
  3
*D6
  1

  0
LINE
  5
7CE
  8
0
  6
CONTINUOUS
 62
     0
 10
5006.359663841271
 20
8154.5150147465956
 30
0.0
 11
5006.359663841271
 21
8296.982661582726
 31
0.0
  0
LINE
  5
7CF
  8
0
  6
CONTINUOUS
 62
     0
 10
4656.35966384127
 20
8154.5150147465956
 30
0.0
 11
4656.35966384127
 21
8296.982661582726
 31
0.0
  0
LINE
  5
7D0
  8
0
  6
CONTINUOUS
 62
     0
 10
5004.4278121924663
 20
8294.9826615827278
 30
0.0
 11
4658.2915154900784
 21
8294.9826615827278
 31
0.0
  0
SOLID
  5
7D1
  8
0
  6
CONTINUOUS
 62
     0
 10
5004.4278121924663
 20
8295.3046368575287
 30
0.0
 11
5004.4278121924663
 21
8294.6606863079287
 31
0.0
 12
5006.359663841271
 22
8294.9826615827278
 32
0.0
 13
5006.359663841271
 23
8294.9826615827278
 33
0.0
  0
SOLID
  5
7D2
  8
0
  6
CONTINUOUS
 62
     0
 10
4658.2915154900784
 20
8295.3046368575287
 30
0.0
 11
4658.2915154900784
 21
8294.6606863079287
 31
0.0
 12
4656.35966384127
 22
8294.9826615827278
 32
0.0
 13
4656.35966384127
 23
8294.9826615827278
 33
0.0
  0
INSERT
  5
7D3
  8
0
  6
CONTINUOUS
  2
*U7
 10
0.0
 20
0.0
 30
0.0
  0
POINT
  5
7D4
  8
DEFPOINTS
  6
CONTINUOUS
 62
     0
 10
5006.359663841271
 20
8153.5150147465929
 30
0.0
  0
POINT
  5
7D5
  8
DEFPOINTS
  6
CONTINUOUS
 62
     0
 10
4656.35966384127
 20
8153.5150147465929
 30
0.0
  0
POINT
  5
7D6
  8
DEFPOINTS
  6
CONTINUOUS
 62
     0
 10
4656.35966384127
 20
8294.9826615827278
 30
0.0
  0
ENDBLK
  5
7D8
  8
0
  0
BLOCK
  8
0
  2
*U7
 70
     1
 10
0.0
 20
0.0
 30
0.0
  3
*U7
  1

  0
TEXT
  5
893
  8
0
  6
CONTINUOUS
 62
     0
 10
4825.192997174604
 20
8295.0726615827261
 30
0.0
 40
2.0
  1
350.0000
  0
ENDBLK
  5
895
  8
0
  0
BLOCK
  8
0
  2
*D8
 70
     1
 10
0.0
 20
0.0
 30
0.0
  3
*D8
  1

  0
LINE
  5
7FA
  8
0
  6
CONTINUOUS
 62
     0
 10
4906.329663841273
 20
8350.2820836408955
 30
0.0
 11
4906.329663841273
 21
8388.8361443555841
 31
0.0
  0
LINE
  5
7FB
  8
0
  6
CONTINUOUS
 62
     0
 10
4656.35966384127
 20
8350.2820836408955
 30
0.0
 11
4656.35966384127
 21
8388.8361443555841
 31
0.0
  0
LINE
  5
7FC
  8
0
  6
CONTINUOUS
 62
     0
 10
4904.3978121924629
 20
8386.8361443555841
 30
0.0
 11
4658.2915154900784
 21
8386.8361443555841
 31
0.0
  0
SOLID
  5
7FD
  8
0
  6
CONTINUOUS
 62
     0
 10
4904.3978121924629
 20
8387.158119630385
 30
0.0
 11
4904.3978121924629
 21
8386.5141690807832
 31
0.0
 12
4906.329663841273
 22
8386.8361443555841
 32
0.0
 13
4906.329663841273
 23
8386.8361443555841
 33
0.0
  0
SOLID
  5
7FE
  8
0
  6
CONTINUOUS
 62
     0
 10
4658.2915154900784
 20
8387.158119630385
 30
0.0
 11
4658.2915154900784
 21
8386.5141690807832
 31
0.0
 12
4656.35966384127
 22
8386.8361443555841
 32
0.0
 13
4656.35966384127
 23
8386.8361443555841
 33
0.0
  0
INSERT
  5
7FF
  8
0
  6
CONTINUOUS
  2
*U9
 10
0.0
 20
0.0
 30
0.0
  0
POINT
  5
800
  8
DEFPOINTS
  6
CONTINUOUS
 62
     0
 10
4906.329663841273
 20
8349.2820836408937
 30
0.0
  0
POINT
  5
801
  8
DEFPOINTS
  6
CONTINUOUS
 62
     0
 10
4656.35966384127
 20
8349.2820836408937
 30
0.0
  0
POINT
  5
802
  8
DEFPOINTS
  6
CONTINUOUS
 62
     0
 10
4656.35966384127
 20
8386.8361443555841
 30
0.0
  0
ENDBLK
  5
804
  8
0
  0
BLOCK
  8
0
  2
*U9
 70
     1
 10
0.0
 20
0.0
 30
0.0
  3
*U9
  1

  0
TEXT
  5
897
  8
0
  6
CONTINUOUS
 62
     0
 10
4774.6779971746018
 20
8386.9261443555843
 30
0.0
 40
2.0
  1
249.9700
  0
ENDBLK
  5
899
  8
0
  0
BLOCK
  8
0
  2
*D10
 70
     1
 10
0.0
 20
0.0
 30
0.0
  3
*D10
  1

  0
LINE
  5
808
  8
0
  6
CONTINUOUS
 62
     0
 10
1.000000000001364
 20
-6.9991600000002991
 30
0.0
 11
1429.620110213446
 21
-6.9991600000007042
 31
0.0
  0
LINE
  5
809
  8
0
  6
CONTINUOUS
 62
     0
 10
2.256066120440662
 20
-9543.0659052007941
 30
0.0
 11
1429.6201102134439
 21
-9543.0659052007941
 31
0.0
  0
LINE
  5
80A
  8
0
  6
CONTINUOUS
 62
     0
 10
1427.620110213446
 20
-8.9310116488077291
 30
0.0
 11
1427.6201102134439
 21
-4773.9425326003957
 31
0.0
  0
LINE
  5
80B
  8
0
  6
CONTINUOUS
 62
     0
 10
1427.620110213443
 20
-9541.1340535519885
 30
0.0
 11
1427.6201102134439
 21
-4776.1225326003951
 31
0.0
  0
SOLID
  5
80C
  8
0
  6
CONTINUOUS
 62
     0
 10
1427.2981349386439
 20
-8.9310116488077291
 30
0.0
 11
1427.942085488246
 21
-8.9310116488077291
 31
0.0
 12
1427.620110213446
 22
-6.9991600000007042
 32
0.0
 13
1427.620110213446
 23
-6.9991600000007042
 33
0.0
  0
SOLID
  5
80D
  8
0
  6
CONTINUOUS
 62
     0
 10
1427.2981349386421
 20
-9541.1340535519885
 30
0.0
 11
1427.9420854882451
 21
-9541.1340535519885
 31
0.0
 12
1427.620110213443
 22
-9543.0659052007941
 32
0.0
 13
1427.620110213443
 23
-9543.0659052007941
 33
0.0
  0
INSERT
  5
80E
  8
0
  6
CONTINUOUS
  2
*U11
 10
0.0
 20
0.0
 30
0.0
  0
POINT
  5
80F
  8
DEFPOINTS
  6
CONTINUOUS
 62
     0
 10
0.0000000000013642
 20
-6.9991600000002991
 30
0.0
  0
POINT
  5
810
  8
DEFPOINTS
  6
CONTINUOUS
 62
     0
 10
1.256066120440664
 20
-9543.0659052007941
 30
0.0
  0
POINT
  5
811
  8
DEFPOINTS
  6
CONTINUOUS
 62
     0
 10
1427.620110213443
 20
-9543.0659052007941
 30
0.0
  0
ENDBLK
  5
813
  8
0
  0
BLOCK
  8
0
  2
*U11
 70
     1
 10
0.0
 20
0.0
 30
0.0
  3
*U11
  1

  0
TEXT
  5
89B
  8
0
  6
CONTINUOUS
 62
     0
 10
1419.786776880112
 20
-4776.0325326003949
 30
0.0
 40
2.0
  1
9536.0667
  0
ENDBLK
  5
89D
  8
0
  0
BLOCK
  8
0
  2
*D12
 70
     1
 10
0.0
 20
0.0
 30
0.0
  3
*D12
  1

  0
LINE
  5
822
  8
0
  6
CONTINUOUS
 62
     0
 10
124.9850000000006
 20
193.97683999999839
 30
0.0
 11
124.9850000000006
 21
339.9781400703651
 31
0.0
  0
LINE
  5
823
  8
0
  6
CONTINUOUS
 62
     0
 10
-124.9849999999997
 20
193.97683999999839
 30
0.0
 11
-124.9849999999997
 21
339.9781400703651
 31
0.0
  0
LINE
  5
824
  8
0
  6
CONTINUOUS
 62
     0
 10
123.0531483511936
 20
337.9781400703651
 30
0.0
 11
-123.0531483511926
 21
337.9781400703651
 31
0.0
  0
SOLID
  5
825
  8
0
  6
CONTINUOUS
 62
     0
 10
123.0531483511936
 20
338.3001153451662
 30
0.0
 11
123.0531483511936
 21
337.65616479556388
 31
0.0
 12
124.9850000000006
 22
337.9781400703651
 32
0.0
 13
124.9850000000006
 23
337.9781400703651
 33
0.0
  0
SOLID
  5
826
  8
0
  6
CONTINUOUS
 62
     0
 10
-123.0531483511926
 20
338.3001153451662
 30
0.0
 11
-123.0531483511926
 21
337.65616479556388
 31
0.0
 12
-124.9849999999997
 22
337.9781400703651
 32
0.0
 13
-124.9849999999997
 23
337.9781400703651
 33
0.0
  0
INSERT
  5
827
  8
0
  6
CONTINUOUS
  2
*U13
 10
0.0
 20
0.0
 30
0.0
  0
POINT
  5
828
  8
DEFPOINTS
  6
CONTINUOUS
 62
     0
 10
124.9850000000006
 20
192.97683999999839
 30
0.0
  0
POINT
  5
829
  8
DEFPOINTS
  6
CONTINUOUS
 62
     0
 10
-124.9849999999997
 20
192.97683999999839
 30
0.0
  0
POINT
  5
82A
  8
DEFPOINTS
  6
CONTINUOUS
 62
     0
 10
-124.9849999999997
 20
337.9781400703651
 30
0.0
  0
ENDBLK
  5
82C
  8
0
  0
BLOCK
  8
0
  2
*U13
 70
     1
 10
0.0
 20
0.0
 30
0.0
  3
*U13
  1

  0
TEXT
  5
89F
  8
0
  6
CONTINUOUS
 62
     0
 10
-6.6666666666662051
 20
338.06814007036508
 30
0.0
 40
2.0
  1
249.9700
  0
ENDBLK
  5
8A1
  8
0
  0
BLOCK
  8
0
  2
*D14
 70
     1
 10
0.0
 20
0.0
 30
0.0
  3
*D14
  1

  0
LINE
  5
82F
  8
0
  6
CONTINUOUS
 62
     0
 10
124.9850000000006
 20
193.97683999999839
 30
0.0
 11
124.9850000000006
 21
292.74745891413482
 31
0.0
  0
LINE
  5
830
  8
0
  6
CONTINUOUS
 62
     0
 10
-124.9849999999997
 20
193.97683999999839
 30
0.0
 11
-124.9849999999997
 21
292.74745891413482
 31
0.0
  0
LINE
  5
831
  8
0
  6
CONTINUOUS
 62
     0
 10
123.0531483511935
 20
290.74745891413482
 30
0.0
 11
-123.0531483511926
 21
290.74745891413482
 31
0.0
  0
SOLID
  5
832
  8
0
  6
CONTINUOUS
 62
     0
 10
123.0531483511935
 20
291.06943418893587
 30
0.0
 11
123.0531483511935
 21
290.42548363933361
 31
0.0
 12
124.9850000000006
 22
290.74745891413482
 32
0.0
 13
124.9850000000006
 23
290.74745891413482
 33
0.0
  0
SOLID
  5
833
  8
0
  6
CONTINUOUS
 62
     0
 10
-123.0531483511926
 20
291.06943418893587
 30
0.0
 11
-123.0531483511926
 21
290.42548363933361
 31
0.0
 12
-124.9849999999997
 22
290.74745891413482
 32
0.0
 13
-124.9849999999997
 23
290.74745891413482
 33
0.0
  0
INSERT
  5
834
  8
0
  6
CONTINUOUS
  2
*U15
 10
0.0
 20
0.0
 30
0.0
  0
POINT
  5
835
  8
DEFPOINTS
  6
CONTINUOUS
 62
     0
 10
124.9850000000006
 20
192.97683999999839
 30
0.0
  0
POINT
  5
836
  8
DEFPOINTS
  6
CONTINUOUS
 62
     0
 10
-124.9849999999997
 20
192.97683999999839
 30
0.0
  0
POINT
  5
837
  8
DEFPOINTS
  6
CONTINUOUS
 62
     0
 10
-124.9849999999997
 20
290.74745891413482
 30
0.0
  0
ENDBLK
  5
839
  8
0
  0
BLOCK
  8
0
  2
*U15
 70
     1
 10
0.0
 20
0.0
 30
0.0
  3
*U15
  1

  0
TEXT
  5
8A3
  8
0
  6
CONTINUOUS
 62
     0
 10
-6.6666666666662202
 20
290.83745891413469
 30
0.0
 40
2.0
  1
249.9700
  0
ENDBLK
  5
8A5
  8
0
  0
BLOCK
  8
0
  2
*D16
 70
     1
 10
0.0
 20
0.0
 30
0.0
  3
*D16
  1

  0
LINE
  5
83D
  8
0
  6
CONTINUOUS
 62
     0
 10
125.0
 20
193.97683999999839
 30
0.0
 11
125.0
 21
232.15230694708589
 31
0.0
  0
LINE
  5
83E
  8
0
  6
CONTINUOUS
 62
     0
 10
-124.9849999999997
 20
193.97683999999839
 30
0.0
 11
-124.9849999999997
 21
232.15230694708589
 31
0.0
  0
LINE
  5
83F
  8
0
  6
CONTINUOUS
 62
     0
 10
123.0681483511929
 20
230.15230694708589
 30
0.0
 11
-123.0531483511926
 21
230.15230694708589
 31
0.0
  0
SOLID
  5
840
  8
0
  6
CONTINUOUS
 62
     0
 10
123.0681483511929
 20
230.47428222188691
 30
0.0
 11
123.0681483511929
 21
229.8303316722847
 31
0.0
 12
125.0
 22
230.15230694708589
 32
0.0
 13
125.0
 23
230.15230694708589
 33
0.0
  0
SOLID
  5
841
  8
0
  6
CONTINUOUS
 62
     0
 10
-123.0531483511926
 20
230.47428222188691
 30
0.0
 11
-123.0531483511926
 21
229.8303316722847
 31
0.0
 12
-124.9849999999997
 22
230.15230694708589
 32
0.0
 13
-124.9849999999997
 23
230.15230694708589
 33
0.0
  0
INSERT
  5
842
  8
0
  6
CONTINUOUS
  2
*U17
 10
0.0
 20
0.0
 30
0.0
  0
POINT
  5
843
  8
DEFPOINTS
  6
CONTINUOUS
 62
     0
 10
125.0
 20
192.97683999999839
 30
0.0
  0
POINT
  5
844
  8
DEFPOINTS
  6
CONTINUOUS
 62
     0
 10
-124.9849999999997
 20
192.97683999999839
 30
0.0
  0
POINT
  5
845
  8
DEFPOINTS
  6
CONTINUOUS
 62
     0
 10
-124.9849999999997
 20
230.15230694708589
 30
0.0
  0
ENDBLK
  5
847
  8
0
  0
BLOCK
  8
0
  2
*U17
 70
     1
 10
0.0
 20
0.0
 30
0.0
  3
*U17
  1

  0
TEXT
  5
8A7
  8
0
  6
CONTINUOUS
 62
     0
 10
-6.8258333333331844
 20
230.24230694708581
 30
0.0
 40
2.0
  1
249.9850
  0
ENDBLK
  5
8A9
  8
0
  0
BLOCK
  8
0
  2
*D18
 70
     1
 10
0.0
 20
0.0
 30
0.0
  3
*D18
  1

  0
LINE
  5
84B
  8
0
  6
CONTINUOUS
 62
     0
 10
1.0
 20
-0.0000000000000003
 30
0.0
 11
1086.292374173792
 21
-0.0000000000003077
 31
0.0
  0
LINE
  5
84C
  8
0
  6
CONTINUOUS
 62
     0
 10
2.256066120440662
 20
-9543.0659052007941
 30
0.0
 11
1086.29237417379
 21
-9543.0659052007941
 31
0.0
  0
LINE
  5
84D
  8
0
  6
CONTINUOUS
 62
     0
 10
1084.292374173792
 20
-1.931851648807329
 30
0.0
 11
1084.2923741737909
 21
-4770.442952600396
 31
0.0
  0
LINE
  5
84E
  8
0
  6
CONTINUOUS
 62
     0
 10
1084.29237417379
 20
-9541.1340535519885
 30
0.0
 11
1084.2923741737909
 21
-4772.6229526003963
 31
0.0
  0
SOLID
  5
84F
  8
0
  6
CONTINUOUS
 62
     0
 10
1083.9703988989911
 20
-1.931851648807329
 30
0.0
 11
1084.614349448593
 21
-1.931851648807329
 31
0.0
 12
1084.292374173792
 22
-0.0000000000003072
 32
0.0
 13
1084.292374173792
 23
-0.0000000000003072
 33
0.0
  0
SOLID
  5
850
  8
0
  6
CONTINUOUS
 62
     0
 10
1083.9703988989891
 20
-9541.1340535519885
 30
0.0
 11
1084.6143494485921
 21
-9541.1340535519885
 31
0.0
 12
1084.29237417379
 22
-9543.0659052007941
 32
0.0
 13
1084.29237417379
 23
-9543.0659052007941
 33
0.0
  0
INSERT
  5
851
  8
0
  6
CONTINUOUS
  2
*U19
 10
0.0
 20
0.0
 30
0.0
  0
POINT
  5
852
  8
DEFPOINTS
  6
CONTINUOUS
 62
     0
 10
0.0
 20
0.0
 30
0.0
  0
POINT
  5
853
  8
DEFPOINTS
  6
CONTINUOUS
 62
     0
 10
1.256066120440664
 20
-9543.0659052007941
 30
0.0
  0
POINT
  5
854
  8
DEFPOINTS
  6
CONTINUOUS
 62
     0
 10
1084.29237417379
 20
-9543.0659052007941
 30
0.0
  0
ENDBLK
  5
856
  8
0
  0
BLOCK
  8
0
  2
*U19
 70
     1
 10
0.0
 20
0.0
 30
0.0
  3
*U19
  1

  0
TEXT
  5
8AB
  8
0
  6
CONTINUOUS
 62
     0
 10
1076.459040840459
 20
-4772.5329526003952
 30
0.0
 40
2.0
  1
9543.0659
  0
ENDBLK
  5
8AD
  8
0
  0
BLOCK
  8
0
  2
*D20
 70
     1
 10
0.0
 20
0.0
 30
0.0
  3
*D20
  1

  0
LINE
  5
859
  8
0
  6
CONTINUOUS
 62
     0
 10
746.80373414402834
 20
-7008.9777678889777
 30
0.0
 11
746.80373414402891
 21
57.02844151502358
 31
0.0
  0
LINE
  5
85A
  8
0
  6
CONTINUOUS
 62
     0
 10
0.0000000000000001
 20
50.993999999999687
 30
0.0
 11
0.0000000000000004
 21
57.02844151502358
 31
0.0
  0
LINE
  5
85B
  8
0
  6
CONTINUOUS
 62
     0
 10
744.87188249522171
 20
55.028441515023573
 30
0.0
 11
1.931851648807023
 21
55.028441515023573
 31
0.0
  0
SOLID
  5
85C
  8
0
  6
CONTINUOUS
 62
     0
 10
744.87188249522171
 20
55.35041678982477
 30
0.0
 11
744.87188249522171
 21
54.706466240222433
 31
0.0
 12
746.80373414402891
 22
55.028441515023573
 32
0.0
 13
746.80373414402891
 23
55.028441515023573
 33
0.0
  0
SOLID
  5
85D
  8
0
  6
CONTINUOUS
 62
     0
 10
1.931851648807023
 20
55.35041678982477
 30
0.0
 11
1.931851648807023
 21
54.706466240222433
 31
0.0
 12
0.0000000000000003
 22
55.028441515023573
 32
0.0
 13
0.0000000000000003
 23
55.028441515023573
 33
0.0
  0
INSERT
  5
85E
  8
0
  6
CONTINUOUS
  2
*U21
 10
0.0
 20
0.0
 30
0.0
  0
POINT
  5
85F
  8
DEFPOINTS
  6
CONTINUOUS
 62
     0
 10
746.80373414402834
 20
-7009.9777678889805
 30
0.0
  0
POINT
  5
860
  8
DEFPOINTS
  6
CONTINUOUS
 62
     0
 10
0.0
 20
49.993999999999687
 30
0.0
  0
POINT
  5
861
  8
DEFPOINTS
  6
CONTINUOUS
 62
     0
 10
0.0000000000000003
 20
55.028441515023573
 30
0.0
  0
ENDBLK
  5
863
  8
0
  0
BLOCK
  8
0
  2
*U21
 70
     1
 10
0.0
 20
0.0
 30
0.0
  3
*U21
  1

  0
TEXT
  5
8AF
  8
0
  6
CONTINUOUS
 62
     0
 10
366.5685337386812
 20
55.118441515023591
 30
0.0
 40
2.0
  1
746.8037
  0
ENDBLK
  5
8B1
  8
0
  0
ENDSEC
  0
SECTION
  2
ENTITIES
  0
TEXT
  5
29C
  8
0
  6
CONTINUOUS
 10
567.13092627454409
 20
-435.93850024138658
 30
0.0
 40
160.0
  1
2m/s
 50
0.0000025044687019
 41
0.687499990065893
  7
STANDARD1
  0
TEXT
  5
29D
  8
0
  6
CONTINUOUS
 10
-199.2425915834724
 20
-2923.9867497651171
 30
0.0
 40
160.0
  1
1m/s
 50
0.0000025044687019
 41
0.687499990065893
  7
STANDARD1
  0
TEXT
  5
29E
  8
0
  6
CONTINUOUS
 10
-308.41114866421088
 20
-6275.3297509333597
 30
0.0
 40
160.0
  1
0.5m/s
 50
0.0000025044687019
 41
0.687499990065893
  7
STANDARD1
  0
TEXT
  5
29F
  8
0
  6
CONTINUOUS
 10
-293.99386201861893
 20
-8401.1999971641981
 30
0.0
 40
160.0
  1
0.3m/s
 50
0.0000025044687019
 41
0.687499990065893
  7
STANDARD1
  0
LINE
  5
6E3
  8
0
  6
CONTINUOUS
 10
-124.72503119999961
 20
0.0
 30
0.0
 11
124.72503119999961
 21
0.0
 31
0.0
  0
LINE
  5
71B
  8
0
  6
CONTINUOUS
 10
475.1489270718692
 20
-5271.4029792459341
 30
0.0
 11
475.1489270718692
 21
-5271.4029792459341
 31
0.0
  0
LINE
  5
72B
  8
0
  6
CONTINUOUS
 10
-475.14977835569601
 20
-5271.4029792459341
 30
0.0
 11
-475.14977835569601
 21
-5271.4029792459341
 31
0.0
  0
LINE
  5
7C4
  8
0
  6
CONTINUOUS
 10
131.9841600000027
 20
-6.9991600000002991
 30
0.0
 11
-131.9841599999998
 21
-6.9991600000002991
 31
0.0
  0
LINE
  5
7C5
  8
0
  6
CONTINUOUS
 10
131.9841599999998
 20
0.0
 30
0.0
 11
-131.9841599999998
 21
0.0
 31
0.0
  0
LINE
  5
7C6
  8
0
  6
CONTINUOUS
 10
0.0
 20
49.993999999999687
 30
0.0
 11
0.0
 21
-49.993999999999687
 31
0.0
  0
LINE
  5
7C7
  8
0
  6
CONTINUOUS
 10
-131.9841599999981
 20
0.0
 30
0.0
 11
-131.9841599999998
 21
-6.9991600000002991
 31
0.0
  0
LINE
  5
7C8
  8
0
  6
CONTINUOUS
 10
131.9841599999998
 20
0.0
 30
0.0
 11
131.9841600000027
 21
-6.9991600000002991
 31
0.0
  0
LINE
  5
7CA
  8
0
  6
CONTINUOUS
 10
125.0
 20
192.97683999999839
 30
0.0
 11
-125.0
 21
192.97683999999839
 31
0.0
  0
LINE
  5
805
  8
0
  6
CONTINUOUS
 10
6.9312212908625952
 20
-560.21743602621416
 30
0.0
 11
509.99679210345482
 21
-385.30419593113038
 31
0.0
  0
LINE
  5
83A
  8
0
  6
CONTINUOUS
 10
125.0
 20
192.97683999999839
 30
0.0
 11
125.0
 21
0.0
 31
0.0
  0
LINE
  5
848
  8
0
  6
CONTINUOUS
 10
-125.0
 20
192.97683999999839
 30
0.0
 11
-125.0
 21
0.0
 31
0.0
  0
POLYLINE
  5
870
  8
0
  6
CONTINUOUS
 66
     1
 10
0.0
 20
0.0
 30
0.0
  0
VERTEX
  5
9E2
  8
0
  6
CONTINUOUS
 10
-124.7380726546789
 20
-6.9991600000002991
 30
0.0
  0
VERTEX
  5
9E3
  8
0
  6
CONTINUOUS
 10
-122.5599415961092
 20
-292.15928336817922
 30
0.0
  0
VERTEX
  5
9E4
  8
0
  6
CONTINUOUS
 10
-118.700792783311
 20
-458.50061295166262
 30
0.0
  0
VERTEX
  5
9E5
  8
0
  6
CONTINUOUS
 10
-114.129350855745
 20
-549.92945150295452
 30
0.0
  0
VERTEX
  5
9E6
  8
0
  6
CONTINUOUS
 10
-106.3259207526261
 20
-628.81517936597652
 30
0.0
  0
VERTEX
  5
9E7
  8
0
  6
CONTINUOUS
 10
-101.477911083065
 20
-663.33673659543524
 30
0.0
  0
VERTEX
  5
9E8
  8
0
  6
CONTINUOUS
 10
-89.840534760221104
 20
-716.19874020493194
 30
0.0
  0
VERTEX
  5
9E9
  8
0
  6
CONTINUOUS
 10
-83.991373608028866
 20
-737.52463709772644
 30
0.0
  0
VERTEX
  5
9EA
  8
0
  6
CONTINUOUS
 10
-78.14221245583667
 20
-758.85053399052106
 30
0.0
  0
VERTEX
  5
9EB
  8
0
  6
CONTINUOUS
 10
-71.800861801189512
 20
-774.09617251824704
 30
0.0
  0
VERTEX
  5
9EC
  8
0
  6
CONTINUOUS
 10
-65.459511146542354
 20
-789.34181104597315
 30
0.0
  0
VERTEX
  5
9ED
  8
0
  6
CONTINUOUS
 10
-58.085013739263538
 20
-797.51704021715022
 30
0.0
  0
VERTEX
  5
9EE
  8
0
  6
CONTINUOUS
 10
-50.710516331984742
 20
-805.69226938832685
 30
0.0
  0
VERTEX
  5
9EF
  8
0
  6
CONTINUOUS
 10
-27.282637592822539
 20
-816.83904517671158
 30
0.0
  0
VERTEX
  5
9F0
  8
0
  6
CONTINUOUS
 10
-19.58204355621546
 20
-819.95525569376139
 30
0.0
  0
VERTEX
  5
9F1
  8
0
  6
CONTINUOUS
 10
-9.79102177810773
 20
-822.93430108013035
 30
0.0
  0
VERTEX
  5
9F2
  8
0
  6
CONTINUOUS
 10
0.0
 20
-825.91334646649921
 30
0.0
  0
VERTEX
  5
9F3
  8
0
  6
CONTINUOUS
 10
19.581192272387849
 20
-819.95525569376139
 30
0.0
  0
VERTEX
  5
9F4
  8
0
  6
CONTINUOUS
 10
34.982380345603822
 20
-813.72283465966211
 30
0.0
  0
VERTEX
  5
9F5
  8
0
  6
CONTINUOUS
 10
50.709665048157142
 20
-805.69226938832685
 30
0.0
  0
VERTEX
  5
9F6
  8
0
  6
CONTINUOUS
 10
58.084162455435496
 20
-797.51704021715022
 30
0.0
  0
VERTEX
  5
9F7
  8
0
  6
CONTINUOUS
 10
65.45865986271383
 20
-789.34181104597315
 30
0.0
  0
VERTEX
  5
9F8
  8
0
  6
CONTINUOUS
 10
78.141361172007237
 20
-758.85053399052106
 30
0.0
  0
VERTEX
  5
9F9
  8
0
  6
CONTINUOUS
 10
89.839683476393475
 20
-716.19874020493194
 30
0.0
  0
VERTEX
  5
9FA
  8
0
  6
CONTINUOUS
 10
101.4770597992374
 20
-663.33673659543524
 30
0.0
  0
VERTEX
  5
9FB
  8
0
  6
CONTINUOUS
 10
106.32506946879811
 20
-628.81517936597652
 30
0.0
  0
VERTEX
  5
9FC
  8
0
  6
CONTINUOUS
 10
111.1730791383588
 20
-594.29362213651791
 30
0.0
  0
VERTEX
  5
9FD
  8
0
  6
CONTINUOUS
 10
114.1284995719151
 20
-549.92945150295452
 30
0.0
  0
VERTEX
  5
9FE
  8
0
  6
CONTINUOUS
 10
117.0839200054715
 20
-505.56528086939119
 30
0.0
  0
VERTEX
  5
9FF
  8
0
  6
CONTINUOUS
 10
120.3159629934889
 20
-411.43594503393427
 30
0.0
  0
VERTEX
  5
A00
  8
0
  6
CONTINUOUS
 10
122.5590903122783
 20
-292.15928336817922
 30
0.0
  0
VERTEX
  5
A01
  8
0
  6
CONTINUOUS
 10
124.7372213708513
 20
-6.9991600000002991
 30
0.0
  0
SEQEND
  5
A02
  8
0
  6
CONTINUOUS
  0
POLYLINE
  5
871
  8
0
  6
CONTINUOUS
 66
     1
 10
0.0
 20
0.0
 30
0.0
  0
VERTEX
  5
A03
  8
0
  6
CONTINUOUS
 10
-124.7380726546789
 20
-6.9991600000002991
 30
0.0
  0
VERTEX
  5
A04
  8
0
  6
CONTINUOUS
 10
-148.15248162540499
 20
-593.69238591418161
 30
0.0
  0
VERTEX
  5
A05
  8
0
  6
CONTINUOUS
 10
-169.2823693960303
 20
-974.94649798910632
 30
0.0
  0
VERTEX
  5
A06
  8
0
  6
CONTINUOUS
 10
-190.41225716665571
 20
-1356.200610064031
 30
0.0
  0
VERTEX
  5
A07
  8
0
  6
CONTINUOUS
 10
-210.14418894518619
 20
-1669.888350984203
 30
0.0
  0
VERTEX
  5
A08
  8
0
  6
CONTINUOUS
 10
-218.5639907661772
 20
-1842.1882993088011
 30
0.0
  0
VERTEX
  5
A09
  8
0
  6
CONTINUOUS
 10
-226.98379258716801
 20
-2014.4882476333989
 30
0.0
  0
VERTEX
  5
A0A
  8
0
  6
CONTINUOUS
 10
-235.88389117949649
 20
-2375.9172522106528
 30
0.0
  0
VERTEX
  5
A0B
  8
0
  6
CONTINUOUS
 10
-237.52909778675169
 20
-2542.6323364169698
 30
0.0
  0
VERTEX
  5
A0C
  8
0
  6
CONTINUOUS
 10
-239.1743043940069
 20
-2709.347420623285
 30
0.0
  0
VERTEX
  5
A0D
  8
0
  6
CONTINUOUS
 10
-239.50822312641421
 20
-2842.2199279643378
 30
0.0
  0
VERTEX
  5
A0E
  8
0
  6
CONTINUOUS
 10
-239.84214185882141
 20
-2975.092435305392
 30
0.0
  0
VERTEX
  5
A0F
  8
0
  6
CONTINUOUS
 10
-236.1266764422881
 20
-3184.777381090028
 30
0.0
  0
VERTEX
  5
A10
  8
0
  6
CONTINUOUS
 10
-229.57904522855969
 20
-3274.4799542308629
 30
0.0
  0
VERTEX
  5
A11
  8
0
  6
CONTINUOUS
 10
-229.57904522855969
 20
-3274.4799542308629
 30
0.0
  0
VERTEX
  5
A12
  8
0
  6
CONTINUOUS
 10
-223.0314140148312
 20
-3364.1825273716981
 30
0.0
  0
VERTEX
  5
A13
  8
0
  6
CONTINUOUS
 10
-205.19802161488951
 20
-3454.29000338176
 30
0.0
  0
VERTEX
  5
A14
  8
0
  6
CONTINUOUS
 10
-187.3646292149478
 20
-3544.3974793918192
 30
0.0
  0
VERTEX
  5
A15
  8
0
  6
CONTINUOUS
 10
-175.64156176055019
 20
-3578.1951051809251
 30
0.0
  0
VERTEX
  5
A16
  8
0
  6
CONTINUOUS
 10
-140.59384031587749
 20
-3645.2429201185519
 30
0.0
  0
VERTEX
  5
A17
  8
0
  6
CONTINUOUS
 10
-140.59384031587749
 20
-3645.2429201185519
 30
0.0
  0
VERTEX
  5
A18
  8
0
  6
CONTINUOUS
 10
-105.6322638375209
 20
-3688.8438586683942
 30
0.0
  0
VERTEX
  5
A19
  8
0
  6
CONTINUOUS
 10
-71.554767049957263
 20
-3715.0646446875958
 30
0.0
  0
VERTEX
  5
A1A
  8
0
  6
CONTINUOUS
 10
-53.867477060653073
 20
-3723.4101642470009
 30
0.0
  0
VERTEX
  5
A1B
  8
0
  6
CONTINUOUS
 10
-20.4344907831528
 20
-3730.314603548748
 30
0.0
  0
VERTEX
  5
A1C
  8
0
  6
CONTINUOUS
 10
1.4584728768040791
 20
-3733.3504123978569
 30
0.0
  0
VERTEX
  5
A1D
  8
0
  6
CONTINUOUS
 10
45.94831703707041
 20
-3725.3326603707201
 30
0.0
  0
VERTEX
  5
A1E
  8
0
  6
CONTINUOUS
 10
82.77420291586759
 20
-3707.1296263786571
 30
0.0
  0
VERTEX
  5
A1F
  8
0
  6
CONTINUOUS
 10
117.2683350417737
 20
-3678.4931092670731
 30
0.0
  0
VERTEX
  5
A20
  8
0
  6
CONTINUOUS
 10
140.59298903204939
 20
-3645.2429201185519
 30
0.0
  0
VERTEX
  5
A21
  8
0
  6
CONTINUOUS
 10
163.91764302232511
 20
-3611.992730970032
 30
0.0
  0
VERTEX
  5
A22
  8
0
  6
CONTINUOUS
 10
187.36377793111839
 20
-3544.3974793918192
 30
0.0
  0
VERTEX
  5
A23
  8
0
  6
CONTINUOUS
 10
205.19717033106051
 20
-3454.29000338176
 30
0.0
  0
VERTEX
  5
A24
  8
0
  6
CONTINUOUS
 10
223.0305627310027
 20
-3364.1825273716981
 30
0.0
  0
VERTEX
  5
A25
  8
0
  6
CONTINUOUS
 10
236.12582515845949
 20
-3184.777381090028
 30
0.0
  0
VERTEX
  5
A26
  8
0
  6
CONTINUOUS
 10
239.8412905749928
 20
-2975.092435305392
 30
0.0
  0
VERTEX
  5
A27
  8
0
  6
CONTINUOUS
 10
239.17345311017829
 20
-2709.347420623285
 30
0.0
  0
VERTEX
  5
A28
  8
0
  6
CONTINUOUS
 10
235.88303989566521
 20
-2375.9172522106528
 30
0.0
  0
VERTEX
  5
A29
  8
0
  6
CONTINUOUS
 10
226.98294130333579
 20
-2014.4882476333989
 30
0.0
  0
VERTEX
  5
A2A
  8
0
  6
CONTINUOUS
 10
200.27737177208971
 20
-1513.044480524117
 30
0.0
  0
VERTEX
  5
A2B
  8
0
  6
CONTINUOUS
 10
169.28151811219999
 20
-974.94649798910632
 30
0.0
  0
VERTEX
  5
A2C
  8
0
  6
CONTINUOUS
 10
148.15163034157641
 20
-593.69238591418161
 30
0.0
  0
VERTEX
  5
A2D
  8
0
  6
CONTINUOUS
 10
124.7372213708513
 20
-6.9991600000002991
 30
0.0
  0
SEQEND
  5
A2E
  8
0
  6
CONTINUOUS
  0
POLYLINE
  5
873
  8
0
  6
CONTINUOUS
 66
     1
 10
0.0
 20
0.0
 30
0.0
  0
VERTEX
  5
A2F
  8
0
  6
CONTINUOUS
 10
-124.7380726546789
 20
-6.9991600000002991
 30
0.0
  0
VERTEX
  5
A30
  8
0
  6
CONTINUOUS
 10
-255.3477573921555
 20
-1380.2649621297301
 30
0.0
  0
VERTEX
  5
A31
  8
0
  6
CONTINUOUS
 10
-308.22382998852669
 20
-2029.122130335626
 30
0.0
  0
VERTEX
  5
A32
  8
0
  6
CONTINUOUS
 10
-361.0999025848979
 20
-2677.979298541522
 30
0.0
  0
VERTEX
  5
A33
  8
0
  6
CONTINUOUS
 10
-391.19558291901649
 20
-3171.6559702895929
 30
0.0
  0
VERTEX
  5
A34
  8
0
  6
CONTINUOUS
 10
-416.943024345852
 20
-3680.3604474593958
 30
0.0
  0
VERTEX
  5
A35
  8
0
  6
CONTINUOUS
 10
-442.69046577268722
 20
-4189.0649246291987
 30
0.0
  0
VERTEX
  5
A36
  8
0
  6
CONTINUOUS
 10
-454.0818248485632
 20
-4449.6769302861203
 30
0.0
  0
VERTEX
  5
A37
  8
0
  6
CONTINUOUS
 10
-465.4731839244393
 20
-4710.2889359430374
 30
0.0
  0
VERTEX
  5
A38
  8
0
  6
CONTINUOUS
 10
-470.31148114006749
 20
-4990.8459575944853
 30
0.0
  0
VERTEX
  5
A39
  8
0
  6
CONTINUOUS
 10
-475.14977835569601
 20
-5271.4029792459341
 30
0.0
  0
VERTEX
  5
A3A
  8
0
  6
CONTINUOUS
 10
-467.28952482885092
 20
-5538.1372243613796
 30
0.0
  0
VERTEX
  5
A3B
  8
0
  6
CONTINUOUS
 10
-459.4292713020057
 20
-5804.8714694768323
 30
0.0
  0
VERTEX
  5
A3C
  8
0
  6
CONTINUOUS
 10
-444.66924329118638
 20
-6036.2749075460288
 30
0.0
  0
VERTEX
  5
A3D
  8
0
  6
CONTINUOUS
 10
-429.90921528036688
 20
-6267.678345615227
 30
0.0
  0
VERTEX
  5
A3E
  8
0
  6
CONTINUOUS
 10
-399.5254173029806
 20
-6631.5692888668882
 30
0.0
  0
VERTEX
  5
A3F
  8
0
  6
CONTINUOUS
 10
-362.67817208138882
 20
-6902.8174253018124
 30
0.0
  0
VERTEX
  5
A40
  8
0
  6
CONTINUOUS
 10
-330.81519115934509
 20
-7028.6660427409952
 30
0.0
  0
VERTEX
  5
A41
  8
0
  6
CONTINUOUS
 10
-310.47567008182477
 20
-7094.7694862429416
 30
0.0
  0
VERTEX
  5
A42
  8
0
  6
CONTINUOUS
 10
-261.66688956067208
 20
-7245.4481484542066
 30
0.0
  0
VERTEX
  5
A43
  8
0
  6
CONTINUOUS
 10
-225.87588726094049
 20
-7335.8312693124963
 30
0.0
  0
VERTEX
  5
A44
  8
0
  6
CONTINUOUS
 10
-177.64259838484031
 20
-7427.9515641411972
 30
0.0
  0
VERTEX
  5
A45
  8
0
  6
CONTINUOUS
 10
-136.9777124363149
 20
-7488.2099863922422
 30
0.0
  0
VERTEX
  5
A46
  8
0
  6
CONTINUOUS
 10
-109.8583509996201
 20
-7517.0243079187367
 30
0.0
  0
VERTEX
  5
A47
  8
0
  6
CONTINUOUS
 10
-69.290629759093463
 20
-7552.5068213684017
 30
0.0
  0
VERTEX
  5
A48
  8
0
  6
CONTINUOUS
 10
-56.527626863779901
 20
-7561.3876756794816
 30
0.0
  0
VERTEX
  5
A49
  8
0
  6
CONTINUOUS
 10
-43.76462396846636
 20
-7570.268529990567
 30
0.0
  0
VERTEX
  5
A4A
  8
0
  6
CONTINUOUS
 10
-20.919417945421628
 20
-7579.5790197108781
 30
0.0
  0
VERTEX
  5
A4B
  8
0
  6
CONTINUOUS
 10
-0.3051896499928262
 20
-7583.8282107089171
 30
0.0
  0
VERTEX
  5
A4C
  8
0
  6
CONTINUOUS
 10
20.918566661592202
 20
-7579.5790197108781
 30
0.0
  0
VERTEX
  5
A4D
  8
0
  6
CONTINUOUS
 10
43.763772684640557
 20
-7570.268529990567
 30
0.0
  0
VERTEX
  5
A4E
  8
0
  6
CONTINUOUS
 10
69.289778475264939
 20
-7552.5068213684017
 30
0.0
  0
VERTEX
  5
A4F
  8
0
  6
CONTINUOUS
 10
96.307535468245092
 20
-7529.5894878355139
 30
0.0
  0
VERTEX
  5
A50
  8
0
  6
CONTINUOUS
 10
123.40746396333719
 20
-7504.459128001954
 30
0.0
  0
VERTEX
  5
A51
  8
0
  6
CONTINUOUS
 10
150.54625834163471
 20
-7471.9608447825312
 30
0.0
  0
VERTEX
  5
A52
  8
0
  6
CONTINUOUS
 10
177.64174710101091
 20
-7427.9515641411972
 30
0.0
  0
VERTEX
  5
A53
  8
0
  6
CONTINUOUS
 10
203.0900211252401
 20
-7380.4329999336778
 30
0.0
  0
VERTEX
  5
A54
  8
0
  6
CONTINUOUS
 10
237.3644897633867
 20
-7308.9782920190773
 30
0.0
  0
VERTEX
  5
A55
  8
0
  6
CONTINUOUS
 10
287.09043962374921
 20
-7169.174944413493
 30
0.0
  0
VERTEX
  5
A56
  8
0
  6
CONTINUOUS
 10
330.81433987551651
 20
-7028.6660427409952
 30
0.0
  0
VERTEX
  5
A57
  8
0
  6
CONTINUOUS
 10
343.40976729255641
 20
-6991.5291680251539
 30
0.0
  0
VERTEX
  5
A58
  8
0
  6
CONTINUOUS
 10
362.67732079756018
 20
-6902.8174253018124
 30
0.0
  0
VERTEX
  5
A59
  8
0
  6
CONTINUOUS
 10
381.10094340835582
 20
-6767.1933570843512
 30
0.0
  0
VERTEX
  5
A5A
  8
0
  6
CONTINUOUS
 10
399.52456601915122
 20
-6631.5692888668882
 30
0.0
  0
VERTEX
  5
A5B
  8
0
  6
CONTINUOUS
 10
414.71646500784379
 20
-6449.6238172410567
 30
0.0
  0
VERTEX
  5
A5C
  8
0
  6
CONTINUOUS
 10
429.90836399653642
 20
-6267.678345615227
 30
0.0
  0
VERTEX
  5
A5D
  8
0
  6
CONTINUOUS
 10
444.6683920073566
 20
-6036.2749075460288
 30
0.0
  0
VERTEX
  5
A5E
  8
0
  6
CONTINUOUS
 10
459.42842001817718
 20
-5804.8714694768323
 30
0.0
  0
VERTEX
  5
A5F
  8
0
  6
CONTINUOUS
 10
467.28867354502319
 20
-5538.1372243613796
 30
0.0
  0
VERTEX
  5
A60
  8
0
  6
CONTINUOUS
 10
475.1489270718692
 20
-5271.4029792459341
 30
0.0
  0
VERTEX
  5
A61
  8
0
  6
CONTINUOUS
 10
470.31062985623993
 20
-4990.8459575944853
 30
0.0
  0
VERTEX
  5
A62
  8
0
  6
CONTINUOUS
 10
465.47233264061077
 20
-4710.2889359430374
 30
0.0
  0
VERTEX
  5
A63
  8
0
  6
CONTINUOUS
 10
454.08097356473462
 20
-4449.6769302861203
 30
0.0
  0
VERTEX
  5
A64
  8
0
  6
CONTINUOUS
 10
442.68961448885852
 20
-4189.0649246291987
 30
0.0
  0
VERTEX
  5
A65
  8
0
  6
CONTINUOUS
 10
416.9421730620237
 20
-3680.3604474593958
 30
0.0
  0
VERTEX
  5
A66
  8
0
  6
CONTINUOUS
 10
391.19473163518887
 20
-3171.6559702895929
 30
0.0
  0
VERTEX
  5
A67
  8
0
  6
CONTINUOUS
 10
361.09905130107109
 20
-2677.979298541522
 30
0.0
  0
VERTEX
  5
A68
  8
0
  6
CONTINUOUS
 10
308.22297870469953
 20
-2029.122130335626
 30
0.0
  0
VERTEX
  5
A69
  8
0
  6
CONTINUOUS
 10
255.34690610832789
 20
-1380.2649621297301
 30
0.0
  0
VERTEX
  5
A6A
  8
0
  6
CONTINUOUS
 10
190.04206373958951
 20
-693.63206106486518
 30
0.0
  0
VERTEX
  5
A6B
  8
0
  6
CONTINUOUS
 10
124.7372213708513
 20
-6.9991600000002991
 30
0.0
  0
SEQEND
  5
A6C
  8
0
  6
CONTINUOUS
  0
POLYLINE
  5
874
  8
0
  6
CONTINUOUS
 66
     1
 10
0.0
 20
0.0
 30
0.0
  0
VERTEX
  5
A6D
  8
0
  6
CONTINUOUS
 10
-124.7380726546789
 20
-6.9991600000002991
 30
0.0
  0
VERTEX
  5
A6E
  8
0
  6
CONTINUOUS
 10
-212.72993430457061
 20
-806.72558465875386
 30
0.0
  0
VERTEX
  5
A6F
  8
0
  6
CONTINUOUS
 10
-512.21241924495803
 20
-3374.613397925863
 30
0.0
  0
VERTEX
  5
A70
  8
0
  6
CONTINUOUS
 10
-639.14123511390471
 20
-4600.1687763826558
 30
0.0
  0
VERTEX
  5
A71
  8
0
  6
CONTINUOUS
 10
-681.1925618004334
 20
-5110.500316904946
 30
0.0
  0
VERTEX
  5
A72
  8
0
  6
CONTINUOUS
 10
-723.39275492767445
 20
-5908.34284213509
 30
0.0
  0
VERTEX
  5
A73
  8
0
  6
CONTINUOUS
 10
-746.14143372728972
 20
-6609.5851502166952
 30
0.0
  0
VERTEX
  5
A74
  8
0
  6
CONTINUOUS
 10
-742.23400994992755
 20
-7220.6528571143344
 30
0.0
  0
VERTEX
  5
A75
  8
0
  6
CONTINUOUS
 10
-737.66343447199858
 20
-7431.3279463396884
 30
0.0
  0
VERTEX
  5
A76
  8
0
  6
CONTINUOUS
 10
-724.17737353324321
 20
-7648.8530921385263
 30
0.0
  0
VERTEX
  5
A77
  8
0
  6
CONTINUOUS
 10
-710.69131259448795
 20
-7866.378237937367
 30
0.0
  0
VERTEX
  5
A78
  8
0
  6
CONTINUOUS
 10
-684.87422811230067
 20
-8076.816086305148
 30
0.0
  0
VERTEX
  5
A79
  8
0
  6
CONTINUOUS
 10
-659.05714363011316
 20
-8287.2539346729282
 30
0.0
  0
VERTEX
  5
A7A
  8
0
  6
CONTINUOUS
 10
-589.45389665390564
 20
-8650.5521623190216
 30
0.0
  0
VERTEX
  5
A7B
  8
0
  6
CONTINUOUS
 10
-512.67870150421084
 20
-8922.0815253359506
 30
0.0
  0
VERTEX
  5
A7C
  8
0
  6
CONTINUOUS
 10
-442.42128583234438
 20
-9120.0247091527726
 30
0.0
  0
VERTEX
  5
A7D
  8
0
  6
CONTINUOUS
 10
-380.69455883560022
 20
-9274.8869905563606
 30
0.0
  0
VERTEX
  5
A7E
  8
0
  6
CONTINUOUS
 10
-279.91155808220361
 20
-9414.0899307958916
 30
0.0
  0
VERTEX
  5
A7F
  8
0
  6
CONTINUOUS
 10
-212.30040016571681
 20
-9473.4578992815968
 30
0.0
  0
VERTEX
  5
A80
  8
0
  6
CONTINUOUS
 10
-169.44827218545831
 20
-9504.3331582689243
 30
0.0
  0
VERTEX
  5
A81
  8
0
  6
CONTINUOUS
 10
-107.0837523796672
 20
-9532.7478272483913
 30
0.0
  0
VERTEX
  5
A82
  8
0
  6
CONTINUOUS
 10
-1.2569174042710061
 20
-9543.0659052007941
 30
0.0
  0
VERTEX
  5
A83
  8
0
  6
CONTINUOUS
 10
107.0829010958405
 20
-9532.7478272483913
 30
0.0
  0
VERTEX
  5
A84
  8
0
  6
CONTINUOUS
 10
169.44742090162839
 20
-9504.3331582689243
 30
0.0
  0
VERTEX
  5
A85
  8
0
  6
CONTINUOUS
 10
234.9715730488206
 20
-9455.4402831243551
 30
0.0
  0
VERTEX
  5
A86
  8
0
  6
CONTINUOUS
 10
279.91070679837497
 20
-9414.0899307958916
 30
0.0
  0
VERTEX
  5
A87
  8
0
  6
CONTINUOUS
 10
330.30220717507279
 20
-9344.4884606761261
 30
0.0
  0
VERTEX
  5
A88
  8
0
  6
CONTINUOUS
 10
380.69370755177079
 20
-9274.8869905563606
 30
0.0
  0
VERTEX
  5
A89
  8
0
  6
CONTINUOUS
 10
442.42043454851682
 20
-9120.0247091527726
 30
0.0
  0
VERTEX
  5
A8A
  8
0
  6
CONTINUOUS
 10
512.67785022038322
 20
-8922.0815253359506
 30
0.0
  0
VERTEX
  5
A8B
  8
0
  6
CONTINUOUS
 10
551.06544779523028
 20
-8786.3168438274897
 30
0.0
  0
VERTEX
  5
A8C
  8
0
  6
CONTINUOUS
 10
589.45304537007723
 20
-8650.5521623190216
 30
0.0
  0
VERTEX
  5
A8D
  8
0
  6
CONTINUOUS
 10
624.2546688581815
 20
-8468.9030484959767
 30
0.0
  0
VERTEX
  5
A8E
  8
0
  6
CONTINUOUS
 10
659.05629234628555
 20
-8287.2539346729282
 30
0.0
  0
VERTEX
  5
A8F
  8
0
  6
CONTINUOUS
 10
710.69046131066273
 20
-7866.378237937367
 30
0.0
  0
VERTEX
  5
A90
  8
0
  6
CONTINUOUS
 10
742.2331586660988
 20
-7220.6528571143344
 30
0.0
  0
VERTEX
  5
A91
  8
0
  6
CONTINUOUS
 10
740.54935097750104
 20
-6390.0259079393891
 30
0.0
  0
VERTEX
  5
A92
  8
0
  6
CONTINUOUS
 10
696.50869914637894
 20
-5378.3596677565238
 30
0.0
  0
VERTEX
  5
A93
  8
0
  6
CONTINUOUS
 10
597.08905714354933
 20
-4089.8372358603692
 30
0.0
  0
VERTEX
  5
A94
  8
0
  6
CONTINUOUS
 10
512.2115679611278
 20
-3374.613397925863
 30
0.0
  0
VERTEX
  5
A95
  8
0
  6
CONTINUOUS
 10
406.46625631588029
 20
-2490.532703621685
 30
0.0
  0
VERTEX
  5
A96
  8
0
  6
CONTINUOUS
 10
300.72094467063278
 20
-1606.4520093175081
 30
0.0
  0
VERTEX
  5
A97
  8
0
  6
CONTINUOUS
 10
124.7372213708513
 20
-6.9991600000002991
 30
0.0
  0
SEQEND
  5
A98
  8
0
  6
CONTINUOUS
  0
ENDSEC
  0
EOF
