  0
SECTION
  2
HEADER
  9
$ACADVER
  1
AC1009
  9
$INSBASE
 10
0.0
 20
0.0
 30
0.0
  9
$EXTMIN
 10
-86.50860456189281
 20
-1000.031104194176
 30
-0.0015258207003583
  9
$EXTMAX
 10
86.498973206610799
 20
19.331108940661579
 30
0.0000000349246037
  9
$LIMMIN
 10
0.0
 20
0.0
  9
$LIMMAX
 10
12.0
 20
9.0
  9
$ORTHOMODE
 70
     0
  9
$REGENMODE
 70
     1
  9
$FILLMODE
 70
     1
  9
$QTEXTMODE
 70
     0
  9
$MIRRTEXT
 70
     1
  9
$DRAGMODE
 70
     2
  9
$LTSCALE
 40
1.0
  9
$OSMODE
 70
  3071
  9
$ATTMODE
 70
     1
  9
$TEXTSIZE
 40
3.2000000476837149
  9
$TRACEWID
 40
0.05
  9
$TEXTSTYLE
  7
STANDARD1
  9
$CLAYER
  8
0
  9
$CELTYPE
  6
CONTINUOUS
  9
$CECOLOR
 62
   256
  9
$DIMSCALE
 40
1.0
  9
$DIMASZ
 40
1.931851648807023
  9
$DIMEXO
 40
1.0
  9
$DIMDLI
 40
0.38
  9
$DIMRND
 40
0.0
  9
$DIMDLE
 40
0.0
  9
$DIMEXE
 40
2.0
  9
$DIMTP
 40
0.0
  9
$DIMTM
 40
0.0
  9
$DIMTXT
 40
2.0
  9
$DIMCEN
 40
0.09
  9
$DIMTSZ
 40
0.0
  9
$DIMTOL
 70
     0
  9
$DIMLIM
 70
     0
  9
$DIMTIH
 70
     1
  9
$DIMTOH
 70
     1
  9
$DIMSE1
 70
     0
  9
$DIMSE2
 70
     0
  9
$DIMTAD
 70
     1
  9
$DIMZIN
 70
     0
  9
$DIMBLK
  1

  9
$DIMASO
 70
     1
  9
$DIMSHO
 70
     1
  9
$DIMPOST
  1

  9
$DIMAPOST
  1

  9
$DIMALT
 70
     0
  9
$DIMALTD
 70
     2
  9
$DIMALTF
 40
25.399999999999999
  9
$DIMLFAC
 40
10.0
  9
$DIMTOFL
 70
     0
  9
$DIMTVP
 40
0.0
  9
$DIMTIX
 70
     0
  9
$DIMSOXD
 70
     0
  9
$DIMSAH
 70
     0
  9
$DIMBLK1
  1

  9
$DIMBLK2
  1

  9
$DIMSTYLE
  2
STANDARD
  9
$DIMCLRD
 70
     0
  9
$DIMCLRE
 70
     0
  9
$DIMCLRT
 70
     0
  9
$DIMTFAC
 40
0.625
  9
$DIMGAP
 40
0.09
  9
$LUNITS
 70
     2
  9
$LUPREC
 70
     3
  9
$SKETCHINC
 40
0.1
  9
$FILLETRAD
 40
0.0
  9
$AUNITS
 70
     0
  9
$AUPREC
 70
     0
  9
$MENU
  1
.
  9
$ELEVATION
 40
0.0
  9
$PELEVATION
 40
0.0
  9
$THICKNESS
 40
0.0
  9
$LIMCHECK
 70
     0
  9
$BLIPMODE
 70
     0
  9
$CHAMFERA
 40
0.0
  9
$CHAMFERB
 40
0.0
  9
$SKPOLY
 70
     0
  9
$TDCREATE
 40
2452723.4802515521
  9
$TDUPDATE
 40
2454284.5519418642
  9
$TDINDWG
 40
0.1110029861
  9
$TDUSRTIMER
 40
0.1109939352
  9
$USRTIMER
 70
     1
  9
$ANGBASE
 50
0.0
  9
$ANGDIR
 70
     0
  9
$PDMODE
 70
     0
  9
$PDSIZE
 40
0.0
  9
$PLINEWID
 40
0.0
  9
$COORDS
 70
     1
  9
$SPLFRAME
 70
     0
  9
$SPLINETYPE
 70
     6
  9
$SPLINESEGS
 70
     8
  9
$ATTDIA
 70
     0
  9
$ATTREQ
 70
     1
  9
$HANDLING
 70
     1
  9
$HANDSEED
  5
1219
  9
$SURFTAB1
 70
     6
  9
$SURFTAB2
 70
     6
  9
$SURFTYPE
 70
     6
  9
$SURFU
 70
     6
  9
$SURFV
 70
     6
  9
$UCSNAME
  2

  9
$UCSORG
 10
0.0
 20
0.0
 30
0.0
  9
$UCSXDIR
 10
1.0
 20
0.0
 30
0.0
  9
$UCSYDIR
 10
0.0
 20
1.0
 30
0.0
  9
$PUCSNAME
  2

  9
$PUCSORG
 10
0.0
 20
0.0
 30
0.0
  9
$PUCSXDIR
 10
1.0
 20
0.0
 30
0.0
  9
$PUCSYDIR
 10
0.0
 20
1.0
 30
0.0
  9
$USERI1
 70
     0
  9
$USERI2
 70
     0
  9
$USERI3
 70
     0
  9
$USERI4
 70
     0
  9
$USERI5
 70
     0
  9
$USERR1
 40
0.0
  9
$USERR2
 40
0.0
  9
$USERR3
 40
0.0
  9
$USERR4
 40
0.0
  9
$USERR5
 40
0.0
  9
$WORLDVIEW
 70
     1
  9
$SHADEDGE
 70
     3
  9
$SHADEDIF
 70
    70
  9
$TILEMODE
 70
     1
  9
$MAXACTVP
 70
    64
  9
$PLIMCHECK
 70
     0
  9
$PEXTMIN
 10
1.0000000000000000E+020
 20
1.0000000000000000E+020
 30
1.0000000000000000E+020
  9
$PEXTMAX
 10
-1.0000000000000000E+020
 20
-1.0000000000000000E+020
 30
-1.0000000000000000E+020
  9
$PLIMMIN
 10
0.0
 20
0.0
  9
$PLIMMAX
 10
12.0
 20
9.0
  9
$UNITMODE
 70
     0
  9
$VISRETAIN
 70
     1
  9
$PLINEGEN
 70
     0
  9
$PSLTSCALE
 70
     1
  0
ENDSEC
  0
SECTION
  2
TABLES
  0
TABLE
  2
VPORT
 70
     1
  0
VPORT
  2
*ACTIVE
 70
     0
 10
0.0
 20
0.0
 11
1.0
 21
1.0
 12
-0.0048156776409769
 22
-490.34999762675739
 13
0.0
 23
0.0
 14
1.0
 24
1.0
 15
0.0
 25
0.0
 16
0.0
 26
0.0
 36
1.0
 17
0.0
 27
0.0
 37
0.0
 40
1028.1121033763379
 41
1.6704871060171911
 42
50.0
 43
0.0
 44
0.0
 50
0.0
 51
0.0
 71
     0
 72
   100
 73
     1
 74
     1
 75
     0
 76
     0
 77
     0
 78
     0
  0
ENDTAB
  0
TABLE
  2
LTYPE
 70
     4
  0
LTYPE
  2
CONTINUOUS
 70
     0
  3
Solid line
 72
    65
 73
     0
 40
0.0
  0
LTYPE
  2
DASHED
 70
     0
  3
-- -- -- -- -- -- -- -- -- -- -- -- -- -- --
 72
    65
 73
     2
 40
0.75
 49
0.5
 49
-0.25
  0
LTYPE
  2
DASHDOT
 70
     0
  3
__ . __ . __ . __ . __ . __ . __ . __ . __ . __
 72
    65
 73
     4
 40
1.0
 49
0.5
 49
-0.25
 49
0.0
 49
-0.25
  0
LTYPE
  2
DIVIDE
 70
     0
  3
__ . . __ . . __ . . __ . . __ . . __ . . __
 72
    65
 73
     6
 40
1.25
 49
0.5
 49
-0.25
 49
0.0
 49
-0.25
 49
0.0
 49
-0.25
  0
ENDTAB
  0
TABLE
  2
LAYER
 70
     2
  0
LAYER
  2
0
 70
     0
 62
     7
  6
CONTINUOUS
  0
LAYER
  2
DEFPOINTS
 70
     0
 62
     7
  6
CONTINUOUS
  0
ENDTAB
  0
TABLE
  2
STYLE
 70
     5
  0
STYLE
  2
STANDARD
 70
     0
 40
0.0
 41
1.0
 50
0.0
 71
     0
 42
0.2
  3
txt
  4

  0
STYLE
  2
STANDARD1
 70
     0
 40
0.0
 41
1.0
 50
0.0
 71
     0
 42
3.2000000476837149
  3
MONOTXT
  4
BIGFONT
  0
STYLE
  2
STANDARD2
 70
     4
 40
0.0
 41
1.0
 50
0.0
 71
     0
 42
3.2000000476837149
  3
MONOTXT
  4
BIGFONT
  0
STYLE
  2
STANDARD3
 70
     0
 40
0.0
 41
1.0
 50
0.0
 71
     0
 42
3.2000000476837149
  3
MONOTXT
  4

  0
STYLE
  2
STANDARD4
 70
     4
 40
0.0
 41
1.0
 50
0.0
 71
     0
 42
3.2000000476837149
  3
MONOTXT
  4

  0
ENDTAB
  0
TABLE
  2
VIEW
 70
     0
  0
ENDTAB
  0
TABLE
  2
UCS
 70
     0
  0
ENDTAB
  0
TABLE
  2
APPID
 70
     1
  0
APPID
  2
ACAD
 70
     0
  0
ENDTAB
  0
TABLE
  2
DIMSTYLE
 70
     1
  0
DIMSTYLE
  2
STANDARD
 70
     0
  3

  4

  5

  6

  7

 40
1.0
 41
0.18
 42
0.0625
 43
0.38
 44
0.18
 45
0.0
 46
0.0
 47
0.0
 48
0.0
140
0.18
141
0.09
142
0.0
143
25.399999999999999
144
1.0
145
0.0
146
1.0
147
0.09
 71
     0
 72
     0
 73
     1
 74
     1
 75
     0
 76
     0
 77
     0
 78
     0
170
     0
171
     2
172
     0
173
     0
174
     0
175
     0
176
     0
177
     0
178
     0
  0
ENDTAB
  0
ENDSEC
  0
SECTION
  2
BLOCKS
  0
BLOCK
  8
0
  2
$MODEL_SPACE
 70
     0
 10
0.0
 20
0.0
 30
0.0
  3
$MODEL_SPACE
  1

  0
ENDBLK
  5
D01
  8
0
  0
BLOCK
 67
     1
  8
0
  2
$PAPER_SPACE
 70
     0
 10
0.0
 20
0.0
 30
0.0
  3
$PAPER_SPACE
  1

  0
ENDBLK
  5
CFD
 67
     1
  8
0
  0
BLOCK
  8
0
  2
A$C0DCE74DC
 70
     0
 10
0.0
 20
0.0
 30
0.0
  3
A$C0DCE74DC
  1

  0
POLYLINE
  5
44B
  8
0
  6
CONTINUOUS
 66
     1
 10
0.0
 20
0.0
 30
0.0
  0
VERTEX
  5
E36
  8
0
  6
CONTINUOUS
 10
-289.6721186087658
 20
3.7766067386907798
 30
0.0
  0
VERTEX
  5
E37
  8
0
  6
CONTINUOUS
 10
-269.17278315711081
 20
-164.48365390275839
 30
0.0
  0
VERTEX
  5
E38
  8
0
  6
CONTINUOUS
 10
-247.0269924953337
 20
-348.03120324021592
 30
0.0
  0
VERTEX
  5
E39
  8
0
  6
CONTINUOUS
 10
-247.0269924953337
 20
-348.03120324021592
 30
0.0
  0
VERTEX
  5
E3A
  8
0
  6
CONTINUOUS
 10
-242.44321858344691
 20
-386.90221946622182
 30
0.0
  0
VERTEX
  5
E3B
  8
0
  6
CONTINUOUS
 10
-237.6518540448908
 20
-430.95936654022353
 30
0.0
  0
VERTEX
  5
E3C
  8
0
  6
CONTINUOUS
 10
-235.15127682972931
 20
-456.20221391789971
 30
0.0
  0
VERTEX
  5
E3D
  8
0
  6
CONTINUOUS
 10
-232.56634380484181
 20
-484.26496373478801
 30
0.0
  0
VERTEX
  5
E3E
  8
0
  6
CONTINUOUS
 10
-229.8862355858754
 20
-515.65540589995965
 30
0.0
  0
VERTEX
  5
E3F
  8
0
  6
CONTINUOUS
 10
-227.10013278847691
 20
-550.88133032248493
 30
0.0
  0
VERTEX
  5
E40
  8
0
  6
CONTINUOUS
 10
-227.10013278847691
 20
-550.88133032248493
 30
0.0
  0
VERTEX
  5
E41
  8
0
  6
CONTINUOUS
 10
-223.4640820822888
 20
-599.98554780294569
 30
0.0
  0
VERTEX
  5
E42
  8
0
  6
CONTINUOUS
 10
-219.923677122257
 20
-647.13958455855732
 30
0.0
  0
VERTEX
  5
E43
  8
0
  6
CONTINUOUS
 10
-219.923677122257
 20
-647.13958455855732
 30
0.0
  0
VERTEX
  5
E44
  8
0
  6
CONTINUOUS
 10
-218.2989038222255
 20
-667.84922108850674
 30
0.0
  0
VERTEX
  5
E45
  8
0
  6
CONTINUOUS
 10
-216.93250760092889
 20
-688.57000846537539
 30
0.0
  0
VERTEX
  5
E46
  8
0
  6
CONTINUOUS
 10
-216.39744502732279
 20
-699.78392000542203
 30
0.0
  0
VERTEX
  5
E47
  8
0
  6
CONTINUOUS
 10
-215.9884696824202
 20
-712.01982279802019
 30
0.0
  0
VERTEX
  5
E48
  8
0
  6
CONTINUOUS
 10
-215.72607921922781
 20
-725.61745135677711
 30
0.0
  0
VERTEX
  5
E49
  8
0
  6
CONTINUOUS
 10
-215.63077129075199
 20
-740.9165401952996
 30
0.0
  0
VERTEX
  5
E4A
  8
0
  6
CONTINUOUS
 10
-215.63077129075199
 20
-740.9165401952996
 30
0.0
  0
VERTEX
  5
E4B
  8
0
  6
CONTINUOUS
 10
-215.70681489750359
 20
-755.82214911234075
 30
0.0
  0
VERTEX
  5
E4C
  8
0
  6
CONTINUOUS
 10
-215.977205629163
 20
-771.55683990445561
 30
0.0
  0
VERTEX
  5
E4D
  8
0
  6
CONTINUOUS
 10
-216.4923674753183
 20
-787.3835634068281
 30
0.0
  0
VERTEX
  5
E4E
  8
0
  6
CONTINUOUS
 10
-217.30272442555679
 20
-802.5652704546402
 30
0.0
  0
VERTEX
  5
E4F
  8
0
  6
CONTINUOUS
 10
-217.30272442555679
 20
-802.5652704546402
 30
0.0
  0
VERTEX
  5
E50
  8
0
  6
CONTINUOUS
 10
-218.41229944504789
 20
-816.58994593909529
 30
0.0
  0
VERTEX
  5
E51
  8
0
  6
CONTINUOUS
 10
-219.63951140128779
 20
-829.84571097548223
 30
0.0
  0
VERTEX
  5
E52
  8
0
  6
CONTINUOUS
 10
-220.7563781373544
 20
-842.94572073510972
 30
0.0
  0
VERTEX
  5
E53
  8
0
  6
CONTINUOUS
 10
-221.5349174963261
 20
-856.50313038928743
 30
0.0
  0
VERTEX
  5
E54
  8
0
  6
CONTINUOUS
 10
-221.5349174963261
 20
-856.50313038928743
 30
0.0
  0
VERTEX
  5
E55
  8
0
  6
CONTINUOUS
 10
-221.9899572456454
 20
-871.1829182495195
 30
0.0
  0
VERTEX
  5
E56
  8
0
  6
CONTINUOUS
 10
-222.3891352291941
 20
-879.21304970823223
 30
0.0
  0
VERTEX
  5
E57
  8
0
  6
CONTINUOUS
 10
-223.10756485021349
 20
-887.85735518808872
 30
0.0
  0
VERTEX
  5
E58
  8
0
  6
CONTINUOUS
 10
-224.29885578236139
 20
-897.23134644064953
 30
0.0
  0
VERTEX
  5
E59
  8
0
  6
CONTINUOUS
 10
-226.1166176992964
 20
-907.45053521747343
 30
0.0
  0
VERTEX
  5
E5A
  8
0
  6
CONTINUOUS
 10
-227.30842830007731
 20
-912.91317609984685
 30
0.0
  0
VERTEX
  5
E5B
  8
0
  6
CONTINUOUS
 10
-228.7144602746767
 20
-918.63043327012065
 30
0.0
  0
VERTEX
  5
E5C
  8
0
  6
CONTINUOUS
 10
-230.3539148323018
 20
-924.61674569724039
 30
0.0
  0
VERTEX
  5
E5D
  8
0
  6
CONTINUOUS
 10
-232.2459931821603
 20
-930.88655235015108
 30
0.0
  0
VERTEX
  5
E5E
  8
0
  6
CONTINUOUS
 10
-232.2459931821603
 20
-930.88655235015108
 30
0.0
  0
VERTEX
  5
E5F
  8
0
  6
CONTINUOUS
 10
-236.89170887803641
 20
-944.84629467450372
 30
0.0
  0
VERTEX
  5
E60
  8
0
  6
CONTINUOUS
 10
-239.27117600938161
 20
-951.97652605349299
 30
0.0
  0
VERTEX
  5
E61
  8
0
  6
CONTINUOUS
 10
-241.4784541999781
 20
-959.02400660639069
 30
0.0
  0
VERTEX
  5
E62
  8
0
  6
CONTINUOUS
 10
-241.4784541999781
 20
-959.02400660639069
 30
0.0
  0
VERTEX
  5
E63
  8
0
  6
CONTINUOUS
 10
-243.51064012962161
 20
-965.96526730888615
 30
0.0
  0
VERTEX
  5
E64
  8
0
  6
CONTINUOUS
 10
-246.3513471538854
 20
-972.37651029083202
 30
0.0
  0
VERTEX
  5
E65
  8
0
  6
CONTINUOUS
 10
-250.82398515154719
 20
-979.70582000939271
 30
0.0
  0
VERTEX
  5
E66
  8
0
  6
CONTINUOUS
 10
-254.67544608339449
 20
-984.83458221576461
 30
0.0
  0
VERTEX
  5
E67
  8
0
  6
CONTINUOUS
 10
-261.4725315409724
 20
-990.20475900619999
 30
0.0
  0
VERTEX
  5
E68
  8
0
  6
CONTINUOUS
 10
-269.2718420883985
 20
-993.92153291900161
 30
0.0
  0
VERTEX
  5
E69
  8
0
  6
CONTINUOUS
 10
-277.55724489175748
 20
-995.58143675953636
 30
0.0
  0
VERTEX
  5
E6A
  8
0
  6
CONTINUOUS
 10
-277.55724489175748
 20
-995.58143675953636
 30
0.0
  0
VERTEX
  5
E6B
  8
0
  6
CONTINUOUS
 10
-289.0845749379597
 20
-996.01559399550433
 30
0.0
  0
VERTEX
  5
E6C
  8
0
  6
CONTINUOUS
 10
-302.1721186087658
 20
-996.22339326130896
 30
0.0
  0
SEQEND
  5
E6D
  8
0
  6
CONTINUOUS
  0
POLYLINE
  5
44C
  8
0
  6
CONTINUOUS
 66
     1
 10
0.0
 20
0.0
 30
0.0
  0
VERTEX
  5
E6E
  8
0
  6
CONTINUOUS
 10
-62.499999999999929
 20
-0.0000000000000004
 30
0.0
  0
VERTEX
  5
E6F
  8
0
  6
CONTINUOUS
 10
-65.961798884418442
 20
-82.452168228651544
 30
0.0
  0
VERTEX
  5
E70
  8
0
  6
CONTINUOUS
 10
-69.038134912473964
 20
-153.5172099571331
 30
0.0
  0
VERTEX
  5
E71
  8
0
  6
CONTINUOUS
 10
-69.038134912473964
 20
-153.5172099571331
 30
0.0
  0
VERTEX
  5
E72
  8
0
  6
CONTINUOUS
 10
-71.548229095948543
 20
-207.22612628461039
 30
0.0
  0
VERTEX
  5
E73
  8
0
  6
CONTINUOUS
 10
-74.130037919204625
 20
-259.28242870758947
 30
0.0
  0
VERTEX
  5
E74
  8
0
  6
CONTINUOUS
 10
-74.130037919204625
 20
-259.28242870758947
 30
0.0
  0
VERTEX
  5
E75
  8
0
  6
CONTINUOUS
 10
-77.506282250511262
 20
-325.61558401726319
 30
0.0
  0
VERTEX
  5
E76
  8
0
  6
CONTINUOUS
 10
-79.575763615484902
 20
-362.94823526508731
 30
0.0
  0
VERTEX
  5
E77
  8
0
  6
CONTINUOUS
 10
-81.920005021185062
 20
-401.38636978622691
 30
0.0
  0
VERTEX
  5
E78
  8
0
  6
CONTINUOUS
 10
-81.920005021185062
 20
-401.38636978622691
 30
0.0
  0
VERTEX
  5
E79
  8
0
  6
CONTINUOUS
 10
-87.371291258564256
 20
-483.46637340527639
 30
0.0
  0
VERTEX
  5
E7A
  8
0
  6
CONTINUOUS
 10
-90.339939124870256
 20
-534.09199423909195
 30
0.0
  0
VERTEX
  5
E7B
  8
0
  6
CONTINUOUS
 10
-91.851375576962269
 20
-563.51765852172355
 30
0.0
  0
VERTEX
  5
E7C
  8
0
  6
CONTINUOUS
 10
-93.368072311026992
 20
-596.33911075660967
 30
0.0
  0
VERTEX
  5
E7D
  8
0
  6
CONTINUOUS
 10
-93.368072311026992
 20
-596.33911075660967
 30
0.0
  0
VERTEX
  5
E7E
  8
0
  6
CONTINUOUS
 10
-94.494574912498592
 20
-623.71508501709889
 30
0.0
  0
VERTEX
  5
E7F
  8
0
  6
CONTINUOUS
 10
-95.450992324700877
 20
-652.20502903446697
 30
0.0
  0
VERTEX
  5
E80
  8
0
  6
CONTINUOUS
 10
-96.069767384542274
 20
-680.66482277019452
 30
0.0
  0
VERTEX
  5
E81
  8
0
  6
CONTINUOUS
 10
-96.200177418861543
 20
-694.52587577040549
 30
0.0
  0
VERTEX
  5
E82
  8
0
  6
CONTINUOUS
 10
-96.183342928931125
 20
-707.95034618576153
 30
0.0
  0
VERTEX
  5
E83
  8
0
  6
CONTINUOUS
 10
-96.183342928931125
 20
-707.95034618576153
 30
0.0
  0
VERTEX
  5
E84
  8
0
  6
CONTINUOUS
 10
-96.008074555501423
 20
-720.83159113139925
 30
0.0
  0
VERTEX
  5
E85
  8
0
  6
CONTINUOUS
 10
-95.702204083869404
 20
-733.20845620225953
 30
0.0
  0
VERTEX
  5
E86
  8
0
  6
CONTINUOUS
 10
-94.849005131733477
 20
-756.74991757921771
 30
0.0
  0
VERTEX
  5
E87
  8
0
  6
CONTINUOUS
 10
-93.924442643993231
 20
-779.17647203577656
 30
0.0
  0
VERTEX
  5
E88
  8
0
  6
CONTINUOUS
 10
-93.229213192118834
 20
-801.08986129107711
 30
0.0
  0
VERTEX
  5
E89
  8
0
  6
CONTINUOUS
 10
-93.229213192118834
 20
-801.08986129107711
 30
0.0
  0
VERTEX
  5
E8A
  8
0
  6
CONTINUOUS
 10
-93.014756833505217
 20
-812.08545529471269
 30
0.0
  0
VERTEX
  5
E8B
  8
0
  6
CONTINUOUS
 10
-92.689539749896952
 20
-823.43816337806368
 30
0.0
  0
VERTEX
  5
E8C
  8
0
  6
CONTINUOUS
 10
-92.010293814465356
 20
-835.48295549137663
 30
0.0
  0
VERTEX
  5
E8D
  8
0
  6
CONTINUOUS
 10
-91.461888737681903
 20
-841.86956116872011
 30
0.0
  0
VERTEX
  5
E8E
  8
0
  6
CONTINUOUS
 10
-90.73375090038185
 20
-848.55480158489593
 30
0.0
  0
VERTEX
  5
E8F
  8
0
  6
CONTINUOUS
 10
-89.795471786711616
 20
-855.58054798368516
 30
0.0
  0
VERTEX
  5
E90
  8
0
  6
CONTINUOUS
 10
-88.616642880817736
 20
-862.98867160886755
 30
0.0
  0
VERTEX
  5
E91
  8
0
  6
CONTINUOUS
 10
-87.166855666846487
 20
-870.82104370422519
 30
0.0
  0
VERTEX
  5
E92
  8
0
  6
CONTINUOUS
 10
-85.415701628944419
 20
-879.1195355135377
 30
0.0
  0
VERTEX
  5
E93
  8
0
  6
CONTINUOUS
 10
-83.332772251257808
 20
-887.92601828058594
 30
0.0
  0
VERTEX
  5
E94
  8
0
  6
CONTINUOUS
 10
-80.887659017933231
 20
-897.28236324915065
 30
0.0
  0
VERTEX
  5
E95
  8
0
  6
CONTINUOUS
 10
-78.049953413117066
 20
-907.23044166301213
 30
0.0
  0
VERTEX
  5
E96
  8
0
  6
CONTINUOUS
 10
-74.789246920955634
 20
-917.81212476595203
 30
0.0
  0
VERTEX
  5
E97
  8
0
  6
CONTINUOUS
 10
-74.789246920955634
 20
-917.81212476595203
 30
0.0
  0
VERTEX
  5
E98
  8
0
  6
CONTINUOUS
 10
-70.631973448983985
 20
-930.41550668100933
 30
0.0
  0
VERTEX
  5
E99
  8
0
  6
CONTINUOUS
 10
-64.641897973406543
 20
-949.30636034454949
 30
0.0
  0
VERTEX
  5
E9A
  8
0
  6
CONTINUOUS
 10
-59.958896864746151
 20
-961.78445874156762
 30
0.0
  0
VERTEX
  5
E9B
  8
0
  6
CONTINUOUS
 10
-59.958896864746151
 20
-961.78445874156762
 30
0.0
  0
VERTEX
  5
E9C
  8
0
  6
CONTINUOUS
 10
-55.269056044691318
 20
-973.06928567654268
 30
0.0
  0
VERTEX
  5
E9D
  8
0
  6
CONTINUOUS
 10
-52.12789369480501
 20
-979.07269871897631
 30
0.0
  0
VERTEX
  5
E9E
  8
0
  6
CONTINUOUS
 10
-48.498418444161267
 20
-985.02031216716421
 30
0.0
  0
VERTEX
  5
E9F
  8
0
  6
CONTINUOUS
 10
-42.836441547383743
 20
-990.96792561535131
 30
0.0
  0
VERTEX
  5
EA0
  8
0
  6
CONTINUOUS
 10
-37.319644825801667
 20
-994.88464678216474
 30
0.0
  0
VERTEX
  5
EA1
  8
0
  6
CONTINUOUS
 10
-30.641415025296169
 20
-997.64085841235931
 30
0.0
  0
VERTEX
  5
EA2
  8
0
  6
CONTINUOUS
 10
-23.96318522479157
 20
-999.38162390186631
 30
0.0
  0
VERTEX
  5
EA3
  8
0
  6
CONTINUOUS
 10
-23.96318522479157
 20
-999.38162390186631
 30
0.0
  0
VERTEX
  5
EA4
  8
0
  6
CONTINUOUS
 10
-12.432621831991471
 20
-999.78766399945539
 30
0.0
  0
VERTEX
  5
EA5
  8
0
  6
CONTINUOUS
 10
0.0
 20
-999.99999999999955
 30
0.0
  0
SEQEND
  5
EA6
  8
0
  6
CONTINUOUS
  0
POLYLINE
  5
44D
  8
0
  6
CONTINUOUS
 66
     1
 10
0.0
 20
0.0
 30
0.0
  0
VERTEX
  5
EA7
  8
0
  6
CONTINUOUS
 10
62.5
 20
-0.0000000000000004
 30
0.0
  0
VERTEX
  5
EA8
  8
0
  6
CONTINUOUS
 10
65.961798884418499
 20
-82.452168228651544
 30
0.0
  0
VERTEX
  5
EA9
  8
0
  6
CONTINUOUS
 10
69.038134912474092
 20
-153.5172099571331
 30
0.0
  0
VERTEX
  5
EAA
  8
0
  6
CONTINUOUS
 10
69.038134912474092
 20
-153.5172099571331
 30
0.0
  0
VERTEX
  5
EAB
  8
0
  6
CONTINUOUS
 10
71.548229095948614
 20
-207.22612628461039
 30
0.0
  0
VERTEX
  5
EAC
  8
0
  6
CONTINUOUS
 10
74.130037919204682
 20
-259.28242870758947
 30
0.0
  0
VERTEX
  5
EAD
  8
0
  6
CONTINUOUS
 10
74.130037919204682
 20
-259.28242870758947
 30
0.0
  0
VERTEX
  5
EAE
  8
0
  6
CONTINUOUS
 10
77.50628225051139
 20
-325.61558401726319
 30
0.0
  0
VERTEX
  5
EAF
  8
0
  6
CONTINUOUS
 10
79.575763615485016
 20
-362.94823526508731
 30
0.0
  0
VERTEX
  5
EB0
  8
0
  6
CONTINUOUS
 10
81.920005021185148
 20
-401.38636978622691
 30
0.0
  0
VERTEX
  5
EB1
  8
0
  6
CONTINUOUS
 10
81.920005021185148
 20
-401.38636978622691
 30
0.0
  0
VERTEX
  5
EB2
  8
0
  6
CONTINUOUS
 10
87.371291258564383
 20
-483.46637340527639
 30
0.0
  0
VERTEX
  5
EB3
  8
0
  6
CONTINUOUS
 10
90.339939124870412
 20
-534.09199423909195
 30
0.0
  0
VERTEX
  5
EB4
  8
0
  6
CONTINUOUS
 10
91.851375576962354
 20
-563.51765852172355
 30
0.0
  0
VERTEX
  5
EB5
  8
0
  6
CONTINUOUS
 10
93.368072311027063
 20
-596.33911075660967
 30
0.0
  0
VERTEX
  5
EB6
  8
0
  6
CONTINUOUS
 10
93.368072311027063
 20
-596.33911075660967
 30
0.0
  0
VERTEX
  5
EB7
  8
0
  6
CONTINUOUS
 10
94.494574912498706
 20
-623.71508501709889
 30
0.0
  0
VERTEX
  5
EB8
  8
0
  6
CONTINUOUS
 10
95.450992324701005
 20
-652.20502903446697
 30
0.0
  0
VERTEX
  5
EB9
  8
0
  6
CONTINUOUS
 10
96.069767384542416
 20
-680.66482277019452
 30
0.0
  0
VERTEX
  5
EBA
  8
0
  6
CONTINUOUS
 10
96.200177418861585
 20
-694.52587577040549
 30
0.0
  0
VERTEX
  5
EBB
  8
0
  6
CONTINUOUS
 10
96.183342928931225
 20
-707.95034618576153
 30
0.0
  0
VERTEX
  5
EBC
  8
0
  6
CONTINUOUS
 10
96.183342928931225
 20
-707.95034618576153
 30
0.0
  0
VERTEX
  5
EBD
  8
0
  6
CONTINUOUS
 10
96.00807455550148
 20
-720.83159113139925
 30
0.0
  0
VERTEX
  5
EBE
  8
0
  6
CONTINUOUS
 10
95.702204083869404
 20
-733.20845620225953
 30
0.0
  0
VERTEX
  5
EBF
  8
0
  6
CONTINUOUS
 10
94.849005131733477
 20
-756.74991757921771
 30
0.0
  0
VERTEX
  5
EC0
  8
0
  6
CONTINUOUS
 10
93.924442643993302
 20
-779.17647203577656
 30
0.0
  0
VERTEX
  5
EC1
  8
0
  6
CONTINUOUS
 10
93.229213192118877
 20
-801.08986129107711
 30
0.0
  0
VERTEX
  5
EC2
  8
0
  6
CONTINUOUS
 10
93.229213192118877
 20
-801.08986129107711
 30
0.0
  0
VERTEX
  5
EC3
  8
0
  6
CONTINUOUS
 10
93.014756833505288
 20
-812.08545529471269
 30
0.0
  0
VERTEX
  5
EC4
  8
0
  6
CONTINUOUS
 10
92.689539749897108
 20
-823.43816337806368
 30
0.0
  0
VERTEX
  5
EC5
  8
0
  6
CONTINUOUS
 10
92.010293814465484
 20
-835.48295549137663
 30
0.0
  0
VERTEX
  5
EC6
  8
0
  6
CONTINUOUS
 10
91.461888737682017
 20
-841.86956116872011
 30
0.0
  0
VERTEX
  5
EC7
  8
0
  6
CONTINUOUS
 10
90.73375090038185
 20
-848.55480158489593
 30
0.0
  0
VERTEX
  5
EC8
  8
0
  6
CONTINUOUS
 10
89.795471786711815
 20
-855.58054798368516
 30
0.0
  0
VERTEX
  5
EC9
  8
0
  6
CONTINUOUS
 10
88.616642880817807
 20
-862.98867160886755
 30
0.0
  0
VERTEX
  5
ECA
  8
0
  6
CONTINUOUS
 10
87.166855666846587
 20
-870.82104370422519
 30
0.0
  0
VERTEX
  5
ECB
  8
0
  6
CONTINUOUS
 10
85.415701628944504
 20
-879.1195355135377
 30
0.0
  0
VERTEX
  5
ECC
  8
0
  6
CONTINUOUS
 10
83.332772251257879
 20
-887.92601828058594
 30
0.0
  0
VERTEX
  5
ECD
  8
0
  6
CONTINUOUS
 10
80.88765901793326
 20
-897.28236324915065
 30
0.0
  0
VERTEX
  5
ECE
  8
0
  6
CONTINUOUS
 10
78.049953413117123
 20
-907.23044166301213
 30
0.0
  0
VERTEX
  5
ECF
  8
0
  6
CONTINUOUS
 10
74.789246920955733
 20
-917.81212476595203
 30
0.0
  0
VERTEX
  5
ED0
  8
0
  6
CONTINUOUS
 10
74.789246920955733
 20
-917.81212476595203
 30
0.0
  0
VERTEX
  5
ED1
  8
0
  6
CONTINUOUS
 10
70.631973448984127
 20
-930.41550668100933
 30
0.0
  0
VERTEX
  5
ED2
  8
0
  6
CONTINUOUS
 10
64.641897973406685
 20
-949.30636034454949
 30
0.0
  0
VERTEX
  5
ED3
  8
0
  6
CONTINUOUS
 10
59.958896864746301
 20
-961.78445874156762
 30
0.0
  0
VERTEX
  5
ED4
  8
0
  6
CONTINUOUS
 10
59.958896864746301
 20
-961.78445874156762
 30
0.0
  0
VERTEX
  5
ED5
  8
0
  6
CONTINUOUS
 10
55.269056044691411
 20
-973.06928567654268
 30
0.0
  0
VERTEX
  5
ED6
  8
0
  6
CONTINUOUS
 10
52.127893694805138
 20
-979.07269871897631
 30
0.0
  0
VERTEX
  5
ED7
  8
0
  6
CONTINUOUS
 10
48.498418444161409
 20
-985.02031216716421
 30
0.0
  0
VERTEX
  5
ED8
  8
0
  6
CONTINUOUS
 10
42.836441547383849
 20
-990.96792561535131
 30
0.0
  0
VERTEX
  5
ED9
  8
0
  6
CONTINUOUS
 10
37.319644825801781
 20
-994.88464678216474
 30
0.0
  0
VERTEX
  5
EDA
  8
0
  6
CONTINUOUS
 10
30.641415025296279
 20
-997.64085841235931
 30
0.0
  0
VERTEX
  5
EDB
  8
0
  6
CONTINUOUS
 10
23.963185224791658
 20
-999.38162390186631
 30
0.0
  0
VERTEX
  5
EDC
  8
0
  6
CONTINUOUS
 10
23.963185224791658
 20
-999.38162390186631
 30
0.0
  0
VERTEX
  5
EDD
  8
0
  6
CONTINUOUS
 10
12.43262183199157
 20
-999.78766399945539
 30
0.0
  0
VERTEX
  5
EDE
  8
0
  6
CONTINUOUS
 10
0.0000000000001137
 20
-999.99999999999955
 30
0.0
  0
SEQEND
  5
EDF
  8
0
  6
CONTINUOUS
  0
POLYLINE
  5
44E
  8
0
  6
CONTINUOUS
 66
     1
 10
0.0
 20
0.0
 30
0.0
  0
VERTEX
  5
EE0
  8
0
  6
CONTINUOUS
 10
62.5
 20
-0.0000000000000004
 30
0.0
  0
VERTEX
  5
EE1
  8
0
  6
CONTINUOUS
 10
63.85866578368757
 20
-147.94096749370141
 30
0.0
  0
VERTEX
  5
EE2
  8
0
  6
CONTINUOUS
 10
64.303798534791085
 20
-218.0750382768725
 30
0.0
  0
VERTEX
  5
EE3
  8
0
  6
CONTINUOUS
 10
64.467891117006374
 20
-283.60541350362831
 30
0.0
  0
VERTEX
  5
EE4
  8
0
  6
CONTINUOUS
 10
64.467891117006374
 20
-283.60541350362831
 30
0.0
  0
VERTEX
  5
EE5
  8
0
  6
CONTINUOUS
 10
64.344742881120283
 20
-344.01046042361457
 30
0.0
  0
VERTEX
  5
EE6
  8
0
  6
CONTINUOUS
 10
64.27807080625179
 20
-402.82027602695121
 30
0.0
  0
VERTEX
  5
EE7
  8
0
  6
CONTINUOUS
 10
64.400662199887151
 20
-433.04666878026251
 30
0.0
  0
VERTEX
  5
EE8
  8
0
  6
CONTINUOUS
 10
64.699071278602673
 20
-464.57788973887568
 30
0.0
  0
VERTEX
  5
EE9
  8
0
  6
CONTINUOUS
 10
65.22719759067364
 20
-497.98181758094478
 30
0.0
  0
VERTEX
  5
EEA
  8
0
  6
CONTINUOUS
 10
66.038940684375234
 20
-533.8263309846252
 30
0.0
  0
VERTEX
  5
EEB
  8
0
  6
CONTINUOUS
 10
66.038940684375234
 20
-533.8263309846252
 30
0.0
  0
VERTEX
  5
EEC
  8
0
  6
CONTINUOUS
 10
66.77187439872273
 20
-561.79140038021058
 30
0.0
  0
VERTEX
  5
EED
  8
0
  6
CONTINUOUS
 10
67.334419576017353
 20
-592.76995191752724
 30
0.0
  0
VERTEX
  5
EEE
  8
0
  6
CONTINUOUS
 10
67.443400415237292
 20
-609.83941839824945
 30
0.0
  0
VERTEX
  5
EEF
  8
0
  6
CONTINUOUS
 10
67.379708862554935
 20
-628.20241730510236
 30
0.0
  0
VERTEX
  5
EF0
  8
0
  6
CONTINUOUS
 10
67.099986498757175
 20
-648.03900260165165
 30
0.0
  0
VERTEX
  5
EF1
  8
0
  6
CONTINUOUS
 10
66.560874904631063
 20
-669.52922825146356
 30
0.0
  0
VERTEX
  5
EF2
  8
0
  6
CONTINUOUS
 10
66.560874904631063
 20
-669.52922825146356
 30
0.0
  0
VERTEX
  5
EF3
  8
0
  6
CONTINUOUS
 10
65.846201094895264
 20
-689.39553803973729
 30
0.0
  0
VERTEX
  5
EF4
  8
0
  6
CONTINUOUS
 10
64.80632671907199
 20
-710.57150716377521
 30
0.0
  0
VERTEX
  5
EF5
  8
0
  6
CONTINUOUS
 10
63.338890885385688
 20
-733.01709052739
 30
0.0
  0
VERTEX
  5
EF6
  8
0
  6
CONTINUOUS
 10
61.341532702060128
 20
-756.69224303439375
 30
0.0
  0
VERTEX
  5
EF7
  8
0
  6
CONTINUOUS
 10
61.341532702060128
 20
-756.69224303439375
 30
0.0
  0
VERTEX
  5
EF8
  8
0
  6
CONTINUOUS
 10
60.209105919357171
 20
-767.28691127682964
 30
0.0
  0
VERTEX
  5
EF9
  8
0
  6
CONTINUOUS
 10
59.411894583512421
 20
-773.00212763512525
 30
0.0
  0
VERTEX
  5
EFA
  8
0
  6
CONTINUOUS
 10
58.360282320300144
 20
-779.17591507741452
 30
0.0
  0
VERTEX
  5
EFB
  8
0
  6
CONTINUOUS
 10
56.978967406441249
 20
-785.94326079815312
 30
0.0
  0
VERTEX
  5
EFC
  8
0
  6
CONTINUOUS
 10
55.192648118656727
 20
-793.43915199179764
 30
0.0
  0
VERTEX
  5
EFD
  8
0
  6
CONTINUOUS
 10
52.92602273366753
 20
-801.79857585280445
 30
0.0
  0
VERTEX
  5
EFE
  8
0
  6
CONTINUOUS
 10
50.103789528194511
 20
-811.15651957562955
 30
0.0
  0
VERTEX
  5
EFF
  8
0
  6
CONTINUOUS
 10
50.103789528194511
 20
-811.15651957562955
 30
0.0
  0
VERTEX
  5
F00
  8
0
  6
CONTINUOUS
 10
47.362274563121311
 20
-819.55437589439668
 30
0.0
  0
VERTEX
  5
F01
  8
0
  6
CONTINUOUS
 10
44.389748643720161
 20
-828.11454094499095
 30
0.0
  0
VERTEX
  5
F02
  8
0
  6
CONTINUOUS
 10
41.379123987963048
 20
-836.23769302921835
 30
0.0
  0
VERTEX
  5
F03
  8
0
  6
CONTINUOUS
 10
38.523312813822201
 20
-843.32451044888433
 30
0.0
  0
VERTEX
  5
F04
  8
0
  6
CONTINUOUS
 10
38.523312813822201
 20
-843.32451044888433
 30
0.0
  0
VERTEX
  5
F05
  8
0
  6
CONTINUOUS
 10
35.89143675816365
 20
-849.01704397735182
 30
0.0
  0
VERTEX
  5
F06
  8
0
  6
CONTINUOUS
 10
34.534073596222569
 20
-851.51522495903703
 30
0.0
  0
VERTEX
  5
F07
  8
0
  6
CONTINUOUS
 10
33.057455133429571
 20
-853.9228342742141
 30
0.0
  0
VERTEX
  5
F08
  8
0
  6
CONTINUOUS
 10
29.47153667095586
 20
-858.89079447062068
 30
0.0
  0
VERTEX
  5
F09
  8
0
  6
CONTINUOUS
 10
24.5838501020786
 20
-864.76983769772175
 30
0.0
  0
VERTEX
  5
F0A
  8
0
  6
CONTINUOUS
 10
24.5838501020786
 20
-864.76983769772175
 30
0.0
  0
VERTEX
  5
F0B
  8
0
  6
CONTINUOUS
 10
22.27901777653619
 20
-867.37521158209722
 30
0.0
  0
VERTEX
  5
F0C
  8
0
  6
CONTINUOUS
 10
19.7170355974099
 20
-870.02645291424881
 30
0.0
  0
VERTEX
  5
F0D
  8
0
  6
CONTINUOUS
 10
16.907794764513589
 20
-872.51559927175344
 30
0.0
  0
VERTEX
  5
F0E
  8
0
  6
CONTINUOUS
 10
13.861186477661301
 20
-874.63468823218705
 30
0.0
  0
VERTEX
  5
F0F
  8
0
  6
CONTINUOUS
 10
13.861186477661301
 20
-874.63468823218705
 30
0.0
  0
VERTEX
  5
F10
  8
0
  6
CONTINUOUS
 10
10.594931580620351
 20
-876.21973735652125
 30
0.0
  0
VERTEX
  5
F11
  8
0
  6
CONTINUOUS
 10
7.1580694929729107
 20
-877.28268413930527
 30
0.0
  0
VERTEX
  5
F12
  8
0
  6
CONTINUOUS
 10
3.607469278254257
 20
-877.8794460584835
 30
0.0
  0
VERTEX
  5
F13
  8
0
  6
CONTINUOUS
 10
0.0000000000000568
 20
-878.06594059199983
 30
0.0
  0
VERTEX
  5
F14
  8
0
  6
CONTINUOUS
 10
0.0000000000000568
 20
-878.06594059199983
 30
0.0
  0
VERTEX
  5
F15
  8
0
  6
CONTINUOUS
 10
-3.6074692782541402
 20
-877.8794460584835
 30
0.0
  0
VERTEX
  5
F16
  8
0
  6
CONTINUOUS
 10
-7.1580694929727411
 20
-877.28268413930527
 30
0.0
  0
VERTEX
  5
F17
  8
0
  6
CONTINUOUS
 10
-10.59493158062025
 20
-876.21973735652125
 30
0.0
  0
VERTEX
  5
F18
  8
0
  6
CONTINUOUS
 10
-13.861186477661191
 20
-874.63468823218705
 30
0.0
  0
VERTEX
  5
F19
  8
0
  6
CONTINUOUS
 10
-13.861186477661191
 20
-874.63468823218705
 30
0.0
  0
VERTEX
  5
F1A
  8
0
  6
CONTINUOUS
 10
-16.907794764513461
 20
-872.51559927175344
 30
0.0
  0
VERTEX
  5
F1B
  8
0
  6
CONTINUOUS
 10
-19.71703559740979
 20
-870.02645291424881
 30
0.0
  0
VERTEX
  5
F1C
  8
0
  6
CONTINUOUS
 10
-22.279017776536062
 20
-867.37521158209722
 30
0.0
  0
VERTEX
  5
F1D
  8
0
  6
CONTINUOUS
 10
-24.583850102078479
 20
-864.76983769772175
 30
0.0
  0
VERTEX
  5
F1E
  8
0
  6
CONTINUOUS
 10
-24.583850102078479
 20
-864.76983769772175
 30
0.0
  0
VERTEX
  5
F1F
  8
0
  6
CONTINUOUS
 10
-29.471536670955729
 20
-858.89079447062068
 30
0.0
  0
VERTEX
  5
F20
  8
0
  6
CONTINUOUS
 10
-33.057455133429471
 20
-853.9228342742141
 30
0.0
  0
VERTEX
  5
F21
  8
0
  6
CONTINUOUS
 10
-34.534073596222463
 20
-851.51522495903703
 30
0.0
  0
VERTEX
  5
F22
  8
0
  6
CONTINUOUS
 10
-35.89143675816355
 20
-849.01704397735182
 30
0.0
  0
VERTEX
  5
F23
  8
0
  6
CONTINUOUS
 10
-38.523312813822031
 20
-843.32451044888433
 30
0.0
  0
VERTEX
  5
F24
  8
0
  6
CONTINUOUS
 10
-38.523312813822031
 20
-843.32451044888433
 30
0.0
  0
VERTEX
  5
F25
  8
0
  6
CONTINUOUS
 10
-41.37912398796292
 20
-836.23769302921835
 30
0.0
  0
VERTEX
  5
F26
  8
0
  6
CONTINUOUS
 10
-44.389748643720047
 20
-828.11454094499095
 30
0.0
  0
VERTEX
  5
F27
  8
0
  6
CONTINUOUS
 10
-47.36227456312124
 20
-819.55437589439668
 30
0.0
  0
VERTEX
  5
F28
  8
0
  6
CONTINUOUS
 10
-50.103789528194397
 20
-811.15651957562955
 30
0.0
  0
VERTEX
  5
F29
  8
0
  6
CONTINUOUS
 10
-50.103789528194397
 20
-811.15651957562955
 30
0.0
  0
VERTEX
  5
F2A
  8
0
  6
CONTINUOUS
 10
-52.926022733667381
 20
-801.79857585280445
 30
0.0
  0
VERTEX
  5
F2B
  8
0
  6
CONTINUOUS
 10
-55.192648118656642
 20
-793.43915199179764
 30
0.0
  0
VERTEX
  5
F2C
  8
0
  6
CONTINUOUS
 10
-56.978967406441171
 20
-785.94326079815312
 30
0.0
  0
VERTEX
  5
F2D
  8
0
  6
CONTINUOUS
 10
-58.360282320300023
 20
-779.17591507741452
 30
0.0
  0
VERTEX
  5
F2E
  8
0
  6
CONTINUOUS
 10
-59.411894583512279
 20
-773.00212763512525
 30
0.0
  0
VERTEX
  5
F2F
  8
0
  6
CONTINUOUS
 10
-60.209105919357008
 20
-767.28691127682964
 30
0.0
  0
VERTEX
  5
F30
  8
0
  6
CONTINUOUS
 10
-61.341532702059993
 20
-756.69224303439375
 30
0.0
  0
VERTEX
  5
F31
  8
0
  6
CONTINUOUS
 10
-61.341532702059993
 20
-756.69224303439375
 30
0.0
  0
VERTEX
  5
F32
  8
0
  6
CONTINUOUS
 10
-63.338890885385489
 20
-733.01709052739
 30
0.0
  0
VERTEX
  5
F33
  8
0
  6
CONTINUOUS
 10
-64.806326719071933
 20
-710.57150716377521
 30
0.0
  0
VERTEX
  5
F34
  8
0
  6
CONTINUOUS
 10
-65.84620109489515
 20
-689.39553803973729
 30
0.0
  0
VERTEX
  5
F35
  8
0
  6
CONTINUOUS
 10
-66.56087490463095
 20
-669.52922825146356
 30
0.0
  0
VERTEX
  5
F36
  8
0
  6
CONTINUOUS
 10
-66.56087490463095
 20
-669.52922825146356
 30
0.0
  0
VERTEX
  5
F37
  8
0
  6
CONTINUOUS
 10
-67.099986498757033
 20
-648.03900260165199
 30
0.0
  0
VERTEX
  5
F38
  8
0
  6
CONTINUOUS
 10
-67.379708862554736
 20
-628.20241730510236
 30
0.0
  0
VERTEX
  5
F39
  8
0
  6
CONTINUOUS
 10
-67.443400415237093
 20
-609.83941839824945
 30
0.0
  0
VERTEX
  5
F3A
  8
0
  6
CONTINUOUS
 10
-67.334419576017211
 20
-592.76995191752724
 30
0.0
  0
VERTEX
  5
F3B
  8
0
  6
CONTINUOUS
 10
-66.771874398722531
 20
-561.79140038021058
 30
0.0
  0
VERTEX
  5
F3C
  8
0
  6
CONTINUOUS
 10
-66.038940684375035
 20
-533.8263309846252
 30
0.0
  0
VERTEX
  5
F3D
  8
0
  6
CONTINUOUS
 10
-66.038940684375035
 20
-533.8263309846252
 30
0.0
  0
VERTEX
  5
F3E
  8
0
  6
CONTINUOUS
 10
-65.227197590673455
 20
-497.98181758094478
 30
0.0
  0
VERTEX
  5
F3F
  8
0
  6
CONTINUOUS
 10
-64.699071278602531
 20
-464.57788973887568
 30
0.0
  0
VERTEX
  5
F40
  8
0
  6
CONTINUOUS
 10
-64.400662199886966
 20
-433.04666878026251
 30
0.0
  0
VERTEX
  5
F41
  8
0
  6
CONTINUOUS
 10
-64.278070806251534
 20
-402.82027602695121
 30
0.0
  0
VERTEX
  5
F42
  8
0
  6
CONTINUOUS
 10
-64.344742881120112
 20
-344.01046042361457
 30
0.0
  0
VERTEX
  5
F43
  8
0
  6
CONTINUOUS
 10
-64.467891117006261
 20
-283.60541350362831
 30
0.0
  0
VERTEX
  5
F44
  8
0
  6
CONTINUOUS
 10
-64.467891117006261
 20
-283.60541350362831
 30
0.0
  0
VERTEX
  5
F45
  8
0
  6
CONTINUOUS
 10
-64.303798534790971
 20
-218.0750382768725
 30
0.0
  0
VERTEX
  5
F46
  8
0
  6
CONTINUOUS
 10
-63.8586657836874
 20
-147.94096749370141
 30
0.0
  0
VERTEX
  5
F47
  8
0
  6
CONTINUOUS
 10
-62.499999999999773
 20
-0.0000000000000004
 30
0.0
  0
SEQEND
  5
F48
  8
0
  6
CONTINUOUS
  0
POLYLINE
  5
44F
  8
0
  6
CONTINUOUS
 66
     1
 10
0.0
 20
0.0
 30
0.0
  0
VERTEX
  5
F49
  8
0
  6
CONTINUOUS
 10
-289.6721186087658
 20
3.7766067386907798
 30
0.0
  0
VERTEX
  5
F4A
  8
0
  6
CONTINUOUS
 10
-278.48805486617903
 20
-113.7165166788036
 30
0.0
  0
VERTEX
  5
F4B
  8
0
  6
CONTINUOUS
 10
-272.96883624495712
 20
-170.41947956166831
 30
0.0
  0
VERTEX
  5
F4C
  8
0
  6
CONTINUOUS
 10
-267.53699352382159
 20
-224.6701238534738
 30
0.0
  0
VERTEX
  5
F4D
  8
0
  6
CONTINUOUS
 10
-267.53699352382159
 20
-224.6701238534738
 30
0.0
  0
VERTEX
  5
F4E
  8
0
  6
CONTINUOUS
 10
-262.23320171509772
 20
-276.94158767735871
 30
0.0
  0
VERTEX
  5
F4F
  8
0
  6
CONTINUOUS
 10
-259.65575112759478
 20
-304.01554354083231
 30
0.0
  0
VERTEX
  5
F50
  8
0
  6
CONTINUOUS
 10
-257.14433468030012
 20
-332.86931977042627
 30
0.0
  0
VERTEX
  5
F51
  8
0
  6
CONTINUOUS
 10
-254.7112553199398
 20
-364.36866966496478
 30
0.0
  0
VERTEX
  5
F52
  8
0
  6
CONTINUOUS
 10
-252.3688159932405
 20
-399.37934652327232
 30
0.0
  0
VERTEX
  5
F53
  8
0
  6
CONTINUOUS
 10
-250.12931964692871
 20
-438.76710364417278
 30
0.0
  0
VERTEX
  5
F54
  8
0
  6
CONTINUOUS
 10
-248.00506922773059
 20
-483.39769432649138
 30
0.0
  0
VERTEX
  5
F55
  8
0
  6
CONTINUOUS
 10
-248.00506922773059
 20
-483.39769432649138
 30
0.0
  0
VERTEX
  5
F56
  8
0
  6
CONTINUOUS
 10
-246.77115025839649
 20
-513.74687134827275
 30
0.0
  0
VERTEX
  5
F57
  8
0
  6
CONTINUOUS
 10
-245.69661526473359
 20
-544.9337968933803
 30
0.0
  0
VERTEX
  5
F58
  8
0
  6
CONTINUOUS
 10
-244.89197099519339
 20
-575.45538511344944
 30
0.0
  0
VERTEX
  5
F59
  8
0
  6
CONTINUOUS
 10
-244.4677241982279
 20
-603.80855016011537
 30
0.0
  0
VERTEX
  5
F5A
  8
0
  6
CONTINUOUS
 10
-244.4677241982279
 20
-603.80855016011537
 30
0.0
  0
VERTEX
  5
F5B
  8
0
  6
CONTINUOUS
 10
-244.4921486349802
 20
-628.82669789655006
 30
0.0
  0
VERTEX
  5
F5C
  8
0
  6
CONTINUOUS
 10
-244.86458611735659
 20
-650.68920103207438
 30
0.0
  0
VERTEX
  5
F5D
  8
0
  6
CONTINUOUS
 10
-245.4421454699544
 20
-669.9119239875447
 30
0.0
  0
VERTEX
  5
F5E
  8
0
  6
CONTINUOUS
 10
-246.08193551737079
 20
-687.01073118381805
 30
0.0
  0
VERTEX
  5
F5F
  8
0
  6
CONTINUOUS
 10
-246.08193551737079
 20
-687.01073118381805
 30
0.0
  0
VERTEX
  5
F60
  8
0
  6
CONTINUOUS
 10
-246.751834622318
 20
-702.77961687795073
 30
0.0
  0
VERTEX
  5
F61
  8
0
  6
CONTINUOUS
 10
-247.21957588622411
 20
-710.74374154752911
 30
0.0
  0
VERTEX
  5
F62
  8
0
  6
CONTINUOUS
 10
-247.8627992999661
 20
-719.12509467179075
 30
0.0
  0
VERTEX
  5
F63
  8
0
  6
CONTINUOUS
 10
-248.74672062020429
 20
-728.19675668049103
 30
0.0
  0
VERTEX
  5
F64
  8
0
  6
CONTINUOUS
 10
-249.9365556035998
 20
-738.2318080033865
 30
0.0
  0
VERTEX
  5
F65
  8
0
  6
CONTINUOUS
 10
-251.49752000681281
 20
-749.50332907023255
 30
0.0
  0
VERTEX
  5
F66
  8
0
  6
CONTINUOUS
 10
-253.49482958650401
 20
-762.28440031078514
 30
0.0
  0
VERTEX
  5
F67
  8
0
  6
CONTINUOUS
 10
-253.49482958650401
 20
-762.28440031078514
 30
0.0
  0
VERTEX
  5
F68
  8
0
  6
CONTINUOUS
 10
-255.62664441217751
 20
-774.73478974219961
 30
0.0
  0
VERTEX
  5
F69
  8
0
  6
CONTINUOUS
 10
-257.91752801239932
 20
-786.93050328311153
 30
0.0
  0
VERTEX
  5
F6A
  8
0
  6
CONTINUOUS
 10
-257.91752801239932
 20
-786.93050328311153
 30
0.0
  0
VERTEX
  5
F6B
  8
0
  6
CONTINUOUS
 10
-260.73714341619581
 20
-800.04663675824975
 30
0.0
  0
VERTEX
  5
F6C
  8
0
  6
CONTINUOUS
 10
-263.3705203645145
 20
-810.799542936904
 30
0.0
  0
VERTEX
  5
F6D
  8
0
  6
CONTINUOUS
 10
-267.79548421549902
 20
-827.8178404659875
 30
0.0
  0
VERTEX
  5
F6E
  8
0
  6
CONTINUOUS
 10
-267.79548421549902
 20
-827.8178404659875
 30
0.0
  0
VERTEX
  5
F6F
  8
0
  6
CONTINUOUS
 10
-269.57204839348339
 20
-835.34352136345785
 30
0.0
  0
VERTEX
  5
F70
  8
0
  6
CONTINUOUS
 10
-270.52597600181821
 20
-839.0788166444421
 30
0.0
  0
VERTEX
  5
F71
  8
0
  6
CONTINUOUS
 10
-271.63838712634202
 20
-842.86337812423642
 30
0.0
  0
VERTEX
  5
F72
  8
0
  6
CONTINUOUS
 10
-272.99532164452592
 20
-846.74792803582545
 30
0.0
  0
VERTEX
  5
F73
  8
0
  6
CONTINUOUS
 10
-274.68281943384062
 20
-850.78318861219304
 30
0.0
  0
VERTEX
  5
F74
  8
0
  6
CONTINUOUS
 10
-276.78692037175699
 20
-855.01988208632145
 30
0.0
  0
VERTEX
  5
F75
  8
0
  6
CONTINUOUS
 10
-279.39366433574571
 20
-859.50873069119632
 30
0.0
  0
VERTEX
  5
F76
  8
0
  6
CONTINUOUS
 10
-279.39366433574571
 20
-859.50873069119632
 30
0.0
  0
VERTEX
  5
F77
  8
0
  6
CONTINUOUS
 10
-281.15129197912501
 20
-862.19338414654874
 30
0.0
  0
VERTEX
  5
F78
  8
0
  6
CONTINUOUS
 10
-283.20298109711109
 20
-864.95360575765812
 30
0.0
  0
VERTEX
  5
F79
  8
0
  6
CONTINUOUS
 10
-285.65165560975407
 20
-867.76662340526082
 30
0.0
  0
VERTEX
  5
F7A
  8
0
  6
CONTINUOUS
 10
-288.60023943710451
 20
-870.60966497009508
 30
0.0
  0
VERTEX
  5
F7B
  8
0
  6
CONTINUOUS
 10
-288.60023943710451
 20
-870.60966497009508
 30
0.0
  0
VERTEX
  5
F7C
  8
0
  6
CONTINUOUS
 10
-290.10793170285831
 20
-871.85959964153426
 30
0.0
  0
VERTEX
  5
F7D
  8
0
  6
CONTINUOUS
 10
-291.8891220584855
 20
-873.07732795216145
 30
0.0
  0
VERTEX
  5
F7E
  8
0
  6
CONTINUOUS
 10
-294.10048274537883
 20
-874.22923818160405
 30
0.0
  0
VERTEX
  5
F7F
  8
0
  6
CONTINUOUS
 10
-296.89868600493139
 20
-875.2817186094876
 30
0.0
  0
VERTEX
  5
F80
  8
0
  6
CONTINUOUS
 10
-296.89868600493139
 20
-875.2817186094876
 30
0.0
  0
VERTEX
  5
F81
  8
0
  6
CONTINUOUS
 10
-299.43084469143332
 20
-875.93847449019825
 30
0.0
  0
VERTEX
  5
F82
  8
0
  6
CONTINUOUS
 10
-302.1721186087658
 20
-876.22339326130896
 30
0.0
  0
VERTEX
  5
F83
  8
0
  6
CONTINUOUS
 10
-302.1721186087658
 20
-876.22339326130896
 30
0.0
  0
VERTEX
  5
F84
  8
0
  6
CONTINUOUS
 10
-304.91339252609851
 20
-875.93847449019825
 30
0.0
  0
VERTEX
  5
F85
  8
0
  6
CONTINUOUS
 10
-307.44555121260032
 20
-875.2817186094876
 30
0.0
  0
VERTEX
  5
F86
  8
0
  6
CONTINUOUS
 10
-307.44555121260032
 20
-875.2817186094876
 30
0.0
  0
VERTEX
  5
F87
  8
0
  6
CONTINUOUS
 10
-310.24375447215277
 20
-874.22923818160405
 30
0.0
  0
VERTEX
  5
F88
  8
0
  6
CONTINUOUS
 10
-312.45511515904639
 20
-873.07732795216145
 30
0.0
  0
VERTEX
  5
F89
  8
0
  6
CONTINUOUS
 10
-314.23630551467352
 20
-871.85959964153426
 30
0.0
  0
VERTEX
  5
F8A
  8
0
  6
CONTINUOUS
 10
-315.74399778042732
 20
-870.60966497009508
 30
0.0
  0
VERTEX
  5
F8B
  8
0
  6
CONTINUOUS
 10
-315.74399778042732
 20
-870.60966497009508
 30
0.0
  0
VERTEX
  5
F8C
  8
0
  6
CONTINUOUS
 10
-318.69258160777758
 20
-867.76662340526082
 30
0.0
  0
VERTEX
  5
F8D
  8
0
  6
CONTINUOUS
 10
-321.14125612042062
 20
-864.95360575765812
 30
0.0
  0
VERTEX
  5
F8E
  8
0
  6
CONTINUOUS
 10
-323.19294523840682
 20
-862.19338414654874
 30
0.0
  0
VERTEX
  5
F8F
  8
0
  6
CONTINUOUS
 10
-324.95057288178612
 20
-859.50873069119632
 30
0.0
  0
VERTEX
  5
F90
  8
0
  6
CONTINUOUS
 10
-324.95057288178612
 20
-859.50873069119632
 30
0.0
  0
VERTEX
  5
F91
  8
0
  6
CONTINUOUS
 10
-327.55731684577489
 20
-855.01988208632145
 30
0.0
  0
VERTEX
  5
F92
  8
0
  6
CONTINUOUS
 10
-329.66141778369098
 20
-850.78318861219304
 30
0.0
  0
VERTEX
  5
F93
  8
0
  6
CONTINUOUS
 10
-331.34891557300602
 20
-846.74792803582545
 30
0.0
  0
VERTEX
  5
F94
  8
0
  6
CONTINUOUS
 10
-332.7058500911898
 20
-842.86337812423642
 30
0.0
  0
VERTEX
  5
F95
  8
0
  6
CONTINUOUS
 10
-333.81826121571362
 20
-839.0788166444421
 30
0.0
  0
VERTEX
  5
F96
  8
0
  6
CONTINUOUS
 10
-334.77218882404821
 20
-835.34352136345785
 30
0.0
  0
VERTEX
  5
F97
  8
0
  6
CONTINUOUS
 10
-336.5487530020327
 20
-827.8178404659875
 30
0.0
  0
VERTEX
  5
F98
  8
0
  6
CONTINUOUS
 10
-336.5487530020327
 20
-827.8178404659875
 30
0.0
  0
VERTEX
  5
F99
  8
0
  6
CONTINUOUS
 10
-340.97371685301721
 20
-810.799542936904
 30
0.0
  0
VERTEX
  5
F9A
  8
0
  6
CONTINUOUS
 10
-343.60709380133579
 20
-800.04663675824975
 30
0.0
  0
VERTEX
  5
F9B
  8
0
  6
CONTINUOUS
 10
-346.42670920513223
 20
-786.93050328311153
 30
0.0
  0
VERTEX
  5
F9C
  8
0
  6
CONTINUOUS
 10
-346.42670920513223
 20
-786.93050328311153
 30
0.0
  0
VERTEX
  5
F9D
  8
0
  6
CONTINUOUS
 10
-348.71759280535417
 20
-774.73478974219961
 30
0.0
  0
VERTEX
  5
F9E
  8
0
  6
CONTINUOUS
 10
-350.84940763102782
 20
-762.28440031078514
 30
0.0
  0
VERTEX
  5
F9F
  8
0
  6
CONTINUOUS
 10
-350.84940763102782
 20
-762.28440031078514
 30
0.0
  0
VERTEX
  5
FA0
  8
0
  6
CONTINUOUS
 10
-352.84671721071919
 20
-749.50332907023255
 30
0.0
  0
VERTEX
  5
FA1
  8
0
  6
CONTINUOUS
 10
-354.40768161393203
 20
-738.2318080033865
 30
0.0
  0
VERTEX
  5
FA2
  8
0
  6
CONTINUOUS
 10
-355.59751659732751
 20
-728.19675668049103
 30
0.0
  0
VERTEX
  5
FA3
  8
0
  6
CONTINUOUS
 10
-356.48143791756593
 20
-719.12509467179075
 30
0.0
  0
VERTEX
  5
FA4
  8
0
  6
CONTINUOUS
 10
-357.12466133130778
 20
-710.74374154752911
 30
0.0
  0
VERTEX
  5
FA5
  8
0
  6
CONTINUOUS
 10
-357.59240259521368
 20
-702.77961687795073
 30
0.0
  0
VERTEX
  5
FA6
  8
0
  6
CONTINUOUS
 10
-358.262301700161
 20
-687.01073118381805
 30
0.0
  0
VERTEX
  5
FA7
  8
0
  6
CONTINUOUS
 10
-358.262301700161
 20
-687.01073118381805
 30
0.0
  0
VERTEX
  5
FA8
  8
0
  6
CONTINUOUS
 10
-358.90209174757717
 20
-669.9119239875447
 30
0.0
  0
VERTEX
  5
FA9
  8
0
  6
CONTINUOUS
 10
-359.47965110017492
 20
-650.68920103207438
 30
0.0
  0
VERTEX
  5
FAA
  8
0
  6
CONTINUOUS
 10
-359.85208858255129
 20
-628.82669789655006
 30
0.0
  0
VERTEX
  5
FAB
  8
0
  6
CONTINUOUS
 10
-359.87651301930367
 20
-603.80855016011537
 30
0.0
  0
VERTEX
  5
FAC
  8
0
  6
CONTINUOUS
 10
-359.87651301930367
 20
-603.80855016011537
 30
0.0
  0
VERTEX
  5
FAD
  8
0
  6
CONTINUOUS
 10
-359.45226622233849
 20
-575.45538511344944
 30
0.0
  0
VERTEX
  5
FAE
  8
0
  6
CONTINUOUS
 10
-358.64762195279809
 20
-544.9337968933803
 30
0.0
  0
VERTEX
  5
FAF
  8
0
  6
CONTINUOUS
 10
-357.57308695913508
 20
-513.74687134827275
 30
0.0
  0
VERTEX
  5
FB0
  8
0
  6
CONTINUOUS
 10
-356.33916798980118
 20
-483.39769432649138
 30
0.0
  0
VERTEX
  5
FB1
  8
0
  6
CONTINUOUS
 10
-356.33916798980118
 20
-483.39769432649138
 30
0.0
  0
VERTEX
  5
FB2
  8
0
  6
CONTINUOUS
 10
-354.21491757060312
 20
-438.76710364417278
 30
0.0
  0
VERTEX
  5
FB3
  8
0
  6
CONTINUOUS
 10
-351.9754212242911
 20
-399.37934652327232
 30
0.0
  0
VERTEX
  5
FB4
  8
0
  6
CONTINUOUS
 10
-349.63298189759172
 20
-364.36866966496478
 30
0.0
  0
VERTEX
  5
FB5
  8
0
  6
CONTINUOUS
 10
-347.19990253723159
 20
-332.86931977042627
 30
0.0
  0
VERTEX
  5
FB6
  8
0
  6
CONTINUOUS
 10
-344.68848608993687
 20
-304.01554354083231
 30
0.0
  0
VERTEX
  5
FB7
  8
0
  6
CONTINUOUS
 10
-342.11103550243411
 20
-276.94158767735871
 30
0.0
  0
VERTEX
  5
FB8
  8
0
  6
CONTINUOUS
 10
-336.80724369371012
 20
-224.6701238534738
 30
0.0
  0
VERTEX
  5
FB9
  8
0
  6
CONTINUOUS
 10
-336.80724369371012
 20
-224.6701238534738
 30
0.0
  0
VERTEX
  5
FBA
  8
0
  6
CONTINUOUS
 10
-331.37540097257431
 20
-170.41947956166831
 30
0.0
  0
VERTEX
  5
FBB
  8
0
  6
CONTINUOUS
 10
-325.85618235135257
 20
-113.7165166788036
 30
0.0
  0
VERTEX
  5
FBC
  8
0
  6
CONTINUOUS
 10
-314.6721186087658
 20
3.7766067386907798
 30
0.0
  0
SEQEND
  5
FBD
  8
0
  6
CONTINUOUS
  0
POLYLINE
  5
450
  8
0
  6
CONTINUOUS
 66
     1
 10
0.0
 20
0.0
 30
0.0
  0
VERTEX
  5
FBE
  8
0
  6
CONTINUOUS
 10
-314.6721186087658
 20
3.7766067386907798
 30
0.0
  0
VERTEX
  5
FBF
  8
0
  6
CONTINUOUS
 10
-335.1714540604209
 20
-164.48365390275839
 30
0.0
  0
VERTEX
  5
FC0
  8
0
  6
CONTINUOUS
 10
-357.31724472219781
 20
-348.03120324021592
 30
0.0
  0
VERTEX
  5
FC1
  8
0
  6
CONTINUOUS
 10
-357.31724472219781
 20
-348.03120324021592
 30
0.0
  0
VERTEX
  5
FC2
  8
0
  6
CONTINUOUS
 10
-361.90101863408478
 20
-386.90221946622182
 30
0.0
  0
VERTEX
  5
FC3
  8
0
  6
CONTINUOUS
 10
-366.69238317264092
 20
-430.95936654022353
 30
0.0
  0
VERTEX
  5
FC4
  8
0
  6
CONTINUOUS
 10
-369.1929603878022
 20
-456.20221391789971
 30
0.0
  0
VERTEX
  5
FC5
  8
0
  6
CONTINUOUS
 10
-371.77789341268982
 20
-484.26496373478801
 30
0.0
  0
VERTEX
  5
FC6
  8
0
  6
CONTINUOUS
 10
-374.45800163165632
 20
-515.65540589995965
 30
0.0
  0
VERTEX
  5
FC7
  8
0
  6
CONTINUOUS
 10
-377.24410442905452
 20
-550.88133032248493
 30
0.0
  0
VERTEX
  5
FC8
  8
0
  6
CONTINUOUS
 10
-377.24410442905452
 20
-550.88133032248493
 30
0.0
  0
VERTEX
  5
FC9
  8
0
  6
CONTINUOUS
 10
-380.88015513524289
 20
-599.98554780294569
 30
0.0
  0
VERTEX
  5
FCA
  8
0
  6
CONTINUOUS
 10
-384.42056009527471
 20
-647.13958455855732
 30
0.0
  0
VERTEX
  5
FCB
  8
0
  6
CONTINUOUS
 10
-384.42056009527471
 20
-647.13958455855732
 30
0.0
  0
VERTEX
  5
FCC
  8
0
  6
CONTINUOUS
 10
-386.04533339530639
 20
-667.84922108850674
 30
0.0
  0
VERTEX
  5
FCD
  8
0
  6
CONTINUOUS
 10
-387.41172961660283
 20
-688.57000846537539
 30
0.0
  0
VERTEX
  5
FCE
  8
0
  6
CONTINUOUS
 10
-387.94679219020878
 20
-699.78392000542203
 30
0.0
  0
VERTEX
  5
FCF
  8
0
  6
CONTINUOUS
 10
-388.35576753511128
 20
-712.01982279802019
 30
0.0
  0
VERTEX
  5
FD0
  8
0
  6
CONTINUOUS
 10
-388.61815799830401
 20
-725.61745135677711
 30
0.0
  0
VERTEX
  5
FD1
  8
0
  6
CONTINUOUS
 10
-388.71346592677958
 20
-740.9165401952996
 30
0.0
  0
VERTEX
  5
FD2
  8
0
  6
CONTINUOUS
 10
-388.71346592677958
 20
-740.9165401952996
 30
0.0
  0
VERTEX
  5
FD3
  8
0
  6
CONTINUOUS
 10
-388.63742232002818
 20
-755.82214911234075
 30
0.0
  0
VERTEX
  5
FD4
  8
0
  6
CONTINUOUS
 10
-388.3670315883686
 20
-771.55683990445561
 30
0.0
  0
VERTEX
  5
FD5
  8
0
  6
CONTINUOUS
 10
-387.8518697422133
 20
-787.3835634068281
 30
0.0
  0
VERTEX
  5
FD6
  8
0
  6
CONTINUOUS
 10
-387.04151279197481
 20
-802.5652704546402
 30
0.0
  0
VERTEX
  5
FD7
  8
0
  6
CONTINUOUS
 10
-387.04151279197481
 20
-802.5652704546402
 30
0.0
  0
VERTEX
  5
FD8
  8
0
  6
CONTINUOUS
 10
-385.93193777248382
 20
-816.58994593909529
 30
0.0
  0
VERTEX
  5
FD9
  8
0
  6
CONTINUOUS
 10
-384.70472581624398
 20
-829.84571097548223
 30
0.0
  0
VERTEX
  5
FDA
  8
0
  6
CONTINUOUS
 10
-383.58785908017722
 20
-842.94572073510972
 30
0.0
  0
VERTEX
  5
FDB
  8
0
  6
CONTINUOUS
 10
-382.8093197212055
 20
-856.50313038928743
 30
0.0
  0
VERTEX
  5
FDC
  8
0
  6
CONTINUOUS
 10
-382.8093197212055
 20
-856.50313038928743
 30
0.0
  0
VERTEX
  5
FDD
  8
0
  6
CONTINUOUS
 10
-382.35427997188623
 20
-871.1829182495195
 30
0.0
  0
VERTEX
  5
FDE
  8
0
  6
CONTINUOUS
 10
-381.9551019883375
 20
-879.21304970823223
 30
0.0
  0
VERTEX
  5
FDF
  8
0
  6
CONTINUOUS
 10
-381.23667236731819
 20
-887.85735518808872
 30
0.0
  0
VERTEX
  5
FE0
  8
0
  6
CONTINUOUS
 10
-380.04538143517033
 20
-897.23134644064953
 30
0.0
  0
VERTEX
  5
FE1
  8
0
  6
CONTINUOUS
 10
-378.22761951823509
 20
-907.45053521747343
 30
0.0
  0
VERTEX
  5
FE2
  8
0
  6
CONTINUOUS
 10
-377.0358089174544
 20
-912.91317609984685
 30
0.0
  0
VERTEX
  5
FE3
  8
0
  6
CONTINUOUS
 10
-375.62977694285507
 20
-918.63043327012065
 30
0.0
  0
VERTEX
  5
FE4
  8
0
  6
CONTINUOUS
 10
-373.99032238522972
 20
-924.61674569724039
 30
0.0
  0
VERTEX
  5
FE5
  8
0
  6
CONTINUOUS
 10
-372.09824403537141
 20
-930.88655235015108
 30
0.0
  0
VERTEX
  5
FE6
  8
0
  6
CONTINUOUS
 10
-372.09824403537141
 20
-930.88655235015108
 30
0.0
  0
VERTEX
  5
FE7
  8
0
  6
CONTINUOUS
 10
-367.45252833949542
 20
-944.84629467450372
 30
0.0
  0
VERTEX
  5
FE8
  8
0
  6
CONTINUOUS
 10
-365.07306120815019
 20
-951.97652605349299
 30
0.0
  0
VERTEX
  5
FE9
  8
0
  6
CONTINUOUS
 10
-362.8657830175535
 20
-959.02400660639069
 30
0.0
  0
VERTEX
  5
FEA
  8
0
  6
CONTINUOUS
 10
-362.8657830175535
 20
-959.02400660639069
 30
0.0
  0
VERTEX
  5
FEB
  8
0
  6
CONTINUOUS
 10
-360.83359708791022
 20
-965.96526730888615
 30
0.0
  0
VERTEX
  5
FEC
  8
0
  6
CONTINUOUS
 10
-357.99289006364631
 20
-972.37651029083202
 30
0.0
  0
VERTEX
  5
FED
  8
0
  6
CONTINUOUS
 10
-353.52025206598432
 20
-979.70582000939271
 30
0.0
  0
VERTEX
  5
FEE
  8
0
  6
CONTINUOUS
 10
-349.66879113413711
 20
-984.83458221576461
 30
0.0
  0
VERTEX
  5
FEF
  8
0
  6
CONTINUOUS
 10
-342.8717056765592
 20
-990.20475900619999
 30
0.0
  0
VERTEX
  5
FF0
  8
0
  6
CONTINUOUS
 10
-335.07239512913321
 20
-993.92153291900161
 30
0.0
  0
VERTEX
  5
FF1
  8
0
  6
CONTINUOUS
 10
-326.78699232577412
 20
-995.58143675953636
 30
0.0
  0
VERTEX
  5
FF2
  8
0
  6
CONTINUOUS
 10
-326.78699232577412
 20
-995.58143675953636
 30
0.0
  0
VERTEX
  5
FF3
  8
0
  6
CONTINUOUS
 10
-315.25966227957213
 20
-996.01559399550433
 30
0.0
  0
VERTEX
  5
FF4
  8
0
  6
CONTINUOUS
 10
-302.1721186087658
 20
-996.22339326130896
 30
0.0
  0
SEQEND
  5
FF5
  8
0
  6
CONTINUOUS
  0
POINT
  5
451
  8
0
  6
CONTINUOUS
 10
-362.8657830175535
 20
-959.02400660639069
 30
0.0
  0
POINT
  5
452
  8
0
  6
CONTINUOUS
 10
-372.09824403537141
 20
-930.88655235015108
 30
0.0
  0
POINT
  5
453
  8
0
  6
CONTINUOUS
 10
-382.8093197212055
 20
-856.50313038928743
 30
0.0
  0
TEXT
  5
454
  8
0
  6
CONTINUOUS
 10
-309.24575404102882
 20
-955.26260004952815
 30
0.0
 40
10.0
  1
0.3m/s
 50
0.0000025044781673
 41
0.5833333271245161
  7
STANDARD1
  0
TEXT
  5
455
  8
0
  6
CONTINUOUS
 10
-310.93799639970922
 20
-806.662566230989
 30
0.0
 40
10.0
  1
0.5m/s
 50
0.0000025044781673
 41
0.5833333271245161
  7
STANDARD1
  0
POINT
  5
456
  8
0
  6
CONTINUOUS
 10
-324.95057288178612
 20
-859.50873069119632
 30
0.0
  0
POINT
  5
457
  8
0
  6
CONTINUOUS
 10
-315.74399778042732
 20
-870.60966497009508
 30
0.0
  0
POINT
  5
458
  8
0
  6
CONTINUOUS
 10
-307.44555121260032
 20
-875.2817186094876
 30
0.0
  0
POINT
  5
459
  8
0
  6
CONTINUOUS
 10
-336.5487530020327
 20
-827.8178404659875
 30
0.0
  0
POINT
  5
45A
  8
0
  6
CONTINUOUS
 10
-296.89868600493139
 20
-875.2817186094876
 30
0.0
  0
POINT
  5
45B
  8
0
  6
CONTINUOUS
 10
-302.1721186087658
 20
-876.22339326130896
 30
0.0
  0
POINT
  5
45C
  8
0
  6
CONTINUOUS
 10
-302.1721186087658
 20
-876.22339326130896
 30
0.0
  0
POINT
  5
45D
  8
0
  6
CONTINUOUS
 10
-288.60023943710451
 20
-870.60966497009508
 30
0.0
  0
POINT
  5
45E
  8
0
  6
CONTINUOUS
 10
-279.39366433574571
 20
-859.50873069119632
 30
0.0
  0
POINT
  5
45F
  8
0
  6
CONTINUOUS
 10
-241.4784541999781
 20
-959.02400660639069
 30
0.0
  0
POINT
  5
460
  8
0
  6
CONTINUOUS
 10
-232.24599318216011
 20
-930.88655235015108
 30
0.0
  0
POINT
  5
461
  8
0
  6
CONTINUOUS
 10
-267.79548421549902
 20
-827.8178404659875
 30
0.0
  0
POINT
  5
462
  8
0
  6
CONTINUOUS
 10
-221.5349174963261
 20
-856.50313038928743
 30
0.0
  0
POINT
  5
463
  8
0
  6
CONTINUOUS
 10
-217.30272442555679
 20
-802.5652704546402
 30
0.0
  0
POINT
  5
464
  8
0
  6
CONTINUOUS
 10
-388.71346592677958
 20
-740.9165401952996
 30
0.0
  0
POINT
  5
465
  8
0
  6
CONTINUOUS
 10
-346.42670920513223
 20
-786.93050328311153
 30
0.0
  0
POINT
  5
466
  8
0
  6
CONTINUOUS
 10
-350.84940763102782
 20
-762.28440031078514
 30
0.0
  0
POINT
  5
467
  8
0
  6
CONTINUOUS
 10
-358.262301700161
 20
-687.01073118381805
 30
0.0
  0
POINT
  5
468
  8
0
  6
CONTINUOUS
 10
-359.87651301930367
 20
-603.80855016011537
 30
0.0
  0
POINT
  5
469
  8
0
  6
CONTINUOUS
 10
-377.24410442905452
 20
-550.88133032248493
 30
0.0
  0
POINT
  5
46A
  8
0
  6
CONTINUOUS
 10
-356.33916798980118
 20
-483.39769432649138
 30
0.0
  0
POINT
  5
46B
  8
0
  6
CONTINUOUS
 10
-257.91752801239932
 20
-786.93050328311153
 30
0.0
  0
POINT
  5
46C
  8
0
  6
CONTINUOUS
 10
-253.49482958650401
 20
-762.28440031078514
 30
0.0
  0
POINT
  5
46D
  8
0
  6
CONTINUOUS
 10
-215.63077129075199
 20
-740.9165401952996
 30
0.0
  0
POINT
  5
46E
  8
0
  6
CONTINUOUS
 10
-246.08193551737079
 20
-687.01073118381805
 30
0.0
  0
POINT
  5
46F
  8
0
  6
CONTINUOUS
 10
-219.923677122257
 20
-647.13958455855732
 30
0.0
  0
POINT
  5
470
  8
0
  6
CONTINUOUS
 10
-219.923677122257
 20
-647.13958455855732
 30
0.0
  0
POINT
  5
471
  8
0
  6
CONTINUOUS
 10
-244.4677241982279
 20
-603.80855016011537
 30
0.0
  0
POINT
  5
472
  8
0
  6
CONTINUOUS
 10
-227.10013278847691
 20
-550.88133032248493
 30
0.0
  0
POINT
  5
473
  8
0
  6
CONTINUOUS
 10
-248.00506922773059
 20
-483.39769432649138
 30
0.0
  0
POINT
  5
474
  8
0
  6
CONTINUOUS
 10
-58.329556678230631
 20
-965.02533357483583
 30
0.0
  0
POINT
  5
475
  8
0
  6
CONTINUOUS
 10
-74.789246920955634
 20
-917.81212476595203
 30
0.0
  0
POINT
  5
476
  8
0
  6
CONTINUOUS
 10
-93.229213192118834
 20
-801.08986129107711
 30
0.0
  0
TEXT
  5
477
  8
0
  6
CONTINUOUS
 10
-13.617407267666181
 20
-959.14310642112173
 30
0.0
 40
10.0
  1
0.3m/s
 50
0.0000025044781673
 41
0.5833333271245161
  7
STANDARD1
  0
TEXT
  5
478
  8
0
  6
CONTINUOUS
 10
-15.30964962634641
 20
-810.5430726025819
 30
0.0
 40
10.0
  1
0.5m/s
 50
0.0000025044781673
 41
0.5833333271245161
  7
STANDARD1
  0
POINT
  5
479
  8
0
  6
CONTINUOUS
 10
58.329556678230567
 20
-965.02533357483583
 30
0.0
  0
POINT
  5
47A
  8
0
  6
CONTINUOUS
 10
74.789246920955634
 20
-917.81212476595203
 30
0.0
  0
POINT
  5
47B
  8
0
  6
CONTINUOUS
 10
93.229213192118763
 20
-801.08986129107711
 30
0.0
  0
POINT
  5
47C
  8
0
  6
CONTINUOUS
 10
-93.368072311026992
 20
-596.33911075660967
 30
0.0
  0
POINT
  5
47D
  8
0
  6
CONTINUOUS
 10
96.183342928931097
 20
-707.95034618576153
 30
0.0
  0
POINT
  5
47E
  8
0
  6
CONTINUOUS
 10
93.368072311027063
 20
-596.33911075660967
 30
0.0
  0
POLYLINE
  5
47F
  8
0
  6
CONTINUOUS
 66
     1
 10
0.0
 20
0.0
 30
0.0
  0
VERTEX
  5
FF6
  8
0
  6
CONTINUOUS
 10
-289.6721186087658
 20
3.7766067386907798
 30
0.0
  0
VERTEX
  5
FF7
  8
0
  6
CONTINUOUS
 10
-285.87657415197663
 20
-56.214803781637137
 30
0.0
  0
VERTEX
  5
FF8
  8
0
  6
CONTINUOUS
 10
-282.15658473650973
 20
-114.99925615427649
 30
0.0
  0
VERTEX
  5
FF9
  8
0
  6
CONTINUOUS
 10
-282.15658473650973
 20
-114.99925615427649
 30
0.0
  0
VERTEX
  5
FFA
  8
0
  6
CONTINUOUS
 10
-280.36331428332522
 20
-144.19719353441761
 30
0.0
  0
VERTEX
  5
FFB
  8
0
  6
CONTINUOUS
 10
-278.70594671280742
 20
-176.45375159439641
 30
0.0
  0
VERTEX
  5
FFC
  8
0
  6
CONTINUOUS
 10
-277.9588906841758
 20
-194.8734195523505
 30
0.0
  0
VERTEX
  5
FFD
  8
0
  6
CONTINUOUS
 10
-277.28260738696309
 20
-215.4310300878945
 30
0.0
  0
VERTEX
  5
FFE
  8
0
  6
CONTINUOUS
 10
-276.6893624914199
 20
-238.58434567023889
 30
0.0
  0
VERTEX
  5
FFF
  8
0
  6
CONTINUOUS
 10
-276.1914216677979
 20
-264.79112876859392
 30
0.0
  0
VERTEX
  5
1000
  8
0
  6
CONTINUOUS
 10
-276.1914216677979
 20
-264.79112876859392
 30
0.0
  0
VERTEX
  5
1001
  8
0
  6
CONTINUOUS
 10
-275.83173271403638
 20
-294.72660154311382
 30
0.0
  0
VERTEX
  5
1002
  8
0
  6
CONTINUOUS
 10
-275.860023719536
 20
-323.11716771216612
 30
0.0
  0
VERTEX
  5
1003
  8
0
  6
CONTINUOUS
 10
-275.860023719536
 20
-323.11716771216612
 30
0.0
  0
VERTEX
  5
1004
  8
0
  6
CONTINUOUS
 10
-276.10488313753461
 20
-335.38456796006221
 30
0.0
  0
VERTEX
  5
1005
  8
0
  6
CONTINUOUS
 10
-276.54979352182221
 20
-347.16157325607031
 30
0.0
  0
VERTEX
  5
1006
  8
0
  6
CONTINUOUS
 10
-277.22976541442449
 20
-359.67519677582868
 30
0.0
  0
VERTEX
  5
1007
  8
0
  6
CONTINUOUS
 10
-278.17980935736767
 20
-374.15245169497632
 30
0.0
  0
VERTEX
  5
1008
  8
0
  6
CONTINUOUS
 10
-278.17980935736767
 20
-374.15245169497632
 30
0.0
  0
VERTEX
  5
1009
  8
0
  6
CONTINUOUS
 10
-278.77017526519637
 20
-381.7387261277882
 30
0.0
  0
VERTEX
  5
100A
  8
0
  6
CONTINUOUS
 10
-279.84898275067991
 20
-391.14604253485987
 30
0.0
  0
VERTEX
  5
100B
  8
0
  6
CONTINUOUS
 10
-279.84898275067991
 20
-391.14604253485987
 30
0.0
  0
VERTEX
  5
100C
  8
0
  6
CONTINUOUS
 10
-280.62399263978091
 20
-396.06675282645722
 30
0.0
  0
VERTEX
  5
100D
  8
0
  6
CONTINUOUS
 10
-281.95047099789201
 20
-401.90288165644682
 30
0.0
  0
VERTEX
  5
100E
  8
0
  6
CONTINUOUS
 10
-281.95047099789201
 20
-401.90288165644682
 30
0.0
  0
VERTEX
  5
100F
  8
0
  6
CONTINUOUS
 10
-284.02610007160951
 20
-408.89741475467679
 30
0.0
  0
VERTEX
  5
1010
  8
0
  6
CONTINUOUS
 10
-286.30454978071077
 20
-416.80710218791529
 30
0.0
  0
VERTEX
  5
1011
  8
0
  6
CONTINUOUS
 10
-286.30454978071077
 20
-416.80710218791529
 30
0.0
  0
VERTEX
  5
1012
  8
0
  6
CONTINUOUS
 10
-287.37672209135019
 20
-420.97758083896002
 30
0.0
  0
VERTEX
  5
1013
  8
0
  6
CONTINUOUS
 10
-288.73943761064521
 20
-425.15877370004682
 30
0.0
  0
VERTEX
  5
1014
  8
0
  6
CONTINUOUS
 10
-289.66191199238028
 20
-427.21374040889981
 30
0.0
  0
VERTEX
  5
1015
  8
0
  6
CONTINUOUS
 10
-290.8156176788886
 20
-429.22380860971572
 30
0.0
  0
VERTEX
  5
1016
  8
0
  6
CONTINUOUS
 10
-292.25341983770682
 20
-431.1731192823126
 30
0.0
  0
VERTEX
  5
1017
  8
0
  6
CONTINUOUS
 10
-294.0281836363713
 20
-433.04581340650719
 30
0.0
  0
VERTEX
  5
1018
  8
0
  6
CONTINUOUS
 10
-294.0281836363713
 20
-433.04581340650719
 30
0.0
  0
VERTEX
  5
1019
  8
0
  6
CONTINUOUS
 10
-295.42290040189039
 20
-434.21891548011149
 30
0.0
  0
VERTEX
  5
101A
  8
0
  6
CONTINUOUS
 10
-297.44948253874412
 20
-435.57747339974031
 30
0.0
  0
VERTEX
  5
101B
  8
0
  6
CONTINUOUS
 10
-297.44948253874412
 20
-435.57747339974031
 30
0.0
  0
VERTEX
  5
101C
  8
0
  6
CONTINUOUS
 10
-298.48109523163282
 20
-436.1651876221697
 30
0.0
  0
VERTEX
  5
101D
  8
0
  6
CONTINUOUS
 10
-299.63822285913972
 20
-436.65960010853712
 30
0.0
  0
VERTEX
  5
101E
  8
0
  6
CONTINUOUS
 10
-299.63822285913972
 20
-436.65960010853712
 30
0.0
  0
VERTEX
  5
101F
  8
0
  6
CONTINUOUS
 10
-300.88294546106857
 20
-436.94123414021311
 30
0.0
  0
VERTEX
  5
1020
  8
0
  6
CONTINUOUS
 10
-302.1721186087658
 20
-437.02447785135951
 30
0.0
  0
VERTEX
  5
1021
  8
0
  6
CONTINUOUS
 10
-302.1721186087658
 20
-437.02447785135951
 30
0.0
  0
VERTEX
  5
1022
  8
0
  6
CONTINUOUS
 10
-303.46129175646303
 20
-436.94123414021311
 30
0.0
  0
VERTEX
  5
1023
  8
0
  6
CONTINUOUS
 10
-304.70601435839228
 20
-436.65960010853712
 30
0.0
  0
VERTEX
  5
1024
  8
0
  6
CONTINUOUS
 10
-304.70601435839228
 20
-436.65960010853712
 30
0.0
  0
VERTEX
  5
1025
  8
0
  6
CONTINUOUS
 10
-305.86314198589901
 20
-436.1651876221697
 30
0.0
  0
VERTEX
  5
1026
  8
0
  6
CONTINUOUS
 10
-306.89475467878748
 20
-435.57747339974031
 30
0.0
  0
VERTEX
  5
1027
  8
0
  6
CONTINUOUS
 10
-306.89475467878748
 20
-435.57747339974031
 30
0.0
  0
VERTEX
  5
1028
  8
0
  6
CONTINUOUS
 10
-308.92133681564133
 20
-434.21891548011149
 30
0.0
  0
VERTEX
  5
1029
  8
0
  6
CONTINUOUS
 10
-310.3160535811603
 20
-433.04581340650719
 30
0.0
  0
VERTEX
  5
102A
  8
0
  6
CONTINUOUS
 10
-310.3160535811603
 20
-433.04581340650719
 30
0.0
  0
VERTEX
  5
102B
  8
0
  6
CONTINUOUS
 10
-312.0908173798249
 20
-431.1731192823126
 30
0.0
  0
VERTEX
  5
102C
  8
0
  6
CONTINUOUS
 10
-313.52861953864328
 20
-429.22380860971572
 30
0.0
  0
VERTEX
  5
102D
  8
0
  6
CONTINUOUS
 10
-314.68232522515149
 20
-427.21374040889981
 30
0.0
  0
VERTEX
  5
102E
  8
0
  6
CONTINUOUS
 10
-315.60479960688627
 20
-425.15877370004682
 30
0.0
  0
VERTEX
  5
102F
  8
0
  6
CONTINUOUS
 10
-316.96751512618169
 20
-420.97758083896002
 30
0.0
  0
VERTEX
  5
1030
  8
0
  6
CONTINUOUS
 10
-318.03968743682083
 20
-416.80710218791529
 30
0.0
  0
VERTEX
  5
1031
  8
0
  6
CONTINUOUS
 10
-318.03968743682083
 20
-416.80710218791529
 30
0.0
  0
VERTEX
  5
1032
  8
0
  6
CONTINUOUS
 10
-320.31813714592221
 20
-408.89741475467679
 30
0.0
  0
VERTEX
  5
1033
  8
0
  6
CONTINUOUS
 10
-322.39376621963982
 20
-401.90288165644682
 30
0.0
  0
VERTEX
  5
1034
  8
0
  6
CONTINUOUS
 10
-322.39376621963982
 20
-401.90288165644682
 30
0.0
  0
VERTEX
  5
1035
  8
0
  6
CONTINUOUS
 10
-323.72024457775092
 20
-396.06675282645722
 30
0.0
  0
VERTEX
  5
1036
  8
0
  6
CONTINUOUS
 10
-324.49525446685169
 20
-391.14604253485987
 30
0.0
  0
VERTEX
  5
1037
  8
0
  6
CONTINUOUS
 10
-324.49525446685169
 20
-391.14604253485987
 30
0.0
  0
VERTEX
  5
1038
  8
0
  6
CONTINUOUS
 10
-325.57406195233523
 20
-381.7387261277882
 30
0.0
  0
VERTEX
  5
1039
  8
0
  6
CONTINUOUS
 10
-326.16442786016381
 20
-374.15245169497632
 30
0.0
  0
VERTEX
  5
103A
  8
0
  6
CONTINUOUS
 10
-326.16442786016381
 20
-374.15245169497632
 30
0.0
  0
VERTEX
  5
103B
  8
0
  6
CONTINUOUS
 10
-327.11447180310711
 20
-359.67519677582868
 30
0.0
  0
VERTEX
  5
103C
  8
0
  6
CONTINUOUS
 10
-327.7944436957095
 20
-347.16157325607031
 30
0.0
  0
VERTEX
  5
103D
  8
0
  6
CONTINUOUS
 10
-328.23935407999687
 20
-335.38456796006221
 30
0.0
  0
VERTEX
  5
103E
  8
0
  6
CONTINUOUS
 10
-328.48421349799582
 20
-323.11716771216612
 30
0.0
  0
VERTEX
  5
103F
  8
0
  6
CONTINUOUS
 10
-328.48421349799582
 20
-323.11716771216612
 30
0.0
  0
VERTEX
  5
1040
  8
0
  6
CONTINUOUS
 10
-328.51250450349522
 20
-294.72660154311382
 30
0.0
  0
VERTEX
  5
1041
  8
0
  6
CONTINUOUS
 10
-328.15281554973399
 20
-264.79112876859392
 30
0.0
  0
VERTEX
  5
1042
  8
0
  6
CONTINUOUS
 10
-328.15281554973399
 20
-264.79112876859392
 30
0.0
  0
VERTEX
  5
1043
  8
0
  6
CONTINUOUS
 10
-327.6548747261117
 20
-238.58434567023889
 30
0.0
  0
VERTEX
  5
1044
  8
0
  6
CONTINUOUS
 10
-327.06162983056862
 20
-215.4310300878945
 30
0.0
  0
VERTEX
  5
1045
  8
0
  6
CONTINUOUS
 10
-326.3853465333558
 20
-194.8734195523505
 30
0.0
  0
VERTEX
  5
1046
  8
0
  6
CONTINUOUS
 10
-325.63829050472413
 20
-176.45375159439641
 30
0.0
  0
VERTEX
  5
1047
  8
0
  6
CONTINUOUS
 10
-323.98092293420649
 20
-144.19719353441761
 30
0.0
  0
VERTEX
  5
1048
  8
0
  6
CONTINUOUS
 10
-322.18765248102198
 20
-114.99925615427649
 30
0.0
  0
VERTEX
  5
1049
  8
0
  6
CONTINUOUS
 10
-322.18765248102198
 20
-114.99925615427649
 30
0.0
  0
VERTEX
  5
104A
  8
0
  6
CONTINUOUS
 10
-318.4676630655548
 20
-56.214803781637137
 30
0.0
  0
VERTEX
  5
104B
  8
0
  6
CONTINUOUS
 10
-314.6721186087658
 20
3.7766067386907798
 30
0.0
  0
SEQEND
  5
104C
  8
0
  6
CONTINUOUS
  0
POINT
  5
480
  8
0
  6
CONTINUOUS
 10
-357.31724472219781
 20
-348.03120324021592
 30
0.0
  0
POINT
  5
481
  8
0
  6
CONTINUOUS
 10
-306.89475467878748
 20
-435.57747339974031
 30
0.0
  0
POINT
  5
482
  8
0
  6
CONTINUOUS
 10
-310.3160535811603
 20
-433.04581340650719
 30
0.0
  0
POINT
  5
483
  8
0
  6
CONTINUOUS
 10
-324.49525446685169
 20
-391.14604253485987
 30
0.0
  0
POINT
  5
484
  8
0
  6
CONTINUOUS
 10
-318.03968743682083
 20
-416.80710218791529
 30
0.0
  0
POINT
  5
485
  8
0
  6
CONTINUOUS
 10
-322.39376621963982
 20
-401.90288165644682
 30
0.0
  0
POINT
  5
486
  8
0
  6
CONTINUOUS
 10
-299.63822285913972
 20
-436.65960010853712
 30
0.0
  0
POINT
  5
487
  8
0
  6
CONTINUOUS
 10
-297.44948253874412
 20
-435.57747339974031
 30
0.0
  0
POINT
  5
488
  8
0
  6
CONTINUOUS
 10
-304.70601435839228
 20
-436.65960010853712
 30
0.0
  0
POINT
  5
489
  8
0
  6
CONTINUOUS
 10
-302.1721186087658
 20
-437.02447785135951
 30
0.0
  0
POINT
  5
48A
  8
0
  6
CONTINUOUS
 10
-302.1721186087658
 20
-437.02447785135951
 30
0.0
  0
POINT
  5
48B
  8
0
  6
CONTINUOUS
 10
-294.0281836363713
 20
-433.04581340650719
 30
0.0
  0
POINT
  5
48C
  8
0
  6
CONTINUOUS
 10
-286.30454978071077
 20
-416.80710218791529
 30
0.0
  0
POINT
  5
48D
  8
0
  6
CONTINUOUS
 10
-279.84898275067991
 20
-391.14604253485987
 30
0.0
  0
POINT
  5
48E
  8
0
  6
CONTINUOUS
 10
-281.95047099789201
 20
-401.90288165644682
 30
0.0
  0
TEXT
  5
48F
  8
0
  6
CONTINUOUS
 10
-311.38842314557439
 20
-376.70409153520552
 30
0.0
 40
10.0
  1
1m/s
 50
0.0000025044781673
 41
0.5833333271245161
  7
STANDARD1
  0
POINT
  5
490
  8
0
  6
CONTINUOUS
 10
-326.16442786016381
 20
-374.15245169497632
 30
0.0
  0
POINT
  5
491
  8
0
  6
CONTINUOUS
 10
-326.16442786016381
 20
-374.15245169497632
 30
0.0
  0
POINT
  5
492
  8
0
  6
CONTINUOUS
 10
-328.48421349799582
 20
-323.11716771216612
 30
0.0
  0
POINT
  5
493
  8
0
  6
CONTINUOUS
 10
-278.17980935736767
 20
-374.15245169497632
 30
0.0
  0
POINT
  5
494
  8
0
  6
CONTINUOUS
 10
-278.17980935736767
 20
-374.15245169497632
 30
0.0
  0
POINT
  5
495
  8
0
  6
CONTINUOUS
 10
-275.860023719536
 20
-323.11716771216612
 30
0.0
  0
POINT
  5
496
  8
0
  6
CONTINUOUS
 10
-328.15281554973399
 20
-264.79112876859392
 30
0.0
  0
POINT
  5
497
  8
0
  6
CONTINUOUS
 10
-336.80724369371012
 20
-224.6701238534738
 30
0.0
  0
POINT
  5
498
  8
0
  6
CONTINUOUS
 10
-276.1914216677979
 20
-264.79112876859392
 30
0.0
  0
POINT
  5
499
  8
0
  6
CONTINUOUS
 10
-247.0269924953337
 20
-348.03120324021592
 30
0.0
  0
POINT
  5
49A
  8
0
  6
CONTINUOUS
 10
-267.53699352382159
 20
-224.6701238534738
 30
0.0
  0
POLYLINE
  5
49B
  8
0
  6
CONTINUOUS
 66
     1
 10
0.0
 20
0.0
 30
0.0
  0
VERTEX
  5
104D
  8
0
  6
CONTINUOUS
 10
-289.6721186087658
 20
3.7766067386907798
 30
0.0
  0
VERTEX
  5
104E
  8
0
  6
CONTINUOUS
 10
-289.56853021856028
 20
-1.7440919980364851
 30
0.0
  0
VERTEX
  5
104F
  8
0
  6
CONTINUOUS
 10
-289.47796975378532
 20
-6.7897443064449252
 30
0.0
  0
VERTEX
  5
1050
  8
0
  6
CONTINUOUS
 10
-289.47796975378532
 20
-6.7897443064449252
 30
0.0
  0
VERTEX
  5
1051
  8
0
  6
CONTINUOUS
 10
-289.3399243141958
 20
-16.925908919841859
 30
0.0
  0
VERTEX
  5
1052
  8
0
  6
CONTINUOUS
 10
-289.28962561018881
 20
-25.981186273735769
 30
0.0
  0
VERTEX
  5
1053
  8
0
  6
CONTINUOUS
 10
-289.28962561018881
 20
-25.981186273735769
 30
0.0
  0
VERTEX
  5
1054
  8
0
  6
CONTINUOUS
 10
-289.28348561739892
 20
-30.115112168634919
 30
0.0
  0
VERTEX
  5
1055
  8
0
  6
CONTINUOUS
 10
-289.33156823431511
 20
-35.980635971998069
 30
0.0
  0
VERTEX
  5
1056
  8
0
  6
CONTINUOUS
 10
-289.33156823431511
 20
-35.980635971998069
 30
0.0
  0
VERTEX
  5
1057
  8
0
  6
CONTINUOUS
 10
-289.37006730719349
 20
-38.61281445744671
 30
0.0
  0
VERTEX
  5
1058
  8
0
  6
CONTINUOUS
 10
-289.41311932195089
 20
-41.270909278262053
 30
0.0
  0
VERTEX
  5
1059
  8
0
  6
CONTINUOUS
 10
-289.41311932195089
 20
-41.270909278262053
 30
0.0
  0
VERTEX
  5
105A
  8
0
  6
CONTINUOUS
 10
-289.5838831522164
 20
-49.688772634745462
 30
0.0
  0
VERTEX
  5
105B
  8
0
  6
CONTINUOUS
 10
-289.89391610358138
 20
-55.770004182319141
 30
0.0
  0
VERTEX
  5
105C
  8
0
  6
CONTINUOUS
 10
-289.89391610358138
 20
-55.770004182319141
 30
0.0
  0
VERTEX
  5
105D
  8
0
  6
CONTINUOUS
 10
-290.48668834337462
 20
-62.027158519025207
 30
0.0
  0
VERTEX
  5
105E
  8
0
  6
CONTINUOUS
 10
-291.2074558986572
 20
-69.685515190007749
 30
0.0
  0
VERTEX
  5
105F
  8
0
  6
CONTINUOUS
 10
-291.2074558986572
 20
-69.685515190007749
 30
0.0
  0
VERTEX
  5
1060
  8
0
  6
CONTINUOUS
 10
-291.63881565639002
 20
-73.50718252286218
 30
0.0
  0
VERTEX
  5
1061
  8
0
  6
CONTINUOUS
 10
-292.127078018605
 20
-75.69117949306991
 30
0.0
  0
VERTEX
  5
1062
  8
0
  6
CONTINUOUS
 10
-292.94586156257918
 20
-78.12511604649653
 30
0.0
  0
VERTEX
  5
1063
  8
0
  6
CONTINUOUS
 10
-292.94586156257918
 20
-78.12511604649653
 30
0.0
  0
VERTEX
  5
1064
  8
0
  6
CONTINUOUS
 10
-294.0400522757098
 20
-80.435902146698325
 30
0.0
  0
VERTEX
  5
1065
  8
0
  6
CONTINUOUS
 10
-294.81081795774912
 20
-81.651309157729088
 30
0.0
  0
VERTEX
  5
1066
  8
0
  6
CONTINUOUS
 10
-295.78476809038301
 20
-82.894358217572915
 30
0.0
  0
VERTEX
  5
1067
  8
0
  6
CONTINUOUS
 10
-295.78476809038301
 20
-82.894358217572915
 30
0.0
  0
VERTEX
  5
1068
  8
0
  6
CONTINUOUS
 10
-296.83278913416018
 20
-83.907756588130184
 30
0.0
  0
VERTEX
  5
1069
  8
0
  6
CONTINUOUS
 10
-298.53610404880908
 20
-84.863207068911393
 30
0.0
  0
VERTEX
  5
106A
  8
0
  6
CONTINUOUS
 10
-298.53610404880908
 20
-84.863207068911393
 30
0.0
  0
VERTEX
  5
106B
  8
0
  6
CONTINUOUS
 10
-299.42271415067881
 20
-85.178133158971391
 30
0.0
  0
VERTEX
  5
106C
  8
0
  6
CONTINUOUS
 10
-300.36562266972669
 20
-85.386730485626984
 30
0.0
  0
VERTEX
  5
106D
  8
0
  6
CONTINUOUS
 10
-300.36562266972669
 20
-85.386730485626984
 30
0.0
  0
VERTEX
  5
106E
  8
0
  6
CONTINUOUS
 10
-301.28113154401069
 20
-85.437336634918239
 30
0.0
  0
VERTEX
  5
106F
  8
0
  6
CONTINUOUS
 10
-302.1721186087658
 20
-85.424947475849635
 30
0.0
  0
VERTEX
  5
1070
  8
0
  6
CONTINUOUS
 10
-302.1721186087658
 20
-85.424947475849635
 30
0.0
  0
VERTEX
  5
1071
  8
0
  6
CONTINUOUS
 10
-303.06310567352108
 20
-85.437336634918239
 30
0.0
  0
VERTEX
  5
1072
  8
0
  6
CONTINUOUS
 10
-303.97861454780508
 20
-85.386730485626984
 30
0.0
  0
VERTEX
  5
1073
  8
0
  6
CONTINUOUS
 10
-303.97861454780508
 20
-85.386730485626984
 30
0.0
  0
VERTEX
  5
1074
  8
0
  6
CONTINUOUS
 10
-304.92152306685301
 20
-85.178133158971391
 30
0.0
  0
VERTEX
  5
1075
  8
0
  6
CONTINUOUS
 10
-305.80813316872269
 20
-84.863207068911393
 30
0.0
  0
VERTEX
  5
1076
  8
0
  6
CONTINUOUS
 10
-305.80813316872269
 20
-84.863207068911393
 30
0.0
  0
VERTEX
  5
1077
  8
0
  6
CONTINUOUS
 10
-307.51144808337142
 20
-83.907756588130184
 30
0.0
  0
VERTEX
  5
1078
  8
0
  6
CONTINUOUS
 10
-308.55946912714882
 20
-82.894358217572915
 30
0.0
  0
VERTEX
  5
1079
  8
0
  6
CONTINUOUS
 10
-308.55946912714882
 20
-82.894358217572915
 30
0.0
  0
VERTEX
  5
107A
  8
0
  6
CONTINUOUS
 10
-309.53341925978248
 20
-81.651309157729088
 30
0.0
  0
VERTEX
  5
107B
  8
0
  6
CONTINUOUS
 10
-310.30418494182157
 20
-80.435902146698325
 30
0.0
  0
VERTEX
  5
107C
  8
0
  6
CONTINUOUS
 10
-311.39837565495247
 20
-78.12511604649653
 30
0.0
  0
VERTEX
  5
107D
  8
0
  6
CONTINUOUS
 10
-311.39837565495247
 20
-78.12511604649653
 30
0.0
  0
VERTEX
  5
107E
  8
0
  6
CONTINUOUS
 10
-312.21715919892682
 20
-75.69117949306991
 30
0.0
  0
VERTEX
  5
107F
  8
0
  6
CONTINUOUS
 10
-312.7054215611418
 20
-73.50718252286218
 30
0.0
  0
VERTEX
  5
1080
  8
0
  6
CONTINUOUS
 10
-313.13678131887451
 20
-69.685515190007749
 30
0.0
  0
VERTEX
  5
1081
  8
0
  6
CONTINUOUS
 10
-313.13678131887451
 20
-69.685515190007749
 30
0.0
  0
VERTEX
  5
1082
  8
0
  6
CONTINUOUS
 10
-313.85754887415709
 20
-62.027158519025207
 30
0.0
  0
VERTEX
  5
1083
  8
0
  6
CONTINUOUS
 10
-314.45032111395022
 20
-55.770004182319141
 30
0.0
  0
VERTEX
  5
1084
  8
0
  6
CONTINUOUS
 10
-314.45032111395022
 20
-55.770004182319141
 30
0.0
  0
VERTEX
  5
1085
  8
0
  6
CONTINUOUS
 10
-314.76035406531531
 20
-49.688772634745462
 30
0.0
  0
VERTEX
  5
1086
  8
0
  6
CONTINUOUS
 10
-314.93111789558083
 20
-41.270909278262053
 30
0.0
  0
VERTEX
  5
1087
  8
0
  6
CONTINUOUS
 10
-314.93111789558083
 20
-41.270909278262053
 30
0.0
  0
VERTEX
  5
1088
  8
0
  6
CONTINUOUS
 10
-314.97416991033828
 20
-38.61281445744671
 30
0.0
  0
VERTEX
  5
1089
  8
0
  6
CONTINUOUS
 10
-315.01266898321632
 20
-35.980635971998069
 30
0.0
  0
VERTEX
  5
108A
  8
0
  6
CONTINUOUS
 10
-315.01266898321632
 20
-35.980635971998069
 30
0.0
  0
VERTEX
  5
108B
  8
0
  6
CONTINUOUS
 10
-315.0607516001329
 20
-30.115112168634919
 30
0.0
  0
VERTEX
  5
108C
  8
0
  6
CONTINUOUS
 10
-315.05461160734279
 20
-25.981186273735769
 30
0.0
  0
VERTEX
  5
108D
  8
0
  6
CONTINUOUS
 10
-315.05461160734279
 20
-25.981186273735769
 30
0.0
  0
VERTEX
  5
108E
  8
0
  6
CONTINUOUS
 10
-315.00431290333569
 20
-16.925908919841859
 30
0.0
  0
VERTEX
  5
108F
  8
0
  6
CONTINUOUS
 10
-314.86626746374628
 20
-6.7897443064449252
 30
0.0
  0
VERTEX
  5
1090
  8
0
  6
CONTINUOUS
 10
-314.86626746374628
 20
-6.7897443064449252
 30
0.0
  0
VERTEX
  5
1091
  8
0
  6
CONTINUOUS
 10
-314.77570699897132
 20
-1.7440919980364851
 30
0.0
  0
VERTEX
  5
1092
  8
0
  6
CONTINUOUS
 10
-314.6721186087658
 20
3.7766067386907798
 30
0.0
  0
SEQEND
  5
1093
  8
0
  6
CONTINUOUS
  0
TEXT
  5
49C
  8
0
  6
CONTINUOUS
 10
-308.68198061636599
 20
-75.958065408205741
 30
0.0
 40
10.0
  1
2m/s
 50
0.0000025044781673
 41
0.5833333271245161
  7
STANDARD1
  0
POINT
  5
49D
  8
0
  6
CONTINUOUS
 10
-322.18765248102198
 20
-114.99925615427649
 30
0.0
  0
POINT
  5
49E
  8
0
  6
CONTINUOUS
 10
-311.39837565495247
 20
-78.12511604649653
 30
0.0
  0
POINT
  5
49F
  8
0
  6
CONTINUOUS
 10
-308.55946912714882
 20
-82.894358217572915
 30
0.0
  0
POINT
  5
4A0
  8
0
  6
CONTINUOUS
 10
-305.80813316872269
 20
-84.863207068911393
 30
0.0
  0
POINT
  5
4A1
  8
0
  6
CONTINUOUS
 10
-314.45032111395022
 20
-55.770004182319141
 30
0.0
  0
POINT
  5
4A2
  8
0
  6
CONTINUOUS
 10
-313.13678131887451
 20
-69.685515190007749
 30
0.0
  0
POINT
  5
4A3
  8
0
  6
CONTINUOUS
 10
-282.15658473650973
 20
-114.99925615427649
 30
0.0
  0
POINT
  5
4A4
  8
0
  6
CONTINUOUS
 10
-298.53610404880908
 20
-84.863207068911393
 30
0.0
  0
POINT
  5
4A5
  8
0
  6
CONTINUOUS
 10
-295.78476809038301
 20
-82.894358217572915
 30
0.0
  0
POINT
  5
4A6
  8
0
  6
CONTINUOUS
 10
-302.1721186087658
 20
-85.424947475849635
 30
0.0
  0
POINT
  5
4A7
  8
0
  6
CONTINUOUS
 10
-303.97861454780508
 20
-85.386730485626984
 30
0.0
  0
POINT
  5
4A8
  8
0
  6
CONTINUOUS
 10
-302.1721186087658
 20
-85.424947475849635
 30
0.0
  0
POINT
  5
4A9
  8
0
  6
CONTINUOUS
 10
-300.36562266972669
 20
-85.386730485626984
 30
0.0
  0
POINT
  5
4AA
  8
0
  6
CONTINUOUS
 10
-292.94586156257918
 20
-78.12511604649653
 30
0.0
  0
POINT
  5
4AB
  8
0
  6
CONTINUOUS
 10
-289.89391610358138
 20
-55.770004182319141
 30
0.0
  0
POINT
  5
4AC
  8
0
  6
CONTINUOUS
 10
-291.2074558986572
 20
-69.685515190007749
 30
0.0
  0
LINE
  5
4AD
  8
0
  6
CONTINUOUS
 10
-288.97211860876581
 20
3.7766067386907798
 30
0.0
 11
-315.3721186087659
 21
3.7766067386907798
 31
0.0
  0
LINE
  5
4AE
  8
0
  6
CONTINUOUS
 10
-288.97211860876581
 20
3.0766067386907769
 30
0.0
 11
-315.3721186087659
 21
3.0766067386907769
 31
0.0
  0
POINT
  5
4AF
  8
0
  6
CONTINUOUS
 10
-315.01266898321632
 20
-35.980635971998069
 30
0.0
  0
POINT
  5
4B0
  8
0
  6
CONTINUOUS
 10
-314.93111789558083
 20
-41.270909278262053
 30
0.0
  0
POINT
  5
4B1
  8
0
  6
CONTINUOUS
 10
-315.05461160734279
 20
-25.981186273735769
 30
0.0
  0
POINT
  5
4B2
  8
0
  6
CONTINUOUS
 10
-314.6721186087658
 20
3.7766067386907798
 30
0.0
  0
POINT
  5
4B3
  8
0
  6
CONTINUOUS
 10
-314.6721186087658
 20
3.7766067386907798
 30
0.0
  0
POINT
  5
4B4
  8
0
  6
CONTINUOUS
 10
-314.6721186087658
 20
3.7766067386907798
 30
0.0
  0
POINT
  5
4B5
  8
0
  6
CONTINUOUS
 10
-314.6721186087658
 20
3.7766067386907798
 30
0.0
  0
LINE
  5
4B6
  8
0
  6
CONTINUOUS
 10
-315.3721186087659
 20
3.7766067386907798
 30
0.0
 11
-315.3721186087659
 21
3.0766067386907769
 31
0.0
  0
POINT
  5
4B7
  8
0
  6
CONTINUOUS
 10
-314.86626746374628
 20
-6.7897443064449252
 30
0.0
  0
POINT
  5
4B8
  8
0
  6
CONTINUOUS
 10
-289.33156823431511
 20
-35.980635971998069
 30
0.0
  0
POINT
  5
4B9
  8
0
  6
CONTINUOUS
 10
-289.41311932195089
 20
-41.270909278262053
 30
0.0
  0
POINT
  5
4BA
  8
0
  6
CONTINUOUS
 10
-289.28962561018881
 20
-25.981186273735769
 30
0.0
  0
LINE
  5
4BB
  8
0
  6
DASHDOT
 10
-302.1721186087658
 20
8.7766067386907824
 30
0.0
 11
-302.1721186087658
 21
-1.2233932613092171
 31
0.0
  0
POINT
  5
4BC
  8
0
  6
CONTINUOUS
 10
-289.6721186087658
 20
3.7766067386907798
 30
0.0
  0
POINT
  5
4BD
  8
0
  6
CONTINUOUS
 10
-289.6721186087658
 20
3.7766067386907798
 30
0.0
  0
POINT
  5
4BE
  8
0
  6
CONTINUOUS
 10
-289.6721186087658
 20
3.7766067386907798
 30
0.0
  0
POINT
  5
4BF
  8
0
  6
CONTINUOUS
 10
-289.6721186087658
 20
3.7766067386907798
 30
0.0
  0
LINE
  5
4C0
  8
0
  6
CONTINUOUS
 10
-288.97211860876581
 20
3.7766067386907798
 30
0.0
 11
-288.97211860876581
 21
3.0766067386907769
 31
0.0
  0
POINT
  5
4C1
  8
0
  6
CONTINUOUS
 10
-289.47796975378532
 20
-6.7897443064449252
 30
0.0
  0
POLYLINE
  5
4C2
  8
0
  6
CONTINUOUS
 66
     1
 10
0.0
 20
0.0
 30
0.0
  0
VERTEX
  5
1094
  8
0
  6
CONTINUOUS
 10
62.5
 20
-0.0000000000000004
 30
0.0
  0
VERTEX
  5
1095
  8
0
  6
CONTINUOUS
 10
59.248438763486433
 20
-59.16247225339621
 30
0.0
  0
VERTEX
  5
1096
  8
0
  6
CONTINUOUS
 10
56.006701235297783
 20
-119.56017712177299
 30
0.0
  0
VERTEX
  5
1097
  8
0
  6
CONTINUOUS
 10
56.006701235297783
 20
-119.56017712177299
 30
0.0
  0
VERTEX
  5
1098
  8
0
  6
CONTINUOUS
 10
52.917835164945473
 20
-180.5223195674846
 30
0.0
  0
VERTEX
  5
1099
  8
0
  6
CONTINUOUS
 10
51.633634897089557
 20
-208.7420235950828
 30
0.0
  0
VERTEX
  5
109A
  8
0
  6
CONTINUOUS
 10
50.657784466687637
 20
-233.75399394237971
 30
0.0
  0
VERTEX
  5
109B
  8
0
  6
CONTINUOUS
 10
50.657784466687637
 20
-233.75399394237971
 30
0.0
  0
VERTEX
  5
109C
  8
0
  6
CONTINUOUS
 10
49.981012096466657
 20
-254.9833655073229
 30
0.0
  0
VERTEX
  5
109D
  8
0
  6
CONTINUOUS
 10
49.152374922338879
 20
-274.6562794300404
 30
0.0
  0
VERTEX
  5
109E
  8
0
  6
CONTINUOUS
 10
48.505681835125067
 20
-284.82356249452459
 30
0.0
  0
VERTEX
  5
109F
  8
0
  6
CONTINUOUS
 10
47.610512308512789
 20
-295.69912841120481
 30
0.0
  0
VERTEX
  5
10A0
  8
0
  6
CONTINUOUS
 10
46.396696263028034
 20
-307.6487762676648
 30
0.0
  0
VERTEX
  5
10A1
  8
0
  6
CONTINUOUS
 10
44.794063619196884
 20
-321.03830515148849
 30
0.0
  0
VERTEX
  5
10A2
  8
0
  6
CONTINUOUS
 10
44.794063619196884
 20
-321.03830515148849
 30
0.0
  0
VERTEX
  5
10A3
  8
0
  6
CONTINUOUS
 10
42.396778112236632
 20
-339.99622216644519
 30
0.0
  0
VERTEX
  5
10A4
  8
0
  6
CONTINUOUS
 10
41.325460343916113
 20
-350.42372339538161
 30
0.0
  0
VERTEX
  5
10A5
  8
0
  6
CONTINUOUS
 10
40.547673536169732
 20
-361.43579274782371
 30
0.0
  0
VERTEX
  5
10A6
  8
0
  6
CONTINUOUS
 10
40.547673536169732
 20
-361.43579274782371
 30
0.0
  0
VERTEX
  5
10A7
  8
0
  6
CONTINUOUS
 10
40.018487446261013
 20
-373.03903040467799
 30
0.0
  0
VERTEX
  5
10A8
  8
0
  6
CONTINUOUS
 10
39.593897504568133
 20
-379.1148038744887
 30
0.0
  0
VERTEX
  5
10A9
  8
0
  6
CONTINUOUS
 10
38.887307949103899
 20
-385.40981834287862
 30
0.0
  0
VERTEX
  5
10AA
  8
0
  6
CONTINUOUS
 10
37.767217517909152
 20
-391.9514272380905
 30
0.0
  0
VERTEX
  5
10AB
  8
0
  6
CONTINUOUS
 10
36.102124949024741
 20
-398.7669839883668
 30
0.0
  0
VERTEX
  5
10AC
  8
0
  6
CONTINUOUS
 10
35.02410871858666
 20
-402.2860407554802
 30
0.0
  0
VERTEX
  5
10AD
  8
0
  6
CONTINUOUS
 10
33.760528980491472
 20
-405.88384202195061
 30
0.0
  0
VERTEX
  5
10AE
  8
0
  6
CONTINUOUS
 10
32.29494807699416
 20
-409.5638069663085
 30
0.0
  0
VERTEX
  5
10AF
  8
0
  6
CONTINUOUS
 10
30.610928350350029
 20
-413.329354767084
 30
0.0
  0
VERTEX
  5
10B0
  8
0
  6
CONTINUOUS
 10
30.610928350350029
 20
-413.329354767084
 30
0.0
  0
VERTEX
  5
10B1
  8
0
  6
CONTINUOUS
 10
27.027644971778841
 20
-420.53240689786293
 30
0.0
  0
VERTEX
  5
10B2
  8
0
  6
CONTINUOUS
 10
24.99992791799809
 20
-424.6512055133432
 30
0.0
  0
VERTEX
  5
10B3
  8
0
  6
CONTINUOUS
 10
22.84041113843163
 20
-429.33332662651083
 30
0.0
  0
VERTEX
  5
10B4
  8
0
  6
CONTINUOUS
 10
22.84041113843163
 20
-429.33332662651083
 30
0.0
  0
VERTEX
  5
10B5
  8
0
  6
CONTINUOUS
 10
21.881638152714441
 20
-431.43141961227849
 30
0.0
  0
VERTEX
  5
10B6
  8
0
  6
CONTINUOUS
 10
20.635561990603371
 20
-433.60094260982157
 30
0.0
  0
VERTEX
  5
10B7
  8
0
  6
CONTINUOUS
 10
18.833595897562962
 20
-435.79246647200603
 30
0.0
  0
VERTEX
  5
10B8
  8
0
  6
CONTINUOUS
 10
17.64022076615197
 20
-436.8810321188592
 30
0.0
  0
VERTEX
  5
10B9
  8
0
  6
CONTINUOUS
 10
16.20715311905775
 20
-437.9565620516974
 30
0.0
  0
VERTEX
  5
10BA
  8
0
  6
CONTINUOUS
 10
16.20715311905775
 20
-437.9565620516974
 30
0.0
  0
VERTEX
  5
10BB
  8
0
  6
CONTINUOUS
 10
13.693405750451801
 20
-439.44177398633951
 30
0.0
  0
VERTEX
  5
10BC
  8
0
  6
CONTINUOUS
 10
10.90054670355817
 20
-440.60986525944458
 30
0.0
  0
VERTEX
  5
10BD
  8
0
  6
CONTINUOUS
 10
10.90054670355817
 20
-440.60986525944458
 30
0.0
  0
VERTEX
  5
10BE
  8
0
  6
CONTINUOUS
 10
8.0835404237286621
 20
-441.2745641329908
 30
0.0
  0
VERTEX
  5
10BF
  8
0
  6
CONTINUOUS
 10
5.32201404467747
 20
-441.61045427400018
 30
0.0
  0
VERTEX
  5
10C0
  8
0
  6
CONTINUOUS
 10
5.32201404467747
 20
-441.61045427400018
 30
0.0
  0
VERTEX
  5
10C1
  8
0
  6
CONTINUOUS
 10
2.638188845693036
 20
-441.82722284890548
 30
0.0
  0
VERTEX
  5
10C2
  8
0
  6
CONTINUOUS
 10
0.0000000000000568
 20
-441.91411561672538
 30
0.0
  0
VERTEX
  5
10C3
  8
0
  6
CONTINUOUS
 10
0.0000000000000568
 20
-441.91411561672538
 30
0.0
  0
VERTEX
  5
10C4
  8
0
  6
CONTINUOUS
 10
-2.6381888456929801
 20
-441.82722284890548
 30
0.0
  0
VERTEX
  5
10C5
  8
0
  6
CONTINUOUS
 10
-5.3220140446773012
 20
-441.61045427400018
 30
0.0
  0
VERTEX
  5
10C6
  8
0
  6
CONTINUOUS
 10
-5.3220140446773012
 20
-441.61045427400018
 30
0.0
  0
VERTEX
  5
10C7
  8
0
  6
CONTINUOUS
 10
-8.083540423728607
 20
-441.2745641329908
 30
0.0
  0
VERTEX
  5
10C8
  8
0
  6
CONTINUOUS
 10
-10.90054670355806
 20
-440.60986525944458
 30
0.0
  0
VERTEX
  5
10C9
  8
0
  6
CONTINUOUS
 10
-10.90054670355806
 20
-440.60986525944458
 30
0.0
  0
VERTEX
  5
10CA
  8
0
  6
CONTINUOUS
 10
-13.69340575045169
 20
-439.44177398633951
 30
0.0
  0
VERTEX
  5
10CB
  8
0
  6
CONTINUOUS
 10
-16.207153119057619
 20
-437.9565620516974
 30
0.0
  0
VERTEX
  5
10CC
  8
0
  6
CONTINUOUS
 10
-16.207153119057619
 20
-437.9565620516974
 30
0.0
  0
VERTEX
  5
10CD
  8
0
  6
CONTINUOUS
 10
-17.640220766151849
 20
-436.8810321188592
 30
0.0
  0
VERTEX
  5
10CE
  8
0
  6
CONTINUOUS
 10
-18.833595897562851
 20
-435.79246647200603
 30
0.0
  0
VERTEX
  5
10CF
  8
0
  6
CONTINUOUS
 10
-20.635561990603261
 20
-433.60094260982157
 30
0.0
  0
VERTEX
  5
10D0
  8
0
  6
CONTINUOUS
 10
-21.88163815271432
 20
-431.43141961227849
 30
0.0
  0
VERTEX
  5
10D1
  8
0
  6
CONTINUOUS
 10
-22.840411138431531
 20
-429.33332662651083
 30
0.0
  0
VERTEX
  5
10D2
  8
0
  6
CONTINUOUS
 10
-22.840411138431531
 20
-429.33332662651083
 30
0.0
  0
VERTEX
  5
10D3
  8
0
  6
CONTINUOUS
 10
-24.999927917997969
 20
-424.6512055133432
 30
0.0
  0
VERTEX
  5
10D4
  8
0
  6
CONTINUOUS
 10
-27.02764497177871
 20
-420.53240689786293
 30
0.0
  0
VERTEX
  5
10D5
  8
0
  6
CONTINUOUS
 10
-30.61092835034993
 20
-413.329354767084
 30
0.0
  0
VERTEX
  5
10D6
  8
0
  6
CONTINUOUS
 10
-30.61092835034993
 20
-413.329354767084
 30
0.0
  0
VERTEX
  5
10D7
  8
0
  6
CONTINUOUS
 10
-32.294948076994046
 20
-409.5638069663085
 30
0.0
  0
VERTEX
  5
10D8
  8
0
  6
CONTINUOUS
 10
-33.760528980491351
 20
-405.88384202195061
 30
0.0
  0
VERTEX
  5
10D9
  8
0
  6
CONTINUOUS
 10
-35.02410871858649
 20
-402.2860407554802
 30
0.0
  0
VERTEX
  5
10DA
  8
0
  6
CONTINUOUS
 10
-36.102124949024642
 20
-398.7669839883668
 30
0.0
  0
VERTEX
  5
10DB
  8
0
  6
CONTINUOUS
 10
-37.767217517909032
 20
-391.9514272380905
 30
0.0
  0
VERTEX
  5
10DC
  8
0
  6
CONTINUOUS
 10
-38.887307949103779
 20
-385.40981834287862
 30
0.0
  0
VERTEX
  5
10DD
  8
0
  6
CONTINUOUS
 10
-39.593897504568041
 20
-379.1148038744887
 30
0.0
  0
VERTEX
  5
10DE
  8
0
  6
CONTINUOUS
 10
-40.018487446260899
 20
-373.03903040467799
 30
0.0
  0
VERTEX
  5
10DF
  8
0
  6
CONTINUOUS
 10
-40.547673536169611
 20
-361.43579274782371
 30
0.0
  0
VERTEX
  5
10E0
  8
0
  6
CONTINUOUS
 10
-40.547673536169611
 20
-361.43579274782371
 30
0.0
  0
VERTEX
  5
10E1
  8
0
  6
CONTINUOUS
 10
-41.325460343915942
 20
-350.42372339538161
 30
0.0
  0
VERTEX
  5
10E2
  8
0
  6
CONTINUOUS
 10
-42.396778112236447
 20
-339.99622216644519
 30
0.0
  0
VERTEX
  5
10E3
  8
0
  6
CONTINUOUS
 10
-44.794063619196777
 20
-321.03830515148849
 30
0.0
  0
VERTEX
  5
10E4
  8
0
  6
CONTINUOUS
 10
-44.794063619196777
 20
-321.03830515148849
 30
0.0
  0
VERTEX
  5
10E5
  8
0
  6
CONTINUOUS
 10
-46.396696263027877
 20
-307.6487762676648
 30
0.0
  0
VERTEX
  5
10E6
  8
0
  6
CONTINUOUS
 10
-47.610512308512682
 20
-295.69912841120481
 30
0.0
  0
VERTEX
  5
10E7
  8
0
  6
CONTINUOUS
 10
-48.505681835124982
 20
-284.82356249452459
 30
0.0
  0
VERTEX
  5
10E8
  8
0
  6
CONTINUOUS
 10
-49.152374922338772
 20
-274.6562794300404
 30
0.0
  0
VERTEX
  5
10E9
  8
0
  6
CONTINUOUS
 10
-49.981012096466543
 20
-254.9833655073229
 30
0.0
  0
VERTEX
  5
10EA
  8
0
  6
CONTINUOUS
 10
-50.657784466687481
 20
-233.75399394237971
 30
0.0
  0
VERTEX
  5
10EB
  8
0
  6
CONTINUOUS
 10
-50.657784466687481
 20
-233.75399394237971
 30
0.0
  0
VERTEX
  5
10EC
  8
0
  6
CONTINUOUS
 10
-51.633634897089379
 20
-208.7420235950828
 30
0.0
  0
VERTEX
  5
10ED
  8
0
  6
CONTINUOUS
 10
-52.917835164945402
 20
-180.5223195674846
 30
0.0
  0
VERTEX
  5
10EE
  8
0
  6
CONTINUOUS
 10
-56.006701235297577
 20
-119.56017712177299
 30
0.0
  0
VERTEX
  5
10EF
  8
0
  6
CONTINUOUS
 10
-56.006701235297577
 20
-119.56017712177299
 30
0.0
  0
VERTEX
  5
10F0
  8
0
  6
CONTINUOUS
 10
-59.24843876348622
 20
-59.16247225339621
 30
0.0
  0
VERTEX
  5
10F1
  8
0
  6
CONTINUOUS
 10
-62.499999999999922
 20
-0.0000000000000004
 30
0.0
  0
SEQEND
  5
10F2
  8
0
  6
CONTINUOUS
  0
POINT
  5
4C3
  8
0
  6
CONTINUOUS
 10
-81.920005021185062
 20
-401.38636978622691
 30
0.0
  0
POINT
  5
4C4
  8
0
  6
CONTINUOUS
 10
-22.840411138431531
 20
-429.33332662651083
 30
0.0
  0
POINT
  5
4C5
  8
0
  6
CONTINUOUS
 10
-16.207153119057619
 20
-437.9565620516974
 30
0.0
  0
POINT
  5
4C6
  8
0
  6
CONTINUOUS
 10
-30.61092835034993
 20
-413.329354767084
 30
0.0
  0
POINT
  5
4C7
  8
0
  6
CONTINUOUS
 10
-5.3220140446773012
 20
-441.61045427400018
 30
0.0
  0
POINT
  5
4C8
  8
0
  6
CONTINUOUS
 10
-10.90054670355806
 20
-440.60986525944458
 30
0.0
  0
POINT
  5
4C9
  8
0
  6
CONTINUOUS
 10
5.32201404467747
 20
-441.61045427400018
 30
0.0
  0
POINT
  5
4CA
  8
0
  6
CONTINUOUS
 10
0.0000000000000568
 20
-441.91411561672538
 30
0.0
  0
POINT
  5
4CB
  8
0
  6
CONTINUOUS
 10
0.0000000000000568
 20
-441.91411561672538
 30
0.0
  0
POINT
  5
4CC
  8
0
  6
CONTINUOUS
 10
10.90054670355817
 20
-440.60986525944458
 30
0.0
  0
POINT
  5
4CD
  8
0
  6
CONTINUOUS
 10
22.84041113843163
 20
-429.33332662651083
 30
0.0
  0
POINT
  5
4CE
  8
0
  6
CONTINUOUS
 10
16.20715311905775
 20
-437.9565620516974
 30
0.0
  0
TEXT
  5
4CF
  8
0
  6
CONTINUOUS
 10
-15.76007637221152
 20
-380.58459790679882
 30
0.0
 40
10.0
  1
1m/s
 50
0.0000025044781673
 41
0.5833333271245161
  7
STANDARD1
  0
POINT
  5
4D0
  8
0
  6
CONTINUOUS
 10
-40.547673536169611
 20
-361.43579274782371
 30
0.0
  0
POINT
  5
4D1
  8
0
  6
CONTINUOUS
 10
-44.794063619196777
 20
-321.03830515148849
 30
0.0
  0
POINT
  5
4D2
  8
0
  6
CONTINUOUS
 10
-74.130037919204625
 20
-259.28242870758947
 30
0.0
  0
POINT
  5
4D3
  8
0
  6
CONTINUOUS
 10
-74.130037919204625
 20
-259.28242870758947
 30
0.0
  0
POINT
  5
4D4
  8
0
  6
CONTINUOUS
 10
-50.657784466687481
 20
-233.75399394237971
 30
0.0
  0
POINT
  5
4D5
  8
0
  6
CONTINUOUS
 10
-69.038134912473964
 20
-153.5172099571331
 30
0.0
  0
POINT
  5
4D6
  8
0
  6
CONTINUOUS
 10
30.610928350350029
 20
-413.329354767084
 30
0.0
  0
POINT
  5
4D7
  8
0
  6
CONTINUOUS
 10
81.920005021185005
 20
-401.38636978622691
 30
0.0
  0
POINT
  5
4D8
  8
0
  6
CONTINUOUS
 10
40.547673536169732
 20
-361.43579274782371
 30
0.0
  0
POINT
  5
4D9
  8
0
  6
CONTINUOUS
 10
44.794063619196884
 20
-321.03830515148849
 30
0.0
  0
POINT
  5
4DA
  8
0
  6
CONTINUOUS
 10
50.657784466687637
 20
-233.75399394237971
 30
0.0
  0
POINT
  5
4DB
  8
0
  6
CONTINUOUS
 10
74.130037919204682
 20
-259.2824287075897
 30
0.0
  0
POINT
  5
4DC
  8
0
  6
CONTINUOUS
 10
74.130037919204682
 20
-259.2824287075897
 30
0.0
  0
POINT
  5
4DD
  8
0
  6
CONTINUOUS
 10
69.038134912473993
 20
-153.5172099571331
 30
0.0
  0
POLYLINE
  5
4DE
  8
0
  6
CONTINUOUS
 66
     1
 10
0.0
 20
0.0
 30
0.0
  0
VERTEX
  5
10F3
  8
0
  6
CONTINUOUS
 10
62.500086156808607
 20
-0.0021903049312191
 30
0.0
  0
VERTEX
  5
10F4
  8
0
  6
CONTINUOUS
 10
59.961261400850489
 20
-20.12991709228822
 30
0.0
  0
VERTEX
  5
10F5
  8
0
  6
CONTINUOUS
 10
58.163663949855128
 20
-33.03847981145902
 30
0.0
  0
VERTEX
  5
10F6
  8
0
  6
CONTINUOUS
 10
55.73224441124011
 20
-49.360681721220601
 30
0.0
  0
VERTEX
  5
10F7
  8
0
  6
CONTINUOUS
 10
55.73224441124011
 20
-49.360681721220601
 30
0.0
  0
VERTEX
  5
10F8
  8
0
  6
CONTINUOUS
 10
54.008170132915332
 20
-60.028017031570641
 30
0.0
  0
VERTEX
  5
10F9
  8
0
  6
CONTINUOUS
 10
53.024195341460057
 20
-65.218894669052503
 30
0.0
  0
VERTEX
  5
10FA
  8
0
  6
CONTINUOUS
 10
51.946962732597612
 20
-69.952614053033642
 30
0.0
  0
VERTEX
  5
10FB
  8
0
  6
CONTINUOUS
 10
51.946962732597612
 20
-69.952614053033642
 30
0.0
  0
VERTEX
  5
10FC
  8
0
  6
CONTINUOUS
 10
50.766528898501861
 20
-74.028780372268244
 30
0.0
  0
VERTEX
  5
10FD
  8
0
  6
CONTINUOUS
 10
49.469074947680582
 20
-77.531314295642986
 30
0.0
  0
VERTEX
  5
10FE
  8
0
  6
CONTINUOUS
 10
48.039813117724741
 20
-80.615215362076952
 30
0.0
  0
VERTEX
  5
10FF
  8
0
  6
CONTINUOUS
 10
46.463955646225251
 20
-83.435483110490239
 30
0.0
  0
VERTEX
  5
1100
  8
0
  6
CONTINUOUS
 10
46.463955646225251
 20
-83.435483110490239
 30
0.0
  0
VERTEX
  5
1101
  8
0
  6
CONTINUOUS
 10
44.727037200413399
 20
-86.09137329972998
 30
0.0
  0
VERTEX
  5
1102
  8
0
  6
CONTINUOUS
 10
42.815882166080769
 20
-88.459166568356466
 30
0.0
  0
VERTEX
  5
1103
  8
0
  6
CONTINUOUS
 10
40.71763735865931
 20
-90.359399774857508
 30
0.0
  0
VERTEX
  5
1104
  8
0
  6
CONTINUOUS
 10
39.594339669862791
 20
-91.078099123088563
 30
0.0
  0
VERTEX
  5
1105
  8
0
  6
CONTINUOUS
 10
38.419449593581142
 20
-91.612609777721232
 30
0.0
  0
VERTEX
  5
1106
  8
0
  6
CONTINUOUS
 10
38.419449593581142
 20
-91.612609777721232
 30
0.0
  0
VERTEX
  5
1107
  8
0
  6
CONTINUOUS
 10
37.195248603686359
 20
-91.947566584214215
 30
0.0
  0
VERTEX
  5
1108
  8
0
  6
CONTINUOUS
 10
35.939570661823829
 20
-92.095875340616288
 30
0.0
  0
VERTEX
  5
1109
  8
0
  6
CONTINUOUS
 10
34.674137851581811
 20
-92.077509583124225
 30
0.0
  0
VERTEX
  5
110A
  8
0
  6
CONTINUOUS
 10
33.420672256548741
 20
-91.912442847934358
 30
0.0
  0
VERTEX
  5
110B
  8
0
  6
CONTINUOUS
 10
31.036531046463079
 20
-91.222100589247589
 30
0.0
  0
VERTEX
  5
110C
  8
0
  6
CONTINUOUS
 10
28.960923700273842
 20
-90.184636854128513
 30
0.0
  0
VERTEX
  5
110D
  8
0
  6
CONTINUOUS
 10
28.960923700273842
 20
-90.184636854128513
 30
0.0
  0
VERTEX
  5
110E
  8
0
  6
CONTINUOUS
 10
27.322342177497259
 20
-88.945429517156583
 30
0.0
  0
VERTEX
  5
110F
  8
0
  6
CONTINUOUS
 10
26.068139600885718
 20
-87.592214792940439
 30
0.0
  0
VERTEX
  5
1110
  8
0
  6
CONTINUOUS
 10
25.10038438400068
 20
-86.198318481095967
 30
0.0
  0
VERTEX
  5
1111
  8
0
  6
CONTINUOUS
 10
24.321144940403482
 20
-84.837066381239055
 30
0.0
  0
VERTEX
  5
1112
  8
0
  6
CONTINUOUS
 10
24.321144940403482
 20
-84.837066381239055
 30
0.0
  0
VERTEX
  5
1113
  8
0
  6
CONTINUOUS
 10
22.069340780987091
 20
-80.191741883123996
 30
0.0
  0
VERTEX
  5
1114
  8
0
  6
CONTINUOUS
 10
21.3323693889166
 20
-78.203193955199282
 30
0.0
  0
VERTEX
  5
1115
  8
0
  6
CONTINUOUS
 10
20.765368188037058
 20
-76.268433833263089
 30
0.0
  0
VERTEX
  5
1116
  8
0
  6
CONTINUOUS
 10
19.873325558148501
 20
-72.053411783056248
 30
0.0
  0
VERTEX
  5
1117
  8
0
  6
CONTINUOUS
 10
18.85731128791582
 20
-66.532945283903331
 30
0.0
  0
VERTEX
  5
1118
  8
0
  6
CONTINUOUS
 10
18.85731128791582
 20
-66.532945283903331
 30
0.0
  0
VERTEX
  5
1119
  8
0
  6
CONTINUOUS
 10
18.162521113650289
 20
-63.025052491839382
 30
0.0
  0
VERTEX
  5
111A
  8
0
  6
CONTINUOUS
 10
17.451455240589201
 20
-59.422233971927092
 30
0.0
  0
VERTEX
  5
111B
  8
0
  6
CONTINUOUS
 10
17.451455240589201
 20
-59.422233971927092
 30
0.0
  0
VERTEX
  5
111C
  8
0
  6
CONTINUOUS
 10
16.380877832685421
 20
-53.300599568737461
 30
0.0
  0
VERTEX
  5
111D
  8
0
  6
CONTINUOUS
 10
15.706869411626251
 20
-48.368406683638739
 30
0.0
  0
VERTEX
  5
111E
  8
0
  6
CONTINUOUS
 10
15.033583278810511
 20
-40.607739645314929
 30
0.0
  0
VERTEX
  5
111F
  8
0
  6
CONTINUOUS
 10
15.033583278810511
 20
-40.607739645314929
 30
0.0
  0
VERTEX
  5
1120
  8
0
  6
CONTINUOUS
 10
13.666089631201711
 20
-19.390820070701452
 30
0.0
  0
VERTEX
  5
1121
  8
0
  6
CONTINUOUS
 10
12.512031544056979
 20
-0.0526150496368705
 30
0.0
  0
SEQEND
  5
1122
  8
0
  6
CONTINUOUS
  0
LINE
  5
4DF
  8
0
  6
CONTINUOUS
 10
78.75
 20
-0.0000000000000004
 30
0.0
 11
-78.749999999999901
 21
0.0000000000000004
 31
0.0
  0
LINE
  5
4E0
  8
0
  6
CONTINUOUS
 10
78.75
 20
-0.7000000000000007
 30
0.0
 11
-78.749999999999901
 21
-0.7000000000000007
 31
0.0
  0
POLYLINE
  5
4E1
  8
0
  6
CONTINUOUS
 66
     1
 10
0.0
 20
0.0
 30
0.0
  0
VERTEX
  5
1123
  8
0
  6
CONTINUOUS
 10
-62.500086156808457
 20
-0.0021903049312191
 30
0.0
  0
VERTEX
  5
1124
  8
0
  6
CONTINUOUS
 10
-59.961261400850418
 20
-20.12991709228822
 30
0.0
  0
VERTEX
  5
1125
  8
0
  6
CONTINUOUS
 10
-58.163663949855021
 20
-33.03847981145902
 30
0.0
  0
VERTEX
  5
1126
  8
0
  6
CONTINUOUS
 10
-55.73224441124006
 20
-49.360681721220601
 30
0.0
  0
VERTEX
  5
1127
  8
0
  6
CONTINUOUS
 10
-55.73224441124006
 20
-49.360681721220601
 30
0.0
  0
VERTEX
  5
1128
  8
0
  6
CONTINUOUS
 10
-54.008170132915239
 20
-60.028017031570641
 30
0.0
  0
VERTEX
  5
1129
  8
0
  6
CONTINUOUS
 10
-53.024195341460029
 20
-65.218894669052503
 30
0.0
  0
VERTEX
  5
112A
  8
0
  6
CONTINUOUS
 10
-51.946962732597449
 20
-69.952614053033642
 30
0.0
  0
VERTEX
  5
112B
  8
0
  6
CONTINUOUS
 10
-51.946962732597449
 20
-69.952614053033642
 30
0.0
  0
VERTEX
  5
112C
  8
0
  6
CONTINUOUS
 10
-50.766528898501718
 20
-74.028780372268244
 30
0.0
  0
VERTEX
  5
112D
  8
0
  6
CONTINUOUS
 10
-49.469074947680483
 20
-77.531314295642986
 30
0.0
  0
VERTEX
  5
112E
  8
0
  6
CONTINUOUS
 10
-48.039813117724648
 20
-80.615215362076952
 30
0.0
  0
VERTEX
  5
112F
  8
0
  6
CONTINUOUS
 10
-46.463955646225202
 20
-83.435483110490239
 30
0.0
  0
VERTEX
  5
1130
  8
0
  6
CONTINUOUS
 10
-46.463955646225202
 20
-83.435483110490239
 30
0.0
  0
VERTEX
  5
1131
  8
0
  6
CONTINUOUS
 10
-44.727037200413278
 20
-86.09137329972998
 30
0.0
  0
VERTEX
  5
1132
  8
0
  6
CONTINUOUS
 10
-42.815882166080641
 20
-88.459166568356466
 30
0.0
  0
VERTEX
  5
1133
  8
0
  6
CONTINUOUS
 10
-40.717637358659204
 20
-90.359399774857508
 30
0.0
  0
VERTEX
  5
1134
  8
0
  6
CONTINUOUS
 10
-39.594339669862727
 20
-91.078099123088563
 30
0.0
  0
VERTEX
  5
1135
  8
0
  6
CONTINUOUS
 10
-38.419449593580971
 20
-91.612609777721232
 30
0.0
  0
VERTEX
  5
1136
  8
0
  6
CONTINUOUS
 10
-38.419449593580971
 20
-91.612609777721232
 30
0.0
  0
VERTEX
  5
1137
  8
0
  6
CONTINUOUS
 10
-37.195248603686252
 20
-91.947566584214215
 30
0.0
  0
VERTEX
  5
1138
  8
0
  6
CONTINUOUS
 10
-35.939570661823723
 20
-92.095875340616288
 30
0.0
  0
VERTEX
  5
1139
  8
0
  6
CONTINUOUS
 10
-34.67413785158169
 20
-92.077509583124225
 30
0.0
  0
VERTEX
  5
113A
  8
0
  6
CONTINUOUS
 10
-33.420672256548642
 20
-91.912442847934358
 30
0.0
  0
VERTEX
  5
113B
  8
0
  6
CONTINUOUS
 10
-31.036531046462979
 20
-91.222100589247589
 30
0.0
  0
VERTEX
  5
113C
  8
0
  6
CONTINUOUS
 10
-28.96092370027371
 20
-90.184636854128513
 30
0.0
  0
VERTEX
  5
113D
  8
0
  6
CONTINUOUS
 10
-28.96092370027371
 20
-90.184636854128513
 30
0.0
  0
VERTEX
  5
113E
  8
0
  6
CONTINUOUS
 10
-27.322342177497148
 20
-88.945429517156583
 30
0.0
  0
VERTEX
  5
113F
  8
0
  6
CONTINUOUS
 10
-26.068139600885608
 20
-87.592214792940439
 30
0.0
  0
VERTEX
  5
1140
  8
0
  6
CONTINUOUS
 10
-25.100384384000559
 20
-86.198318481095967
 30
0.0
  0
VERTEX
  5
1141
  8
0
  6
CONTINUOUS
 10
-24.321144940403428
 20
-84.837066381239055
 30
0.0
  0
VERTEX
  5
1142
  8
0
  6
CONTINUOUS
 10
-24.321144940403428
 20
-84.837066381239055
 30
0.0
  0
VERTEX
  5
1143
  8
0
  6
CONTINUOUS
 10
-22.069340780986909
 20
-80.191741883123996
 30
0.0
  0
VERTEX
  5
1144
  8
0
  6
CONTINUOUS
 10
-21.332369388916501
 20
-78.203193955199282
 30
0.0
  0
VERTEX
  5
1145
  8
0
  6
CONTINUOUS
 10
-20.76536818803697
 20
-76.268433833263089
 30
0.0
  0
VERTEX
  5
1146
  8
0
  6
CONTINUOUS
 10
-19.873325558148391
 20
-72.053411783056248
 30
0.0
  0
VERTEX
  5
1147
  8
0
  6
CONTINUOUS
 10
-18.857311287915689
 20
-66.532945283903331
 30
0.0
  0
VERTEX
  5
1148
  8
0
  6
CONTINUOUS
 10
-18.857311287915689
 20
-66.532945283903331
 30
0.0
  0
VERTEX
  5
1149
  8
0
  6
CONTINUOUS
 10
-18.1625211136502
 20
-63.025052491839382
 30
0.0
  0
VERTEX
  5
114A
  8
0
  6
CONTINUOUS
 10
-17.451455240589091
 20
-59.422233971927092
 30
0.0
  0
VERTEX
  5
114B
  8
0
  6
CONTINUOUS
 10
-17.451455240589091
 20
-59.422233971927092
 30
0.0
  0
VERTEX
  5
114C
  8
0
  6
CONTINUOUS
 10
-16.380877832685311
 20
-53.300599568737461
 30
0.0
  0
VERTEX
  5
114D
  8
0
  6
CONTINUOUS
 10
-15.70686941162614
 20
-48.368406683638739
 30
0.0
  0
VERTEX
  5
114E
  8
0
  6
CONTINUOUS
 10
-15.03358327881039
 20
-40.607739645314929
 30
0.0
  0
VERTEX
  5
114F
  8
0
  6
CONTINUOUS
 10
-15.03358327881039
 20
-40.607739645314929
 30
0.0
  0
VERTEX
  5
1150
  8
0
  6
CONTINUOUS
 10
-13.66608963120159
 20
-19.390820070701452
 30
0.0
  0
VERTEX
  5
1151
  8
0
  6
CONTINUOUS
 10
-12.512031544056841
 20
-0.0526150496368705
 30
0.0
  0
SEQEND
  5
1152
  8
0
  6
CONTINUOUS
  0
POINT
  5
4E2
  8
0
  6
CONTINUOUS
 10
-56.006701235297577
 20
-119.56017712177299
 30
0.0
  0
LINE
  5
4E3
  8
0
  6
CONTINUOUS
 10
-78.749999999999901
 20
-0.0000000000000004
 30
0.0
 11
-78.749999999999901
 21
-0.7000000000000007
 31
0.0
  0
POINT
  5
4E4
  8
0
  6
CONTINUOUS
 10
-62.499999999999922
 20
-0.0000000000000004
 30
0.0
  0
POLYLINE
  5
4E5
  8
0
  6
CONTINUOUS
 66
     1
 10
0.0
 20
0.0
 30
0.0
  0
VERTEX
  5
1153
  8
0
  6
CONTINUOUS
 10
12.50000000000005
 20
-0.0000000000000004
 30
0.0
  0
VERTEX
  5
1154
  8
0
  6
CONTINUOUS
 10
11.36809907389636
 20
-19.536549552962171
 30
0.0
  0
VERTEX
  5
1155
  8
0
  6
CONTINUOUS
 10
9.3829807086638066
 20
-47.328897546577807
 30
0.0
  0
VERTEX
  5
1156
  8
0
  6
CONTINUOUS
 10
9.3829807086638066
 20
-47.328897546577807
 30
0.0
  0
VERTEX
  5
1157
  8
0
  6
CONTINUOUS
 10
8.7592483048498462
 20
-55.103890910881368
 30
0.0
  0
VERTEX
  5
1158
  8
0
  6
CONTINUOUS
 10
8.0713258837318431
 20
-62.74084173953954
 30
0.0
  0
VERTEX
  5
1159
  8
0
  6
CONTINUOUS
 10
8.0713258837318431
 20
-62.74084173953954
 30
0.0
  0
VERTEX
  5
115A
  8
0
  6
CONTINUOUS
 10
7.3390456573271177
 20
-69.480641672648503
 30
0.0
  0
VERTEX
  5
115B
  8
0
  6
CONTINUOUS
 10
6.5957142056822651
 20
-75.201562576401088
 30
0.0
  0
VERTEX
  5
115C
  8
0
  6
CONTINUOUS
 10
6.5957142056822651
 20
-75.201562576401088
 30
0.0
  0
VERTEX
  5
115D
  8
0
  6
CONTINUOUS
 10
5.8856893340839607
 20
-79.939981867484775
 30
0.0
  0
VERTEX
  5
115E
  8
0
  6
CONTINUOUS
 10
5.28405938074917
 20
-83.727318938466652
 30
0.0
  0
VERTEX
  5
115F
  8
0
  6
CONTINUOUS
 10
5.28405938074917
 20
-83.727318938466652
 30
0.0
  0
VERTEX
  5
1160
  8
0
  6
CONTINUOUS
 10
4.7370231589918603
 20
-86.685301923153716
 30
0.0
  0
VERTEX
  5
1161
  8
0
  6
CONTINUOUS
 10
4.30498538882898
 20
-88.000039218583808
 30
0.0
  0
VERTEX
  5
1162
  8
0
  6
CONTINUOUS
 10
3.644490849582152
 20
-89.301851944430808
 30
0.0
  0
VERTEX
  5
1163
  8
0
  6
CONTINUOUS
 10
3.644490849582152
 20
-89.301851944430808
 30
0.0
  0
VERTEX
  5
1164
  8
0
  6
CONTINUOUS
 10
2.94094132346049
 20
-90.282454785124926
 30
0.0
  0
VERTEX
  5
1165
  8
0
  6
CONTINUOUS
 10
1.677008612183555
 20
-91.597247888064473
 30
0.0
  0
VERTEX
  5
1166
  8
0
  6
CONTINUOUS
 10
1.677008612183555
 20
-91.597247888064473
 30
0.0
  0
VERTEX
  5
1167
  8
0
  6
CONTINUOUS
 10
0.882919212048989
 20
-92.258870557593511
 30
0.0
  0
VERTEX
  5
1168
  8
0
  6
CONTINUOUS
 10
0.4470114692691709
 20
-92.490936498284213
 30
0.0
  0
VERTEX
  5
1169
  8
0
  6
CONTINUOUS
 10
0.0000000000000568
 20
-92.580989006763787
 30
0.0
  0
VERTEX
  5
116A
  8
0
  6
CONTINUOUS
 10
0.0000000000000568
 20
-92.580989006763787
 30
0.0
  0
VERTEX
  5
116B
  8
0
  6
CONTINUOUS
 10
-0.4470114692690573
 20
-92.490936498284213
 30
0.0
  0
VERTEX
  5
116C
  8
0
  6
CONTINUOUS
 10
-0.8829192120488187
 20
-92.258870557593497
 30
0.0
  0
VERTEX
  5
116D
  8
0
  6
CONTINUOUS
 10
-1.677008612183438
 20
-91.597247888064473
 30
0.0
  0
VERTEX
  5
116E
  8
0
  6
CONTINUOUS
 10
-1.677008612183438
 20
-91.597247888064473
 30
0.0
  0
VERTEX
  5
116F
  8
0
  6
CONTINUOUS
 10
-2.9409413234603781
 20
-90.282454785124784
 30
0.0
  0
VERTEX
  5
1170
  8
0
  6
CONTINUOUS
 10
-3.6444908495819832
 20
-89.301851944430808
 30
0.0
  0
VERTEX
  5
1171
  8
0
  6
CONTINUOUS
 10
-3.6444908495819832
 20
-89.301851944430808
 30
0.0
  0
VERTEX
  5
1172
  8
0
  6
CONTINUOUS
 10
-4.3049853888288681
 20
-88.000039218583808
 30
0.0
  0
VERTEX
  5
1173
  8
0
  6
CONTINUOUS
 10
-4.7370231589917449
 20
-86.685301923153716
 30
0.0
  0
VERTEX
  5
1174
  8
0
  6
CONTINUOUS
 10
-5.2840593807490572
 20
-83.727318938466652
 30
0.0
  0
VERTEX
  5
1175
  8
0
  6
CONTINUOUS
 10
-5.2840593807490572
 20
-83.727318938466652
 30
0.0
  0
VERTEX
  5
1176
  8
0
  6
CONTINUOUS
 10
-5.885689334083847
 20
-79.939981867484775
 30
0.0
  0
VERTEX
  5
1177
  8
0
  6
CONTINUOUS
 10
-6.5957142056822118
 20
-75.201562576401088
 30
0.0
  0
VERTEX
  5
1178
  8
0
  6
CONTINUOUS
 10
-6.5957142056822118
 20
-75.201562576401088
 30
0.0
  0
VERTEX
  5
1179
  8
0
  6
CONTINUOUS
 10
-7.3390456573270031
 20
-69.480641672648503
 30
0.0
  0
VERTEX
  5
117A
  8
0
  6
CONTINUOUS
 10
-8.0713258837317312
 20
-62.74084173953954
 30
0.0
  0
VERTEX
  5
117B
  8
0
  6
CONTINUOUS
 10
-8.0713258837317312
 20
-62.74084173953954
 30
0.0
  0
VERTEX
  5
117C
  8
0
  6
CONTINUOUS
 10
-8.7592483048497307
 20
-55.103890910881368
 30
0.0
  0
VERTEX
  5
117D
  8
0
  6
CONTINUOUS
 10
-9.3829807086637516
 20
-47.328897546577807
 30
0.0
  0
VERTEX
  5
117E
  8
0
  6
CONTINUOUS
 10
-9.3829807086637516
 20
-47.328897546577807
 30
0.0
  0
VERTEX
  5
117F
  8
0
  6
CONTINUOUS
 10
-11.368099073896239
 20
-19.536549552962171
 30
0.0
  0
VERTEX
  5
1180
  8
0
  6
CONTINUOUS
 10
-12.49999999999994
 20
-0.0000000000000004
 30
0.0
  0
SEQEND
  5
1181
  8
0
  6
CONTINUOUS
  0
POINT
  5
4E6
  8
0
  6
CONTINUOUS
 10
0.0000000000000568
 20
-92.580989006763787
 30
0.0
  0
POINT
  5
4E7
  8
0
  6
CONTINUOUS
 10
-6.5957142056822118
 20
-75.201562576401088
 30
0.0
  0
POINT
  5
4E8
  8
0
  6
CONTINUOUS
 10
-5.2840593807490572
 20
-83.727318938466652
 30
0.0
  0
POINT
  5
4E9
  8
0
  6
CONTINUOUS
 10
-3.6444908495819832
 20
-89.301851944430808
 30
0.0
  0
POINT
  5
4EA
  8
0
  6
CONTINUOUS
 10
6.5957142056822651
 20
-75.201562576401088
 30
0.0
  0
POINT
  5
4EB
  8
0
  6
CONTINUOUS
 10
3.644490849582152
 20
-89.301851944430808
 30
0.0
  0
POINT
  5
4EC
  8
0
  6
CONTINUOUS
 10
5.28405938074917
 20
-83.727318938466652
 30
0.0
  0
POINT
  5
4ED
  8
0
  6
CONTINUOUS
 10
-1.677008612183438
 20
-91.597247888064473
 30
0.0
  0
POINT
  5
4EE
  8
0
  6
CONTINUOUS
 10
1.677008612183555
 20
-91.597247888064473
 30
0.0
  0
POINT
  5
4EF
  8
0
  6
CONTINUOUS
 10
-8.0713258837317312
 20
-62.74084173953954
 30
0.0
  0
POINT
  5
4F0
  8
0
  6
CONTINUOUS
 10
24.321144940403482
 20
-84.837066381239055
 30
0.0
  0
POINT
  5
4F1
  8
0
  6
CONTINUOUS
 10
8.0713258837318431
 20
-62.74084173953954
 30
0.0
  0
POINT
  5
4F2
  8
0
  6
CONTINUOUS
 10
17.451455240589201
 20
-59.422233971927092
 30
0.0
  0
POINT
  5
4F3
  8
0
  6
CONTINUOUS
 10
18.85731128791582
 20
-66.532945283903331
 30
0.0
  0
POLYLINE
  5
4F4
  8
0
  6
CONTINUOUS
 66
     1
 10
0.0
 20
0.0
 30
0.0
  0
VERTEX
  5
1182
  8
0
  6
CONTINUOUS
 10
12.50000000000005
 20
-0.0000000000000004
 30
0.0
  0
VERTEX
  5
1183
  8
0
  6
CONTINUOUS
 10
11.850770049366639
 20
-4.8204564492784812
 30
0.0
  0
VERTEX
  5
1184
  8
0
  6
CONTINUOUS
 10
11.233093281605299
 20
-9.5541378568350392
 30
0.0
  0
VERTEX
  5
1185
  8
0
  6
CONTINUOUS
 10
11.233093281605299
 20
-9.5541378568350392
 30
0.0
  0
VERTEX
  5
1186
  8
0
  6
CONTINUOUS
 10
10.654855049548811
 20
-14.135361892815411
 30
0.0
  0
VERTEX
  5
1187
  8
0
  6
CONTINUOUS
 10
10.029269385871711
 20
-18.582817074834612
 30
0.0
  0
VERTEX
  5
1188
  8
0
  6
CONTINUOUS
 10
10.029269385871711
 20
-18.582817074834612
 30
0.0
  0
VERTEX
  5
1189
  8
0
  6
CONTINUOUS
 10
9.2871636109603042
 20
-22.908039451131451
 30
0.0
  0
VERTEX
  5
118A
  8
0
  6
CONTINUOUS
 10
8.524489516205449
 20
-27.009584344967891
 30
0.0
  0
VERTEX
  5
118B
  8
0
  6
CONTINUOUS
 10
8.524489516205449
 20
-27.009584344967891
 30
0.0
  0
VERTEX
  5
118C
  8
0
  6
CONTINUOUS
 10
7.807607883852822
 20
-30.834126910605729
 30
0.0
  0
VERTEX
  5
118D
  8
0
  6
CONTINUOUS
 10
6.919390988561017
 20
-34.633802351279492
 30
0.0
  0
VERTEX
  5
118E
  8
0
  6
CONTINUOUS
 10
6.919390988561017
 20
-34.633802351279492
 30
0.0
  0
VERTEX
  5
118F
  8
0
  6
CONTINUOUS
 10
5.7011878777028624
 20
-38.51005534372603
 30
0.0
  0
VERTEX
  5
1190
  8
0
  6
CONTINUOUS
 10
4.5117431970948569
 20
-41.656108409721391
 30
0.0
  0
VERTEX
  5
1191
  8
0
  6
CONTINUOUS
 10
4.5117431970948569
 20
-41.656108409721391
 30
0.0
  0
VERTEX
  5
1192
  8
0
  6
CONTINUOUS
 10
3.568184672078301
 20
-43.594109365581382
 30
0.0
  0
VERTEX
  5
1193
  8
0
  6
CONTINUOUS
 10
2.00377674765042
 20
-46.070129360742897
 30
0.0
  0
VERTEX
  5
1194
  8
0
  6
CONTINUOUS
 10
2.00377674765042
 20
-46.070129360742897
 30
0.0
  0
VERTEX
  5
1195
  8
0
  6
CONTINUOUS
 10
1.062846386324622
 20
-47.400287113159777
 30
0.0
  0
VERTEX
  5
1196
  8
0
  6
CONTINUOUS
 10
0.5390429447247698
 20
-47.885620903857379
 30
0.0
  0
VERTEX
  5
1197
  8
0
  6
CONTINUOUS
 10
0.0000000000000568
 20
-48.07650252029822
 30
0.0
  0
VERTEX
  5
1198
  8
0
  6
CONTINUOUS
 10
0.0000000000000568
 20
-48.07650252029822
 30
0.0
  0
VERTEX
  5
1199
  8
0
  6
CONTINUOUS
 10
-0.5390429447246561
 20
-47.885620903857379
 30
0.0
  0
VERTEX
  5
119A
  8
0
  6
CONTINUOUS
 10
-1.062846386324507
 20
-47.400287113159777
 30
0.0
  0
VERTEX
  5
119B
  8
0
  6
CONTINUOUS
 10
-2.003776747650305
 20
-46.070129360742897
 30
0.0
  0
VERTEX
  5
119C
  8
0
  6
CONTINUOUS
 10
-2.003776747650305
 20
-46.070129360742897
 30
0.0
  0
VERTEX
  5
119D
  8
0
  6
CONTINUOUS
 10
-3.5681846720781301
 20
-43.594109365581382
 30
0.0
  0
VERTEX
  5
119E
  8
0
  6
CONTINUOUS
 10
-4.511743197094745
 20
-41.656108409721391
 30
0.0
  0
VERTEX
  5
119F
  8
0
  6
CONTINUOUS
 10
-4.511743197094745
 20
-41.656108409721391
 30
0.0
  0
VERTEX
  5
11A0
  8
0
  6
CONTINUOUS
 10
-5.701187877702746
 20
-38.51005534372603
 30
0.0
  0
VERTEX
  5
11A1
  8
0
  6
CONTINUOUS
 10
-6.9193909885609051
 20
-34.633802351279492
 30
0.0
  0
VERTEX
  5
11A2
  8
0
  6
CONTINUOUS
 10
-6.9193909885609051
 20
-34.633802351279492
 30
0.0
  0
VERTEX
  5
11A3
  8
0
  6
CONTINUOUS
 10
-7.8076078838527092
 20
-30.834126910605729
 30
0.0
  0
VERTEX
  5
11A4
  8
0
  6
CONTINUOUS
 10
-8.5244895162053922
 20
-27.009584344967891
 30
0.0
  0
VERTEX
  5
11A5
  8
0
  6
CONTINUOUS
 10
-8.5244895162053922
 20
-27.009584344967891
 30
0.0
  0
VERTEX
  5
11A6
  8
0
  6
CONTINUOUS
 10
-9.287163610960194
 20
-22.908039451131451
 30
0.0
  0
VERTEX
  5
11A7
  8
0
  6
CONTINUOUS
 10
-10.029269385871601
 20
-18.582817074834612
 30
0.0
  0
VERTEX
  5
11A8
  8
0
  6
CONTINUOUS
 10
-10.029269385871601
 20
-18.582817074834612
 30
0.0
  0
VERTEX
  5
11A9
  8
0
  6
CONTINUOUS
 10
-10.65485504954869
 20
-14.135361892815411
 30
0.0
  0
VERTEX
  5
11AA
  8
0
  6
CONTINUOUS
 10
-11.23309328160525
 20
-9.5541378568350392
 30
0.0
  0
VERTEX
  5
11AB
  8
0
  6
CONTINUOUS
 10
-11.23309328160525
 20
-9.5541378568350392
 30
0.0
  0
VERTEX
  5
11AC
  8
0
  6
CONTINUOUS
 10
-11.85077004936652
 20
-4.8204564492784812
 30
0.0
  0
VERTEX
  5
11AD
  8
0
  6
CONTINUOUS
 10
-12.49999999999994
 20
-0.0000000000000004
 30
0.0
  0
SEQEND
  5
11AE
  8
0
  6
CONTINUOUS
  0
POLYLINE
  5
4F5
  8
0
  6
CONTINUOUS
 66
     1
 10
0.0
 20
0.0
 30
0.0
  0
VERTEX
  5
11AF
  8
0
  6
CONTINUOUS
 10
12.50000000000005
 20
-0.0000000000000004
 30
0.0
  0
VERTEX
  5
11B0
  8
0
  6
CONTINUOUS
 10
11.45883568982196
 20
-3.537308847590281
 30
0.0
  0
VERTEX
  5
11B1
  8
0
  6
CONTINUOUS
 10
10.43054401778255
 20
-6.9458527494123228
 30
0.0
  0
VERTEX
  5
11B2
  8
0
  6
CONTINUOUS
 10
10.43054401778255
 20
-6.9458527494123228
 30
0.0
  0
VERTEX
  5
11B3
  8
0
  6
CONTINUOUS
 10
9.4230103367144675
 20
-10.084710382128369
 30
0.0
  0
VERTEX
  5
11B4
  8
0
  6
CONTINUOUS
 10
8.4241708582272281
 20
-12.764334912122919
 30
0.0
  0
VERTEX
  5
11B5
  8
0
  6
CONTINUOUS
 10
8.4241708582272281
 20
-12.764334912122919
 30
0.0
  0
VERTEX
  5
11B6
  8
0
  6
CONTINUOUS
 10
7.4211529441821531
 20
-14.86269464021972
 30
0.0
  0
VERTEX
  5
11B7
  8
0
  6
CONTINUOUS
 10
6.417797698672981
 20
-16.576443915279341
 30
0.0
  0
VERTEX
  5
11B8
  8
0
  6
CONTINUOUS
 10
6.417797698672981
 20
-16.576443915279341
 30
0.0
  0
VERTEX
  5
11B9
  8
0
  6
CONTINUOUS
 10
5.4182835572575501
 20
-18.135732236277011
 30
0.0
  0
VERTEX
  5
11BA
  8
0
  6
CONTINUOUS
 10
4.411424539117716
 20
-19.586003654612849
 30
0.0
  0
VERTEX
  5
11BB
  8
0
  6
CONTINUOUS
 10
4.411424539117716
 20
-19.586003654612849
 30
0.0
  0
VERTEX
  5
11BC
  8
0
  6
CONTINUOUS
 10
3.380839707912398
 20
-20.90616147288705
 30
0.0
  0
VERTEX
  5
11BD
  8
0
  6
CONTINUOUS
 10
2.3047327215841151
 20
-21.993651446077848
 30
0.0
  0
VERTEX
  5
11BE
  8
0
  6
CONTINUOUS
 10
2.3047327215841151
 20
-21.993651446077848
 30
0.0
  0
VERTEX
  5
11BF
  8
0
  6
CONTINUOUS
 10
1.1695344479445551
 20
-22.72779052930256
 30
0.0
  0
VERTEX
  5
11C0
  8
0
  6
CONTINUOUS
 10
0.0000000000000568
 20
-22.996838025857301
 30
0.0
  0
VERTEX
  5
11C1
  8
0
  6
CONTINUOUS
 10
0.0000000000000568
 20
-22.996838025857301
 30
0.0
  0
VERTEX
  5
11C2
  8
0
  6
CONTINUOUS
 10
-1.1695344479444421
 20
-22.72779052930256
 30
0.0
  0
VERTEX
  5
11C3
  8
0
  6
CONTINUOUS
 10
-2.3047327215840592
 20
-21.993651446077848
 30
0.0
  0
VERTEX
  5
11C4
  8
0
  6
CONTINUOUS
 10
-2.3047327215840592
 20
-21.993651446077848
 30
0.0
  0
VERTEX
  5
11C5
  8
0
  6
CONTINUOUS
 10
-3.380839707912342
 20
-20.90616147288705
 30
0.0
  0
VERTEX
  5
11C6
  8
0
  6
CONTINUOUS
 10
-4.4114245391176032
 20
-19.586003654612849
 30
0.0
  0
VERTEX
  5
11C7
  8
0
  6
CONTINUOUS
 10
-4.4114245391176032
 20
-19.586003654612849
 30
0.0
  0
VERTEX
  5
11C8
  8
0
  6
CONTINUOUS
 10
-5.4182835572574941
 20
-18.135732236277011
 30
0.0
  0
VERTEX
  5
11C9
  8
0
  6
CONTINUOUS
 10
-6.4177976986729259
 20
-16.576443915279341
 30
0.0
  0
VERTEX
  5
11CA
  8
0
  6
CONTINUOUS
 10
-6.4177976986729259
 20
-16.576443915279341
 30
0.0
  0
VERTEX
  5
11CB
  8
0
  6
CONTINUOUS
 10
-7.4211529441820376
 20
-14.86269464021972
 30
0.0
  0
VERTEX
  5
11CC
  8
0
  6
CONTINUOUS
 10
-8.4241708582271126
 20
-12.764334912122919
 30
0.0
  0
VERTEX
  5
11CD
  8
0
  6
CONTINUOUS
 10
-8.4241708582271126
 20
-12.764334912122919
 30
0.0
  0
VERTEX
  5
11CE
  8
0
  6
CONTINUOUS
 10
-9.4230103367144125
 20
-10.084710382128369
 30
0.0
  0
VERTEX
  5
11CF
  8
0
  6
CONTINUOUS
 10
-10.430544017782429
 20
-6.9458527494123228
 30
0.0
  0
VERTEX
  5
11D0
  8
0
  6
CONTINUOUS
 10
-10.430544017782429
 20
-6.9458527494123228
 30
0.0
  0
VERTEX
  5
11D1
  8
0
  6
CONTINUOUS
 10
-11.458835689821839
 20
-3.537308847590281
 30
0.0
  0
VERTEX
  5
11D2
  8
0
  6
CONTINUOUS
 10
-12.49999999999994
 20
-0.0000000000000004
 30
0.0
  0
SEQEND
  5
11D3
  8
0
  6
CONTINUOUS
  0
POINT
  5
4F6
  8
0
  6
CONTINUOUS
 10
-12.49999999999994
 20
-0.0000000000000004
 30
0.0
  0
POINT
  5
4F7
  8
0
  6
CONTINUOUS
 10
-12.49999999999994
 20
-0.0000000000000004
 30
0.0
  0
POINT
  5
4F8
  8
0
  6
CONTINUOUS
 10
-12.49999999999994
 20
-0.0000000000000004
 30
0.0
  0
POINT
  5
4F9
  8
0
  6
CONTINUOUS
 10
-12.49999999999994
 20
-0.0021903049312191
 30
0.0
  0
POINT
  5
4FA
  8
0
  6
CONTINUOUS
 10
-4.511743197094745
 20
-41.656108409721391
 30
0.0
  0
POINT
  5
4FB
  8
0
  6
CONTINUOUS
 10
-6.9193909885609051
 20
-34.633802351279492
 30
0.0
  0
POINT
  5
4FC
  8
0
  6
CONTINUOUS
 10
-9.3829807086637516
 20
-47.328897546577807
 30
0.0
  0
POINT
  5
4FD
  8
0
  6
CONTINUOUS
 10
4.5117431970948569
 20
-41.656108409721391
 30
0.0
  0
POINT
  5
4FE
  8
0
  6
CONTINUOUS
 10
-2.003776747650305
 20
-46.070129360742897
 30
0.0
  0
POINT
  5
4FF
  8
0
  6
CONTINUOUS
 10
0.0000000000000568
 20
-48.07650252029822
 30
0.0
  0
POINT
  5
500
  8
0
  6
CONTINUOUS
 10
0.0000000000000568
 20
-48.07650252029822
 30
0.0
  0
POINT
  5
501
  8
0
  6
CONTINUOUS
 10
2.00377674765042
 20
-46.070129360742897
 30
0.0
  0
POINT
  5
502
  8
0
  6
CONTINUOUS
 10
-6.4177976986729259
 20
-16.576443915279341
 30
0.0
  0
POINT
  5
503
  8
0
  6
CONTINUOUS
 10
-8.4241708582271126
 20
-12.764334912122919
 30
0.0
  0
POINT
  5
504
  8
0
  6
CONTINUOUS
 10
-4.4114245391176032
 20
-19.586003654612849
 30
0.0
  0
POINT
  5
505
  8
0
  6
CONTINUOUS
 10
-8.5244895162053922
 20
-27.009584344967891
 30
0.0
  0
POINT
  5
506
  8
0
  6
CONTINUOUS
 10
-10.029269385871601
 20
-18.582817074834612
 30
0.0
  0
POINT
  5
507
  8
0
  6
CONTINUOUS
 10
6.417797698672981
 20
-16.576443915279341
 30
0.0
  0
POINT
  5
508
  8
0
  6
CONTINUOUS
 10
4.411424539117716
 20
-19.586003654612849
 30
0.0
  0
POINT
  5
509
  8
0
  6
CONTINUOUS
 10
-2.3047327215840592
 20
-21.993651446077848
 30
0.0
  0
POINT
  5
50A
  8
0
  6
CONTINUOUS
 10
0.0000000000000568
 20
-22.996838025857301
 30
0.0
  0
POINT
  5
50B
  8
0
  6
CONTINUOUS
 10
2.3047327215841151
 20
-21.993651446077848
 30
0.0
  0
POINT
  5
50C
  8
0
  6
CONTINUOUS
 10
15.033583278810511
 20
-40.607739645314929
 30
0.0
  0
POINT
  5
50D
  8
0
  6
CONTINUOUS
 10
6.919390988561017
 20
-34.633802351279492
 30
0.0
  0
POINT
  5
50E
  8
0
  6
CONTINUOUS
 10
9.3829807086638066
 20
-47.328897546577807
 30
0.0
  0
POINT
  5
50F
  8
0
  6
CONTINUOUS
 10
8.4241708582272281
 20
-12.764334912122919
 30
0.0
  0
POINT
  5
510
  8
0
  6
CONTINUOUS
 10
8.524489516205449
 20
-27.009584344967891
 30
0.0
  0
POINT
  5
511
  8
0
  6
CONTINUOUS
 10
10.029269385871711
 20
-18.582817074834612
 30
0.0
  0
POINT
  5
512
  8
0
  6
CONTINUOUS
 10
-11.23309328160525
 20
-9.5541378568350392
 30
0.0
  0
POINT
  5
513
  8
0
  6
CONTINUOUS
 10
-10.430544017782429
 20
-6.9458527494123228
 30
0.0
  0
LINE
  5
514
  8
0
  6
DASHDOT
 10
0.0
 20
5.0
 30
0.0
 11
0.0
 21
-5.0
 31
0.0
  0
POINT
  5
515
  8
0
  6
CONTINUOUS
 10
12.50000000000005
 20
-0.0000000000000004
 30
0.0
  0
POINT
  5
516
  8
0
  6
CONTINUOUS
 10
12.50000000000005
 20
-0.0000000000000004
 30
0.0
  0
POINT
  5
517
  8
0
  6
CONTINUOUS
 10
12.50000000000005
 20
-0.0000000000000004
 30
0.0
  0
POINT
  5
518
  8
0
  6
CONTINUOUS
 10
12.50000000000005
 20
-0.0021903049312191
 30
0.0
  0
POINT
  5
519
  8
0
  6
CONTINUOUS
 10
10.43054401778255
 20
-6.9458527494123228
 30
0.0
  0
POINT
  5
51A
  8
0
  6
CONTINUOUS
 10
11.233093281605299
 20
-9.5541378568350392
 30
0.0
  0
POINT
  5
51B
  8
0
  6
CONTINUOUS
 10
56.006701235297783
 20
-119.56017712177299
 30
0.0
  0
TEXT
  5
51C
  8
0
  6
CONTINUOUS
 10
25.81814783360425
 20
-75.163269544215552
 30
0.0
 40
10.0
  1
2m/s
 50
0.0000025044781673
 41
0.5833333271245161
  7
STANDARD1
  0
POINT
  5
51D
  8
0
  6
CONTINUOUS
 10
28.960923700273842
 20
-90.184636854128513
 30
0.0
  0
POINT
  5
51E
  8
0
  6
CONTINUOUS
 10
38.419449593581142
 20
-91.612609777721232
 30
0.0
  0
POINT
  5
51F
  8
0
  6
CONTINUOUS
 10
46.463955646225251
 20
-83.435483110490239
 30
0.0
  0
POINT
  5
520
  8
0
  6
CONTINUOUS
 10
51.946962732597612
 20
-69.952614053033642
 30
0.0
  0
POINT
  5
521
  8
0
  6
CONTINUOUS
 10
55.73224441124011
 20
-49.360681721220601
 30
0.0
  0
POINT
  5
522
  8
0
  6
CONTINUOUS
 10
62.5
 20
-0.0000000000000004
 30
0.0
  0
POINT
  5
523
  8
0
  6
CONTINUOUS
 10
62.5
 20
-0.0000000000000004
 30
0.0
  0
POINT
  5
524
  8
0
  6
CONTINUOUS
 10
62.5
 20
-0.0000000000000004
 30
0.0
  0
LINE
  5
525
  8
0
  6
CONTINUOUS
 10
78.75
 20
-0.0000000000000004
 30
0.0
 11
78.75
 21
-0.7000000000000007
 31
0.0
  0
ENDBLK
  5
527
  8
0
  0
BLOCK
  8
0
  2
A$C56ED2CAA
 70
     0
 10
0.0
 20
0.0
 30
0.0
  3
A$C56ED2CAA
  1

  0
LINE
  5
580
  8
0
  6
CONTINUOUS
 10
26.400001356282701
 20
4.300000258310785
 30
0.0
 11
0.0000013562826098
 21
4.300000258310785
 31
0.0
  0
LINE
  5
581
  8
0
  6
CONTINUOUS
 10
26.40000135628264
 20
5.0000002583107852
 30
0.0
 11
0.0000013562826098
 21
5.0000002583107852
 31
0.0
  0
LINE
  5
582
  8
0
  6
DASHDOT
 10
13.20000135628265
 20
10.00000025831077
 30
0.0
 11
13.20000135628265
 21
0.0000002583107857
 31
0.0
  0
LINE
  5
583
  8
0
  6
CONTINUOUS
 10
0.0000013562826666
 20
5.0000002583107852
 30
0.0
 11
0.0000013562826098
 21
4.300000258310785
 31
0.0
  0
LINE
  5
584
  8
0
  6
CONTINUOUS
 10
26.40000135628264
 20
5.0000002583107852
 30
0.0
 11
26.400001356282701
 21
4.300000258310785
 31
0.0
  0
ENDBLK
  5
586
  8
0
  0
BLOCK
  8
0
  2
*D4
 70
     1
 10
0.0
 20
0.0
 30
0.0
  3
*D4
  1

  0
LINE
  5
6DC
  8
0
  6
CONTINUOUS
 62
     0
 10
-301.17211860876603
 20
23.076606738690781
 30
0.0
 11
-293.08689009956089
 21
23.07660673869076
 31
0.0
  0
LINE
  5
6DD
  8
0
  6
CONTINUOUS
 62
     0
 10
-301.17211860876603
 20
3.7766067386907798
 30
0.0
 11
-293.08689009956089
 21
3.776606738690778
 31
0.0
  0
LINE
  5
6DE
  8
0
  6
CONTINUOUS
 62
     0
 10
-295.086890099561
 20
21.144755089883748
 30
0.0
 11
-295.086890099561
 21
14.516606738690781
 31
0.0
  0
LINE
  5
6DF
  8
0
  6
CONTINUOUS
 62
     0
 10
-295.086890099561
 20
5.7084583874978012
 30
0.0
 11
-295.086890099561
 21
12.336606738690779
 31
0.0
  0
SOLID
  5
6E0
  8
0
  6
CONTINUOUS
 62
     0
 10
-295.40886537436211
 20
21.144755089883748
 30
0.0
 11
-294.76491482475973
 21
21.144755089883748
 31
0.0
 12
-295.086890099561
 22
23.07660673869076
 32
0.0
 13
-295.086890099561
 23
23.07660673869076
 33
0.0
  0
SOLID
  5
6E1
  8
0
  6
CONTINUOUS
 62
     0
 10
-295.40886537436211
 20
5.7084583874978012
 30
0.0
 11
-294.76491482475973
 21
5.7084583874978012
 31
0.0
 12
-295.086890099561
 22
3.776606738690778
 32
0.0
 13
-295.086890099561
 23
3.776606738690778
 33
0.0
  0
INSERT
  5
6E2
  8
0
  6
CONTINUOUS
  2
*U5
 10
0.0
 20
0.0
 30
0.0
  0
POINT
  5
6E3
  8
DEFPOINTS
  6
CONTINUOUS
 62
     0
 10
-302.1721186087658
 20
23.076606738690781
 30
0.0
  0
POINT
  5
6E4
  8
DEFPOINTS
  6
CONTINUOUS
 62
     0
 10
-302.1721186087658
 20
3.7766067386907798
 30
0.0
  0
POINT
  5
6E5
  8
DEFPOINTS
  6
CONTINUOUS
 62
     0
 10
-295.086890099561
 20
3.776606738690778
 30
0.0
  0
ENDBLK
  5
6E7
  8
0
  0
BLOCK
  8
0
  2
*U5
 70
     1
 10
0.0
 20
0.0
 30
0.0
  3
*U5
  1

  0
TEXT
  5
C8E
  8
0
  6
CONTINUOUS
 62
     0
 10
-301.086890099561
 20
12.42660673869073
 30
0.0
 40
2.0
  1
193.0000
  0
ENDBLK
  5
C90
  8
0
  0
ENDSEC
  0
SECTION
  2
ENTITIES
  0
POLYLINE
  5
373
  8
0
  6
CONTINUOUS
 66
     1
 10
0.0
 20
0.0
 30
0.0
  0
VERTEX
  5
D23
  8
0
  6
CONTINUOUS
 10
12.5
 20
-0.7000000000000012
 30
0.0
  0
VERTEX
  5
D24
  8
0
  6
CONTINUOUS
 10
29.203282363808569
 20
-174.19608630035901
 30
0.0
  0
VERTEX
  5
D25
  8
0
  6
CONTINUOUS
 10
29.203282363808569
 20
-174.19608630035901
 30
0.0
  0
VERTEX
  5
D26
  8
0
  6
CONTINUOUS
 10
29.203282363808569
 20
-174.19608630035901
 30
0.0
  0
VERTEX
  5
D27
  8
0
  6
CONTINUOUS
 10
29.203282363808569
 20
-174.19608630035901
 30
0.0
  0
VERTEX
  5
D28
  8
0
  6
CONTINUOUS
 10
45.027783928465738
 20
-336.64592650911698
 30
0.0
  0
VERTEX
  5
D29
  8
0
  6
CONTINUOUS
 10
45.027783928465738
 20
-336.64592650911698
 30
0.0
  0
VERTEX
  5
D2A
  8
0
  6
CONTINUOUS
 10
45.027783928465738
 20
-336.64592650911698
 30
0.0
  0
VERTEX
  5
D2B
  8
0
  6
CONTINUOUS
 10
45.027783928465738
 20
-336.64592650911698
 30
0.0
  0
VERTEX
  5
D2C
  8
0
  6
CONTINUOUS
 10
49.803302615525268
 20
-403.15595326196308
 30
0.0
  0
VERTEX
  5
D2D
  8
0
  6
CONTINUOUS
 10
54.16704938103517
 20
-487.17430106518202
 30
0.0
  0
VERTEX
  5
D2E
  8
0
  6
CONTINUOUS
 10
54.16704938103517
 20
-487.17430106518202
 30
0.0
  0
VERTEX
  5
D2F
  8
0
  6
CONTINUOUS
 10
54.16704938103517
 20
-487.17430106518202
 30
0.0
  0
VERTEX
  5
D30
  8
0
  6
CONTINUOUS
 10
56.475503344032262
 20
-548.71040363207112
 30
0.0
  0
VERTEX
  5
D31
  8
0
  6
CONTINUOUS
 10
56.475503344032262
 20
-548.71040363207112
 30
0.0
  0
VERTEX
  5
D32
  8
0
  6
CONTINUOUS
 10
57.704394410537859
 20
-607.58515689880619
 30
0.0
  0
VERTEX
  5
D33
  8
0
  6
CONTINUOUS
 10
57.704394410537859
 20
-607.58515689880619
 30
0.0
  0
VERTEX
  5
D34
  8
0
  6
CONTINUOUS
 10
57.704394410537859
 20
-607.58515689880619
 30
0.0
  0
VERTEX
  5
D35
  8
0
  6
CONTINUOUS
 10
57.679969973785539
 20
-632.60330463524065
 30
0.0
  0
VERTEX
  5
D36
  8
0
  6
CONTINUOUS
 10
57.679969973785539
 20
-632.60330463524065
 30
0.0
  0
VERTEX
  5
D37
  8
0
  6
CONTINUOUS
 10
56.729973138811417
 20
-673.68853072623563
 30
0.0
  0
VERTEX
  5
D38
  8
0
  6
CONTINUOUS
 10
56.090183091395062
 20
-690.78733792250887
 30
0.0
  0
VERTEX
  5
D39
  8
0
  6
CONTINUOUS
 10
56.090183091395062
 20
-690.78733792250887
 30
0.0
  0
VERTEX
  5
D3A
  8
0
  6
CONTINUOUS
 10
56.090183091395062
 20
-690.78733792250887
 30
0.0
  0
VERTEX
  5
D3B
  8
0
  6
CONTINUOUS
 10
56.090183091395062
 20
-690.78733792250887
 30
0.0
  0
VERTEX
  5
D3C
  8
0
  6
CONTINUOUS
 10
54.309319308799751
 20
-722.90170141048145
 30
0.0
  0
VERTEX
  5
D3D
  8
0
  6
CONTINUOUS
 10
54.309319308799751
 20
-722.90170141048145
 30
0.0
  0
VERTEX
  5
D3E
  8
0
  6
CONTINUOUS
 10
52.235563005166028
 20
-742.00841474207721
 30
0.0
  0
VERTEX
  5
D3F
  8
0
  6
CONTINUOUS
 10
52.235563005166028
 20
-742.00841474207721
 30
0.0
  0
VERTEX
  5
D40
  8
0
  6
CONTINUOUS
 10
48.67728902226186
 20
-766.0610070494763
 30
0.0
  0
VERTEX
  5
D41
  8
0
  6
CONTINUOUS
 10
48.67728902226186
 20
-766.0610070494763
 30
0.0
  0
VERTEX
  5
D42
  8
0
  6
CONTINUOUS
 10
48.67728902226186
 20
-766.0610070494763
 30
0.0
  0
VERTEX
  5
D43
  8
0
  6
CONTINUOUS
 10
44.254590596366519
 20
-790.70711002180246
 30
0.0
  0
VERTEX
  5
D44
  8
0
  6
CONTINUOUS
 10
44.254590596366519
 20
-790.70711002180246
 30
0.0
  0
VERTEX
  5
D45
  8
0
  6
CONTINUOUS
 10
41.43497519257005
 20
-803.82324349694079
 30
0.0
  0
VERTEX
  5
D46
  8
0
  6
CONTINUOUS
 10
38.801598244251352
 20
-814.57614967559482
 30
0.0
  0
VERTEX
  5
D47
  8
0
  6
CONTINUOUS
 10
34.376634393266841
 20
-831.59444720467854
 30
0.0
  0
VERTEX
  5
D48
  8
0
  6
CONTINUOUS
 10
34.376634393266841
 20
-831.59444720467854
 30
0.0
  0
VERTEX
  5
D49
  8
0
  6
CONTINUOUS
 10
32.600070215282301
 20
-839.1201281021489
 30
0.0
  0
VERTEX
  5
D4A
  8
0
  6
CONTINUOUS
 10
32.600070215282301
 20
-839.1201281021489
 30
0.0
  0
VERTEX
  5
D4B
  8
0
  6
CONTINUOUS
 10
30.533731482423821
 20
-846.63998486292724
 30
0.0
  0
VERTEX
  5
D4C
  8
0
  6
CONTINUOUS
 10
30.533731482423821
 20
-846.63998486292724
 30
0.0
  0
VERTEX
  5
D4D
  8
0
  6
CONTINUOUS
 10
27.489299174925229
 20
-854.55979535088375
 30
0.0
  0
VERTEX
  5
D4E
  8
0
  6
CONTINUOUS
 10
25.385198237008861
 20
-858.79648882501272
 30
0.0
  0
VERTEX
  5
D4F
  8
0
  6
CONTINUOUS
 10
22.778454273020131
 20
-863.28533742988725
 30
0.0
  0
VERTEX
  5
D50
  8
0
  6
CONTINUOUS
 10
22.778454273020131
 20
-863.28533742988725
 30
0.0
  0
VERTEX
  5
D51
  8
0
  6
CONTINUOUS
 10
21.020826629640851
 20
-865.96999088523955
 30
0.0
  0
VERTEX
  5
D52
  8
0
  6
CONTINUOUS
 10
18.96913751165469
 20
-868.73021249634905
 30
0.0
  0
VERTEX
  5
D53
  8
0
  6
CONTINUOUS
 10
16.52046299901167
 20
-871.5432301439514
 30
0.0
  0
VERTEX
  5
D54
  8
0
  6
CONTINUOUS
 10
13.571879171661349
 20
-874.3862717087859
 30
0.0
  0
VERTEX
  5
D55
  8
0
  6
CONTINUOUS
 10
13.571879171661349
 20
-874.3862717087859
 30
0.0
  0
VERTEX
  5
D56
  8
0
  6
CONTINUOUS
 10
12.06418690590753
 20
-875.63620638022508
 30
0.0
  0
VERTEX
  5
D57
  8
0
  6
CONTINUOUS
 10
10.282996550280339
 20
-876.8539346908525
 30
0.0
  0
VERTEX
  5
D58
  8
0
  6
CONTINUOUS
 10
8.0716358633869731
 20
-878.00584492029475
 30
0.0
  0
VERTEX
  5
D59
  8
0
  6
CONTINUOUS
 10
5.2734326038343511
 20
-879.05832534817841
 30
0.0
  0
VERTEX
  5
D5A
  8
0
  6
CONTINUOUS
 10
5.2734326038343511
 20
-879.05832534817841
 30
0.0
  0
VERTEX
  5
D5B
  8
0
  6
CONTINUOUS
 10
2.741273917332478
 20
-879.71508122888918
 30
0.0
  0
VERTEX
  5
D5C
  8
0
  6
CONTINUOUS
 10
-0.0000000000001137
 20
-880.0
 30
0.0
  0
VERTEX
  5
D5D
  8
0
  6
CONTINUOUS
 10
-0.0000000000001137
 20
-880.0
 30
0.0
  0
VERTEX
  5
D5E
  8
0
  6
CONTINUOUS
 10
-2.7412739173326481
 20
-879.71508122888918
 30
0.0
  0
VERTEX
  5
D5F
  8
0
  6
CONTINUOUS
 10
-5.2734326038344621
 20
-879.05832534817841
 30
0.0
  0
VERTEX
  5
D60
  8
0
  6
CONTINUOUS
 10
-5.2734326038344621
 20
-879.05832534817841
 30
0.0
  0
VERTEX
  5
D61
  8
0
  6
CONTINUOUS
 10
-8.0716358633869731
 20
-878.00584492029475
 30
0.0
  0
VERTEX
  5
D62
  8
0
  6
CONTINUOUS
 10
-10.282996550280521
 20
-876.8539346908525
 30
0.0
  0
VERTEX
  5
D63
  8
0
  6
CONTINUOUS
 10
-12.064186905907659
 20
-875.63620638022508
 30
0.0
  0
VERTEX
  5
D64
  8
0
  6
CONTINUOUS
 10
-13.57187917166152
 20
-874.3862717087859
 30
0.0
  0
VERTEX
  5
D65
  8
0
  6
CONTINUOUS
 10
-13.57187917166152
 20
-874.3862717087859
 30
0.0
  0
VERTEX
  5
D66
  8
0
  6
CONTINUOUS
 10
-16.52046299901178
 20
-871.5432301439514
 30
0.0
  0
VERTEX
  5
D67
  8
0
  6
CONTINUOUS
 10
-18.969137511654822
 20
-868.73021249634905
 30
0.0
  0
VERTEX
  5
D68
  8
0
  6
CONTINUOUS
 10
-21.020826629640961
 20
-865.96999088523955
 30
0.0
  0
VERTEX
  5
D69
  8
0
  6
CONTINUOUS
 10
-22.778454273020309
 20
-863.28533742988725
 30
0.0
  0
VERTEX
  5
D6A
  8
0
  6
CONTINUOUS
 10
-22.778454273020309
 20
-863.28533742988725
 30
0.0
  0
VERTEX
  5
D6B
  8
0
  6
CONTINUOUS
 10
-25.385198237009028
 20
-858.79648882501272
 30
0.0
  0
VERTEX
  5
D6C
  8
0
  6
CONTINUOUS
 10
-27.489299174925289
 20
-854.55979535088375
 30
0.0
  0
VERTEX
  5
D6D
  8
0
  6
CONTINUOUS
 10
-30.533731482423939
 20
-846.63998486292724
 30
0.0
  0
VERTEX
  5
D6E
  8
0
  6
CONTINUOUS
 10
-30.533731482423939
 20
-846.63998486292724
 30
0.0
  0
VERTEX
  5
D6F
  8
0
  6
CONTINUOUS
 10
-32.600070215282351
 20
-839.1201281021489
 30
0.0
  0
VERTEX
  5
D70
  8
0
  6
CONTINUOUS
 10
-32.600070215282351
 20
-839.1201281021489
 30
0.0
  0
VERTEX
  5
D71
  8
0
  6
CONTINUOUS
 10
-34.37663439326694
 20
-831.59444720467854
 30
0.0
  0
VERTEX
  5
D72
  8
0
  6
CONTINUOUS
 10
-34.37663439326694
 20
-831.59444720467854
 30
0.0
  0
VERTEX
  5
D73
  8
0
  6
CONTINUOUS
 10
-38.801598244251352
 20
-814.57614967559482
 30
0.0
  0
VERTEX
  5
D74
  8
0
  6
CONTINUOUS
 10
-41.434975192569993
 20
-803.82324349694079
 30
0.0
  0
VERTEX
  5
D75
  8
0
  6
CONTINUOUS
 10
-44.254590596366427
 20
-790.70711002180246
 30
0.0
  0
VERTEX
  5
D76
  8
0
  6
CONTINUOUS
 10
-44.254590596366427
 20
-790.70711002180246
 30
0.0
  0
VERTEX
  5
D77
  8
0
  6
CONTINUOUS
 10
-48.677289022261959
 20
-766.0610070494763
 30
0.0
  0
VERTEX
  5
D78
  8
0
  6
CONTINUOUS
 10
-48.677289022261959
 20
-766.0610070494763
 30
0.0
  0
VERTEX
  5
D79
  8
0
  6
CONTINUOUS
 10
-48.677289022261959
 20
-766.0610070494763
 30
0.0
  0
VERTEX
  5
D7A
  8
0
  6
CONTINUOUS
 10
-52.235563005166277
 20
-742.00841474207721
 30
0.0
  0
VERTEX
  5
D7B
  8
0
  6
CONTINUOUS
 10
-52.235563005166277
 20
-742.00841474207721
 30
0.0
  0
VERTEX
  5
D7C
  8
0
  6
CONTINUOUS
 10
-54.309319308800013
 20
-722.90170141048145
 30
0.0
  0
VERTEX
  5
D7D
  8
0
  6
CONTINUOUS
 10
-54.309319308800013
 20
-722.90170141048145
 30
0.0
  0
VERTEX
  5
D7E
  8
0
  6
CONTINUOUS
 10
-55.420283986447998
 20
-706.55622361664155
 30
0.0
  0
VERTEX
  5
D7F
  8
0
  6
CONTINUOUS
 10
-55.420283986447998
 20
-706.55622361664155
 30
0.0
  0
VERTEX
  5
D80
  8
0
  6
CONTINUOUS
 10
-56.729973138811502
 20
-673.68853072623563
 30
0.0
  0
VERTEX
  5
D81
  8
0
  6
CONTINUOUS
 10
-56.729973138811502
 20
-673.68853072623563
 30
0.0
  0
VERTEX
  5
D82
  8
0
  6
CONTINUOUS
 10
-56.729973138811502
 20
-673.68853072623563
 30
0.0
  0
VERTEX
  5
D83
  8
0
  6
CONTINUOUS
 10
-57.679969973785489
 20
-632.60330463524065
 30
0.0
  0
VERTEX
  5
D84
  8
0
  6
CONTINUOUS
 10
-57.679969973785489
 20
-632.60330463524065
 30
0.0
  0
VERTEX
  5
D85
  8
0
  6
CONTINUOUS
 10
-57.704394410537986
 20
-607.58515689880619
 30
0.0
  0
VERTEX
  5
D86
  8
0
  6
CONTINUOUS
 10
-57.704394410537986
 20
-607.58515689880619
 30
0.0
  0
VERTEX
  5
D87
  8
0
  6
CONTINUOUS
 10
-57.704394410537986
 20
-607.58515689880619
 30
0.0
  0
VERTEX
  5
D88
  8
0
  6
CONTINUOUS
 10
-56.47550334403229
 20
-548.71040363207112
 30
0.0
  0
VERTEX
  5
D89
  8
0
  6
CONTINUOUS
 10
-56.47550334403229
 20
-548.71040363207112
 30
0.0
  0
VERTEX
  5
D8A
  8
0
  6
CONTINUOUS
 10
-54.16704938103527
 20
-487.17430106518202
 30
0.0
  0
VERTEX
  5
D8B
  8
0
  6
CONTINUOUS
 10
-54.16704938103527
 20
-487.17430106518202
 30
0.0
  0
VERTEX
  5
D8C
  8
0
  6
CONTINUOUS
 10
-54.16704938103527
 20
-487.17430106518202
 30
0.0
  0
VERTEX
  5
D8D
  8
0
  6
CONTINUOUS
 10
-49.80330261552529
 20
-403.15595326196308
 30
0.0
  0
VERTEX
  5
D8E
  8
0
  6
CONTINUOUS
 10
-45.027783928465738
 20
-336.64592650911698
 30
0.0
  0
VERTEX
  5
D8F
  8
0
  6
CONTINUOUS
 10
-45.027783928465738
 20
-336.64592650911698
 30
0.0
  0
VERTEX
  5
D90
  8
0
  6
CONTINUOUS
 10
-45.027783928465738
 20
-336.64592650911698
 30
0.0
  0
VERTEX
  5
D91
  8
0
  6
CONTINUOUS
 10
-45.027783928465738
 20
-336.64592650911698
 30
0.0
  0
VERTEX
  5
D92
  8
0
  6
CONTINUOUS
 10
-29.203282363808508
 20
-174.19608630035901
 30
0.0
  0
VERTEX
  5
D93
  8
0
  6
CONTINUOUS
 10
-29.203282363808508
 20
-174.19608630035901
 30
0.0
  0
VERTEX
  5
D94
  8
0
  6
CONTINUOUS
 10
-29.203282363808508
 20
-174.19608630035901
 30
0.0
  0
VERTEX
  5
D95
  8
0
  6
CONTINUOUS
 10
-29.203282363808508
 20
-174.19608630035901
 30
0.0
  0
VERTEX
  5
D96
  8
0
  6
CONTINUOUS
 10
-12.5
 20
-0.7000000000000012
 30
0.0
  0
SEQEND
  5
D97
  8
0
  6
CONTINUOUS
  0
TEXT
  5
378
  8
0
  6
CONTINUOUS
 10
-7.0736354322631314
 20
-959.0392067882193
 30
0.0
 40
10.0
  1
0.3m/s
 50
0.0000025044781673
 41
0.5833333271245161
  7
STANDARD1
  0
TEXT
  5
379
  8
0
  6
CONTINUOUS
 10
-8.7658777909433621
 20
-810.43917296967959
 30
0.0
 40
10.0
  1
0.5m/s
 50
0.0000025044781673
 41
0.5833333271245161
  7
STANDARD1
  0
POLYLINE
  5
3A3
  8
0
  6
CONTINUOUS
 66
     1
 10
0.0
 20
0.0
 30
0.0
  0
VERTEX
  5
D98
  8
0
  6
CONTINUOUS
 10
12.5
 20
-0.7000000000000012
 30
0.0
  0
VERTEX
  5
D99
  8
0
  6
CONTINUOUS
 10
16.295544456789049
 20
-59.991410520327932
 30
0.0
  0
VERTEX
  5
D9A
  8
0
  6
CONTINUOUS
 10
20.015533872256121
 20
-118.7758628929673
 30
0.0
  0
VERTEX
  5
D9B
  8
0
  6
CONTINUOUS
 10
20.015533872256121
 20
-118.7758628929673
 30
0.0
  0
VERTEX
  5
D9C
  8
0
  6
CONTINUOUS
 10
20.015533872256121
 20
-118.7758628929673
 30
0.0
  0
VERTEX
  5
D9D
  8
0
  6
CONTINUOUS
 10
24.889511221802771
 20
-219.20763682658529
 30
0.0
  0
VERTEX
  5
D9E
  8
0
  6
CONTINUOUS
 10
24.889511221802771
 20
-219.20763682658529
 30
0.0
  0
VERTEX
  5
D9F
  8
0
  6
CONTINUOUS
 10
24.889511221802771
 20
-219.20763682658529
 30
0.0
  0
VERTEX
  5
DA0
  8
0
  6
CONTINUOUS
 10
25.980696940968009
 20
-268.5677355072844
 30
0.0
  0
VERTEX
  5
DA1
  8
0
  6
CONTINUOUS
 10
25.980696940968009
 20
-268.5677355072844
 30
0.0
  0
VERTEX
  5
DA2
  8
0
  6
CONTINUOUS
 10
25.980696940968009
 20
-268.5677355072844
 30
0.0
  0
VERTEX
  5
DA3
  8
0
  6
CONTINUOUS
 10
26.340385894729369
 20
-298.50320828180458
 30
0.0
  0
VERTEX
  5
DA4
  8
0
  6
CONTINUOUS
 10
26.312094889229851
 20
-326.89377445085682
 30
0.0
  0
VERTEX
  5
DA5
  8
0
  6
CONTINUOUS
 10
26.312094889229851
 20
-326.89377445085682
 30
0.0
  0
VERTEX
  5
DA6
  8
0
  6
CONTINUOUS
 10
26.312094889229851
 20
-326.89377445085682
 30
0.0
  0
VERTEX
  5
DA7
  8
0
  6
CONTINUOUS
 10
25.62232508694364
 20
-350.9381799947609
 30
0.0
  0
VERTEX
  5
DA8
  8
0
  6
CONTINUOUS
 10
24.942353194341351
 20
-363.45180351451972
 30
0.0
  0
VERTEX
  5
DA9
  8
0
  6
CONTINUOUS
 10
23.992309251398119
 20
-377.92905843366708
 30
0.0
  0
VERTEX
  5
DAA
  8
0
  6
CONTINUOUS
 10
23.992309251398119
 20
-377.92905843366708
 30
0.0
  0
VERTEX
  5
DAB
  8
0
  6
CONTINUOUS
 10
23.401943343569421
 20
-385.5153328664789
 30
0.0
  0
VERTEX
  5
DAC
  8
0
  6
CONTINUOUS
 10
22.323135858085941
 20
-394.92264927355058
 30
0.0
  0
VERTEX
  5
DAD
  8
0
  6
CONTINUOUS
 10
22.323135858085941
 20
-394.92264927355058
 30
0.0
  0
VERTEX
  5
DAE
  8
0
  6
CONTINUOUS
 10
22.323135858085941
 20
-394.92264927355058
 30
0.0
  0
VERTEX
  5
DAF
  8
0
  6
CONTINUOUS
 10
20.221647610873841
 20
-405.67948839513741
 30
0.0
  0
VERTEX
  5
DB0
  8
0
  6
CONTINUOUS
 10
20.221647610873841
 20
-405.67948839513741
 30
0.0
  0
VERTEX
  5
DB1
  8
0
  6
CONTINUOUS
 10
18.146018537156351
 20
-412.6740214933676
 30
0.0
  0
VERTEX
  5
DB2
  8
0
  6
CONTINUOUS
 10
15.86756882805501
 20
-420.58370892660599
 30
0.0
  0
VERTEX
  5
DB3
  8
0
  6
CONTINUOUS
 10
15.86756882805501
 20
-420.58370892660599
 30
0.0
  0
VERTEX
  5
DB4
  8
0
  6
CONTINUOUS
 10
14.79539651741565
 20
-424.7541875776509
 30
0.0
  0
VERTEX
  5
DB5
  8
0
  6
CONTINUOUS
 10
13.43268099812046
 20
-428.9353804387373
 30
0.0
  0
VERTEX
  5
DB6
  8
0
  6
CONTINUOUS
 10
13.43268099812046
 20
-428.9353804387373
 30
0.0
  0
VERTEX
  5
DB7
  8
0
  6
CONTINUOUS
 10
11.356500929877241
 20
-433.00041534840648
 30
0.0
  0
VERTEX
  5
DB8
  8
0
  6
CONTINUOUS
 10
9.9186987710590362
 20
-434.9497260210033
 30
0.0
  0
VERTEX
  5
DB9
  8
0
  6
CONTINUOUS
 10
8.1439349723944456
 20
-436.82242014519818
 30
0.0
  0
VERTEX
  5
DBA
  8
0
  6
CONTINUOUS
 10
8.1439349723944456
 20
-436.82242014519818
 30
0.0
  0
VERTEX
  5
DBB
  8
0
  6
CONTINUOUS
 10
6.749218206875466
 20
-437.99552221880219
 30
0.0
  0
VERTEX
  5
DBC
  8
0
  6
CONTINUOUS
 10
4.722636070021565
 20
-439.35408013843102
 30
0.0
  0
VERTEX
  5
DBD
  8
0
  6
CONTINUOUS
 10
4.722636070021565
 20
-439.35408013843102
 30
0.0
  0
VERTEX
  5
DBE
  8
0
  6
CONTINUOUS
 10
3.6910233771331482
 20
-439.94179436086063
 30
0.0
  0
VERTEX
  5
DBF
  8
0
  6
CONTINUOUS
 10
2.533895749626192
 20
-440.43620684722788
 30
0.0
  0
VERTEX
  5
DC0
  8
0
  6
CONTINUOUS
 10
2.533895749626192
 20
-440.43620684722788
 30
0.0
  0
VERTEX
  5
DC1
  8
0
  6
CONTINUOUS
 10
1.289173147697225
 20
-440.71784087890421
 30
0.0
  0
VERTEX
  5
DC2
  8
0
  6
CONTINUOUS
 10
0.0
 20
-440.80108459005021
 30
0.0
  0
VERTEX
  5
DC3
  8
0
  6
CONTINUOUS
 10
0.0
 20
-440.80108459005021
 30
0.0
  0
VERTEX
  5
DC4
  8
0
  6
CONTINUOUS
 10
-1.2891731476972821
 20
-440.71784087890421
 30
0.0
  0
VERTEX
  5
DC5
  8
0
  6
CONTINUOUS
 10
-2.5338957496263101
 20
-440.43620684722788
 30
0.0
  0
VERTEX
  5
DC6
  8
0
  6
CONTINUOUS
 10
-2.5338957496263101
 20
-440.43620684722788
 30
0.0
  0
VERTEX
  5
DC7
  8
0
  6
CONTINUOUS
 10
-3.6910233771331482
 20
-439.94179436086063
 30
0.0
  0
VERTEX
  5
DC8
  8
0
  6
CONTINUOUS
 10
-4.722636070021621
 20
-439.35408013843102
 30
0.0
  0
VERTEX
  5
DC9
  8
0
  6
CONTINUOUS
 10
-4.722636070021621
 20
-439.35408013843102
 30
0.0
  0
VERTEX
  5
DCA
  8
0
  6
CONTINUOUS
 10
-6.749218206875466
 20
-437.99552221880219
 30
0.0
  0
VERTEX
  5
DCB
  8
0
  6
CONTINUOUS
 10
-8.1439349723944456
 20
-436.82242014519818
 30
0.0
  0
VERTEX
  5
DCC
  8
0
  6
CONTINUOUS
 10
-8.1439349723944456
 20
-436.82242014519818
 30
0.0
  0
VERTEX
  5
DCD
  8
0
  6
CONTINUOUS
 10
-9.9186987710590984
 20
-434.9497260210033
 30
0.0
  0
VERTEX
  5
DCE
  8
0
  6
CONTINUOUS
 10
-11.356500929877409
 20
-433.00041534840648
 30
0.0
  0
VERTEX
  5
DCF
  8
0
  6
CONTINUOUS
 10
-12.510206616385631
 20
-430.99034714759051
 30
0.0
  0
VERTEX
  5
DD0
  8
0
  6
CONTINUOUS
 10
-13.43268099812046
 20
-428.9353804387373
 30
0.0
  0
VERTEX
  5
DD1
  8
0
  6
CONTINUOUS
 10
-14.795396517415771
 20
-424.7541875776509
 30
0.0
  0
VERTEX
  5
DD2
  8
0
  6
CONTINUOUS
 10
-15.86756882805501
 20
-420.58370892660599
 30
0.0
  0
VERTEX
  5
DD3
  8
0
  6
CONTINUOUS
 10
-15.86756882805501
 20
-420.58370892660599
 30
0.0
  0
VERTEX
  5
DD4
  8
0
  6
CONTINUOUS
 10
-18.146018537156351
 20
-412.6740214933676
 30
0.0
  0
VERTEX
  5
DD5
  8
0
  6
CONTINUOUS
 10
-20.221647610873941
 20
-405.67948839513741
 30
0.0
  0
VERTEX
  5
DD6
  8
0
  6
CONTINUOUS
 10
-20.221647610873941
 20
-405.67948839513741
 30
0.0
  0
VERTEX
  5
DD7
  8
0
  6
CONTINUOUS
 10
-22.323135858085941
 20
-394.92264927355058
 30
0.0
  0
VERTEX
  5
DD8
  8
0
  6
CONTINUOUS
 10
-22.323135858085941
 20
-394.92264927355058
 30
0.0
  0
VERTEX
  5
DD9
  8
0
  6
CONTINUOUS
 10
-22.323135858085941
 20
-394.92264927355058
 30
0.0
  0
VERTEX
  5
DDA
  8
0
  6
CONTINUOUS
 10
-23.401943343569471
 20
-385.5153328664789
 30
0.0
  0
VERTEX
  5
DDB
  8
0
  6
CONTINUOUS
 10
-23.992309251398119
 20
-377.92905843366708
 30
0.0
  0
VERTEX
  5
DDC
  8
0
  6
CONTINUOUS
 10
-23.992309251398119
 20
-377.92905843366708
 30
0.0
  0
VERTEX
  5
DDD
  8
0
  6
CONTINUOUS
 10
-24.942353194341301
 20
-363.45180351451972
 30
0.0
  0
VERTEX
  5
DDE
  8
0
  6
CONTINUOUS
 10
-25.62232508694364
 20
-350.9381799947609
 30
0.0
  0
VERTEX
  5
DDF
  8
0
  6
CONTINUOUS
 10
-26.312094889229961
 20
-326.89377445085682
 30
0.0
  0
VERTEX
  5
DE0
  8
0
  6
CONTINUOUS
 10
-26.312094889229961
 20
-326.89377445085682
 30
0.0
  0
VERTEX
  5
DE1
  8
0
  6
CONTINUOUS
 10
-26.312094889229961
 20
-326.89377445085682
 30
0.0
  0
VERTEX
  5
DE2
  8
0
  6
CONTINUOUS
 10
-26.340385894729309
 20
-298.50320828180458
 30
0.0
  0
VERTEX
  5
DE3
  8
0
  6
CONTINUOUS
 10
-25.98069694096813
 20
-268.5677355072844
 30
0.0
  0
VERTEX
  5
DE4
  8
0
  6
CONTINUOUS
 10
-25.98069694096813
 20
-268.5677355072844
 30
0.0
  0
VERTEX
  5
DE5
  8
0
  6
CONTINUOUS
 10
-25.98069694096813
 20
-268.5677355072844
 30
0.0
  0
VERTEX
  5
DE6
  8
0
  6
CONTINUOUS
 10
-24.889511221802771
 20
-219.20763682658529
 30
0.0
  0
VERTEX
  5
DE7
  8
0
  6
CONTINUOUS
 10
-24.889511221802771
 20
-219.20763682658529
 30
0.0
  0
VERTEX
  5
DE8
  8
0
  6
CONTINUOUS
 10
-24.889511221802771
 20
-219.20763682658529
 30
0.0
  0
VERTEX
  5
DE9
  8
0
  6
CONTINUOUS
 10
-20.015533872256121
 20
-118.7758628929673
 30
0.0
  0
VERTEX
  5
DEA
  8
0
  6
CONTINUOUS
 10
-20.015533872256121
 20
-118.7758628929673
 30
0.0
  0
VERTEX
  5
DEB
  8
0
  6
CONTINUOUS
 10
-20.015533872256121
 20
-118.7758628929673
 30
0.0
  0
VERTEX
  5
DEC
  8
0
  6
CONTINUOUS
 10
-16.295544456788988
 20
-59.991410520327932
 30
0.0
  0
VERTEX
  5
DED
  8
0
  6
CONTINUOUS
 10
-12.5
 20
-0.7000000000000012
 30
0.0
  0
SEQEND
  5
DEE
  8
0
  6
CONTINUOUS
  0
TEXT
  5
3B3
  8
0
  6
CONTINUOUS
 10
-9.2163045368085381
 20
-380.48069827389611
 30
0.0
 40
10.0
  1
1m/s
 50
0.0000025044781673
 41
0.5833333271245161
  7
STANDARD1
  0
POLYLINE
  5
3BF
  8
0
  6
CONTINUOUS
 66
     1
 10
0.0
 20
0.0
 30
0.0
  0
VERTEX
  5
DEF
  8
0
  6
CONTINUOUS
 10
12.5
 20
-0.7000000000000012
 30
0.0
  0
VERTEX
  5
DF0
  8
0
  6
CONTINUOUS
 10
12.832194294570041
 20
-20.70251565853264
 30
0.0
  0
VERTEX
  5
DF1
  8
0
  6
CONTINUOUS
 10
12.832194294570041
 20
-20.70251565853264
 30
0.0
  0
VERTEX
  5
DF2
  8
0
  6
CONTINUOUS
 10
12.832194294570041
 20
-20.70251565853264
 30
0.0
  0
VERTEX
  5
DF3
  8
0
  6
CONTINUOUS
 10
12.832194294570041
 20
-20.70251565853264
 30
0.0
  0
VERTEX
  5
DF4
  8
0
  6
CONTINUOUS
 10
12.75899928681496
 20
-45.047516016952812
 30
0.0
  0
VERTEX
  5
DF5
  8
0
  6
CONTINUOUS
 10
12.75899928681496
 20
-45.047516016952812
 30
0.0
  0
VERTEX
  5
DF6
  8
0
  6
CONTINUOUS
 10
12.75899928681496
 20
-45.047516016952812
 30
0.0
  0
VERTEX
  5
DF7
  8
0
  6
CONTINUOUS
 10
12.75899928681496
 20
-45.047516016952812
 30
0.0
  0
VERTEX
  5
DF8
  8
0
  6
CONTINUOUS
 10
12.75899928681496
 20
-45.047516016952812
 30
0.0
  0
VERTEX
  5
DF9
  8
0
  6
CONTINUOUS
 10
12.75899928681496
 20
-45.047516016952812
 30
0.0
  0
VERTEX
  5
DFA
  8
0
  6
CONTINUOUS
 10
12.75899928681496
 20
-45.047516016952812
 30
0.0
  0
VERTEX
  5
DFB
  8
0
  6
CONTINUOUS
 10
12.75899928681496
 20
-45.047516016952812
 30
0.0
  0
VERTEX
  5
DFC
  8
0
  6
CONTINUOUS
 10
12.75899928681496
 20
-45.047516016952812
 30
0.0
  0
VERTEX
  5
DFD
  8
0
  6
CONTINUOUS
 10
12.278202505184479
 20
-59.546610921009929
 30
0.0
  0
VERTEX
  5
DFE
  8
0
  6
CONTINUOUS
 10
12.278202505184479
 20
-59.546610921009929
 30
0.0
  0
VERTEX
  5
DFF
  8
0
  6
CONTINUOUS
 10
12.278202505184479
 20
-59.546610921009929
 30
0.0
  0
VERTEX
  5
E00
  8
0
  6
CONTINUOUS
 10
10.96466271010865
 20
-73.462121928698537
 30
0.0
  0
VERTEX
  5
E01
  8
0
  6
CONTINUOUS
 10
10.96466271010865
 20
-73.462121928698537
 30
0.0
  0
VERTEX
  5
E02
  8
0
  6
CONTINUOUS
 10
10.533302952375831
 20
-77.283789261552982
 30
0.0
  0
VERTEX
  5
E03
  8
0
  6
CONTINUOUS
 10
10.045040590160839
 20
-79.46778623176067
 30
0.0
  0
VERTEX
  5
E04
  8
0
  6
CONTINUOUS
 10
9.2262570461866744
 20
-81.901722785187317
 30
0.0
  0
VERTEX
  5
E05
  8
0
  6
CONTINUOUS
 10
9.2262570461866744
 20
-81.901722785187317
 30
0.0
  0
VERTEX
  5
E06
  8
0
  6
CONTINUOUS
 10
8.1320663330558887
 20
-84.212508885389127
 30
0.0
  0
VERTEX
  5
E07
  8
0
  6
CONTINUOUS
 10
7.3613006510166752
 20
-85.427915896419876
 30
0.0
  0
VERTEX
  5
E08
  8
0
  6
CONTINUOUS
 10
6.3873505183828412
 20
-86.670964956263688
 30
0.0
  0
VERTEX
  5
E09
  8
0
  6
CONTINUOUS
 10
6.3873505183828412
 20
-86.670964956263688
 30
0.0
  0
VERTEX
  5
E0A
  8
0
  6
CONTINUOUS
 10
5.3393294746055631
 20
-87.684363326820986
 30
0.0
  0
VERTEX
  5
E0B
  8
0
  6
CONTINUOUS
 10
3.6360145599568319
 20
-88.639813807602195
 30
0.0
  0
VERTEX
  5
E0C
  8
0
  6
CONTINUOUS
 10
3.6360145599568319
 20
-88.639813807602195
 30
0.0
  0
VERTEX
  5
E0D
  8
0
  6
CONTINUOUS
 10
3.6360145599568319
 20
-88.639813807602195
 30
0.0
  0
VERTEX
  5
E0E
  8
0
  6
CONTINUOUS
 10
1.8064959390391651
 20
-89.163337224317786
 30
0.0
  0
VERTEX
  5
E0F
  8
0
  6
CONTINUOUS
 10
1.8064959390391651
 20
-89.163337224317786
 30
0.0
  0
VERTEX
  5
E10
  8
0
  6
CONTINUOUS
 10
1.8064959390391651
 20
-89.163337224317786
 30
0.0
  0
VERTEX
  5
E11
  8
0
  6
CONTINUOUS
 10
0.0
 20
-89.201554214540423
 30
0.0
  0
VERTEX
  5
E12
  8
0
  6
CONTINUOUS
 10
0.0
 20
-89.201554214540423
 30
0.0
  0
VERTEX
  5
E13
  8
0
  6
CONTINUOUS
 10
0.0
 20
-89.201554214540423
 30
0.0
  0
VERTEX
  5
E14
  8
0
  6
CONTINUOUS
 10
-1.8064959390392801
 20
-89.163337224317786
 30
0.0
  0
VERTEX
  5
E15
  8
0
  6
CONTINUOUS
 10
-1.8064959390392801
 20
-89.163337224317786
 30
0.0
  0
VERTEX
  5
E16
  8
0
  6
CONTINUOUS
 10
-1.8064959390392801
 20
-89.163337224317786
 30
0.0
  0
VERTEX
  5
E17
  8
0
  6
CONTINUOUS
 10
-3.636014559956946
 20
-88.639813807602195
 30
0.0
  0
VERTEX
  5
E18
  8
0
  6
CONTINUOUS
 10
-3.636014559956946
 20
-88.639813807602195
 30
0.0
  0
VERTEX
  5
E19
  8
0
  6
CONTINUOUS
 10
-5.3393294746055631
 20
-87.684363326820986
 30
0.0
  0
VERTEX
  5
E1A
  8
0
  6
CONTINUOUS
 10
-6.3873505183829593
 20
-86.670964956263688
 30
0.0
  0
VERTEX
  5
E1B
  8
0
  6
CONTINUOUS
 10
-6.3873505183829593
 20
-86.670964956263688
 30
0.0
  0
VERTEX
  5
E1C
  8
0
  6
CONTINUOUS
 10
-8.13206633305583
 20
-84.212508885389127
 30
0.0
  0
VERTEX
  5
E1D
  8
0
  6
CONTINUOUS
 10
-8.13206633305583
 20
-84.212508885389127
 30
0.0
  0
VERTEX
  5
E1E
  8
0
  6
CONTINUOUS
 10
-9.2262570461866744
 20
-81.901722785187317
 30
0.0
  0
VERTEX
  5
E1F
  8
0
  6
CONTINUOUS
 10
-9.2262570461866744
 20
-81.901722785187317
 30
0.0
  0
VERTEX
  5
E20
  8
0
  6
CONTINUOUS
 10
-10.04504059016096
 20
-79.46778623176067
 30
0.0
  0
VERTEX
  5
E21
  8
0
  6
CONTINUOUS
 10
-10.533302952375941
 20
-77.283789261552982
 30
0.0
  0
VERTEX
  5
E22
  8
0
  6
CONTINUOUS
 10
-10.96466271010865
 20
-73.462121928698537
 30
0.0
  0
VERTEX
  5
E23
  8
0
  6
CONTINUOUS
 10
-10.96466271010865
 20
-73.462121928698537
 30
0.0
  0
VERTEX
  5
E24
  8
0
  6
CONTINUOUS
 10
-12.278202505184479
 20
-59.546610921009929
 30
0.0
  0
VERTEX
  5
E25
  8
0
  6
CONTINUOUS
 10
-12.278202505184479
 20
-59.546610921009929
 30
0.0
  0
VERTEX
  5
E26
  8
0
  6
CONTINUOUS
 10
-12.278202505184479
 20
-59.546610921009929
 30
0.0
  0
VERTEX
  5
E27
  8
0
  6
CONTINUOUS
 10
-12.758999286814801
 20
-45.047516016952812
 30
0.0
  0
VERTEX
  5
E28
  8
0
  6
CONTINUOUS
 10
-12.758999286814801
 20
-45.047516016952812
 30
0.0
  0
VERTEX
  5
E29
  8
0
  6
CONTINUOUS
 10
-12.758999286814801
 20
-45.047516016952812
 30
0.0
  0
VERTEX
  5
E2A
  8
0
  6
CONTINUOUS
 10
-12.758999286814801
 20
-45.047516016952812
 30
0.0
  0
VERTEX
  5
E2B
  8
0
  6
CONTINUOUS
 10
-12.758999286814801
 20
-45.047516016952812
 30
0.0
  0
VERTEX
  5
E2C
  8
0
  6
CONTINUOUS
 10
-12.758999286814801
 20
-45.047516016952812
 30
0.0
  0
VERTEX
  5
E2D
  8
0
  6
CONTINUOUS
 10
-12.758999286814801
 20
-45.047516016952812
 30
0.0
  0
VERTEX
  5
E2E
  8
0
  6
CONTINUOUS
 10
-12.758999286814801
 20
-45.047516016952812
 30
0.0
  0
VERTEX
  5
E2F
  8
0
  6
CONTINUOUS
 10
-12.758999286814801
 20
-45.047516016952812
 30
0.0
  0
VERTEX
  5
E30
  8
0
  6
CONTINUOUS
 10
-12.832194294569939
 20
-20.70251565853264
 30
0.0
  0
VERTEX
  5
E31
  8
0
  6
CONTINUOUS
 10
-12.832194294569939
 20
-20.70251565853264
 30
0.0
  0
VERTEX
  5
E32
  8
0
  6
CONTINUOUS
 10
-12.832194294569939
 20
-20.70251565853264
 30
0.0
  0
VERTEX
  5
E33
  8
0
  6
CONTINUOUS
 10
-12.832194294569939
 20
-20.70251565853264
 30
0.0
  0
VERTEX
  5
E34
  8
0
  6
CONTINUOUS
 10
-12.5
 20
-0.7000000000000012
 30
0.0
  0
SEQEND
  5
E35
  8
0
  6
CONTINUOUS
  0
TEXT
  5
3C0
  8
0
  6
CONTINUOUS
 10
-11.074473177824579
 20
-49.822406219260657
 30
0.0
 40
10.0
  1
2m/s
 50
0.0000025044781673
 41
0.5833333271245161
  7
STANDARD1
  0
POINT
  5
3C1
  8
0
  6
CONTINUOUS
 10
-20.015533872256121
 20
-118.7758628929673
 30
0.0
  0
POINT
  5
3C2
  8
0
  6
CONTINUOUS
 10
-9.2262570461866744
 20
-81.901722785187317
 30
0.0
  0
POINT
  5
3C3
  8
0
  6
CONTINUOUS
 10
-6.3873505183829593
 20
-86.670964956263688
 30
0.0
  0
POINT
  5
3C4
  8
0
  6
CONTINUOUS
 10
-3.636014559956946
 20
-88.639813807602195
 30
0.0
  0
POINT
  5
3C5
  8
0
  6
CONTINUOUS
 10
-12.278202505184479
 20
-59.546610921009929
 30
0.0
  0
POINT
  5
3C6
  8
0
  6
CONTINUOUS
 10
-10.96466271010865
 20
-73.462121928698537
 30
0.0
  0
POINT
  5
3C7
  8
0
  6
CONTINUOUS
 10
20.015533872256121
 20
-118.7758628929673
 30
0.0
  0
POINT
  5
3C8
  8
0
  6
CONTINUOUS
 10
3.6360145599568319
 20
-88.639813807602195
 30
0.0
  0
POINT
  5
3C9
  8
0
  6
CONTINUOUS
 10
6.3873505183828412
 20
-86.670964956263688
 30
0.0
  0
POINT
  5
3CA
  8
0
  6
CONTINUOUS
 10
0.0
 20
-89.201554214540423
 30
0.0
  0
POINT
  5
3CB
  8
0
  6
CONTINUOUS
 10
-1.8064959390392801
 20
-89.163337224317786
 30
0.0
  0
POINT
  5
3CC
  8
0
  6
CONTINUOUS
 10
0.0
 20
-89.201554214540423
 30
0.0
  0
POINT
  5
3CD
  8
0
  6
CONTINUOUS
 10
1.8064959390391651
 20
-89.163337224317786
 30
0.0
  0
POINT
  5
3CE
  8
0
  6
CONTINUOUS
 10
9.2262570461866744
 20
-81.901722785187317
 30
0.0
  0
POINT
  5
3D0
  8
0
  6
CONTINUOUS
 10
10.96466271010865
 20
-73.462121928698537
 30
0.0
  0
LINE
  5
3D1
  8
0
  6
CONTINUOUS
 10
13.19999999999998
 20
-0.0000000000000009
 30
0.0
 11
-13.19999999999998
 21
-0.0000000000000009
 31
0.0
  0
LINE
  5
3D2
  8
0
  6
CONTINUOUS
 10
13.200000000000021
 20
-0.7000000000000011
 30
0.0
 11
-13.19999999999998
 21
-0.7000000000000011
 31
0.0
  0
POINT
  5
3D3
  8
0
  6
CONTINUOUS
 10
-12.84055037445051
 20
-39.75724271068885
 30
0.0
  0
POINT
  5
3D4
  8
0
  6
CONTINUOUS
 10
-12.758999286814801
 20
-45.047516016952812
 30
0.0
  0
POINT
  5
3D5
  8
0
  6
CONTINUOUS
 10
-12.88249299857709
 20
-29.75779301242655
 30
0.0
  0
POINT
  5
3D6
  8
0
  6
CONTINUOUS
 10
-12.5
 20
-0.0000000000000009
 30
0.0
  0
POINT
  5
3D7
  8
0
  6
CONTINUOUS
 10
-12.5
 20
-0.0000000000000009
 30
0.0
  0
POINT
  5
3D8
  8
0
  6
CONTINUOUS
 10
-12.5
 20
-0.0000000000000009
 30
0.0
  0
POINT
  5
3D9
  8
0
  6
CONTINUOUS
 10
-12.5
 20
-0.0000000000000009
 30
0.0
  0
LINE
  5
3DA
  8
0
  6
CONTINUOUS
 10
-13.19999999999998
 20
-0.0000000000000009
 30
0.0
 11
-13.19999999999998
 21
-0.7000000000000011
 31
0.0
  0
POINT
  5
3DB
  8
0
  6
CONTINUOUS
 10
-12.694148854980419
 20
-10.566351045135701
 30
0.0
  0
POINT
  5
3DC
  8
0
  6
CONTINUOUS
 10
12.84055037445057
 20
-39.75724271068885
 30
0.0
  0
POINT
  5
3DD
  8
0
  6
CONTINUOUS
 10
12.75899928681496
 20
-45.047516016952812
 30
0.0
  0
POINT
  5
3DE
  8
0
  6
CONTINUOUS
 10
12.88249299857705
 20
-29.75779301242655
 30
0.0
  0
LINE
  5
3DF
  8
0
  6
CONTINUOUS
 10
0.0
 20
5.0
 30
0.0
 11
0.0
 21
-5.0
 31
0.0
  0
POINT
  5
3E0
  8
0
  6
CONTINUOUS
 10
12.5
 20
-0.0000000000000009
 30
0.0
  0
POINT
  5
3E1
  8
0
  6
CONTINUOUS
 10
12.5
 20
-0.0000000000000009
 30
0.0
  0
POINT
  5
3E2
  8
0
  6
CONTINUOUS
 10
12.5
 20
-0.0000000000000009
 30
0.0
  0
POINT
  5
3E3
  8
0
  6
CONTINUOUS
 10
12.5
 20
-0.0000000000000009
 30
0.0
  0
LINE
  5
3E4
  8
0
  6
CONTINUOUS
 10
13.19999999999998
 20
-0.0000000000000009
 30
0.0
 11
13.200000000000021
 21
-0.7000000000000011
 31
0.0
  0
POINT
  5
3E5
  8
0
  6
CONTINUOUS
 10
12.69414885498036
 20
-10.566351045135701
 30
0.0
  0
LINE
  5
6D8
  8
0
  6
CONTINUOUS
 10
12.5
 20
19.299999999999969
 30
0.0
 11
-12.5
 21
19.299999999999969
 31
0.0
  0
LINE
  5
6E8
  8
0
  6
CONTINUOUS
 10
12.5
 20
19.299999999999969
 30
0.0
 11
12.5
 21
-0.0000000000000009
 31
0.0
  0
LINE
  5
6EA
  8
0
  6
CONTINUOUS
 10
-12.5
 20
19.299999999999969
 30
0.0
 11
-12.5
 21
-0.0000000000000009
 31
0.0
  0
POLYLINE
  5
7CC
  8
0
  6
CONTINUOUS
 66
     1
 10
0.0
 20
0.0
 30
0.0
  0
VERTEX
  5
11D4
  8
0
  6
CONTINUOUS
 10
-12.5
 20
-0.7000000000000064
 30
0.0
  0
VERTEX
  5
11D5
  8
0
  6
CONTINUOUS
 10
-22.749667725827521
 20
-84.480130320724655
 30
0.0
  0
VERTEX
  5
11D6
  8
0
  6
CONTINUOUS
 10
-44.072230782543492
 20
-260.03403531017801
 30
0.0
  0
VERTEX
  5
11D7
  8
0
  6
CONTINUOUS
 10
-57.437013069375411
 20
-371.24331809190971
 30
0.0
  0
VERTEX
  5
11D8
  8
0
  6
CONTINUOUS
 10
-67.020841779036516
 20
-459.97882065659053
 30
0.0
  0
VERTEX
  5
11D9
  8
0
  6
CONTINUOUS
 10
-73.67893442158956
 20
-537.04497484991305
 30
0.0
  0
VERTEX
  5
11DA
  8
0
  6
CONTINUOUS
 10
-80.478239006492871
 20
-627.33917291944215
 30
0.0
  0
VERTEX
  5
11DB
  8
0
  6
CONTINUOUS
 10
-83.060828136524634
 20
-661.2710095622225
 30
0.0
  0
VERTEX
  5
11DC
  8
0
  6
CONTINUOUS
 10
-85.774673581443025
 20
-703.56052674411296
 30
0.0
  0
VERTEX
  5
11DD
  8
0
  6
CONTINUOUS
 10
-86.503325514638036
 20
-752.14595139251139
 30
0.0
  0
VERTEX
  5
11DE
  8
0
  6
CONTINUOUS
 10
-83.75981916371795
 20
-820.3665526777861
 30
0.0
  0
VERTEX
  5
11DF
  8
0
  6
CONTINUOUS
 10
-81.415740471411326
 20
-846.72232747380053
 30
0.0
  0
VERTEX
  5
11E0
  8
0
  6
CONTINUOUS
 10
-79.782983379571661
 20
-882.98965644692305
 30
0.0
  0
VERTEX
  5
11E1
  8
0
  6
CONTINUOUS
 10
-77.873262826404343
 20
-901.00795317934046
 30
0.0
  0
VERTEX
  5
11E2
  8
0
  6
CONTINUOUS
 10
-73.45765833408916
 20
-922.40704000881135
 30
0.0
  0
VERTEX
  5
11E3
  8
0
  6
CONTINUOUS
 10
-70.872164601534735
 20
-931.52825576238649
 30
0.0
  0
VERTEX
  5
11E4
  8
0
  6
CONTINUOUS
 10
-62.900942599384351
 20
-955.75313279218358
 30
0.0
  0
VERTEX
  5
11E5
  8
0
  6
CONTINUOUS
 10
-55.820771454880457
 20
-976.15311702952329
 30
0.0
  0
VERTEX
  5
11E6
  8
0
  6
CONTINUOUS
 10
-49.422402991294888
 20
-986.0468078512697
 30
0.0
  0
VERTEX
  5
11E7
  8
0
  6
CONTINUOUS
 10
-40.699587067793452
 20
-993.98136574489047
 30
0.0
  0
VERTEX
  5
11E8
  8
0
  6
CONTINUOUS
 10
-28.757575118687889
 20
-998.52809157796003
 30
0.0
  0
VERTEX
  5
11E9
  8
0
  6
CONTINUOUS
 10
-18.851208693907331
 20
-999.57512211621122
 30
0.0
  0
VERTEX
  5
11EA
  8
0
  6
CONTINUOUS
 10
0.0
 20
-1000.0
 30
0.0
  0
VERTEX
  5
11EB
  8
0
  6
CONTINUOUS
 10
6.5437718354031054
 20
-999.89610036709735
 30
0.0
  0
VERTEX
  5
11EC
  8
0
  6
CONTINUOUS
 10
18.85120869390726
 20
-999.57512211621122
 30
0.0
  0
VERTEX
  5
11ED
  8
0
  6
CONTINUOUS
 10
28.757575118687829
 20
-998.52809157796003
 30
0.0
  0
VERTEX
  5
11EE
  8
0
  6
CONTINUOUS
 10
36.7999317940804
 20
-995.83975270129133
 30
0.0
  0
VERTEX
  5
11EF
  8
0
  6
CONTINUOUS
 10
44.098129796582349
 20
-991.29627734967335
 30
0.0
  0
VERTEX
  5
11F0
  8
0
  6
CONTINUOUS
 10
49.422402991294902
 20
-986.0468078512697
 30
0.0
  0
VERTEX
  5
11F1
  8
0
  6
CONTINUOUS
 10
53.584452456049462
 20
-979.81777188880324
 30
0.0
  0
VERTEX
  5
11F2
  8
0
  6
CONTINUOUS
 10
58.661478479144279
 20
-969.74187404757663
 30
0.0
  0
VERTEX
  5
11F3
  8
0
  6
CONTINUOUS
 10
62.900942599384251
 20
-955.75313279218358
 30
0.0
  0
VERTEX
  5
11F4
  8
0
  6
CONTINUOUS
 10
67.603267578667484
 20
-941.64303025101822
 30
0.0
  0
VERTEX
  5
11F5
  8
0
  6
CONTINUOUS
 10
72.637931055276567
 20
-925.40019622237105
 30
0.0
  0
VERTEX
  5
11F6
  8
0
  6
CONTINUOUS
 10
77.873262826404343
 20
-901.00795317934046
 30
0.0
  0
VERTEX
  5
11F7
  8
0
  6
CONTINUOUS
 10
80.409681237780092
 20
-867.61963105809434
 30
0.0
  0
VERTEX
  5
11F8
  8
0
  6
CONTINUOUS
 10
81.974173839444745
 20
-840.17232259398679
 30
0.0
  0
VERTEX
  5
11F9
  8
0
  6
CONTINUOUS
 10
83.759819163717935
 20
-820.3665526777861
 30
0.0
  0
VERTEX
  5
11FA
  8
0
  6
CONTINUOUS
 10
85.27457265832831
 20
-798.75102366942474
 30
0.0
  0
VERTEX
  5
11FB
  8
0
  6
CONTINUOUS
 10
85.93733205652515
 20
-783.24680839433245
 30
0.0
  0
VERTEX
  5
11FC
  8
0
  6
CONTINUOUS
 10
86.493693353775882
 20
-737.04360251472917
 30
0.0
  0
VERTEX
  5
11FD
  8
0
  6
CONTINUOUS
 10
86.314844157941806
 20
-722.59524381608935
 30
0.0
  0
VERTEX
  5
11FE
  8
0
  6
CONTINUOUS
 10
84.556412897188622
 20
-681.98622151563177
 30
0.0
  0
VERTEX
  5
11FF
  8
0
  6
CONTINUOUS
 10
80.478239006492913
 20
-627.33917291944215
 30
0.0
  0
VERTEX
  5
1200
  8
0
  6
CONTINUOUS
 10
76.890011173382845
 20
-579.21004580140595
 30
0.0
  0
VERTEX
  5
1201
  8
0
  6
CONTINUOUS
 10
72.285883022890459
 20
-519.43201263865046
 30
0.0
  0
VERTEX
  5
1202
  8
0
  6
CONTINUOUS
 10
67.020841779036544
 20
-459.97882065659053
 30
0.0
  0
VERTEX
  5
1203
  8
0
  6
CONTINUOUS
 10
59.728900025318787
 20
-390.67882620491258
 30
0.0
  0
VERTEX
  5
1204
  8
0
  6
CONTINUOUS
 10
55.145126113432028
 20
-351.80780997890668
 30
0.0
  0
VERTEX
  5
1205
  8
0
  6
CONTINUOUS
 10
44.072230782543528
 20
-260.03403531017801
 30
0.0
  0
VERTEX
  5
1206
  8
0
  6
CONTINUOUS
 10
22.749667725827521
 20
-84.480130320724655
 30
0.0
  0
VERTEX
  5
1207
  8
0
  6
CONTINUOUS
 10
12.5
 20
-0.7000000000000012
 30
0.0
  0
SEQEND
  5
1208
  8
0
  6
CONTINUOUS
  0
ENDSEC
  0
EOF
