  0
SECTION
  2
HEADER
  9
$ACADVER
  1
AC1009
  9
$INSBASE
 10
0.0
 20
0.0
 30
0.0
  9
$EXTMIN
 10
-1169.570973665649
 20
-13264.884905327821
 30
-0.0015258207003583
  9
$EXTMAX
 10
1169.5709845574579
 20
222.41160590558141
 30
0.0000000349246037
  9
$LIMMIN
 10
0.0
 20
0.0
  9
$LIMMAX
 10
12.0
 20
9.0
  9
$ORTHOMODE
 70
     0
  9
$REGENMODE
 70
     1
  9
$FILLMODE
 70
     1
  9
$QTEXTMODE
 70
     0
  9
$MIRRTEXT
 70
     0
  9
$DRAGMODE
 70
     2
  9
$LTSCALE
 40
1.0
  9
$OSMODE
 70
  3071
  9
$ATTMODE
 70
     1
  9
$TEXTSIZE
 40
3.200000047683714
  9
$TRACEWID
 40
0.05
  9
$TEXTSTYLE
  7
STANDARD1
  9
$CLAYER
  8
0
  9
$CELTYPE
  6
CONTINUOUS
  9
$CECOLOR
 62
   256
  9
$DIMSCALE
 40
1.0
  9
$DIMASZ
 40
3.863703297614046
  9
$DIMEXO
 40
1.0
  9
$DIMDLI
 40
0.38
  9
$DIMRND
 40
0.0
  9
$DIMDLE
 40
0.0
  9
$DIMEXE
 40
2.0
  9
$DIMTP
 40
0.0
  9
$DIMTM
 40
0.0
  9
$DIMTXT
 40
3.200000047683714
  9
$DIMCEN
 40
0.09
  9
$DIMTSZ
 40
0.0
  9
$DIMTOL
 70
     0
  9
$DIMLIM
 70
     0
  9
$DIMTIH
 70
     1
  9
$DIMTOH
 70
     1
  9
$DIMSE1
 70
     0
  9
$DIMSE2
 70
     0
  9
$DIMTAD
 70
     1
  9
$DIMZIN
 70
     0
  9
$DIMBLK
  1

  9
$DIMASO
 70
     1
  9
$DIMSHO
 70
     1
  9
$DIMPOST
  1

  9
$DIMAPOST
  1

  9
$DIMALT
 70
     0
  9
$DIMALTD
 70
     2
  9
$DIMALTF
 40
25.399999999999999
  9
$DIMLFAC
 40
1.0
  9
$DIMTOFL
 70
     0
  9
$DIMTVP
 40
0.0
  9
$DIMTIX
 70
     0
  9
$DIMSOXD
 70
     0
  9
$DIMSAH
 70
     0
  9
$DIMBLK1
  1

  9
$DIMBLK2
  1

  9
$DIMSTYLE
  2
STANDARD
  9
$DIMCLRD
 70
     0
  9
$DIMCLRE
 70
     0
  9
$DIMCLRT
 70
     0
  9
$DIMTFAC
 40
0.625
  9
$DIMGAP
 40
0.09
  9
$LUNITS
 70
     2
  9
$LUPREC
 70
     3
  9
$SKETCHINC
 40
0.1
  9
$FILLETRAD
 40
0.0
  9
$AUNITS
 70
     0
  9
$AUPREC
 70
     0
  9
$MENU
  1
.
  9
$ELEVATION
 40
0.0
  9
$PELEVATION
 40
0.0
  9
$THICKNESS
 40
0.0
  9
$LIMCHECK
 70
     0
  9
$BLIPMODE
 70
     0
  9
$CHAMFERA
 40
0.0
  9
$CHAMFERB
 40
0.0
  9
$SKPOLY
 70
     0
  9
$TDCREATE
 40
2454218.453953241
  9
$TDUPDATE
 40
2454284.5540481131
  9
$TDINDWG
 40
0.0058273264
  9
$TDUSRTIMER
 40
0.0058209838
  9
$USRTIMER
 70
     1
  9
$ANGBASE
 50
0.0
  9
$ANGDIR
 70
     0
  9
$PDMODE
 70
     0
  9
$PDSIZE
 40
0.0
  9
$PLINEWID
 40
0.0
  9
$COORDS
 70
     1
  9
$SPLFRAME
 70
     0
  9
$SPLINETYPE
 70
     6
  9
$SPLINESEGS
 70
     8
  9
$ATTDIA
 70
     0
  9
$ATTREQ
 70
     1
  9
$HANDLING
 70
     1
  9
$HANDSEED
  5
BBC
  9
$SURFTAB1
 70
     6
  9
$SURFTAB2
 70
     6
  9
$SURFTYPE
 70
     6
  9
$SURFU
 70
     6
  9
$SURFV
 70
     6
  9
$UCSNAME
  2

  9
$UCSORG
 10
0.0
 20
0.0
 30
0.0
  9
$UCSXDIR
 10
1.0
 20
0.0
 30
0.0
  9
$UCSYDIR
 10
0.0
 20
1.0
 30
0.0
  9
$PUCSNAME
  2

  9
$PUCSORG
 10
0.0
 20
0.0
 30
0.0
  9
$PUCSXDIR
 10
1.0
 20
0.0
 30
0.0
  9
$PUCSYDIR
 10
0.0
 20
1.0
 30
0.0
  9
$USERI1
 70
     0
  9
$USERI2
 70
     0
  9
$USERI3
 70
     0
  9
$USERI4
 70
     0
  9
$USERI5
 70
     0
  9
$USERR1
 40
0.0
  9
$USERR2
 40
0.0
  9
$USERR3
 40
0.0
  9
$USERR4
 40
0.0
  9
$USERR5
 40
0.0
  9
$WORLDVIEW
 70
     1
  9
$SHADEDGE
 70
     3
  9
$SHADEDIF
 70
    70
  9
$TILEMODE
 70
     1
  9
$MAXACTVP
 70
    64
  9
$PLIMCHECK
 70
     0
  9
$PEXTMIN
 10
1.0000000000000000E+020
 20
1.0000000000000000E+020
 30
1.0000000000000000E+020
  9
$PEXTMAX
 10
-1.0000000000000000E+020
 20
-1.0000000000000000E+020
 30
-1.0000000000000000E+020
  9
$PLIMMIN
 10
0.0
 20
0.0
  9
$PLIMMAX
 10
12.0
 20
9.0
  9
$UNITMODE
 70
     0
  9
$VISRETAIN
 70
     1
  9
$PLINEGEN
 70
     0
  9
$PSLTSCALE
 70
     1
  0
ENDSEC
  0
SECTION
  2
TABLES
  0
TABLE
  2
VPORT
 70
     1
  0
VPORT
  2
*ACTIVE
 70
     0
 10
0.0
 20
0.0
 11
1.0
 21
1.0
 12
0.0000054459032981
 22
-6521.2366497111198
 13
0.0
 23
0.0
 14
1.0
 24
1.0
 15
0.0
 25
0.0
 16
0.0
 26
0.0
 36
1.0
 17
0.0
 27
0.0
 37
0.0
 40
13603.06729673755
 41
1.6704871060171911
 42
50.0
 43
0.0
 44
0.0
 50
0.0
 51
0.0
 71
     0
 72
   100
 73
     1
 74
     1
 75
     0
 76
     0
 77
     0
 78
     0
  0
ENDTAB
  0
TABLE
  2
LTYPE
 70
     4
  0
LTYPE
  2
CONTINUOUS
 70
     0
  3
Solid line
 72
    65
 73
     0
 40
0.0
  0
LTYPE
  2
DASHED
 70
     0
  3
-- -- -- -- -- -- -- -- -- -- -- -- -- -- --
 72
    65
 73
     2
 40
0.75
 49
0.5
 49
-0.25
  0
LTYPE
  2
DASHDOT
 70
     0
  3
__ . __ . __ . __ . __ . __ . __ . __ . __ . __
 72
    65
 73
     4
 40
1.0
 49
0.5
 49
-0.25
 49
0.0
 49
-0.25
  0
LTYPE
  2
DIVIDE
 70
     0
  3
__ . . __ . . __ . . __ . . __ . . __ . . __
 72
    65
 73
     6
 40
1.25
 49
0.5
 49
-0.25
 49
0.0
 49
-0.25
 49
0.0
 49
-0.25
  0
ENDTAB
  0
TABLE
  2
LAYER
 70
     2
  0
LAYER
  2
0
 70
     0
 62
     7
  6
CONTINUOUS
  0
LAYER
  2
DEFPOINTS
 70
     0
 62
     7
  6
CONTINUOUS
  0
ENDTAB
  0
TABLE
  2
STYLE
 70
     5
  0
STYLE
  2
STANDARD
 70
     0
 40
0.0
 41
1.0
 50
0.0
 71
     0
 42
0.2
  3
txt
  4

  0
STYLE
  2
STANDARD1
 70
     0
 40
0.0
 41
1.0
 50
0.0
 71
     0
 42
3.200000047683714
  3
MONOTXT
  4
BIGFONT
  0
STYLE
  2
STANDARD2
 70
     4
 40
0.0
 41
1.0
 50
0.0
 71
     0
 42
3.200000047683714
  3
MONOTXT
  4
BIGFONT
  0
STYLE
  2
STANDARD3
 70
     0
 40
0.0
 41
1.0
 50
0.0
 71
     0
 42
3.200000047683714
  3
MONOTXT
  4

  0
STYLE
  2
STANDARD4
 70
     4
 40
0.0
 41
1.0
 50
0.0
 71
     0
 42
3.200000047683714
  3
MONOTXT
  4

  0
ENDTAB
  0
TABLE
  2
VIEW
 70
     0
  0
ENDTAB
  0
TABLE
  2
UCS
 70
     0
  0
ENDTAB
  0
TABLE
  2
APPID
 70
     1
  0
APPID
  2
ACAD
 70
     0
  0
ENDTAB
  0
TABLE
  2
DIMSTYLE
 70
     1
  0
DIMSTYLE
  2
STANDARD
 70
     0
  3

  4

  5

  6

  7

 40
1.0
 41
0.18
 42
0.0625
 43
0.38
 44
0.18
 45
0.0
 46
0.0
 47
0.0
 48
0.0
140
0.18
141
0.09
142
0.0
143
25.399999999999999
144
1.0
145
0.0
146
1.0
147
0.09
 71
     0
 72
     0
 73
     1
 74
     1
 75
     0
 76
     0
 77
     0
 78
     0
170
     0
171
     2
172
     0
173
     0
174
     0
175
     0
176
     0
177
     0
178
     0
  0
ENDTAB
  0
ENDSEC
  0
SECTION
  2
BLOCKS
  0
BLOCK
  8
0
  2
$MODEL_SPACE
 70
     0
 10
0.0
 20
0.0
 30
0.0
  3
$MODEL_SPACE
  1

  0
ENDBLK
  5
99A
  8
0
  0
BLOCK
 67
     1
  8
0
  2
$PAPER_SPACE
 70
     0
 10
0.0
 20
0.0
 30
0.0
  3
$PAPER_SPACE
  1

  0
ENDBLK
  5
996
 67
     1
  8
0
  0
BLOCK
  8
0
  2
*D2
 70
     1
 10
0.0
 20
0.0
 30
0.0
  3
*D2
  1

  0
LINE
  5
502
  8
0
  6
CONTINUOUS
 62
     0
 10
0.2979608494704315
 20
68.978419790083223
 30
0.0
 11
21.784475351042961
 21
68.978419790083223
 31
0.0
  0
LINE
  5
503
  8
0
  6
CONTINUOUS
 62
     0
 10
0.2979608494704277
 20
-63.626313832152022
 30
0.0
 11
21.784475351042929
 21
-63.626313832152022
 31
0.0
  0
LINE
  5
504
  8
0
  6
CONTINUOUS
 62
     0
 10
19.784475351042961
 20
65.114716492469171
 30
0.0
 11
19.784475351042961
 21
4.3660530028074511
 31
0.0
  0
LINE
  5
505
  8
0
  6
CONTINUOUS
 62
     0
 10
19.784475351042921
 20
-59.762610534537963
 30
0.0
 11
19.784475351042961
 21
0.9860529551237339
 31
0.0
  0
SOLID
  5
506
  8
0
  6
CONTINUOUS
 62
     0
 10
19.14052480144063
 20
65.114716492469171
 30
0.0
 11
20.428425900645301
 21
65.114716492469171
 31
0.0
 12
19.784475351042961
 22
68.978419790083223
 32
0.0
 13
19.784475351042961
 23
68.978419790083223
 33
0.0
  0
SOLID
  5
507
  8
0
  6
CONTINUOUS
 62
     0
 10
19.140524801440598
 20
-59.762610534537963
 30
0.0
 11
20.428425900645291
 21
-59.762610534537963
 31
0.0
 12
19.784475351042921
 22
-63.626313832152022
 32
0.0
 13
19.784475351042921
 23
-63.626313832152022
 33
0.0
  0
INSERT
  5
509
  8
0
  6
CONTINUOUS
  2
*U3
 10
0.0
 20
0.0
 30
0.0
  0
POINT
  5
50A
  8
DEFPOINTS
  6
CONTINUOUS
 62
     0
 10
-0.7020391505295685
 20
68.978419790083223
 30
0.0
  0
POINT
  5
50B
  8
DEFPOINTS
  6
CONTINUOUS
 62
     0
 10
-0.7020391505295722
 20
-63.626313832152022
 30
0.0
  0
POINT
  5
50C
  8
DEFPOINTS
  6
CONTINUOUS
 62
     0
 10
19.784475351042921
 20
-63.626313832152022
 30
0.0
  0
ENDBLK
  5
50D
  8
0
  0
BLOCK
  8
0
  2
*U3
 70
     1
 10
0.0
 20
0.0
 30
0.0
  3
*U3
  1

  0
TEXT
  5
537
  8
0
  6
CONTINUOUS
 62
     0
 10
9.3844751960708805
 20
1.0760529551237339
 30
0.0
 40
3.200000047683714
  1
132.6047
  0
ENDBLK
  5
538
  8
0
  0
BLOCK
  8
0
  2
*D4
 70
     1
 10
0.0
 20
0.0
 30
0.0
  3
*D4
  1

  0
LINE
  5
510
  8
0
  6
CONTINUOUS
 62
     0
 10
777.5
 20
222.99999999999909
 30
0.0
 11
777.5
 21
523.74799608656031
 31
0.0
  0
LINE
  5
511
  8
0
  6
CONTINUOUS
 62
     0
 10
-777.5
 20
222.99999999999909
 30
0.0
 11
-777.5
 21
523.74799608656031
 31
0.0
  0
LINE
  5
512
  8
0
  6
CONTINUOUS
 62
     0
 10
773.63629670238572
 20
521.74799608656031
 30
0.0
 11
-773.63629670238572
 21
521.74799608656031
 31
0.0
  0
SOLID
  5
513
  8
0
  6
CONTINUOUS
 62
     0
 10
773.63629670238572
 20
522.39194663616252
 30
0.0
 11
773.63629670238572
 21
521.10404553695776
 31
0.0
 12
777.5
 22
521.74799608656031
 32
0.0
 13
777.5
 23
521.74799608656031
 33
0.0
  0
SOLID
  5
514
  8
0
  6
CONTINUOUS
 62
     0
 10
-773.63629670238572
 20
522.39194663616252
 30
0.0
 11
-773.63629670238572
 21
521.10404553695776
 31
0.0
 12
-777.5
 22
521.74799608656031
 32
0.0
 13
-777.5
 23
521.74799608656031
 33
0.0
  0
INSERT
  5
516
  8
0
  6
CONTINUOUS
  2
*U5
 10
0.0
 20
0.0
 30
0.0
  0
POINT
  5
517
  8
DEFPOINTS
  6
CONTINUOUS
 62
     0
 10
777.5
 20
221.99999999999901
 30
0.0
  0
POINT
  5
518
  8
DEFPOINTS
  6
CONTINUOUS
 62
     0
 10
-777.5
 20
221.99999999999901
 30
0.0
  0
POINT
  5
519
  8
DEFPOINTS
  6
CONTINUOUS
 62
     0
 10
-777.5
 20
521.74799608656031
 30
0.0
  0
ENDBLK
  5
51A
  8
0
  0
BLOCK
  8
0
  2
*U5
 70
     1
 10
0.0
 20
0.0
 30
0.0
  3
*U5
  1

  0
TEXT
  5
53A
  8
0
  6
CONTINUOUS
 62
     0
 10
-11.200000166893011
 20
521.83799608656034
 30
0.0
 40
3.200000047683714
  1
1555.0000
  0
ENDBLK
  5
53B
  8
0
  0
BLOCK
  8
0
  2
*D6
 70
     1
 10
0.0
 20
0.0
 30
0.0
  3
*D6
  1

  0
LINE
  5
51D
  8
0
  6
CONTINUOUS
 62
     0
 10
0.999999999999776
 20
-0.0000000000009098
 30
0.0
 11
1559.3712242439831
 21
-0.0000000000013512
 31
0.0
  0
LINE
  5
51E
  8
0
  6
CONTINUOUS
 62
     0
 10
0.9999999999994027
 20
-13264.47336222352
 30
0.0
 11
1559.371224243979
 21
-13264.47336222352
 31
0.0
  0
LINE
  5
51F
  8
0
  6
CONTINUOUS
 62
     0
 10
1557.3712242439831
 20
-3.863703297615396
 30
0.0
 11
1557.371224243981
 21
-6630.5466810879179
 31
0.0
  0
LINE
  5
520
  8
0
  6
CONTINUOUS
 62
     0
 10
1557.3712242439781
 20
-13260.6096589259
 30
0.0
 11
1557.371224243981
 21
-6633.9266811356019
 31
0.0
  0
SOLID
  5
521
  8
0
  6
CONTINUOUS
 62
     0
 10
1556.7272736943801
 20
-3.863703297615396
 30
0.0
 11
1558.0151747935849
 21
-3.863703297615396
 31
0.0
 12
1557.3712242439831
 22
-0.0000000000013507
 32
0.0
 13
1557.3712242439831
 23
-0.0000000000013507
 33
0.0
  0
SOLID
  5
522
  8
0
  6
CONTINUOUS
 62
     0
 10
1556.727273694376
 20
-13260.6096589259
 30
0.0
 11
1558.0151747935811
 21
-13260.6096589259
 31
0.0
 12
1557.3712242439781
 22
-13264.47336222352
 32
0.0
 13
1557.3712242439781
 23
-13264.47336222352
 33
0.0
  0
INSERT
  5
524
  8
0
  6
CONTINUOUS
  2
*U7
 10
0.0
 20
0.0
 30
0.0
  0
POINT
  5
525
  8
DEFPOINTS
  6
CONTINUOUS
 62
     0
 10
-0.0000000000002238
 20
-0.0000000000009095
 30
0.0
  0
POINT
  5
526
  8
DEFPOINTS
  6
CONTINUOUS
 62
     0
 10
-0.0000000000005969
 20
-13264.47336222352
 30
0.0
  0
POINT
  5
527
  8
DEFPOINTS
  6
CONTINUOUS
 62
     0
 10
1557.3712242439781
 20
-13264.47336222352
 30
0.0
  0
ENDBLK
  5
528
  8
0
  0
BLOCK
  8
0
  2
*U7
 70
     1
 10
0.0
 20
0.0
 30
0.0
  3
*U7
  1

  0
TEXT
  5
53D
  8
0
  6
CONTINUOUS
 62
     0
 10
1543.5045573706859
 20
-6633.8366811356018
 30
0.0
 40
3.200000047683714
  1
13264.4734
  0
ENDBLK
  5
53E
  8
0
  0
BLOCK
  8
0
  2
*D8
 70
     1
 10
0.0
 20
0.0
 30
0.0
  3
*D8
  1

  0
LINE
  5
52B
  8
0
  6
CONTINUOUS
 62
     0
 10
-0.0000000000002239
 20
48.999999999999091
 30
0.0
 11
-0.0000000000009076
 21
-11118.047502768201
 31
0.0
  0
LINE
  5
52C
  8
0
  6
CONTINUOUS
 62
     0
 10
1168.359421311696
 20
-9382.4279094075646
 30
0.0
 11
1168.359421311696
 21
-11118.047502768201
 31
0.0
  0
LINE
  5
52D
  8
0
  6
CONTINUOUS
 62
     0
 10
3.863703297613136
 20
-11116.047502768201
 30
0.0
 11
1164.4957180140821
 21
-11116.047502768201
 31
0.0
  0
SOLID
  5
52E
  8
0
  6
CONTINUOUS
 62
     0
 10
3.863703297613136
 20
-11115.40355221859
 30
0.0
 11
3.863703297613136
 21
-11116.691453317801
 31
0.0
 12
-0.0000000000009075
 22
-11116.047502768201
 32
0.0
 13
-0.0000000000009075
 23
-11116.047502768201
 33
0.0
  0
SOLID
  5
52F
  8
0
  6
CONTINUOUS
 62
     0
 10
1164.4957180140821
 20
-11115.40355221859
 30
0.0
 11
1164.4957180140821
 21
-11116.691453317801
 31
0.0
 12
1168.359421311696
 22
-11116.047502768201
 32
0.0
 13
1168.359421311696
 23
-11116.047502768201
 33
0.0
  0
INSERT
  5
531
  8
0
  6
CONTINUOUS
  2
*U9
 10
0.0
 20
0.0
 30
0.0
  0
POINT
  5
532
  8
DEFPOINTS
  6
CONTINUOUS
 62
     0
 10
-0.0000000000002238
 20
49.999999999999091
 30
0.0
  0
POINT
  5
533
  8
DEFPOINTS
  6
CONTINUOUS
 62
     0
 10
1168.359421311696
 20
-9381.4279094075682
 30
0.0
  0
POINT
  5
534
  8
DEFPOINTS
  6
CONTINUOUS
 62
     0
 10
1168.359421311696
 20
-11116.047502768201
 30
0.0
  0
ENDBLK
  5
535
  8
0
  0
BLOCK
  8
0
  2
*U9
 70
     1
 10
0.0
 20
0.0
 30
0.0
  3
*U9
  1

  0
TEXT
  5
540
  8
0
  6
CONTINUOUS
 62
     0
 10
572.4463771476735
 20
-11115.95750276818
 30
0.0
 40
3.200000047683714
  1
1168.3594
  0
ENDBLK
  5
541
  8
0
  0
ENDSEC
  0
SECTION
  2
ENTITIES
  0
POLYLINE
  5
542
  8
0
  6
CONTINUOUS
 66
     1
 10
0.0
 20
0.0
 30
0.0
  0
VERTEX
  5
9C4
  8
0
  6
CONTINUOUS
 10
637.71889369194753
 20
-3.9999999999987761
 30
0.0
  0
VERTEX
  5
9C5
  8
0
  6
CONTINUOUS
 10
658.50826743970981
 20
-714.48032431286413
 30
0.0
  0
VERTEX
  5
9C6
  8
0
  6
CONTINUOUS
 10
656.98769301762866
 20
-1144.0398074423661
 30
0.0
  0
VERTEX
  5
9C7
  8
0
  6
CONTINUOUS
 10
670.5747015978086
 20
-1663.526301616497
 30
0.0
  0
VERTEX
  5
9C8
  8
0
  6
CONTINUOUS
 10
670.5747015978086
 20
-1663.526301616497
 30
0.0
  0
VERTEX
  5
9C9
  8
0
  6
CONTINUOUS
 10
694.38400991107949
 20
-2151.7842940236801
 30
0.0
  0
VERTEX
  5
9CA
  8
0
  6
CONTINUOUS
 10
725.66194653336834
 20
-2657.4548222597468
 30
0.0
  0
VERTEX
  5
9CB
  8
0
  6
CONTINUOUS
 10
725.66194653336834
 20
-2657.4548222597468
 30
0.0
  0
VERTEX
  5
9CC
  8
0
  6
CONTINUOUS
 10
759.48076455202727
 20
-3135.6739418419179
 30
0.0
  0
VERTEX
  5
9CD
  8
0
  6
CONTINUOUS
 10
792.93950564910779
 20
-3599.6909448328061
 30
0.0
  0
VERTEX
  5
9CE
  8
0
  6
CONTINUOUS
 10
792.93950564910779
 20
-3599.6909448328061
 30
0.0
  0
VERTEX
  5
9CF
  8
0
  6
CONTINUOUS
 10
825.31164693107269
 20
-4079.9042717560401
 30
0.0
  0
VERTEX
  5
9D0
  8
0
  6
CONTINUOUS
 10
862.54161860733939
 20
-4617.1957204339669
 30
0.0
  0
VERTEX
  5
9D1
  8
0
  6
CONTINUOUS
 10
862.54161860733939
 20
-4617.1957204339669
 30
0.0
  0
VERTEX
  5
9D2
  8
0
  6
CONTINUOUS
 10
910.26562694128882
 20
-5228.388594451666
 30
0.0
  0
VERTEX
  5
9D3
  8
0
  6
CONTINUOUS
 10
966.21602930919664
 20
-5823.5888631465059
 30
0.0
  0
VERTEX
  5
9D4
  8
0
  6
CONTINUOUS
 10
966.21602930919664
 20
-5823.5888631465059
 30
0.0
  0
VERTEX
  5
9D5
  8
0
  6
CONTINUOUS
 10
1025.335944574764
 20
-6331.300017605894
 30
0.0
  0
VERTEX
  5
9D6
  8
0
  6
CONTINUOUS
 10
1079.3153864384931
 20
-6860.3329701651073
 30
0.0
  0
VERTEX
  5
9D7
  8
0
  6
CONTINUOUS
 10
1079.3153864384931
 20
-6860.3329701651073
 30
0.0
  0
VERTEX
  5
9D8
  8
0
  6
CONTINUOUS
 10
1120.683566530292
 20
-7509.8675796606531
 30
0.0
  0
VERTEX
  5
9D9
  8
0
  6
CONTINUOUS
 10
1148.5795933608911
 20
-8160.2520696860092
 30
0.0
  0
VERTEX
  5
9DA
  8
0
  6
CONTINUOUS
 10
1148.5795933608911
 20
-8160.2520696860092
 30
0.0
  0
VERTEX
  5
9DB
  8
0
  6
CONTINUOUS
 10
1164.0923097060411
 20
-8684.2968002418056
 30
0.0
  0
VERTEX
  5
9DC
  8
0
  6
CONTINUOUS
 10
1169.4995985207399
 20
-9143.4923122001946
 30
0.0
  0
VERTEX
  5
9DD
  8
0
  6
CONTINUOUS
 10
1169.4995985207399
 20
-9143.4923122001946
 30
0.0
  0
VERTEX
  5
9DE
  8
0
  6
CONTINUOUS
 10
1167.21924410265
 20
-9619.3635066149382
 30
0.0
  0
VERTEX
  5
9DF
  8
0
  6
CONTINUOUS
 10
1159.0395959408161
 20
-10084.89254439463
 30
0.0
  0
VERTEX
  5
9E0
  8
0
  6
CONTINUOUS
 10
1159.0395959408161
 20
-10084.89254439463
 30
0.0
  0
VERTEX
  5
9E1
  8
0
  6
CONTINUOUS
 10
1145.5371133756671
 20
-10501.77937799849
 30
0.0
  0
VERTEX
  5
9E2
  8
0
  6
CONTINUOUS
 10
1123.0701299618031
 20
-10895.13786623305
 30
0.0
  0
VERTEX
  5
9E3
  8
0
  6
CONTINUOUS
 10
1123.0701299618031
 20
-10895.13786623305
 30
0.0
  0
VERTEX
  5
9E4
  8
0
  6
CONTINUOUS
 10
1087.806342947197
 20
-11294.748982739749
 30
0.0
  0
VERTEX
  5
9E5
  8
0
  6
CONTINUOUS
 10
1039.3690301391439
 20
-11685.648254152011
 30
0.0
  0
VERTEX
  5
9E6
  8
0
  6
CONTINUOUS
 10
1039.3690301391439
 20
-11685.648254152011
 30
0.0
  0
VERTEX
  5
9E7
  8
0
  6
CONTINUOUS
 10
978.19470686933505
 20
-12044.00348686518
 30
0.0
  0
VERTEX
  5
9E8
  8
0
  6
CONTINUOUS
 10
904.51725800769839
 20
-12355.25705333049
 30
0.0
  0
VERTEX
  5
9E9
  8
0
  6
CONTINUOUS
 10
904.51725800769839
 20
-12355.25705333049
 30
0.0
  0
VERTEX
  5
9EA
  8
0
  6
CONTINUOUS
 10
817.70476832862732
 20
-12610.102442298319
 30
0.0
  0
VERTEX
  5
9EB
  8
0
  6
CONTINUOUS
 10
713.86475268610775
 20
-12810.963041660179
 30
0.0
  0
VERTEX
  5
9EC
  8
0
  6
CONTINUOUS
 10
713.86475268610775
 20
-12810.963041660179
 30
0.0
  0
VERTEX
  5
9ED
  8
0
  6
CONTINUOUS
 10
592.75881023224269
 20
-12964.61712104149
 30
0.0
  0
VERTEX
  5
9EE
  8
0
  6
CONTINUOUS
 10
472.02544723201322
 20
-13083.53257786231
 30
0.0
  0
VERTEX
  5
9EF
  8
0
  6
CONTINUOUS
 10
472.02544723201322
 20
-13083.53257786231
 30
0.0
  0
VERTEX
  5
9F0
  8
0
  6
CONTINUOUS
 10
357.7422200507483
 20
-13177.79731260769
 30
0.0
  0
VERTEX
  5
9F1
  8
0
  6
CONTINUOUS
 10
285.88280895142151
 20
-13214.32277349182
 30
0.0
  0
VERTEX
  5
9F2
  8
0
  6
CONTINUOUS
 10
191.86597834229431
 20
-13242.28961022803
 30
0.0
  0
VERTEX
  5
9F3
  8
0
  6
CONTINUOUS
 10
191.86597834229431
 20
-13242.28961022803
 30
0.0
  0
VERTEX
  5
9F4
  8
0
  6
CONTINUOUS
 10
97.971876491821405
 20
-13257.50050183102
 30
0.0
  0
VERTEX
  5
9F5
  8
0
  6
CONTINUOUS
 10
-0.0000000000005969
 20
-13264.47336222352
 30
0.0
  0
VERTEX
  5
9F6
  8
0
  6
CONTINUOUS
 10
-0.0000000000005969
 20
-13264.47336222352
 30
0.0
  0
VERTEX
  5
9F7
  8
0
  6
CONTINUOUS
 10
-164.350339211472
 20
-13250.773071590769
 30
0.0
  0
VERTEX
  5
9F8
  8
0
  6
CONTINUOUS
 10
-291.76337688105781
 20
-13208.60064860817
 30
0.0
  0
VERTEX
  5
9F9
  8
0
  6
CONTINUOUS
 10
-391.3010879181183
 20
-13149.12938634294
 30
0.0
  0
VERTEX
  5
9FA
  8
0
  6
CONTINUOUS
 10
-472.02544723201481
 20
-13083.53257786231
 30
0.0
  0
VERTEX
  5
9FB
  8
0
  6
CONTINUOUS
 10
-472.02544723201481
 20
-13083.53257786231
 30
0.0
  0
VERTEX
  5
9FC
  8
0
  6
CONTINUOUS
 10
-604.01149623312472
 20
-12957.10640684001
 30
0.0
  0
VERTEX
  5
9FD
  8
0
  6
CONTINUOUS
 10
-713.86475268610934
 20
-12810.963041660179
 30
0.0
  0
VERTEX
  5
9FE
  8
0
  6
CONTINUOUS
 10
-713.86475268610934
 20
-12810.963041660179
 30
0.0
  0
VERTEX
  5
9FF
  8
0
  6
CONTINUOUS
 10
-814.68962020201161
 20
-12612.114932103181
 30
0.0
  0
VERTEX
  5
A00
  8
0
  6
CONTINUOUS
 10
-904.51725800770021
 20
-12355.25705333049
 30
0.0
  0
VERTEX
  5
A01
  8
0
  6
CONTINUOUS
 10
-904.51725800770021
 20
-12355.25705333049
 30
0.0
  0
VERTEX
  5
A02
  8
0
  6
CONTINUOUS
 10
-979.00261337492395
 20
-12043.46424184719
 30
0.0
  0
VERTEX
  5
A03
  8
0
  6
CONTINUOUS
 10
-1039.3690301391471
 20
-11685.648254152011
 30
0.0
  0
VERTEX
  5
A04
  8
0
  6
CONTINUOUS
 10
-1039.3690301391471
 20
-11685.648254152011
 30
0.0
  0
VERTEX
  5
A05
  8
0
  6
CONTINUOUS
 10
-1087.589865051465
 20
-11294.893473006839
 30
0.0
  0
VERTEX
  5
A06
  8
0
  6
CONTINUOUS
 10
-1123.0701299618031
 20
-10895.13786623305
 30
0.0
  0
VERTEX
  5
A07
  8
0
  6
CONTINUOUS
 10
-1123.0701299618031
 20
-10895.13786623305
 30
0.0
  0
VERTEX
  5
A08
  8
0
  6
CONTINUOUS
 10
-1145.595118453014
 20
-10501.740661948101
 30
0.0
  0
VERTEX
  5
A09
  8
0
  6
CONTINUOUS
 10
-1159.039595940817
 20
-10084.89254439463
 30
0.0
  0
VERTEX
  5
A0A
  8
0
  6
CONTINUOUS
 10
-1159.039595940817
 20
-10084.89254439463
 30
0.0
  0
VERTEX
  5
A0B
  8
0
  6
CONTINUOUS
 10
-1167.2037016890019
 20
-9619.3738805493886
 30
0.0
  0
VERTEX
  5
A0C
  8
0
  6
CONTINUOUS
 10
-1169.499598520742
 20
-9143.4923122001946
 30
0.0
  0
VERTEX
  5
A0D
  8
0
  6
CONTINUOUS
 10
-1169.499598520742
 20
-9143.4923122001946
 30
0.0
  0
VERTEX
  5
A0E
  8
0
  6
CONTINUOUS
 10
-1164.0964742832971
 20
-8684.2940205544037
 30
0.0
  0
VERTEX
  5
A0F
  8
0
  6
CONTINUOUS
 10
-1148.5795933608931
 20
-8160.2520696860092
 30
0.0
  0
VERTEX
  5
A10
  8
0
  6
CONTINUOUS
 10
-1148.5795933608931
 20
-8160.2520696860092
 30
0.0
  0
VERTEX
  5
A11
  8
0
  6
CONTINUOUS
 10
-1120.682450634923
 20
-7509.868324475814
 30
0.0
  0
VERTEX
  5
A12
  8
0
  6
CONTINUOUS
 10
-1079.3153864384931
 20
-6860.3329701651073
 30
0.0
  0
VERTEX
  5
A13
  8
0
  6
CONTINUOUS
 10
-1079.3153864384931
 20
-6860.3329701651073
 30
0.0
  0
VERTEX
  5
A14
  8
0
  6
CONTINUOUS
 10
-1025.336243578987
 20
-6331.2998180326294
 30
0.0
  0
VERTEX
  5
A15
  8
0
  6
CONTINUOUS
 10
-966.21602930919676
 20
-5823.5888631465059
 30
0.0
  0
VERTEX
  5
A16
  8
0
  6
CONTINUOUS
 10
-966.21602930919676
 20
-5823.5888631465059
 30
0.0
  0
VERTEX
  5
A17
  8
0
  6
CONTINUOUS
 10
-910.26554681977075
 20
-5228.3886479295479
 30
0.0
  0
VERTEX
  5
A18
  8
0
  6
CONTINUOUS
 10
-862.54161860733996
 20
-4617.1957204339669
 30
0.0
  0
VERTEX
  5
A19
  8
0
  6
CONTINUOUS
 10
-862.54161860733996
 20
-4617.1957204339669
 30
0.0
  0
VERTEX
  5
A1A
  8
0
  6
CONTINUOUS
 10
-825.31166841292486
 20
-4079.9042574177679
 30
0.0
  0
VERTEX
  5
A1B
  8
0
  6
CONTINUOUS
 10
-792.93950564910813
 20
-3599.6909448328061
 30
0.0
  0
VERTEX
  5
A1C
  8
0
  6
CONTINUOUS
 10
-792.93950564910813
 20
-3599.6909448328061
 30
0.0
  0
VERTEX
  5
A1D
  8
0
  6
CONTINUOUS
 10
-759.48075874613903
 20
-3135.6739457171138
 30
0.0
  0
VERTEX
  5
A1E
  8
0
  6
CONTINUOUS
 10
-725.66194653336834
 20
-2657.4548222597468
 30
0.0
  0
VERTEX
  5
A1F
  8
0
  6
CONTINUOUS
 10
-725.66194653336834
 20
-2657.4548222597468
 30
0.0
  0
VERTEX
  5
A20
  8
0
  6
CONTINUOUS
 10
-694.38401165278322
 20
-2151.7842928611649
 30
0.0
  0
VERTEX
  5
A21
  8
0
  6
CONTINUOUS
 10
-670.5747015978086
 20
-1663.526301616497
 30
0.0
  0
VERTEX
  5
A22
  8
0
  6
CONTINUOUS
 10
-670.5747015978086
 20
-1663.526301616497
 30
0.0
  0
VERTEX
  5
A23
  8
0
  6
CONTINUOUS
 10
-656.98769143094751
 20
-1144.0398085014119
 30
0.0
  0
VERTEX
  5
A24
  8
0
  6
CONTINUOUS
 10
-658.50826562635984
 20
-714.48032552320046
 30
0.0
  0
VERTEX
  5
A25
  8
0
  6
CONTINUOUS
 10
-637.76946645180192
 20
-2.928635003009274
 30
0.0
  0
SEQEND
  5
A26
  8
0
  6
CONTINUOUS
  0
POLYLINE
  5
5A6
  8
0
  6
CONTINUOUS
 66
     1
 10
0.0
 20
0.0
 30
0.0
  0
VERTEX
  5
A27
  8
0
  6
CONTINUOUS
 10
637.71889369194753
 20
-3.9999999999987761
 30
0.0
  0
VERTEX
  5
A28
  8
0
  6
CONTINUOUS
 10
645.6925103439487
 20
-802.91457743075932
 30
0.0
  0
VERTEX
  5
A29
  8
0
  6
CONTINUOUS
 10
636.86466514868482
 20
-1280.52812537982
 30
0.0
  0
VERTEX
  5
A2A
  8
0
  6
CONTINUOUS
 10
642.06513228531799
 20
-1852.673010286243
 30
0.0
  0
VERTEX
  5
A2B
  8
0
  6
CONTINUOUS
 10
642.06513228531799
 20
-1852.673010286243
 30
0.0
  0
VERTEX
  5
A2C
  8
0
  6
CONTINUOUS
 10
654.98523037992118
 20
-2309.1120274812451
 30
0.0
  0
VERTEX
  5
A2D
  8
0
  6
CONTINUOUS
 10
671.37762501152929
 20
-2800.4436084342351
 30
0.0
  0
VERTEX
  5
A2E
  8
0
  6
CONTINUOUS
 10
671.37762501152929
 20
-2800.4436084342351
 30
0.0
  0
VERTEX
  5
A2F
  8
0
  6
CONTINUOUS
 10
690.52891940242876
 20
-3337.4744424140699
 30
0.0
  0
VERTEX
  5
A30
  8
0
  6
CONTINUOUS
 10
730.00261046399169
 20
-4070.6516265708028
 30
0.0
  0
VERTEX
  5
A31
  8
0
  6
CONTINUOUS
 10
730.00261046399169
 20
-4070.6516265708028
 30
0.0
  0
VERTEX
  5
A32
  8
0
  6
CONTINUOUS
 10
757.51324826047153
 20
-4488.6634432766132
 30
0.0
  0
VERTEX
  5
A33
  8
0
  6
CONTINUOUS
 10
783.07262497657939
 20
-4908.4931418473852
 30
0.0
  0
VERTEX
  5
A34
  8
0
  6
CONTINUOUS
 10
783.07262497657939
 20
-4908.4931418473852
 30
0.0
  0
VERTEX
  5
A35
  8
0
  6
CONTINUOUS
 10
799.69878976355471
 20
-5284.8216083598581
 30
0.0
  0
VERTEX
  5
A36
  8
0
  6
CONTINUOUS
 10
813.18706963760349
 20
-5679.4229251694996
 30
0.0
  0
VERTEX
  5
A37
  8
0
  6
CONTINUOUS
 10
813.18706963760349
 20
-5679.4229251694996
 30
0.0
  0
VERTEX
  5
A38
  8
0
  6
CONTINUOUS
 10
829.35652882827424
 20
-6156.1431148097718
 30
0.0
  0
VERTEX
  5
A39
  8
0
  6
CONTINUOUS
 10
841.34390255351775
 20
-6680.0227642473537
 30
0.0
  0
VERTEX
  5
A3A
  8
0
  6
CONTINUOUS
 10
841.34390255351775
 20
-6680.0227642473537
 30
0.0
  0
VERTEX
  5
A3B
  8
0
  6
CONTINUOUS
 10
841.80757633117832
 20
-7192.6581418449341
 30
0.0
  0
VERTEX
  5
A3C
  8
0
  6
CONTINUOUS
 10
834.17486589028101
 20
-7640.6736771159658
 30
0.0
  0
VERTEX
  5
A3D
  8
0
  6
CONTINUOUS
 10
834.17486589028101
 20
-7640.6736771159658
 30
0.0
  0
VERTEX
  5
A3E
  8
0
  6
CONTINUOUS
 10
822.71578698454653
 20
-7991.9117796075043
 30
0.0
  0
VERTEX
  5
A3F
  8
0
  6
CONTINUOUS
 10
804.30222525529973
 20
-8294.0586178501853
 30
0.0
  0
VERTEX
  5
A40
  8
0
  6
CONTINUOUS
 10
804.30222525529973
 20
-8294.0586178501853
 30
0.0
  0
VERTEX
  5
A41
  8
0
  6
CONTINUOUS
 10
775.8605743670297
 20
-8602.2455198388798
 30
0.0
  0
VERTEX
  5
A42
  8
0
  6
CONTINUOUS
 10
741.93339018926883
 20
-8921.5406924417202
 30
0.0
  0
VERTEX
  5
A43
  8
0
  6
CONTINUOUS
 10
741.93339018926883
 20
-8921.5406924417202
 30
0.0
  0
VERTEX
  5
A44
  8
0
  6
CONTINUOUS
 10
704.51365726764675
 20
-9242.493046456575
 30
0.0
  0
VERTEX
  5
A45
  8
0
  6
CONTINUOUS
 10
647.77991264713148
 20
-9547.6374295269052
 30
0.0
  0
VERTEX
  5
A46
  8
0
  6
CONTINUOUS
 10
647.77991264713148
 20
-9547.6374295269052
 30
0.0
  0
VERTEX
  5
A47
  8
0
  6
CONTINUOUS
 10
561.51369946524164
 20
-9817.8182125539515
 30
0.0
  0
VERTEX
  5
A48
  8
0
  6
CONTINUOUS
 10
475.7230327303655
 20
-10035.13192262448
 30
0.0
  0
VERTEX
  5
A49
  8
0
  6
CONTINUOUS
 10
475.7230327303655
 20
-10035.13192262448
 30
0.0
  0
VERTEX
  5
A4A
  8
0
  6
CONTINUOUS
 10
406.8345201026595
 20
-10192.7445601415
 30
0.0
  0
VERTEX
  5
A4B
  8
0
  6
CONTINUOUS
 10
355.79173141010881
 20
-10259.800617513851
 30
0.0
  0
VERTEX
  5
A4C
  8
0
  6
CONTINUOUS
 10
276.72266797849773
 20
-10326.84786258747
 30
0.0
  0
VERTEX
  5
A4D
  8
0
  6
CONTINUOUS
 10
276.72266797849773
 20
-10326.84786258747
 30
0.0
  0
VERTEX
  5
A4E
  8
0
  6
CONTINUOUS
 10
219.1582820876171
 20
-10363.40017158748
 30
0.0
  0
VERTEX
  5
A4F
  8
0
  6
CONTINUOUS
 10
152.07457457367411
 20
-10394.338171326401
 30
0.0
  0
VERTEX
  5
A50
  8
0
  6
CONTINUOUS
 10
152.07457457367411
 20
-10394.338171326401
 30
0.0
  0
VERTEX
  5
A51
  8
0
  6
CONTINUOUS
 10
77.879043752360616
 20
-10413.594065043029
 30
0.0
  0
VERTEX
  5
A52
  8
0
  6
CONTINUOUS
 10
-0.0000001381588817
 20
-10419.99999999998
 30
0.0
  0
VERTEX
  5
A53
  8
0
  6
CONTINUOUS
 10
-0.0000001381588817
 20
-10419.99999999998
 30
0.0
  0
VERTEX
  5
A54
  8
0
  6
CONTINUOUS
 10
-77.879043919350551
 20
-10413.594065043029
 30
0.0
  0
VERTEX
  5
A55
  8
0
  6
CONTINUOUS
 10
-152.07457457367531
 20
-10394.338171326401
 30
0.0
  0
VERTEX
  5
A56
  8
0
  6
CONTINUOUS
 10
-152.07457457367531
 20
-10394.338171326401
 30
0.0
  0
VERTEX
  5
A57
  8
0
  6
CONTINUOUS
 10
-219.15828204708481
 20
-10363.40017158748
 30
0.0
  0
VERTEX
  5
A58
  8
0
  6
CONTINUOUS
 10
-276.72266797849892
 20
-10326.84786258747
 30
0.0
  0
VERTEX
  5
A59
  8
0
  6
CONTINUOUS
 10
-276.72266797849892
 20
-10326.84786258747
 30
0.0
  0
VERTEX
  5
A5A
  8
0
  6
CONTINUOUS
 10
-355.79173146370408
 20
-10259.800617513851
 30
0.0
  0
VERTEX
  5
A5B
  8
0
  6
CONTINUOUS
 10
-406.83452015811201
 20
-10192.7445601415
 30
0.0
  0
VERTEX
  5
A5C
  8
0
  6
CONTINUOUS
 10
-475.72303273036653
 20
-10035.13192262448
 30
0.0
  0
VERTEX
  5
A5D
  8
0
  6
CONTINUOUS
 10
-475.72303273036653
 20
-10035.13192262448
 30
0.0
  0
VERTEX
  5
A5E
  8
0
  6
CONTINUOUS
 10
-561.51369945038493
 20
-9817.8182125539515
 30
0.0
  0
VERTEX
  5
A5F
  8
0
  6
CONTINUOUS
 10
-647.77991264713251
 20
-9547.6374295269052
 30
0.0
  0
VERTEX
  5
A60
  8
0
  6
CONTINUOUS
 10
-647.77991264713251
 20
-9547.6374295269052
 30
0.0
  0
VERTEX
  5
A61
  8
0
  6
CONTINUOUS
 10
-704.5136572716292
 20
-9242.493046456575
 30
0.0
  0
VERTEX
  5
A62
  8
0
  6
CONTINUOUS
 10
-741.93339018926974
 20
-8921.5406924417202
 30
0.0
  0
VERTEX
  5
A63
  8
0
  6
CONTINUOUS
 10
-741.93339018926974
 20
-8921.5406924417202
 30
0.0
  0
VERTEX
  5
A64
  8
0
  6
CONTINUOUS
 10
-775.86057436596343
 20
-8602.2455198388798
 30
0.0
  0
VERTEX
  5
A65
  8
0
  6
CONTINUOUS
 10
-804.30222525530064
 20
-8294.0586178501853
 30
0.0
  0
VERTEX
  5
A66
  8
0
  6
CONTINUOUS
 10
-804.30222525530064
 20
-8294.0586178501853
 30
0.0
  0
VERTEX
  5
A67
  8
0
  6
CONTINUOUS
 10
-822.71578698483279
 20
-7991.9117796075043
 30
0.0
  0
VERTEX
  5
A68
  8
0
  6
CONTINUOUS
 10
-834.17486589028147
 20
-7640.6736771159658
 30
0.0
  0
VERTEX
  5
A69
  8
0
  6
CONTINUOUS
 10
-834.17486589028147
 20
-7640.6736771159658
 30
0.0
  0
VERTEX
  5
A6A
  8
0
  6
CONTINUOUS
 10
-841.8075763311025
 20
-7192.6581418449341
 30
0.0
  0
VERTEX
  5
A6B
  8
0
  6
CONTINUOUS
 10
-841.34390255351809
 20
-6680.0227642473537
 30
0.0
  0
VERTEX
  5
A6C
  8
0
  6
CONTINUOUS
 10
-841.34390255351809
 20
-6680.0227642473537
 30
0.0
  0
VERTEX
  5
A6D
  8
0
  6
CONTINUOUS
 10
-829.3565288282955
 20
-6156.1431148097718
 30
0.0
  0
VERTEX
  5
A6E
  8
0
  6
CONTINUOUS
 10
-813.18706963760405
 20
-5679.4229251694996
 30
0.0
  0
VERTEX
  5
A6F
  8
0
  6
CONTINUOUS
 10
-813.18706963760405
 20
-5679.4229251694996
 30
0.0
  0
VERTEX
  5
A70
  8
0
  6
CONTINUOUS
 10
-799.69878976354983
 20
-5284.8216083598581
 30
0.0
  0
VERTEX
  5
A71
  8
0
  6
CONTINUOUS
 10
-783.0726249765803
 20
-4908.4931418473852
 30
0.0
  0
VERTEX
  5
A72
  8
0
  6
CONTINUOUS
 10
-783.0726249765803
 20
-4908.4931418473852
 30
0.0
  0
VERTEX
  5
A73
  8
0
  6
CONTINUOUS
 10
-757.51324826047312
 20
-4488.6634432766132
 30
0.0
  0
VERTEX
  5
A74
  8
0
  6
CONTINUOUS
 10
-730.00261046399214
 20
-4070.6516265708028
 30
0.0
  0
VERTEX
  5
A75
  8
0
  6
CONTINUOUS
 10
-730.00261046399214
 20
-4070.6516265708028
 30
0.0
  0
VERTEX
  5
A76
  8
0
  6
CONTINUOUS
 10
-690.52891940242785
 20
-3337.4744424140699
 30
0.0
  0
VERTEX
  5
A77
  8
0
  6
CONTINUOUS
 10
-671.37762501152974
 20
-2800.4436084342351
 30
0.0
  0
VERTEX
  5
A78
  8
0
  6
CONTINUOUS
 10
-671.37762501152974
 20
-2800.4436084342351
 30
0.0
  0
VERTEX
  5
A79
  8
0
  6
CONTINUOUS
 10
-654.98523037992163
 20
-2309.1120274812451
 30
0.0
  0
VERTEX
  5
A7A
  8
0
  6
CONTINUOUS
 10
-642.06513228531799
 20
-1852.673010286243
 30
0.0
  0
VERTEX
  5
A7B
  8
0
  6
CONTINUOUS
 10
-642.06513228531799
 20
-1852.673010286243
 30
0.0
  0
VERTEX
  5
A7C
  8
0
  6
CONTINUOUS
 10
-636.86466514868437
 20
-1280.52812537982
 30
0.0
  0
VERTEX
  5
A7D
  8
0
  6
CONTINUOUS
 10
-645.69251034394813
 20
-802.91457743075932
 30
0.0
  0
VERTEX
  5
A7E
  8
0
  6
CONTINUOUS
 10
-637.76946645180192
 20
-2.928635003009274
 30
0.0
  0
SEQEND
  5
A7F
  8
0
  6
CONTINUOUS
  0
POLYLINE
  5
600
  8
0
  6
CONTINUOUS
 66
     1
 10
0.0
 20
0.0
 30
0.0
  0
VERTEX
  5
A80
  8
0
  6
CONTINUOUS
 10
108.9182457837005
 20
-3.9999999999987761
 30
0.0
  0
VERTEX
  5
A81
  8
0
  6
CONTINUOUS
 10
106.829178158622
 20
-153.0942152034564
 30
0.0
  0
VERTEX
  5
A82
  8
0
  6
CONTINUOUS
 10
103.7412014323927
 20
-304.84242023204632
 30
0.0
  0
VERTEX
  5
A83
  8
0
  6
CONTINUOUS
 10
103.7412014323927
 20
-304.84242023204632
 30
0.0
  0
VERTEX
  5
A84
  8
0
  6
CONTINUOUS
 10
99.007185061105801
 20
-460.46714519138658
 30
0.0
  0
VERTEX
  5
A85
  8
0
  6
CONTINUOUS
 10
93.387112729828317
 20
-615.46508130906329
 30
0.0
  0
VERTEX
  5
A86
  8
0
  6
CONTINUOUS
 10
93.387112729828317
 20
-615.46508130906329
 30
0.0
  0
VERTEX
  5
A87
  8
0
  6
CONTINUOUS
 10
87.879893539709812
 20
-763.73087585910571
 30
0.0
  0
VERTEX
  5
A88
  8
0
  6
CONTINUOUS
 10
83.033024027255422
 20
-898.47683917941742
 30
0.0
  0
VERTEX
  5
A89
  8
0
  6
CONTINUOUS
 10
83.033024027255422
 20
-898.47683917941742
 30
0.0
  0
VERTEX
  5
A8A
  8
0
  6
CONTINUOUS
 10
78.949361232614223
 20
-1014.78676304723
 30
0.0
  0
VERTEX
  5
A8B
  8
0
  6
CONTINUOUS
 10
74.404616775154309
 20
-1115.912701933265
 30
0.0
  0
VERTEX
  5
A8C
  8
0
  6
CONTINUOUS
 10
74.404616775154309
 20
-1115.912701933265
 30
0.0
  0
VERTEX
  5
A8D
  8
0
  6
CONTINUOUS
 10
68.204163574451911
 20
-1206.485243686587
 30
0.0
  0
VERTEX
  5
A8E
  8
0
  6
CONTINUOUS
 10
60.599165171697102
 20
-1288.4808469761531
 30
0.0
  0
VERTEX
  5
A8F
  8
0
  6
CONTINUOUS
 10
60.599165171697102
 20
-1288.4808469761531
 30
0.0
  0
VERTEX
  5
A90
  8
0
  6
CONTINUOUS
 10
52.598199766220723
 20
-1361.235979506911
 30
0.0
  0
VERTEX
  5
A91
  8
0
  6
CONTINUOUS
 10
46.793713568303318
 20
-1416.181274307871
 30
0.0
  0
VERTEX
  5
A92
  8
0
  6
CONTINUOUS
 10
46.793713568303318
 20
-1416.181274307871
 30
0.0
  0
VERTEX
  5
A93
  8
0
  6
CONTINUOUS
 10
42.718832856006308
 20
-1451.7716930726531
 30
0.0
  0
VERTEX
  5
A94
  8
0
  6
CONTINUOUS
 10
26.0855361675643
 20
-1502.4653468292711
 30
0.0
  0
VERTEX
  5
A95
  8
0
  6
CONTINUOUS
 10
26.0855361675643
 20
-1502.4653468292711
 30
0.0
  0
VERTEX
  5
A96
  8
0
  6
CONTINUOUS
 10
16.477498375688111
 20
-1523.2091996161721
 30
0.0
  0
VERTEX
  5
A97
  8
0
  6
CONTINUOUS
 10
3.8519917143497202
 20
-1533.527612936919
 30
0.0
  0
VERTEX
  5
A98
  8
0
  6
CONTINUOUS
 10
3.8519917143497202
 20
-1533.527612936919
 30
0.0
  0
VERTEX
  5
A99
  8
0
  6
CONTINUOUS
 10
-11.506065573221591
 20
-1523.2432554300781
 30
0.0
  0
VERTEX
  5
A9A
  8
0
  6
CONTINUOUS
 10
-26.085536167564381
 20
-1502.4653468292711
 30
0.0
  0
VERTEX
  5
A9B
  8
0
  6
CONTINUOUS
 10
-26.085536167564381
 20
-1502.4653468292711
 30
0.0
  0
VERTEX
  5
A9C
  8
0
  6
CONTINUOUS
 10
-46.05143974722067
 20
-1454.323569410848
 30
0.0
  0
VERTEX
  5
A9D
  8
0
  6
CONTINUOUS
 10
-46.79371356830346
 20
-1416.181274307871
 30
0.0
  0
VERTEX
  5
A9E
  8
0
  6
CONTINUOUS
 10
-46.79371356830346
 20
-1416.181274307871
 30
0.0
  0
VERTEX
  5
A9F
  8
0
  6
CONTINUOUS
 10
-51.70523001733136
 20
-1360.5522059784701
 30
0.0
  0
VERTEX
  5
AA0
  8
0
  6
CONTINUOUS
 10
-60.59916517169718
 20
-1288.4808469761531
 30
0.0
  0
VERTEX
  5
AA1
  8
0
  6
CONTINUOUS
 10
-60.59916517169718
 20
-1288.4808469761531
 30
0.0
  0
VERTEX
  5
AA2
  8
0
  6
CONTINUOUS
 10
-68.443435678795382
 20
-1206.668461462159
 30
0.0
  0
VERTEX
  5
AA3
  8
0
  6
CONTINUOUS
 10
-74.404616775154423
 20
-1115.912701933265
 30
0.0
  0
VERTEX
  5
AA4
  8
0
  6
CONTINUOUS
 10
-74.404616775154423
 20
-1115.912701933265
 30
0.0
  0
VERTEX
  5
AA5
  8
0
  6
CONTINUOUS
 10
-78.885242564130223
 20
-1014.7376654733851
 30
0.0
  0
VERTEX
  5
AA6
  8
0
  6
CONTINUOUS
 10
-83.033024027255451
 20
-898.47683917941742
 30
0.0
  0
VERTEX
  5
AA7
  8
0
  6
CONTINUOUS
 10
-83.033024027255451
 20
-898.47683917941742
 30
0.0
  0
VERTEX
  5
AA8
  8
0
  6
CONTINUOUS
 10
-87.897096109303092
 20
-763.74404837891905
 30
0.0
  0
VERTEX
  5
AA9
  8
0
  6
CONTINUOUS
 10
-93.387112729828416
 20
-615.46508130906329
 30
0.0
  0
VERTEX
  5
AAA
  8
0
  6
CONTINUOUS
 10
-93.387112729828416
 20
-615.46508130906329
 30
0.0
  0
VERTEX
  5
AAB
  8
0
  6
CONTINUOUS
 10
-99.002493451216793
 20
-460.46355268598501
 30
0.0
  0
VERTEX
  5
AAC
  8
0
  6
CONTINUOUS
 10
-103.7412014323927
 20
-304.84242023204632
 30
0.0
  0
VERTEX
  5
AAD
  8
0
  6
CONTINUOUS
 10
-103.7412014323927
 20
-304.84242023204632
 30
0.0
  0
VERTEX
  5
AAE
  8
0
  6
CONTINUOUS
 10
-106.83074202858499
 20
-153.0954127052579
 30
0.0
  0
VERTEX
  5
AAF
  8
0
  6
CONTINUOUS
 10
-108.9182457837005
 20
-3.9999999999987761
 30
0.0
  0
SEQEND
  5
AB0
  8
0
  6
CONTINUOUS
  0
POLYLINE
  5
632
  8
0
  6
CONTINUOUS
 66
     1
 10
0.0
 20
0.0
 30
0.0
  0
VERTEX
  5
AB1
  8
0
  6
CONTINUOUS
 10
104.1672413975385
 20
-3.9999999999987761
 30
0.0
  0
VERTEX
  5
AB2
  8
0
  6
CONTINUOUS
 10
100.6378061381227
 20
-77.50269024243849
 30
0.0
  0
VERTEX
  5
AB3
  8
0
  6
CONTINUOUS
 10
97.185072407483801
 20
-157.48167062694719
 30
0.0
  0
VERTEX
  5
AB4
  8
0
  6
CONTINUOUS
 10
97.185072407483801
 20
-157.48167062694719
 30
0.0
  0
VERTEX
  5
AB5
  8
0
  6
CONTINUOUS
 10
93.935417071551996
 20
-246.15642639672359
 30
0.0
  0
VERTEX
  5
AB6
  8
0
  6
CONTINUOUS
 10
91.21391834487379
 20
-328.71922319946088
 30
0.0
  0
VERTEX
  5
AB7
  8
0
  6
CONTINUOUS
 10
91.21391834487379
 20
-328.71922319946088
 30
0.0
  0
VERTEX
  5
AB8
  8
0
  6
CONTINUOUS
 10
89.182883639632493
 20
-392.12101626740753
 30
0.0
  0
VERTEX
  5
AB9
  8
0
  6
CONTINUOUS
 10
87.154835809944217
 20
-447.37473876647852
 30
0.0
  0
VERTEX
  5
ABA
  8
0
  6
CONTINUOUS
 10
87.154835809944217
 20
-447.37473876647852
 30
0.0
  0
VERTEX
  5
ABB
  8
0
  6
CONTINUOUS
 10
84.299045342646636
 20
-506.67970730884508
 30
0.0
  0
VERTEX
  5
ABC
  8
0
  6
CONTINUOUS
 10
80.061557813530115
 20
-562.91879435802321
 30
0.0
  0
VERTEX
  5
ABD
  8
0
  6
CONTINUOUS
 10
80.061557813530115
 20
-562.91879435802321
 30
0.0
  0
VERTEX
  5
ABE
  8
0
  6
CONTINUOUS
 10
74.26688484078052
 20
-607.18614745504203
 30
0.0
  0
VERTEX
  5
ABF
  8
0
  6
CONTINUOUS
 10
67.976627123211998
 20
-642.73745859963446
 30
0.0
  0
VERTEX
  5
AC0
  8
0
  6
CONTINUOUS
 10
67.976627123211998
 20
-642.73745859963446
 30
0.0
  0
VERTEX
  5
AC1
  8
0
  6
CONTINUOUS
 10
61.660133524248621
 20
-677.57011607230959
 30
0.0
  0
VERTEX
  5
AC2
  8
0
  6
CONTINUOUS
 10
52.180656485125532
 20
-726.48674881797854
 30
0.0
  0
VERTEX
  5
AC3
  8
0
  6
CONTINUOUS
 10
52.180656485125532
 20
-726.48674881797854
 30
0.0
  0
VERTEX
  5
AC4
  8
0
  6
CONTINUOUS
 10
47.645226088281497
 20
-748.27258796766239
 30
0.0
  0
VERTEX
  5
AC5
  8
0
  6
CONTINUOUS
 10
42.779218736956203
 20
-768.77792300815099
 30
0.0
  0
VERTEX
  5
AC6
  8
0
  6
CONTINUOUS
 10
42.779218736956203
 20
-768.77792300815099
 30
0.0
  0
VERTEX
  5
AC7
  8
0
  6
CONTINUOUS
 10
36.629064180027811
 20
-784.96711823592739
 30
0.0
  0
VERTEX
  5
AC8
  8
0
  6
CONTINUOUS
 10
22.44102840149332
 20
-800.83581902703418
 30
0.0
  0
VERTEX
  5
AC9
  8
0
  6
CONTINUOUS
 10
22.44102840149332
 20
-800.83581902703418
 30
0.0
  0
VERTEX
  5
ACA
  8
0
  6
CONTINUOUS
 10
11.82135796004591
 20
-808.37200457881602
 30
0.0
  0
VERTEX
  5
ACB
  8
0
  6
CONTINUOUS
 10
-0.2726146775677876
 20
-811.98817955838933
 30
0.0
  0
VERTEX
  5
ACC
  8
0
  6
CONTINUOUS
 10
-0.2726146775677876
 20
-811.98817955838933
 30
0.0
  0
VERTEX
  5
ACD
  8
0
  6
CONTINUOUS
 10
-12.169411879736581
 20
-808.35992842188864
 30
0.0
  0
VERTEX
  5
ACE
  8
0
  6
CONTINUOUS
 10
-22.441028401493369
 20
-800.83581902703418
 30
0.0
  0
VERTEX
  5
ACF
  8
0
  6
CONTINUOUS
 10
-22.441028401493369
 20
-800.83581902703418
 30
0.0
  0
VERTEX
  5
AD0
  8
0
  6
CONTINUOUS
 10
-36.539554290942156
 20
-784.88001197522544
 30
0.0
  0
VERTEX
  5
AD1
  8
0
  6
CONTINUOUS
 10
-42.779218736956267
 20
-768.77792300815099
 30
0.0
  0
VERTEX
  5
AD2
  8
0
  6
CONTINUOUS
 10
-42.779218736956267
 20
-768.77792300815099
 30
0.0
  0
VERTEX
  5
AD3
  8
0
  6
CONTINUOUS
 10
-47.672099024670707
 20
-748.2987673668564
 30
0.0
  0
VERTEX
  5
AD4
  8
0
  6
CONTINUOUS
 10
-52.180656485125489
 20
-726.48674881797854
 30
0.0
  0
VERTEX
  5
AD5
  8
0
  6
CONTINUOUS
 10
-52.180656485125489
 20
-726.48674881797854
 30
0.0
  0
VERTEX
  5
AD6
  8
0
  6
CONTINUOUS
 10
-61.63266303579384
 20
-677.54280920787608
 30
0.0
  0
VERTEX
  5
AD7
  8
0
  6
CONTINUOUS
 10
-67.976627123212083
 20
-642.73745859963446
 30
0.0
  0
VERTEX
  5
AD8
  8
0
  6
CONTINUOUS
 10
-67.976627123212083
 20
-642.73745859963446
 30
0.0
  0
VERTEX
  5
AD9
  8
0
  6
CONTINUOUS
 10
-74.271880047159854
 20
-607.19346435566843
 30
0.0
  0
VERTEX
  5
ADA
  8
0
  6
CONTINUOUS
 10
-80.061557813530214
 20
-562.91879435802321
 30
0.0
  0
VERTEX
  5
ADB
  8
0
  6
CONTINUOUS
 10
-80.061557813530214
 20
-562.91879435802321
 30
0.0
  0
VERTEX
  5
ADC
  8
0
  6
CONTINUOUS
 10
-84.306535005584081
 20
-506.67774657076791
 30
0.0
  0
VERTEX
  5
ADD
  8
0
  6
CONTINUOUS
 10
-87.154835809944188
 20
-447.37473876647852
 30
0.0
  0
VERTEX
  5
ADE
  8
0
  6
CONTINUOUS
 10
-87.154835809944188
 20
-447.37473876647852
 30
0.0
  0
VERTEX
  5
ADF
  8
0
  6
CONTINUOUS
 10
-89.147929781503436
 20
-392.12154231908761
 30
0.0
  0
VERTEX
  5
AE0
  8
0
  6
CONTINUOUS
 10
-91.21391834487379
 20
-328.71922319946088
 30
0.0
  0
VERTEX
  5
AE1
  8
0
  6
CONTINUOUS
 10
-91.21391834487379
 20
-328.71922319946088
 30
0.0
  0
VERTEX
  5
AE2
  8
0
  6
CONTINUOUS
 10
-94.067742841130695
 20
-246.15628292808341
 30
0.0
  0
VERTEX
  5
AE3
  8
0
  6
CONTINUOUS
 10
-97.185072407483801
 20
-157.48167062694719
 30
0.0
  0
VERTEX
  5
AE4
  8
0
  6
CONTINUOUS
 10
-97.185072407483801
 20
-157.48167062694719
 30
0.0
  0
VERTEX
  5
AE5
  8
0
  6
CONTINUOUS
 10
-99.918336602774161
 20
-77.502738065316976
 30
0.0
  0
VERTEX
  5
AE6
  8
0
  6
CONTINUOUS
 10
-102.3662788762343
 20
-3.9999999999987761
 30
0.0
  0
SEQEND
  5
AE7
  8
0
  6
CONTINUOUS
  0
POLYLINE
  5
66A
  8
0
  6
CONTINUOUS
 66
     1
 10
0.0
 20
0.0
 30
0.0
  0
VERTEX
  5
AE8
  8
0
  6
CONTINUOUS
 10
104.1672413975385
 20
-3.9999999999987761
 30
0.0
  0
VERTEX
  5
AE9
  8
0
  6
CONTINUOUS
 10
97.731321851653419
 20
-61.13493239438106
 30
0.0
  0
VERTEX
  5
AEA
  8
0
  6
CONTINUOUS
 10
87.562878629904219
 20
-138.4264285101149
 30
0.0
  0
VERTEX
  5
AEB
  8
0
  6
CONTINUOUS
 10
87.562878629904219
 20
-138.4264285101149
 30
0.0
  0
VERTEX
  5
AEC
  8
0
  6
CONTINUOUS
 10
81.218396881284903
 20
-182.8114622089285
 30
0.0
  0
VERTEX
  5
AED
  8
0
  6
CONTINUOUS
 10
75.03678040168262
 20
-227.56563915744999
 30
0.0
  0
VERTEX
  5
AEE
  8
0
  6
CONTINUOUS
 10
75.03678040168262
 20
-227.56563915744999
 30
0.0
  0
VERTEX
  5
AEF
  8
0
  6
CONTINUOUS
 10
70.085825326039213
 20
-267.4460996440954
 30
0.0
  0
VERTEX
  5
AF0
  8
0
  6
CONTINUOUS
 10
65.191743772649701
 20
-306.41450213675182
 30
0.0
  0
VERTEX
  5
AF1
  8
0
  6
CONTINUOUS
 10
65.191743772649701
 20
-306.41450213675182
 30
0.0
  0
VERTEX
  5
AF2
  8
0
  6
CONTINUOUS
 10
59.029697891815019
 20
-348.77357604326562
 30
0.0
  0
VERTEX
  5
AF3
  8
0
  6
CONTINUOUS
 10
51.91223397850311
 20
-390.98581635179801
 30
0.0
  0
VERTEX
  5
AF4
  8
0
  6
CONTINUOUS
 10
51.91223397850311
 20
-390.98581635179801
 30
0.0
  0
VERTEX
  5
AF5
  8
0
  6
CONTINUOUS
 10
44.977453685694812
 20
-428.7496604290796
 30
0.0
  0
VERTEX
  5
AF6
  8
0
  6
CONTINUOUS
 10
41.028295953753393
 20
-462.54754957577512
 30
0.0
  0
VERTEX
  5
AF7
  8
0
  6
CONTINUOUS
 10
41.028295953753393
 20
-462.54754957577512
 30
0.0
  0
VERTEX
  5
AF8
  8
0
  6
CONTINUOUS
 10
38.056903220396009
 20
-496.01478121119669
 30
0.0
  0
VERTEX
  5
AF9
  8
0
  6
CONTINUOUS
 10
13.147394625372611
 20
-540.61407329531505
 30
0.0
  0
VERTEX
  5
AFA
  8
0
  6
CONTINUOUS
 10
13.147394625372611
 20
-540.61407329531505
 30
0.0
  0
VERTEX
  5
AFB
  8
0
  6
CONTINUOUS
 10
6.7522935859448161
 20
-547.43117922253032
 30
0.0
  0
VERTEX
  5
AFC
  8
0
  6
CONTINUOUS
 10
-0.0614755356569816
 20
-550.6087045050848
 30
0.0
  0
VERTEX
  5
AFD
  8
0
  6
CONTINUOUS
 10
-0.0614755356569816
 20
-550.6087045050848
 30
0.0
  0
VERTEX
  5
AFE
  8
0
  6
CONTINUOUS
 10
-6.834192674182102
 20
-547.4301533018712
 30
0.0
  0
VERTEX
  5
AFF
  8
0
  6
CONTINUOUS
 10
-13.14739462537146
 20
-540.61407329531596
 30
0.0
  0
VERTEX
  5
B00
  8
0
  6
CONTINUOUS
 10
-13.14739462537146
 20
-540.61407329531596
 30
0.0
  0
VERTEX
  5
B01
  8
0
  6
CONTINUOUS
 10
-37.946630325324087
 20
-495.91837648936172
 30
0.0
  0
VERTEX
  5
B02
  8
0
  6
CONTINUOUS
 10
-41.028295953994864
 20
-462.54754960039958
 30
0.0
  0
VERTEX
  5
B03
  8
0
  6
CONTINUOUS
 10
-41.028295953994864
 20
-462.54754960039958
 30
0.0
  0
VERTEX
  5
B04
  8
0
  6
CONTINUOUS
 10
-45.007002430465562
 20
-428.77549307424641
 30
0.0
  0
VERTEX
  5
B05
  8
0
  6
CONTINUOUS
 10
-51.912233978503082
 20
-390.98581635179801
 30
0.0
  0
VERTEX
  5
B06
  8
0
  6
CONTINUOUS
 10
-51.912233978503082
 20
-390.98581635179801
 30
0.0
  0
VERTEX
  5
B07
  8
0
  6
CONTINUOUS
 10
-59.021775808497772
 20
-348.76665025522618
 30
0.0
  0
VERTEX
  5
B08
  8
0
  6
CONTINUOUS
 10
-65.191743772649417
 20
-306.41450213675517
 30
0.0
  0
VERTEX
  5
B09
  8
0
  6
CONTINUOUS
 10
-65.191743772649417
 20
-306.41450213675517
 30
0.0
  0
VERTEX
  5
B0A
  8
0
  6
CONTINUOUS
 10
-70.087964914566399
 20
-267.44797015416822
 30
0.0
  0
VERTEX
  5
B0B
  8
0
  6
CONTINUOUS
 10
-75.036780401682563
 20
-227.56563915744999
 30
0.0
  0
VERTEX
  5
B0C
  8
0
  6
CONTINUOUS
 10
-75.036780401682563
 20
-227.56563915744999
 30
0.0
  0
VERTEX
  5
B0D
  8
0
  6
CONTINUOUS
 10
-81.217760610492064
 20
-182.81090595668289
 30
0.0
  0
VERTEX
  5
B0E
  8
0
  6
CONTINUOUS
 10
-87.562878629904191
 20
-138.4264285101149
 30
0.0
  0
VERTEX
  5
B0F
  8
0
  6
CONTINUOUS
 10
-87.562878629904191
 20
-138.4264285101149
 30
0.0
  0
VERTEX
  5
B10
  8
0
  6
CONTINUOUS
 10
-97.731909691443803
 20
-61.135446306395941
 30
0.0
  0
VERTEX
  5
B11
  8
0
  6
CONTINUOUS
 10
-104.1672413975385
 20
-3.9999999999987761
 30
0.0
  0
SEQEND
  5
B12
  8
0
  6
CONTINUOUS
  0
POLYLINE
  5
696
  8
0
  6
CONTINUOUS
 66
     1
 10
0.0
 20
0.0
 30
0.0
  0
VERTEX
  5
B13
  8
0
  6
CONTINUOUS
 10
113.21173587000941
 20
-3.9999999999987761
 30
0.0
  0
VERTEX
  5
B14
  8
0
  6
CONTINUOUS
 10
116.7307367078012
 20
-399.35312817926979
 30
0.0
  0
VERTEX
  5
B15
  8
0
  6
CONTINUOUS
 10
124.87922166513719
 20
-783.82757047372115
 30
0.0
  0
VERTEX
  5
B16
  8
0
  6
CONTINUOUS
 10
124.87922166513719
 20
-783.82757047372115
 30
0.0
  0
VERTEX
  5
B17
  8
0
  6
CONTINUOUS
 10
140.3015000960394
 20
-1142.322141924685
 30
0.0
  0
VERTEX
  5
B18
  8
0
  6
CONTINUOUS
 10
157.70118229244119
 20
-1442.845661278116
 30
0.0
  0
VERTEX
  5
B19
  8
0
  6
CONTINUOUS
 10
157.70118229244119
 20
-1442.845661278116
 30
0.0
  0
VERTEX
  5
B1A
  8
0
  6
CONTINUOUS
 10
177.0244700961974
 20
-1670.9519060308471
 30
0.0
  0
VERTEX
  5
B1B
  8
0
  6
CONTINUOUS
 10
227.1286306109327
 20
-1899.264484978612
 30
0.0
  0
VERTEX
  5
B1C
  8
0
  6
CONTINUOUS
 10
227.1286306109327
 20
-1899.264484978612
 30
0.0
  0
VERTEX
  5
B1D
  8
0
  6
CONTINUOUS
 10
244.87084677108629
 20
-1958.299249005174
 30
0.0
  0
VERTEX
  5
B1E
  8
0
  6
CONTINUOUS
 10
266.27897841948931
 20
-2038.232101119823
 30
0.0
  0
VERTEX
  5
B1F
  8
0
  6
CONTINUOUS
 10
266.27897841948931
 20
-2038.232101119823
 30
0.0
  0
VERTEX
  5
B20
  8
0
  6
CONTINUOUS
 10
281.17827451254573
 20
-2080.629567875902
 30
0.0
  0
VERTEX
  5
B21
  8
0
  6
CONTINUOUS
 10
322.6514617401964
 20
-2113.395412214496
 30
0.0
  0
VERTEX
  5
B22
  8
0
  6
CONTINUOUS
 10
322.6514617401964
 20
-2113.395412214496
 30
0.0
  0
VERTEX
  5
B23
  8
0
  6
CONTINUOUS
 10
347.02972522419122
 20
-2119.4103688530508
 30
0.0
  0
VERTEX
  5
B24
  8
0
  6
CONTINUOUS
 10
371.5076139520641
 20
-2120.9117433239312
 30
0.0
  0
VERTEX
  5
B25
  8
0
  6
CONTINUOUS
 10
371.5076139520641
 20
-2120.9117433239312
 30
0.0
  0
VERTEX
  5
B26
  8
0
  6
CONTINUOUS
 10
415.72303425710862
 20
-2096.8306199826352
 30
0.0
  0
VERTEX
  5
B27
  8
0
  6
CONTINUOUS
 10
437.27551115994657
 20
-2049.5065977839931
 30
0.0
  0
VERTEX
  5
B28
  8
0
  6
CONTINUOUS
 10
437.27551115994657
 20
-2049.5065977839931
 30
0.0
  0
VERTEX
  5
B29
  8
0
  6
CONTINUOUS
 10
461.03549931903029
 20
-1999.7696845680191
 30
0.0
  0
VERTEX
  5
B2A
  8
0
  6
CONTINUOUS
 10
485.51815593116822
 20
-1943.9373209830601
 30
0.0
  0
VERTEX
  5
B2B
  8
0
  6
CONTINUOUS
 10
485.51815593116822
 20
-1943.9373209830601
 30
0.0
  0
VERTEX
  5
B2C
  8
0
  6
CONTINUOUS
 10
504.71028464862468
 20
-1874.482609549749
 30
0.0
  0
VERTEX
  5
B2D
  8
0
  6
CONTINUOUS
 10
520.840572407124
 20
-1793.013867469555
 30
0.0
  0
VERTEX
  5
B2E
  8
0
  6
CONTINUOUS
 10
520.840572407124
 20
-1793.013867469555
 30
0.0
  0
VERTEX
  5
B2F
  8
0
  6
CONTINUOUS
 10
537.00278302318952
 20
-1704.4612549806111
 30
0.0
  0
VERTEX
  5
B30
  8
0
  6
CONTINUOUS
 10
551.50910455307712
 20
-1617.907089786848
 30
0.0
  0
VERTEX
  5
B31
  8
0
  6
CONTINUOUS
 10
551.50910455307712
 20
-1617.907089786848
 30
0.0
  0
VERTEX
  5
B32
  8
0
  6
CONTINUOUS
 10
572.19111886991391
 20
-1433.0700533720551
 30
0.0
  0
VERTEX
  5
B33
  8
0
  6
CONTINUOUS
 10
576.83859858761843
 20
-1297.669572952474
 30
0.0
  0
VERTEX
  5
B34
  8
0
  6
CONTINUOUS
 10
576.83859858761843
 20
-1297.669572952474
 30
0.0
  0
VERTEX
  5
B35
  8
0
  6
CONTINUOUS
 10
588.73279470752266
 20
-960.33988955292114
 30
0.0
  0
VERTEX
  5
B36
  8
0
  6
CONTINUOUS
 10
605.59165544667906
 20
-654.81981253189554
 30
0.0
  0
VERTEX
  5
B37
  8
0
  6
CONTINUOUS
 10
605.59165544667906
 20
-654.81981253189554
 30
0.0
  0
VERTEX
  5
B38
  8
0
  6
CONTINUOUS
 10
622.06094599924575
 20
-335.7077638429497
 30
0.0
  0
VERTEX
  5
B39
  8
0
  6
CONTINUOUS
 10
637.71889369194753
 20
-3.9999999999987761
 30
0.0
  0
SEQEND
  5
B3A
  8
0
  6
CONTINUOUS
  0
POLYLINE
  5
6BF
  8
0
  6
CONTINUOUS
 66
     1
 10
0.0
 20
0.0
 30
0.0
  0
VERTEX
  5
B3B
  8
0
  6
CONTINUOUS
 10
-113.21173587000941
 20
-3.9999999999987761
 30
0.0
  0
VERTEX
  5
B3C
  8
0
  6
CONTINUOUS
 10
-116.7307367078012
 20
-399.35312817926979
 30
0.0
  0
VERTEX
  5
B3D
  8
0
  6
CONTINUOUS
 10
-124.87922166513719
 20
-783.82757047372115
 30
0.0
  0
VERTEX
  5
B3E
  8
0
  6
CONTINUOUS
 10
-124.87922166513719
 20
-783.82757047372115
 30
0.0
  0
VERTEX
  5
B3F
  8
0
  6
CONTINUOUS
 10
-140.30150009603949
 20
-1142.322141924685
 30
0.0
  0
VERTEX
  5
B40
  8
0
  6
CONTINUOUS
 10
-157.70118229244139
 20
-1442.845661278116
 30
0.0
  0
VERTEX
  5
B41
  8
0
  6
CONTINUOUS
 10
-157.70118229244139
 20
-1442.845661278116
 30
0.0
  0
VERTEX
  5
B42
  8
0
  6
CONTINUOUS
 10
-177.0244700961974
 20
-1670.9519060308471
 30
0.0
  0
VERTEX
  5
B43
  8
0
  6
CONTINUOUS
 10
-227.1286306109329
 20
-1899.264484978612
 30
0.0
  0
VERTEX
  5
B44
  8
0
  6
CONTINUOUS
 10
-227.1286306109329
 20
-1899.264484978612
 30
0.0
  0
VERTEX
  5
B45
  8
0
  6
CONTINUOUS
 10
-244.87084677108641
 20
-1958.299249005174
 30
0.0
  0
VERTEX
  5
B46
  8
0
  6
CONTINUOUS
 10
-266.27897841948948
 20
-2038.232101119823
 30
0.0
  0
VERTEX
  5
B47
  8
0
  6
CONTINUOUS
 10
-266.27897841948948
 20
-2038.232101119823
 30
0.0
  0
VERTEX
  5
B48
  8
0
  6
CONTINUOUS
 10
-281.17827451254601
 20
-2080.629567875902
 30
0.0
  0
VERTEX
  5
B49
  8
0
  6
CONTINUOUS
 10
-322.65146174019679
 20
-2113.395412214496
 30
0.0
  0
VERTEX
  5
B4A
  8
0
  6
CONTINUOUS
 10
-322.65146174019679
 20
-2113.395412214496
 30
0.0
  0
VERTEX
  5
B4B
  8
0
  6
CONTINUOUS
 10
-347.02972522419122
 20
-2119.4103688530508
 30
0.0
  0
VERTEX
  5
B4C
  8
0
  6
CONTINUOUS
 10
-371.50761395206422
 20
-2120.9117433239312
 30
0.0
  0
VERTEX
  5
B4D
  8
0
  6
CONTINUOUS
 10
-371.50761395206422
 20
-2120.9117433239312
 30
0.0
  0
VERTEX
  5
B4E
  8
0
  6
CONTINUOUS
 10
-415.72303425710868
 20
-2096.8306199826352
 30
0.0
  0
VERTEX
  5
B4F
  8
0
  6
CONTINUOUS
 10
-437.2755111599468
 20
-2049.5065977839931
 30
0.0
  0
VERTEX
  5
B50
  8
0
  6
CONTINUOUS
 10
-437.2755111599468
 20
-2049.5065977839931
 30
0.0
  0
VERTEX
  5
B51
  8
0
  6
CONTINUOUS
 10
-461.03549931903052
 20
-1999.7696845680191
 30
0.0
  0
VERTEX
  5
B52
  8
0
  6
CONTINUOUS
 10
-485.51815593116822
 20
-1943.9373209830601
 30
0.0
  0
VERTEX
  5
B53
  8
0
  6
CONTINUOUS
 10
-485.51815593116822
 20
-1943.9373209830601
 30
0.0
  0
VERTEX
  5
B54
  8
0
  6
CONTINUOUS
 10
-504.71028464862468
 20
-1874.482609549749
 30
0.0
  0
VERTEX
  5
B55
  8
0
  6
CONTINUOUS
 10
-520.84057240712423
 20
-1793.013867469555
 30
0.0
  0
VERTEX
  5
B56
  8
0
  6
CONTINUOUS
 10
-520.84057240712423
 20
-1793.013867469555
 30
0.0
  0
VERTEX
  5
B57
  8
0
  6
CONTINUOUS
 10
-537.00278302318975
 20
-1704.4612549806111
 30
0.0
  0
VERTEX
  5
B58
  8
0
  6
CONTINUOUS
 10
-551.50910455307735
 20
-1617.907089786848
 30
0.0
  0
VERTEX
  5
B59
  8
0
  6
CONTINUOUS
 10
-551.50910455307735
 20
-1617.907089786848
 30
0.0
  0
VERTEX
  5
B5A
  8
0
  6
CONTINUOUS
 10
-572.19111886991391
 20
-1433.0700533720551
 30
0.0
  0
VERTEX
  5
B5B
  8
0
  6
CONTINUOUS
 10
-576.83859858761889
 20
-1297.669572952474
 30
0.0
  0
VERTEX
  5
B5C
  8
0
  6
CONTINUOUS
 10
-576.83859858761889
 20
-1297.669572952474
 30
0.0
  0
VERTEX
  5
B5D
  8
0
  6
CONTINUOUS
 10
-588.73279470752266
 20
-960.33988955292114
 30
0.0
  0
VERTEX
  5
B5E
  8
0
  6
CONTINUOUS
 10
-605.59165544667906
 20
-654.81981253189554
 30
0.0
  0
VERTEX
  5
B5F
  8
0
  6
CONTINUOUS
 10
-605.59165544667906
 20
-654.81981253189554
 30
0.0
  0
VERTEX
  5
B60
  8
0
  6
CONTINUOUS
 10
-622.06094599924575
 20
-335.7077638429497
 30
0.0
  0
VERTEX
  5
B61
  8
0
  6
CONTINUOUS
 10
-637.71889369194753
 20
-3.9999999999987761
 30
0.0
  0
SEQEND
  5
B62
  8
0
  6
CONTINUOUS
  0
POLYLINE
  5
6E8
  8
0
  6
CONTINUOUS
 66
     1
 10
0.0
 20
0.0
 30
0.0
  0
VERTEX
  5
B63
  8
0
  6
CONTINUOUS
 10
634.71211655967647
 20
-3.9999999999987761
 30
0.0
  0
VERTEX
  5
B64
  8
0
  6
CONTINUOUS
 10
633.4021901540026
 20
-81.316553573060119
 30
0.0
  0
VERTEX
  5
B65
  8
0
  6
CONTINUOUS
 10
632.1118183394625
 20
-157.48167062694719
 30
0.0
  0
VERTEX
  5
B66
  8
0
  6
CONTINUOUS
 10
632.1118183394625
 20
-157.48167062694719
 30
0.0
  0
VERTEX
  5
B67
  8
0
  6
CONTINUOUS
 10
615.86734983091071
 20
-1089.636699226618
 30
0.0
  0
VERTEX
  5
B68
  8
0
  6
CONTINUOUS
 10
601.64656428196315
 20
-1739.3442292479051
 30
0.0
  0
VERTEX
  5
B69
  8
0
  6
CONTINUOUS
 10
601.64656428196315
 20
-1739.3442292479051
 30
0.0
  0
VERTEX
  5
B6A
  8
0
  6
CONTINUOUS
 10
585.82811890939593
 20
-2343.9104323636921
 30
0.0
  0
VERTEX
  5
B6B
  8
0
  6
CONTINUOUS
 10
579.60286276349905
 20
-3017.8789173192849
 30
0.0
  0
VERTEX
  5
B6C
  8
0
  6
CONTINUOUS
 10
579.60286276349905
 20
-3017.8789173192849
 30
0.0
  0
VERTEX
  5
B6D
  8
0
  6
CONTINUOUS
 10
580.36911784710924
 20
-3312.581215700598
 30
0.0
  0
VERTEX
  5
B6E
  8
0
  6
CONTINUOUS
 10
571.43388099096808
 20
-3718.9650290740919
 30
0.0
  0
VERTEX
  5
B6F
  8
0
  6
CONTINUOUS
 10
571.43388099096808
 20
-3718.9650290740919
 30
0.0
  0
VERTEX
  5
B70
  8
0
  6
CONTINUOUS
 10
561.51663352428432
 20
-3947.328288198567
 30
0.0
  0
VERTEX
  5
B71
  8
0
  6
CONTINUOUS
 10
548.19929617376545
 20
-4177.6678443081264
 30
0.0
  0
VERTEX
  5
B72
  8
0
  6
CONTINUOUS
 10
548.19929617376545
 20
-4177.6678443081264
 30
0.0
  0
VERTEX
  5
B73
  8
0
  6
CONTINUOUS
 10
531.5529121430053
 20
-4383.2542556007011
 30
0.0
  0
VERTEX
  5
B74
  8
0
  6
CONTINUOUS
 10
508.23501988720682
 20
-4577.3106071675738
 30
0.0
  0
VERTEX
  5
B75
  8
0
  6
CONTINUOUS
 10
508.23501988720682
 20
-4577.3106071675738
 30
0.0
  0
VERTEX
  5
B76
  8
0
  6
CONTINUOUS
 10
476.70815768879368
 20
-4772.7670621360403
 30
0.0
  0
VERTEX
  5
B77
  8
0
  6
CONTINUOUS
 10
446.0683678874596
 20
-4941.4295688840184
 30
0.0
  0
VERTEX
  5
B78
  8
0
  6
CONTINUOUS
 10
446.0683678874596
 20
-4941.4295688840184
 30
0.0
  0
VERTEX
  5
B79
  8
0
  6
CONTINUOUS
 10
418.97402649729082
 20
-5065.2462422241197
 30
0.0
  0
VERTEX
  5
B7A
  8
0
  6
CONTINUOUS
 10
361.6993401726682
 20
-5207.8580774570473
 30
0.0
  0
VERTEX
  5
B7B
  8
0
  6
CONTINUOUS
 10
361.6993401726682
 20
-5207.8580774570473
 30
0.0
  0
VERTEX
  5
B7C
  8
0
  6
CONTINUOUS
 10
323.67668232835882
 20
-5282.0215129284952
 30
0.0
  0
VERTEX
  5
B7D
  8
0
  6
CONTINUOUS
 10
281.77078761055873
 20
-5349.9532820292843
 30
0.0
  0
VERTEX
  5
B7E
  8
0
  6
CONTINUOUS
 10
281.77078761055873
 20
-5349.9532820292843
 30
0.0
  0
VERTEX
  5
B7F
  8
0
  6
CONTINUOUS
 10
238.17218044003999
 20
-5397.2138035992457
 30
0.0
  0
VERTEX
  5
B80
  8
0
  6
CONTINUOUS
 10
175.1993841715711
 20
-5438.7627848870025
 30
0.0
  0
VERTEX
  5
B81
  8
0
  6
CONTINUOUS
 10
175.1993841715711
 20
-5438.7627848870025
 30
0.0
  0
VERTEX
  5
B82
  8
0
  6
CONTINUOUS
 10
138.06562400651421
 20
-5458.4790043119383
 30
0.0
  0
VERTEX
  5
B83
  8
0
  6
CONTINUOUS
 10
95.270831599651217
 20
-5474.2865860300581
 30
0.0
  0
VERTEX
  5
B84
  8
0
  6
CONTINUOUS
 10
95.270831599651217
 20
-5474.2865860300581
 30
0.0
  0
VERTEX
  5
B85
  8
0
  6
CONTINUOUS
 10
48.609695299711213
 20
-5481.3117315559693
 30
0.0
  0
VERTEX
  5
B86
  8
0
  6
CONTINUOUS
 10
0.0000000070228197
 20
-5482.5504542224226
 30
0.0
  0
VERTEX
  5
B87
  8
0
  6
CONTINUOUS
 10
0.0000000070228197
 20
-5482.5504542224226
 30
0.0
  0
VERTEX
  5
B88
  8
0
  6
CONTINUOUS
 10
-48.609695264681392
 20
-5481.3117315547079
 30
0.0
  0
VERTEX
  5
B89
  8
0
  6
CONTINUOUS
 10
-95.270831599651785
 20
-5474.2865860300581
 30
0.0
  0
VERTEX
  5
B8A
  8
0
  6
CONTINUOUS
 10
-95.270831599651785
 20
-5474.2865860300581
 30
0.0
  0
VERTEX
  5
B8B
  8
0
  6
CONTINUOUS
 10
-138.06562414128399
 20
-5458.4790043157172
 30
0.0
  0
VERTEX
  5
B8C
  8
0
  6
CONTINUOUS
 10
-175.19938417157169
 20
-5438.7627848870025
 30
0.0
  0
VERTEX
  5
B8D
  8
0
  6
CONTINUOUS
 10
-175.19938417157169
 20
-5438.7627848870025
 30
0.0
  0
VERTEX
  5
B8E
  8
0
  6
CONTINUOUS
 10
-238.17217862808241
 20
-5397.2138035497501
 30
0.0
  0
VERTEX
  5
B8F
  8
0
  6
CONTINUOUS
 10
-281.77078761055941
 20
-5349.9532820292843
 30
0.0
  0
VERTEX
  5
B90
  8
0
  6
CONTINUOUS
 10
-281.77078761055941
 20
-5349.9532820292843
 30
0.0
  0
VERTEX
  5
B91
  8
0
  6
CONTINUOUS
 10
-323.67668986420807
 20
-5282.0215131340237
 30
0.0
  0
VERTEX
  5
B92
  8
0
  6
CONTINUOUS
 10
-361.69934017266883
 20
-5207.8580774570473
 30
0.0
  0
VERTEX
  5
B93
  8
0
  6
CONTINUOUS
 10
-361.69934017266883
 20
-5207.8580774570473
 30
0.0
  0
VERTEX
  5
B94
  8
0
  6
CONTINUOUS
 10
-418.9739116403282
 20
-5065.2462390919327
 30
0.0
  0
VERTEX
  5
B95
  8
0
  6
CONTINUOUS
 10
-446.0683678874604
 20
-4941.4295688840184
 30
0.0
  0
VERTEX
  5
B96
  8
0
  6
CONTINUOUS
 10
-446.0683678874604
 20
-4941.4295688840184
 30
0.0
  0
VERTEX
  5
B97
  8
0
  6
CONTINUOUS
 10
-476.70863974891222
 20
-4772.7670752818822
 30
0.0
  0
VERTEX
  5
B98
  8
0
  6
CONTINUOUS
 10
-508.2350198872075
 20
-4577.3106071675738
 30
0.0
  0
VERTEX
  5
B99
  8
0
  6
CONTINUOUS
 10
-508.2350198872075
 20
-4577.3106071675738
 30
0.0
  0
VERTEX
  5
B9A
  8
0
  6
CONTINUOUS
 10
-531.55109875949722
 20
-4383.254206149516
 30
0.0
  0
VERTEX
  5
B9B
  8
0
  6
CONTINUOUS
 10
-548.1992961737659
 20
-4177.6678443081264
 30
0.0
  0
VERTEX
  5
B9C
  8
0
  6
CONTINUOUS
 10
-548.1992961737659
 20
-4177.6678443081264
 30
0.0
  0
VERTEX
  5
B9D
  8
0
  6
CONTINUOUS
 10
-561.52340499820014
 20
-3947.3284728574608
 30
0.0
  0
VERTEX
  5
B9E
  8
0
  6
CONTINUOUS
 10
-571.4338809909691
 20
-3718.9650290740919
 30
0.0
  0
VERTEX
  5
B9F
  8
0
  6
CONTINUOUS
 10
-571.4338809909691
 20
-3718.9650290740919
 30
0.0
  0
VERTEX
  5
BA0
  8
0
  6
CONTINUOUS
 10
-580.28392644359496
 20
-3312.5788925209281
 30
0.0
  0
VERTEX
  5
BA1
  8
0
  6
CONTINUOUS
 10
-579.60286276349905
 20
-3017.8789173192849
 30
0.0
  0
VERTEX
  5
BA2
  8
0
  6
CONTINUOUS
 10
-579.60286276349905
 20
-3017.8789173192849
 30
0.0
  0
VERTEX
  5
BA3
  8
0
  6
CONTINUOUS
 10
-587.4275019421483
 20
-2343.9540477285409
 30
0.0
  0
VERTEX
  5
BA4
  8
0
  6
CONTINUOUS
 10
-601.64656428196349
 20
-1739.3442292479051
 30
0.0
  0
VERTEX
  5
BA5
  8
0
  6
CONTINUOUS
 10
-601.64656428196349
 20
-1739.3442292479051
 30
0.0
  0
VERTEX
  5
BA6
  8
0
  6
CONTINUOUS
 10
-609.06804741624251
 20
-1089.4512814439679
 30
0.0
  0
VERTEX
  5
BA7
  8
0
  6
CONTINUOUS
 10
-632.1118183394625
 20
-157.48167062694719
 30
0.0
  0
VERTEX
  5
BA8
  8
0
  6
CONTINUOUS
 10
-632.1118183394625
 20
-157.48167062694719
 30
0.0
  0
VERTEX
  5
BA9
  8
0
  6
CONTINUOUS
 10
-634.86620396017952
 20
-81.316083043053084
 30
0.0
  0
VERTEX
  5
BAA
  8
0
  6
CONTINUOUS
 10
-637.71889369194469
 20
-4.000000000056076
 30
0.0
  0
SEQEND
  5
BAB
  8
0
  6
CONTINUOUS
  0
LINE
  5
732
  8
0
  6
CONTINUOUS
 10
-0.0000000000002238
 20
-50.000000000000881
 30
0.0
 11
-0.0000000000002238
 21
49.999999999999091
 31
0.0
  0
LINE
  5
733
  8
0
  6
CONTINUOUS
 10
791.0
 20
-4.0
 30
0.0
 11
791.0
 21
-0.0000000000009095
 31
0.0
  0
LINE
  5
734
  8
0
  6
CONTINUOUS
 10
-791.0
 20
-4.0
 30
0.0
 11
-790.99999999999955
 21
-0.0000000000009095
 31
0.0
  0
LINE
  5
735
  8
0
  6
CONTINUOUS
 10
791.0
 20
0.0000000000009095
 30
0.0
 11
-791.0
 21
-0.0000000000009095
 31
0.0
  0
LINE
  5
736
  8
0
  6
CONTINUOUS
 10
777.5
 20
0.000000000003638
 30
0.0
 11
777.5
 21
221.99999999999901
 31
0.0
  0
LINE
  5
737
  8
0
  6
CONTINUOUS
 10
-777.5
 20
0.0000000000009095
 30
0.0
 11
-777.5
 21
221.99999999999901
 31
0.0
  0
LINE
  5
738
  8
0
  6
CONTINUOUS
 10
777.49999999999955
 20
222.0
 30
0.0
 11
-777.5
 21
221.99999999999901
 31
0.0
  0
LINE
  5
739
  8
0
  6
CONTINUOUS
 10
790.99999999999955
 20
-3.999999999998181
 30
0.0
 11
-791.00000000000011
 21
-4.0
 31
0.0
  0
TEXT
  5
73A
  8
0
  6
CONTINUOUS
 10
180.27652795442
 20
-816.55938600802165
 30
0.0
 40
160.0
  1
2m/s
 50
0.0000025044687019
 41
0.687499990065893
  7
STANDARD1
  0
TEXT
  5
73B
  8
0
  6
CONTINUOUS
 10
-192.19748004716351
 20
-4882.0446762005249
 30
0.0
 40
160.0
  1
1m/s
 50
0.0000025044687019
 41
0.687499990065893
  7
STANDARD1
  0
TEXT
  5
73C
  8
0
  6
CONTINUOUS
 10
-362.39584242871751
 20
-8980.1040111492293
 30
0.0
 40
160.0
  1
0.5m/s
 50
0.0000025044687019
 41
0.687499990065893
  7
STANDARD1
  0
TEXT
  5
73D
  8
0
  6
CONTINUOUS
 10
-333.74353370696002
 20
-12045.72354764989
 30
0.0
 40
160.0
  1
0.3m/s
 50
0.0000025044687019
 41
0.687499990065893
  7
STANDARD1
  0
ENDSEC
  0
EOF
