  0
SECTION
  2
HEADER
  9
$ACADVER
  1
AC1009
  9
$INSBASE
 10
0.0
 20
0.0
 30
0.0
  9
$EXTMIN
 10
-362.55341231503053
 20
-4500.7641991219589
 30
-0.0015258207003583
  9
$EXTMAX
 10
1387.9016983176209
 20
183.14294368330769
 30
0.0000000349246037
  9
$LIMMIN
 10
0.0
 20
0.0
  9
$LIMMAX
 10
12.0
 20
9.0
  9
$ORTHOMODE
 70
     0
  9
$REGENMODE
 70
     1
  9
$FILLMODE
 70
     1
  9
$QTEXTMODE
 70
     0
  9
$MIRRTEXT
 70
     0
  9
$DRAGMODE
 70
     2
  9
$LTSCALE
 40
1.0
  9
$OSMODE
 70
  3071
  9
$ATTMODE
 70
     1
  9
$TEXTSIZE
 40
3.2000000476837149
  9
$TRACEWID
 40
0.05
  9
$TEXTSTYLE
  7
STANDARD1
  9
$CLAYER
  8
0
  9
$CELTYPE
  6
CONTINUOUS
  9
$CECOLOR
 62
   256
  9
$DIMSCALE
 40
1.0
  9
$DIMASZ
 40
1.931851648807023
  9
$DIMEXO
 40
1.0
  9
$DIMDLI
 40
0.38
  9
$DIMRND
 40
0.0
  9
$DIMDLE
 40
0.0
  9
$DIMEXE
 40
2.0
  9
$DIMTP
 40
0.0
  9
$DIMTM
 40
0.0
  9
$DIMTXT
 40
2.0
  9
$DIMCEN
 40
0.09
  9
$DIMTSZ
 40
0.0
  9
$DIMTOL
 70
     0
  9
$DIMLIM
 70
     0
  9
$DIMTIH
 70
     1
  9
$DIMTOH
 70
     1
  9
$DIMSE1
 70
     0
  9
$DIMSE2
 70
     0
  9
$DIMTAD
 70
     1
  9
$DIMZIN
 70
     0
  9
$DIMBLK
  1

  9
$DIMASO
 70
     1
  9
$DIMSHO
 70
     1
  9
$DIMPOST
  1

  9
$DIMAPOST
  1

  9
$DIMALT
 70
     0
  9
$DIMALTD
 70
     2
  9
$DIMALTF
 40
25.399999999999999
  9
$DIMLFAC
 40
1.0
  9
$DIMTOFL
 70
     0
  9
$DIMTVP
 40
0.0
  9
$DIMTIX
 70
     0
  9
$DIMSOXD
 70
     0
  9
$DIMSAH
 70
     0
  9
$DIMBLK1
  1

  9
$DIMBLK2
  1

  9
$DIMSTYLE
  2
STANDARD
  9
$DIMCLRD
 70
     0
  9
$DIMCLRE
 70
     0
  9
$DIMCLRT
 70
     0
  9
$DIMTFAC
 40
0.625
  9
$DIMGAP
 40
0.09
  9
$LUNITS
 70
     2
  9
$LUPREC
 70
     3
  9
$SKETCHINC
 40
0.1
  9
$FILLETRAD
 40
0.0
  9
$AUNITS
 70
     0
  9
$AUPREC
 70
     0
  9
$MENU
  1
.
  9
$ELEVATION
 40
0.0
  9
$PELEVATION
 40
0.0
  9
$THICKNESS
 40
0.0
  9
$LIMCHECK
 70
     0
  9
$BLIPMODE
 70
     0
  9
$CHAMFERA
 40
0.0
  9
$CHAMFERB
 40
0.0
  9
$SKPOLY
 70
     0
  9
$TDCREATE
 40
2453297.5458544912
  9
$TDUPDATE
 40
2454284.5441835532
  9
$TDINDWG
 40
0.0304223611
  9
$TDUSRTIMER
 40
0.0303968519
  9
$USRTIMER
 70
     1
  9
$ANGBASE
 50
0.0
  9
$ANGDIR
 70
     0
  9
$PDMODE
 70
     0
  9
$PDSIZE
 40
0.0
  9
$PLINEWID
 40
0.0
  9
$COORDS
 70
     1
  9
$SPLFRAME
 70
     0
  9
$SPLINETYPE
 70
     6
  9
$SPLINESEGS
 70
     8
  9
$ATTDIA
 70
     0
  9
$ATTREQ
 70
     1
  9
$HANDLING
 70
     1
  9
$HANDSEED
  5
91A
  9
$SURFTAB1
 70
     6
  9
$SURFTAB2
 70
     6
  9
$SURFTYPE
 70
     6
  9
$SURFU
 70
     6
  9
$SURFV
 70
     6
  9
$UCSNAME
  2

  9
$UCSORG
 10
0.0
 20
0.0
 30
0.0
  9
$UCSXDIR
 10
1.0
 20
0.0
 30
0.0
  9
$UCSYDIR
 10
0.0
 20
1.0
 30
0.0
  9
$PUCSNAME
  2

  9
$PUCSORG
 10
0.0
 20
0.0
 30
0.0
  9
$PUCSXDIR
 10
1.0
 20
0.0
 30
0.0
  9
$PUCSYDIR
 10
0.0
 20
1.0
 30
0.0
  9
$USERI1
 70
     0
  9
$USERI2
 70
     0
  9
$USERI3
 70
     0
  9
$USERI4
 70
     0
  9
$USERI5
 70
     0
  9
$USERR1
 40
0.0
  9
$USERR2
 40
0.0
  9
$USERR3
 40
0.0
  9
$USERR4
 40
0.0
  9
$USERR5
 40
0.0
  9
$WORLDVIEW
 70
     1
  9
$SHADEDGE
 70
     3
  9
$SHADEDIF
 70
    70
  9
$TILEMODE
 70
     1
  9
$MAXACTVP
 70
    64
  9
$PLIMCHECK
 70
     0
  9
$PEXTMIN
 10
1.0000000000000000E+020
 20
1.0000000000000000E+020
 30
1.0000000000000000E+020
  9
$PEXTMAX
 10
-1.0000000000000000E+020
 20
-1.0000000000000000E+020
 30
-1.0000000000000000E+020
  9
$PLIMMIN
 10
0.0
 20
0.0
  9
$PLIMMAX
 10
12.0
 20
9.0
  9
$UNITMODE
 70
     0
  9
$VISRETAIN
 70
     1
  9
$PLINEGEN
 70
     0
  9
$PSLTSCALE
 70
     1
  0
ENDSEC
  0
SECTION
  2
TABLES
  0
TABLE
  2
VPORT
 70
     1
  0
VPORT
  2
*ACTIVE
 70
     0
 10
0.0
 20
0.0
 11
1.0
 21
1.0
 12
512.67414300129531
 22
-2158.810627719326
 13
0.0
 23
0.0
 14
1.0
 24
1.0
 15
0.0
 25
0.0
 16
0.0
 26
0.0
 36
1.0
 17
0.0
 27
0.0
 37
0.0
 40
4724.1123543314916
 41
1.6704871060171911
 42
50.0
 43
0.0
 44
0.0
 50
0.0
 51
0.0
 71
     0
 72
   100
 73
     1
 74
     1
 75
     0
 76
     0
 77
     0
 78
     0
  0
ENDTAB
  0
TABLE
  2
LTYPE
 70
     4
  0
LTYPE
  2
CONTINUOUS
 70
     0
  3
Solid line
 72
    65
 73
     0
 40
0.0
  0
LTYPE
  2
DASHED
 70
     0
  3
-- -- -- -- -- -- -- -- -- -- -- -- -- -- --
 72
    65
 73
     2
 40
0.75
 49
0.5
 49
-0.25
  0
LTYPE
  2
DASHDOT
 70
     0
  3
__ . __ . __ . __ . __ . __ . __ . __ . __ . __
 72
    65
 73
     4
 40
1.0
 49
0.5
 49
-0.25
 49
0.0
 49
-0.25
  0
LTYPE
  2
DIVIDE
 70
     0
  3
__ . . __ . . __ . . __ . . __ . . __ . . __
 72
    65
 73
     6
 40
1.25
 49
0.5
 49
-0.25
 49
0.0
 49
-0.25
 49
0.0
 49
-0.25
  0
ENDTAB
  0
TABLE
  2
LAYER
 70
     2
  0
LAYER
  2
0
 70
     0
 62
     7
  6
CONTINUOUS
  0
LAYER
  2
DEFPOINTS
 70
     0
 62
     7
  6
CONTINUOUS
  0
ENDTAB
  0
TABLE
  2
STYLE
 70
     5
  0
STYLE
  2
STANDARD
 70
     0
 40
0.0
 41
1.0
 50
0.0
 71
     0
 42
0.2
  3
txt
  4

  0
STYLE
  2
STANDARD1
 70
     0
 40
0.0
 41
1.0
 50
0.0
 71
     0
 42
3.2000000476837149
  3
MONOTXT
  4
BIGFONT
  0
STYLE
  2
STANDARD2
 70
     4
 40
0.0
 41
1.0
 50
0.0
 71
     0
 42
3.2000000476837149
  3
MONOTXT
  4
BIGFONT
  0
STYLE
  2
STANDARD3
 70
     0
 40
0.0
 41
1.0
 50
0.0
 71
     0
 42
3.2000000476837149
  3
MONOTXT
  4

  0
STYLE
  2
STANDARD4
 70
     4
 40
0.0
 41
1.0
 50
0.0
 71
     0
 42
3.2000000476837149
  3
MONOTXT
  4

  0
ENDTAB
  0
TABLE
  2
VIEW
 70
     0
  0
ENDTAB
  0
TABLE
  2
UCS
 70
     0
  0
ENDTAB
  0
TABLE
  2
APPID
 70
     1
  0
APPID
  2
ACAD
 70
     0
  0
ENDTAB
  0
TABLE
  2
DIMSTYLE
 70
     1
  0
DIMSTYLE
  2
STANDARD
 70
     0
  3

  4

  5

  6

  7

 40
1.0
 41
0.18
 42
0.0625
 43
0.38
 44
0.18
 45
0.0
 46
0.0
 47
0.0
 48
0.0
140
0.18
141
0.09
142
0.0
143
25.399999999999999
144
1.0
145
0.0
146
1.0
147
0.09
 71
     0
 72
     0
 73
     1
 74
     1
 75
     0
 76
     0
 77
     0
 78
     0
170
     0
171
     2
172
     0
173
     0
174
     0
175
     0
176
     0
177
     0
178
     0
  0
ENDTAB
  0
ENDSEC
  0
SECTION
  2
BLOCKS
  0
BLOCK
  8
0
  2
$MODEL_SPACE
 70
     0
 10
0.0
 20
0.0
 30
0.0
  3
$MODEL_SPACE
  1

  0
ENDBLK
  5
842
  8
0
  0
BLOCK
 67
     1
  8
0
  2
$PAPER_SPACE
 70
     0
 10
0.0
 20
0.0
 30
0.0
  3
$PAPER_SPACE
  1

  0
ENDBLK
  5
83E
 67
     1
  8
0
  0
BLOCK
  8
0
  2
*D2
 70
     1
 10
0.0
 20
0.0
 30
0.0
  3
*D2
  1

  0
LINE
  5
4D6
  8
0
  6
CONTINUOUS
 62
     0
 10
2329.1771656855421
 20
2297.5811348509269
 30
0.0
 11
2329.1771656855421
 21
2451.5363998018602
 31
0.0
  0
LINE
  5
4D7
  8
0
  6
CONTINUOUS
 62
     0
 10
2079.1771656855421
 20
2297.5811348509269
 30
0.0
 11
2079.1771656855421
 21
2451.5363998018602
 31
0.0
  0
LINE
  5
4D8
  8
0
  6
CONTINUOUS
 62
     0
 10
2327.2453140367352
 20
2449.536399801857
 30
0.0
 11
2081.1090173343491
 21
2449.536399801857
 31
0.0
  0
SOLID
  5
4D9
  8
0
  6
CONTINUOUS
 62
     0
 10
2327.2453140367352
 20
2449.8583750766602
 30
0.0
 11
2327.2453140367352
 21
2449.214424527057
 31
0.0
 12
2329.1771656855421
 22
2449.536399801857
 32
0.0
 13
2329.1771656855421
 23
2449.536399801857
 33
0.0
  0
SOLID
  5
4DA
  8
0
  6
CONTINUOUS
 62
     0
 10
2081.1090173343491
 20
2449.8583750766602
 30
0.0
 11
2081.1090173343491
 21
2449.214424527057
 31
0.0
 12
2079.1771656855421
 22
2449.536399801857
 32
0.0
 13
2079.1771656855421
 23
2449.536399801857
 33
0.0
  0
INSERT
  5
4DB
  8
0
  6
CONTINUOUS
  2
*U3
 10
0.0
 20
0.0
 30
0.0
  0
POINT
  5
4DC
  8
DEFPOINTS
  6
CONTINUOUS
 62
     0
 10
2329.1771656855421
 20
2296.5811348509269
 30
0.0
  0
POINT
  5
4DD
  8
DEFPOINTS
  6
CONTINUOUS
 62
     0
 10
2079.1771656855421
 20
2296.5811348509269
 30
0.0
  0
POINT
  5
4DE
  8
DEFPOINTS
  6
CONTINUOUS
 62
     0
 10
2079.1771656855421
 20
2449.536399801857
 30
0.0
  0
ENDBLK
  5
4E0
  8
0
  0
BLOCK
  8
0
  2
*U3
 70
     1
 10
0.0
 20
0.0
 30
0.0
  3
*U3
  1

  0
TEXT
  5
75E
  8
0
  6
CONTINUOUS
 62
     0
 10
2198.0104990188761
 20
2449.626399801859
 30
0.0
 40
2.0
  1
250.0000
  0
ENDBLK
  5
760
  8
0
  0
BLOCK
  8
0
  2
*D4
 70
     1
 10
0.0
 20
0.0
 30
0.0
  3
*D4
  1

  0
LINE
  5
50E
  8
0
  6
CONTINUOUS
 62
     0
 10
6636.1074256030852
 20
-3614.8037890943242
 30
0.0
 11
8006.7563343625488
 21
-3614.8037890943242
 31
0.0
  0
LINE
  5
50F
  8
0
  6
CONTINUOUS
 62
     0
 10
6636.1074256029679
 20
-7508.8660935798862
 30
0.0
 11
8006.7563343625488
 21
-7508.8660935798862
 31
0.0
  0
LINE
  5
510
  8
0
  6
CONTINUOUS
 62
     0
 10
8004.7563343625498
 20
-3616.7356407431321
 30
0.0
 11
8004.7563343625498
 21
-5560.7449413371032
 31
0.0
  0
LINE
  5
511
  8
0
  6
CONTINUOUS
 62
     0
 10
8004.7563343625498
 20
-7506.934241931076
 30
0.0
 11
8004.7563343625498
 21
-5562.9249413371044
 31
0.0
  0
SOLID
  5
512
  8
0
  6
CONTINUOUS
 62
     0
 10
8004.4343590877506
 20
-3616.7356407431321
 30
0.0
 11
8005.0783096373534
 21
-3616.7356407431321
 31
0.0
 12
8004.7563343625498
 22
-3614.8037890943242
 32
0.0
 13
8004.7563343625498
 23
-3614.8037890943242
 33
0.0
  0
SOLID
  5
513
  8
0
  6
CONTINUOUS
 62
     0
 10
8004.4343590877506
 20
-7506.934241931076
 30
0.0
 11
8005.0783096373534
 21
-7506.934241931076
 31
0.0
 12
8004.7563343625498
 22
-7508.8660935798862
 32
0.0
 13
8004.7563343625498
 23
-7508.8660935798862
 33
0.0
  0
INSERT
  5
514
  8
0
  6
CONTINUOUS
  2
*U5
 10
0.0
 20
0.0
 30
0.0
  0
POINT
  5
515
  8
DEFPOINTS
  6
CONTINUOUS
 62
     0
 10
6635.1074256030843
 20
-3614.8037890943242
 30
0.0
  0
POINT
  5
516
  8
DEFPOINTS
  6
CONTINUOUS
 62
     0
 10
6635.1074256029669
 20
-7508.8660935798862
 30
0.0
  0
POINT
  5
517
  8
DEFPOINTS
  6
CONTINUOUS
 62
     0
 10
8004.7563343625498
 20
-7508.8660935798862
 30
0.0
  0
ENDBLK
  5
50D
  8
0
  0
BLOCK
  8
0
  2
*U5
 70
     1
 10
0.0
 20
0.0
 30
0.0
  3
*U5
  1

  0
TEXT
  5
762
  8
0
  6
CONTINUOUS
 62
     0
 10
7996.9230010292204
 20
-5562.8349413371043
 30
0.0
 40
2.0
  1
3894.0623
  0
ENDBLK
  5
764
  8
0
  0
BLOCK
  8
0
  2
*D6
 70
     1
 10
0.0
 20
0.0
 30
0.0
  3
*D6
  1

  0
LINE
  5
51A
  8
0
  6
CONTINUOUS
 62
     0
 10
7030.107425603107
 20
-3413.6700150742399
 30
0.0
 11
7030.107425603107
 21
-3224.3866560524912
 31
0.0
  0
LINE
  5
51B
  8
0
  6
CONTINUOUS
 62
     0
 10
6240.1074256031079
 20
-3413.6700150742399
 30
0.0
 11
6240.1074256031079
 21
-3224.3866560524912
 31
0.0
  0
LINE
  5
51C
  8
0
  6
CONTINUOUS
 62
     0
 10
7028.1755739542996
 20
-3226.3866560524912
 30
0.0
 11
6242.0392772519153
 21
-3226.3866560524912
 31
0.0
  0
SOLID
  5
51D
  8
0
  6
CONTINUOUS
 62
     0
 10
7028.1755739542996
 20
-3226.0646807776889
 30
0.0
 11
7028.1755739542996
 21
-3226.708631327293
 31
0.0
 12
7030.107425603107
 22
-3226.3866560524912
 32
0.0
 13
7030.107425603107
 23
-3226.3866560524912
 33
0.0
  0
SOLID
  5
51E
  8
0
  6
CONTINUOUS
 62
     0
 10
6242.0392772519153
 20
-3226.0646807776889
 30
0.0
 11
6242.0392772519153
 21
-3226.708631327293
 31
0.0
 12
6240.1074256031079
 22
-3226.3866560524912
 32
0.0
 13
6240.1074256031079
 23
-3226.3866560524912
 33
0.0
  0
INSERT
  5
51F
  8
0
  6
CONTINUOUS
  2
*U7
 10
0.0
 20
0.0
 30
0.0
  0
POINT
  5
520
  8
DEFPOINTS
  6
CONTINUOUS
 62
     0
 10
7030.107425603107
 20
-3414.6700150742399
 30
0.0
  0
POINT
  5
521
  8
DEFPOINTS
  6
CONTINUOUS
 62
     0
 10
6240.1074256031079
 20
-3414.6700150742399
 30
0.0
  0
POINT
  5
522
  8
DEFPOINTS
  6
CONTINUOUS
 62
     0
 10
6240.1074256031079
 20
-3226.3866560524912
 30
0.0
  0
ENDBLK
  5
524
  8
0
  0
BLOCK
  8
0
  2
*U7
 70
     1
 10
0.0
 20
0.0
 30
0.0
  3
*U7
  1

  0
TEXT
  5
766
  8
0
  6
CONTINUOUS
 62
     0
 10
6628.94075893644
 20
-3226.296656052491
 30
0.0
 40
2.0
  1
790.0000
  0
ENDBLK
  5
768
  8
0
  0
BLOCK
  8
0
  2
*D8
 70
     1
 10
0.0
 20
0.0
 30
0.0
  3
*D8
  1

  0
LINE
  5
541
  8
0
  6
CONTINUOUS
 62
     0
 10
1.0
 20
-7.0
 30
0.0
 11
66.630829577181473
 21
-7.000000000000016
 31
0.0
  0
LINE
  5
542
  8
0
  6
CONTINUOUS
 62
     0
 10
-1.3557948332849981
 20
-196.9212700911425
 30
0.0
 11
66.63082957718143
 21
-196.92127009114259
 31
0.0
  0
LINE
  5
543
  8
0
  6
CONTINUOUS
 62
     0
 10
64.630829577181473
 20
-8.9318516488070401
 30
0.0
 11
64.63082957718143
 21
-100.8706350455713
 31
0.0
  0
LINE
  5
544
  8
0
  6
CONTINUOUS
 62
     0
 10
64.63082957718143
 20
-194.98941844233551
 30
0.0
 11
64.63082957718143
 21
-103.0506350455713
 31
0.0
  0
SOLID
  5
545
  8
0
  6
CONTINUOUS
 62
     0
 10
64.308854302380297
 20
-8.9318516488070401
 30
0.0
 11
64.952804851982634
 21
-8.9318516488070401
 31
0.0
 12
64.630829577181473
 22
-7.000000000000016
 32
0.0
 13
64.630829577181473
 23
-7.000000000000016
 33
0.0
  0
SOLID
  5
546
  8
0
  6
CONTINUOUS
 62
     0
 10
64.30885430238024
 20
-194.98941844233551
 30
0.0
 11
64.952804851982606
 21
-194.98941844233551
 31
0.0
 12
64.63082957718143
 22
-196.92127009114259
 32
0.0
 13
64.63082957718143
 23
-196.92127009114259
 33
0.0
  0
INSERT
  5
547
  8
0
  6
CONTINUOUS
  2
*U9
 10
0.0
 20
0.0
 30
0.0
  0
POINT
  5
548
  8
DEFPOINTS
  6
CONTINUOUS
 62
     0
 10
0.0
 20
-7.0
 30
0.0
  0
POINT
  5
549
  8
DEFPOINTS
  6
CONTINUOUS
 62
     0
 10
-2.3557948332849992
 20
-196.9212700911425
 30
0.0
  0
POINT
  5
54A
  8
DEFPOINTS
  6
CONTINUOUS
 62
     0
 10
64.63082957718143
 20
-196.92127009114259
 30
0.0
  0
ENDBLK
  5
54C
  8
0
  0
BLOCK
  8
0
  2
*U9
 70
     1
 10
0.0
 20
0.0
 30
0.0
  3
*U9
  1

  0
TEXT
  5
76A
  8
0
  6
CONTINUOUS
 62
     0
 10
58.29749624384813
 20
-102.96063504557129
 30
0.0
 40
2.0
  1
189.9213
  0
ENDBLK
  5
76C
  8
0
  0
BLOCK
  8
0
  2
*D10
 70
     1
 10
0.0
 20
0.0
 30
0.0
  3
*D10
  1

  0
LINE
  5
6F8
  8
0
  6
CONTINUOUS
 62
     0
 10
350.0
 20
183.9999999999994
 30
0.0
 11
350.0
 21
245.09656248342071
 31
0.0
  0
LINE
  5
6F9
  8
0
  6
CONTINUOUS
 62
     0
 10
-350.0
 20
183.9999999999994
 30
0.0
 11
-350.0
 21
245.09656248342071
 31
0.0
  0
LINE
  5
6FA
  8
0
  6
CONTINUOUS
 62
     0
 10
348.06814835119292
 20
243.09656248342071
 30
0.0
 11
-348.06814835119292
 21
243.09656248342071
 31
0.0
  0
SOLID
  5
6FB
  8
0
  6
CONTINUOUS
 62
     0
 10
348.06814835119292
 20
243.4185377582219
 30
0.0
 11
348.06814835119292
 21
242.77458720861949
 31
0.0
 12
350.0
 22
243.09656248342071
 32
0.0
 13
350.0
 23
243.09656248342071
 33
0.0
  0
SOLID
  5
6FC
  8
0
  6
CONTINUOUS
 62
     0
 10
-348.06814835119292
 20
243.4185377582219
 30
0.0
 11
-348.06814835119292
 21
242.77458720861949
 31
0.0
 12
-350.0
 22
243.09656248342071
 32
0.0
 13
-350.0
 23
243.09656248342071
 33
0.0
  0
INSERT
  5
6FD
  8
0
  6
CONTINUOUS
  2
*U11
 10
0.0
 20
0.0
 30
0.0
  0
POINT
  5
6FE
  8
DEFPOINTS
  6
CONTINUOUS
 62
     0
 10
350.0
 20
182.9999999999994
 30
0.0
  0
POINT
  5
6FF
  8
DEFPOINTS
  6
CONTINUOUS
 62
     0
 10
-350.0
 20
182.9999999999994
 30
0.0
  0
POINT
  5
700
  8
DEFPOINTS
  6
CONTINUOUS
 62
     0
 10
-350.0
 20
243.09656248342071
 30
0.0
  0
ENDBLK
  5
702
  8
0
  0
BLOCK
  8
0
  2
*U11
 70
     1
 10
0.0
 20
0.0
 30
0.0
  3
*U11
  1

  0
TEXT
  5
76E
  8
0
  6
CONTINUOUS
 62
     0
 10
-6.0
 20
243.18656248342069
 30
0.0
 40
2.0
  1
700.0000
  0
ENDBLK
  5
770
  8
0
  0
BLOCK
  8
0
  2
*D12
 70
     1
 10
0.0
 20
0.0
 30
0.0
  3
*D12
  1

  0
LINE
  5
705
  8
0
  6
CONTINUOUS
 62
     0
 10
351.0
 20
182.99999999999761
 30
0.0
 11
434.9302175730117
 21
182.99999999999761
 31
0.0
  0
LINE
  5
706
  8
0
  6
CONTINUOUS
 62
     0
 10
350.99999999999932
 20
-7.0000000000013172
 30
0.0
 11
434.9302175730117
 21
-7.0000000000013411
 31
0.0
  0
LINE
  5
707
  8
0
  6
CONTINUOUS
 62
     0
 10
432.93021757301159
 20
181.0681483511905
 30
0.0
 11
432.93021757301159
 21
89.089999999998156
 31
0.0
  0
LINE
  5
708
  8
0
  6
CONTINUOUS
 62
     0
 10
432.93021757301159
 20
-5.0681483511943162
 30
0.0
 11
432.93021757301159
 21
86.909999999998149
 31
0.0
  0
SOLID
  5
709
  8
0
  6
CONTINUOUS
 62
     0
 10
432.60824229821048
 20
181.0681483511905
 30
0.0
 11
433.25219284781281
 21
181.0681483511905
 31
0.0
 12
432.93021757301159
 22
182.99999999999761
 32
0.0
 13
432.93021757301159
 23
182.99999999999761
 33
0.0
  0
SOLID
  5
70A
  8
0
  6
CONTINUOUS
 62
     0
 10
432.60824229821048
 20
-5.0681483511943162
 30
0.0
 11
433.25219284781281
 21
-5.0681483511943162
 31
0.0
 12
432.93021757301159
 22
-7.0000000000013403
 32
0.0
 13
432.93021757301159
 23
-7.0000000000013403
 33
0.0
  0
INSERT
  5
70B
  8
0
  6
CONTINUOUS
  2
*U13
 10
0.0
 20
0.0
 30
0.0
  0
POINT
  5
70C
  8
DEFPOINTS
  6
CONTINUOUS
 62
     0
 10
350.0
 20
182.99999999999761
 30
0.0
  0
POINT
  5
70D
  8
DEFPOINTS
  6
CONTINUOUS
 62
     0
 10
349.99999999999932
 20
-7.0000000000013163
 30
0.0
  0
POINT
  5
70E
  8
DEFPOINTS
  6
CONTINUOUS
 62
     0
 10
432.93021757301159
 20
-7.0000000000013403
 30
0.0
  0
ENDBLK
  5
710
  8
0
  0
BLOCK
  8
0
  2
*U13
 70
     1
 10
0.0
 20
0.0
 30
0.0
  3
*U13
  1

  0
TEXT
  5
772
  8
0
  6
CONTINUOUS
 62
     0
 10
427.09688423967827
 20
86.999999999998224
 30
0.0
 40
2.0
  1
190.0000
  0
ENDBLK
  5
774
  8
0
  0
BLOCK
  8
0
  2
*D14
 70
     1
 10
0.0
 20
0.0
 30
0.0
  3
*D14
  1

  0
LINE
  5
713
  8
0
  6
CONTINUOUS
 62
     0
 10
1.0
 20
-0.0000000000000003
 30
0.0
 11
229.72775882316739
 21
-0.0000000000000651
 31
0.0
  0
LINE
  5
714
  8
0
  6
CONTINUOUS
 62
     0
 10
0.9999999999990903
 20
-4500.0000000000064
 30
0.0
 11
229.7277588231664
 21
-4500.0000000000064
 31
0.0
  0
LINE
  5
715
  8
0
  6
CONTINUOUS
 62
     0
 10
227.72775882316739
 20
-1.931851648807086
 30
0.0
 11
227.72775882316679
 21
-2248.910000000003
 31
0.0
  0
LINE
  5
716
  8
0
  6
CONTINUOUS
 62
     0
 10
227.7277588231664
 20
-4498.0681483511989
 30
0.0
 11
227.72775882316679
 21
-2251.0900000000038
 31
0.0
  0
SOLID
  5
717
  8
0
  6
CONTINUOUS
 62
     0
 10
227.4057835483662
 20
-1.931851648807086
 30
0.0
 11
228.0497340979685
 21
-1.931851648807086
 31
0.0
 12
227.72775882316739
 22
-0.0000000000000645
 32
0.0
 13
227.72775882316739
 23
-0.0000000000000645
 33
0.0
  0
SOLID
  5
718
  8
0
  6
CONTINUOUS
 62
     0
 10
227.40578354836521
 20
-4498.0681483511989
 30
0.0
 11
228.0497340979675
 21
-4498.0681483511989
 31
0.0
 12
227.7277588231664
 22
-4500.0000000000064
 32
0.0
 13
227.7277588231664
 23
-4500.0000000000064
 33
0.0
  0
INSERT
  5
719
  8
0
  6
CONTINUOUS
  2
*U15
 10
0.0
 20
0.0
 30
0.0
  0
POINT
  5
71A
  8
DEFPOINTS
  6
CONTINUOUS
 62
     0
 10
0.0
 20
0.0
 30
0.0
  0
POINT
  5
71B
  8
DEFPOINTS
  6
CONTINUOUS
 62
     0
 10
-0.0000000000009095
 20
-4500.0000000000064
 30
0.0
  0
POINT
  5
71C
  8
DEFPOINTS
  6
CONTINUOUS
 62
     0
 10
227.7277588231664
 20
-4500.0000000000064
 30
0.0
  0
ENDBLK
  5
71E
  8
0
  0
BLOCK
  8
0
  2
*U15
 70
     1
 10
0.0
 20
0.0
 30
0.0
  3
*U15
  1

  0
TEXT
  5
776
  8
0
  6
CONTINUOUS
 62
     0
 10
220.72775882316719
 20
-2251.0000000000032
 30
0.0
 40
2.0
  1
4500.0000
  0
ENDBLK
  5
778
  8
0
  0
BLOCK
  8
0
  2
*D16
 70
     1
 10
0.0
 20
0.0
 30
0.0
  3
*D16
  1

  0
LINE
  5
721
  8
0
  6
CONTINUOUS
 62
     0
 10
312.67876916734718
 20
-3011.0473849451969
 30
0.0
 11
312.67876916734718
 21
-3604.1936992563419
 31
0.0
  0
LINE
  5
722
  8
0
  6
CONTINUOUS
 62
     0
 10
-0.0000000000000001
 20
-61.895207817572562
 30
0.0
 11
-0.000000000000217
 21
-3604.1936992563419
 31
0.0
  0
LINE
  5
723
  8
0
  6
CONTINUOUS
 62
     0
 10
310.74691751853999
 20
-3602.1936992563428
 30
0.0
 11
1.931851648806802
 21
-3602.1936992563428
 31
0.0
  0
SOLID
  5
724
  8
0
  6
CONTINUOUS
 62
     0
 10
310.74691751853999
 20
-3601.871723981541
 30
0.0
 11
310.74691751853999
 21
-3602.5156745311442
 31
0.0
 12
312.67876916734718
 22
-3602.1936992563428
 32
0.0
 13
312.67876916734718
 23
-3602.1936992563428
 33
0.0
  0
SOLID
  5
725
  8
0
  6
CONTINUOUS
 62
     0
 10
1.931851648806802
 20
-3601.871723981541
 30
0.0
 11
1.931851648806802
 21
-3602.5156745311442
 31
0.0
 12
-0.0000000000002168
 22
-3602.1936992563428
 32
0.0
 13
-0.0000000000002168
 23
-3602.1936992563428
 33
0.0
  0
INSERT
  5
726
  8
0
  6
CONTINUOUS
  2
*U17
 10
0.0
 20
0.0
 30
0.0
  0
POINT
  5
727
  8
DEFPOINTS
  6
CONTINUOUS
 62
     0
 10
312.67876916734718
 20
-3010.0473849451978
 30
0.0
  0
POINT
  5
728
  8
DEFPOINTS
  6
CONTINUOUS
 62
     0
 10
0.0
 20
-60.895207817572519
 30
0.0
  0
POINT
  5
729
  8
DEFPOINTS
  6
CONTINUOUS
 62
     0
 10
-0.0000000000002168
 20
-3602.1936992563428
 30
0.0
  0
ENDBLK
  5
72B
  8
0
  0
BLOCK
  8
0
  2
*U17
 70
     1
 10
0.0
 20
0.0
 30
0.0
  3
*U17
  1

  0
TEXT
  5
77A
  8
0
  6
CONTINUOUS
 62
     0
 10
149.67271791700671
 20
-3602.1036992563431
 30
0.0
 40
2.0
  1
312.6788
  0
ENDBLK
  5
77C
  8
0
  0
ENDSEC
  0
SECTION
  2
ENTITIES
  0
LINE
  5
624
  8
0
  6
CONTINUOUS
 10
362.5
 20
-7.0000000000013607
 30
0.0
 11
-362.5
 21
-6.9999999999986331
 31
0.0
  0
LINE
  5
625
  8
0
  6
CONTINUOUS
 10
0.0
 20
-60.895207817572519
 30
0.0
 11
0.0
 21
60.895207817572519
 31
0.0
  0
LINE
  5
626
  8
0
  6
CONTINUOUS
 10
350.0
 20
-0.0000000000004547
 30
0.0
 11
350.0
 21
182.99999999999761
 31
0.0
  0
LINE
  5
627
  8
0
  6
CONTINUOUS
 10
-350.0
 20
0.0000000000013642
 30
0.0
 11
-350.0
 21
182.9999999999994
 31
0.0
  0
LINE
  5
628
  8
0
  6
CONTINUOUS
 10
350.0
 20
182.9999999999994
 30
0.0
 11
-350.0
 21
182.9999999999994
 31
0.0
  0
LINE
  5
629
  8
0
  6
CONTINUOUS
 10
362.5
 20
-0.0000000000013642
 30
0.0
 11
-362.5
 21
0.0000000000013642
 31
0.0
  0
LINE
  5
62A
  8
0
  6
CONTINUOUS
 10
-362.5
 20
-6.9999999999986331
 30
0.0
 11
-362.5
 21
-0.0000000000004547
 31
0.0
  0
LINE
  5
62B
  8
0
  6
CONTINUOUS
 10
362.5
 20
-6.9999999999986331
 30
0.0
 11
362.5
 21
-0.0000000000004547
 31
0.0
  0
LINE
  5
631
  8
0
  6
CONTINUOUS
 10
-205.55077840159359
 20
-364.7257988737806
 30
0.0
 11
-201.1933682101253
 21
-6.9999999999995426
 31
0.0
  0
LINE
  5
6C9
  8
0
  6
CONTINUOUS
 10
-201.1933682101253
 20
-6.9999999999995426
 30
0.0
 11
-200.7034404484375
 21
-53.768344971485462
 31
0.0
  0
LINE
  5
6DF
  8
0
  6
CONTINUOUS
 10
201.0830372850541
 20
-7.0000000000013607
 30
0.0
 11
200.70344044843389
 21
-53.768344971485462
 31
0.0
  0
TEXT
  5
6E0
  8
0
  6
CONTINUOUS
 10
742.31281384593569
 20
-329.42928571553102
 30
0.0
 40
160.0
  1
1.5m/s
 50
0.0000025044687019
 41
0.687499990065893
  7
STANDARD1
  0
TEXT
  5
6E1
  8
0
  6
CONTINUOUS
 10
836.46146343710279
 20
-856.74911648331965
 30
0.0
 40
160.0
  1
1m/s
 50
0.0000025044687019
 41
0.687499990065893
  7
STANDARD1
  0
TEXT
  5
6E2
  8
0
  6
CONTINUOUS
 10
764.51495469111967
 20
-2397.7254818333322
 30
0.0
 40
160.0
  1
0.5m/s
 50
0.0000025044687019
 41
0.687499990065893
  7
STANDARD1
  0
TEXT
  5
6E3
  8
0
  6
CONTINUOUS
 10
764.51495469111967
 20
-4106.5688399458886
 30
0.0
 40
160.0
  1
0.3m/s
 50
0.0000025044687019
 41
0.687499990065893
  7
STANDARD1
  0
LINE
  5
6E4
  8
0
  6
CONTINUOUS
 10
95.267084243750986
 20
-190.15933449519841
 30
0.0
 11
708.74434389275848
 21
-259.84633966282172
 31
0.0
  0
LINE
  5
6E5
  8
0
  6
CONTINUOUS
 10
25.553759283640829
 20
-956.71635339123918
 30
0.0
 11
806.34294396139012
 21
-803.40494202246236
 31
0.0
  0
LINE
  5
6E6
  8
0
  6
CONTINUOUS
 10
81.324419251730447
 20
-2503.7677922168382
 30
0.0
 11
666.91634891668923
 21
-2336.518979814537
 31
0.0
  0
LINE
  5
6E7
  8
0
  6
CONTINUOUS
 10
67.381754259709851
 20
-3869.6330176066122
 30
0.0
 11
680.85901390870993
 21
-4022.944428975381
 31
0.0
  0
POLYLINE
  5
738
  8
0
  6
CONTINUOUS
 66
     1
 10
0.0
 20
0.0
 30
0.0
  0
VERTEX
  5
87C
  8
0
  6
CONTINUOUS
 10
-201.1933682101253
 20
-6.9999999999995426
 30
0.0
  0
VERTEX
  5
87D
  8
0
  6
CONTINUOUS
 10
-197.1246927324118
 20
-178.77045034670891
 30
0.0
  0
VERTEX
  5
87E
  8
0
  6
CONTINUOUS
 10
-190.02981958447239
 20
-255.85886394179539
 30
0.0
  0
VERTEX
  5
87F
  8
0
  6
CONTINUOUS
 10
-185.8208963269721
 20
-280.16790830944001
 30
0.0
  0
VERTEX
  5
880
  8
0
  6
CONTINUOUS
 10
-181.6119730694717
 20
-304.47695267708468
 30
0.0
  0
VERTEX
  5
881
  8
0
  6
CONTINUOUS
 10
-169.84125864158341
 20
-342.85364403135691
 30
0.0
  0
VERTEX
  5
882
  8
0
  6
CONTINUOUS
 10
-152.8515328962057
 20
-375.98939851326998
 30
0.0
  0
VERTEX
  5
883
  8
0
  6
CONTINUOUS
 10
-129.6861915738254
 20
-408.6566881040992
 30
0.0
  0
VERTEX
  5
884
  8
0
  6
CONTINUOUS
 10
-117.0351908005568
 20
-420.97243931139008
 30
0.0
  0
VERTEX
  5
885
  8
0
  6
CONTINUOUS
 10
-104.3841900272882
 20
-433.28819051868118
 30
0.0
  0
VERTEX
  5
886
  8
0
  6
CONTINUOUS
 10
-79.488991621291461
 20
-442.99569434895358
 30
0.0
  0
VERTEX
  5
887
  8
0
  6
CONTINUOUS
 10
-17.331619857736769
 20
-448.68609394814149
 30
0.0
  0
VERTEX
  5
888
  8
0
  6
CONTINUOUS
 10
-5.741899582430503
 20
-449.61548280374018
 30
0.0
  0
VERTEX
  5
889
  8
0
  6
CONTINUOUS
 10
40.839706347287127
 20
-446.49146532350147
 30
0.0
  0
VERTEX
  5
88A
  8
0
  6
CONTINUOUS
 10
79.488991621288733
 20
-442.99569434895358
 30
0.0
  0
VERTEX
  5
88B
  8
0
  6
CONTINUOUS
 10
104.3841900272846
 20
-433.28819051868118
 30
0.0
  0
VERTEX
  5
88C
  8
0
  6
CONTINUOUS
 10
129.6861915738227
 20
-408.6566881040992
 30
0.0
  0
VERTEX
  5
88D
  8
0
  6
CONTINUOUS
 10
152.851532896202
 20
-375.98939851326998
 30
0.0
  0
VERTEX
  5
88E
  8
0
  6
CONTINUOUS
 10
169.84125864157971
 20
-342.85364403135691
 30
0.0
  0
VERTEX
  5
88F
  8
0
  6
CONTINUOUS
 10
181.611973069469
 20
-304.47695267708468
 30
0.0
  0
VERTEX
  5
890
  8
0
  6
CONTINUOUS
 10
190.02981958446981
 20
-255.85886394179539
 30
0.0
  0
VERTEX
  5
891
  8
0
  6
CONTINUOUS
 10
197.1246927324095
 20
-178.77045034670891
 30
0.0
  0
VERTEX
  5
892
  8
0
  6
CONTINUOUS
 10
201.0830372850541
 20
-7.0000000000015321
 30
0.0
  0
SEQEND
  5
893
  8
0
  6
CONTINUOUS
  0
POLYLINE
  5
739
  8
0
  6
CONTINUOUS
 66
     1
 10
0.0
 20
0.0
 30
0.0
  0
VERTEX
  5
894
  8
0
  6
CONTINUOUS
 10
-201.1933682101253
 20
-6.9999999999995426
 30
0.0
  0
VERTEX
  5
895
  8
0
  6
CONTINUOUS
 10
-197.70607948887479
 20
-434.35124679729768
 30
0.0
  0
VERTEX
  5
896
  8
0
  6
CONTINUOUS
 10
-196.88918406746961
 20
-640.94227300793852
 30
0.0
  0
VERTEX
  5
897
  8
0
  6
CONTINUOUS
 10
-200.69500235009761
 20
-915.55829360619964
 30
0.0
  0
VERTEX
  5
898
  8
0
  6
CONTINUOUS
 10
-189.7496593261294
 20
-1149.751992287662
 30
0.0
  0
VERTEX
  5
899
  8
0
  6
CONTINUOUS
 10
-174.4987974830392
 20
-1243.7881660313101
 30
0.0
  0
VERTEX
  5
89A
  8
0
  6
CONTINUOUS
 10
-165.13418181377571
 20
-1282.63775372296
 30
0.0
  0
VERTEX
  5
89B
  8
0
  6
CONTINUOUS
 10
-146.5215219306086
 20
-1354.672982771167
 30
0.0
  0
VERTEX
  5
89C
  8
0
  6
CONTINUOUS
 10
-137.2734777167052
 20
-1387.8586241277251
 30
0.0
  0
VERTEX
  5
89D
  8
0
  6
CONTINUOUS
 10
-115.3854921933098
 20
-1438.056147941081
 30
0.0
  0
VERTEX
  5
89E
  8
0
  6
CONTINUOUS
 10
-115.3854921933098
 20
-1438.056147941081
 30
0.0
  0
VERTEX
  5
89F
  8
0
  6
CONTINUOUS
 10
-101.0035707660804
 20
-1452.8083889184129
 30
0.0
  0
VERTEX
  5
8A0
  8
0
  6
CONTINUOUS
 10
-86.621649338851057
 20
-1467.560629895745
 30
0.0
  0
VERTEX
  5
8A1
  8
0
  6
CONTINUOUS
 10
-55.39886041364209
 20
-1483.014092035188
 30
0.0
  0
VERTEX
  5
8A2
  8
0
  6
CONTINUOUS
 10
-26.716134440943279
 20
-1492.661713897887
 30
0.0
  0
VERTEX
  5
8A3
  8
0
  6
CONTINUOUS
 10
-0.0000000000009095
 20
-1500.000000000007
 30
0.0
  0
VERTEX
  5
8A4
  8
0
  6
CONTINUOUS
 10
26.716134440939641
 20
-1492.661713897887
 30
0.0
  0
VERTEX
  5
8A5
  8
0
  6
CONTINUOUS
 10
55.398860413639348
 20
-1483.014092035188
 30
0.0
  0
VERTEX
  5
8A6
  8
0
  6
CONTINUOUS
 10
86.621649338847433
 20
-1467.560629895745
 30
0.0
  0
VERTEX
  5
8A7
  8
0
  6
CONTINUOUS
 10
115.385492193307
 20
-1438.056147941081
 30
0.0
  0
VERTEX
  5
8A8
  8
0
  6
CONTINUOUS
 10
126.3294849550047
 20
-1412.957386034403
 30
0.0
  0
VERTEX
  5
8A9
  8
0
  6
CONTINUOUS
 10
137.2734777167025
 20
-1387.8586241277251
 30
0.0
  0
VERTEX
  5
8AA
  8
0
  6
CONTINUOUS
 10
155.7695661445095
 20
-1321.48734141461
 30
0.0
  0
VERTEX
  5
8AB
  8
0
  6
CONTINUOUS
 10
174.4987974830355
 20
-1243.7881660313101
 30
0.0
  0
VERTEX
  5
8AC
  8
0
  6
CONTINUOUS
 10
189.7496593261267
 20
-1149.751992287662
 30
0.0
  0
VERTEX
  5
8AD
  8
0
  6
CONTINUOUS
 10
197.60916739715771
 20
-1036.003601334482
 30
0.0
  0
VERTEX
  5
8AE
  8
0
  6
CONTINUOUS
 10
200.69500235009491
 20
-915.55829360619964
 30
0.0
  0
VERTEX
  5
8AF
  8
0
  6
CONTINUOUS
 10
198.74308750451021
 20
-616.89646000115306
 30
0.0
  0
VERTEX
  5
8B0
  8
0
  6
CONTINUOUS
 10
198.0384090772786
 20
-222.72034386613089
 30
0.0
  0
VERTEX
  5
8B1
  8
0
  6
CONTINUOUS
 10
201.0830372850541
 20
-7.0000000000015881
 30
0.0
  0
SEQEND
  5
8B2
  8
0
  6
CONTINUOUS
  0
POLYLINE
  5
73A
  8
0
  6
CONTINUOUS
 66
     1
 10
0.0
 20
0.0
 30
0.0
  0
VERTEX
  5
8B3
  8
0
  6
CONTINUOUS
 10
-201.1933682101253
 20
-6.999999999999547
 30
0.0
  0
VERTEX
  5
8B4
  8
0
  6
CONTINUOUS
 10
-208.26761323270611
 20
-735.28088556580121
 30
0.0
  0
VERTEX
  5
8B5
  8
0
  6
CONTINUOUS
 10
-221.56036622306971
 20
-1304.44329307524
 30
0.0
  0
VERTEX
  5
8B6
  8
0
  6
CONTINUOUS
 10
-238.495634483907
 20
-1686.7183683514891
 30
0.0
  0
VERTEX
  5
8B7
  8
0
  6
CONTINUOUS
 10
-244.69984402334291
 20
-1803.1920675521451
 30
0.0
  0
VERTEX
  5
8B8
  8
0
  6
CONTINUOUS
 10
-246.9937674331718
 20
-1911.2765123993261
 30
0.0
  0
VERTEX
  5
8B9
  8
0
  6
CONTINUOUS
 10
-249.28769084300069
 20
-2019.360957246507
 30
0.0
  0
VERTEX
  5
8BA
  8
0
  6
CONTINUOUS
 10
-243.9882688863654
 20
-2126.943635125856
 30
0.0
  0
VERTEX
  5
8BB
  8
0
  6
CONTINUOUS
 10
-230.4751752020525
 20
-2325.6169660659812
 30
0.0
  0
VERTEX
  5
8BC
  8
0
  6
CONTINUOUS
 10
-215.97299038592149
 20
-2476.4277552165481
 30
0.0
  0
VERTEX
  5
8BD
  8
0
  6
CONTINUOUS
 10
-202.43962768560411
 20
-2577.9438263023781
 30
0.0
  0
VERTEX
  5
8BE
  8
0
  6
CONTINUOUS
 10
-195.19477807374
 20
-2619.7397612984169
 30
0.0
  0
VERTEX
  5
8BF
  8
0
  6
CONTINUOUS
 10
-171.5379528559433
 20
-2700.038550307836
 30
0.0
  0
VERTEX
  5
8C0
  8
0
  6
CONTINUOUS
 10
-140.93550535470879
 20
-2775.6007212817572
 30
0.0
  0
VERTEX
  5
8C1
  8
0
  6
CONTINUOUS
 10
-124.14204896288309
 20
-2806.6272443493658
 30
0.0
  0
VERTEX
  5
8C2
  8
0
  6
CONTINUOUS
 10
-107.3485925710574
 20
-2837.653767416974
 30
0.0
  0
VERTEX
  5
8C3
  8
0
  6
CONTINUOUS
 10
-72.221028009666043
 20
-2882.108161166565
 30
0.0
  0
VERTEX
  5
8C4
  8
0
  6
CONTINUOUS
 10
-36.292057541621951
 20
-2908.2413698463829
 30
0.0
  0
VERTEX
  5
8C5
  8
0
  6
CONTINUOUS
 10
-0.0000000000009095
 20
-2924.115860966976
 30
0.0
  0
VERTEX
  5
8C6
  8
0
  6
CONTINUOUS
 10
36.292057541619222
 20
-2908.2413698463829
 30
0.0
  0
VERTEX
  5
8C7
  8
0
  6
CONTINUOUS
 10
72.221028009662405
 20
-2882.108161166565
 30
0.0
  0
VERTEX
  5
8C8
  8
0
  6
CONTINUOUS
 10
107.3485925710547
 20
-2837.653767416974
 30
0.0
  0
VERTEX
  5
8C9
  8
0
  6
CONTINUOUS
 10
140.93550535470601
 20
-2775.6007212817572
 30
0.0
  0
VERTEX
  5
8CA
  8
0
  6
CONTINUOUS
 10
156.23672910532281
 20
-2737.8196357947959
 30
0.0
  0
VERTEX
  5
8CB
  8
0
  6
CONTINUOUS
 10
171.53795285593969
 20
-2700.0385503078351
 30
0.0
  0
VERTEX
  5
8CC
  8
0
  6
CONTINUOUS
 10
195.1947780737373
 20
-2619.7397612984059
 30
0.0
  0
VERTEX
  5
8CD
  8
0
  6
CONTINUOUS
 10
202.4396276856009
 20
-2577.9438263023721
 30
0.0
  0
VERTEX
  5
8CE
  8
0
  6
CONTINUOUS
 10
209.68447729746461
 20
-2536.147891306337
 30
0.0
  0
VERTEX
  5
8CF
  8
0
  6
CONTINUOUS
 10
215.97299038591879
 20
-2476.4277552165449
 30
0.0
  0
VERTEX
  5
8D0
  8
0
  6
CONTINUOUS
 10
222.26150347437309
 20
-2416.7076191267552
 30
0.0
  0
VERTEX
  5
8D1
  8
0
  6
CONTINUOUS
 10
230.47517520205071
 20
-2325.6169660659812
 30
0.0
  0
VERTEX
  5
8D2
  8
0
  6
CONTINUOUS
 10
238.68884692972819
 20
-2234.5263130052049
 30
0.0
  0
VERTEX
  5
8D3
  8
0
  6
CONTINUOUS
 10
243.98826888636259
 20
-2126.943635125856
 30
0.0
  0
VERTEX
  5
8D4
  8
0
  6
CONTINUOUS
 10
249.28769084299719
 20
-2019.360957246507
 30
0.0
  0
VERTEX
  5
8D5
  8
0
  6
CONTINUOUS
 10
246.99376743316861
 20
-1911.2765123993261
 30
0.0
  0
VERTEX
  5
8D6
  8
0
  6
CONTINUOUS
 10
244.69984402334009
 20
-1803.1920675521451
 30
0.0
  0
VERTEX
  5
8D7
  8
0
  6
CONTINUOUS
 10
232.29142494446751
 20
-1570.244669150833
 30
0.0
  0
VERTEX
  5
8D8
  8
0
  6
CONTINUOUS
 10
213.8075473831677
 20
-1036.2659840465151
 30
0.0
  0
VERTEX
  5
8D9
  8
0
  6
CONTINUOUS
 10
208.2676132327023
 20
-735.28088556580121
 30
0.0
  0
VERTEX
  5
8DA
  8
0
  6
CONTINUOUS
 10
201.90535818364549
 20
-220.64789354254449
 30
0.0
  0
VERTEX
  5
8DB
  8
0
  6
CONTINUOUS
 10
201.0830372850541
 20
-7.0000000000018732
 30
0.0
  0
SEQEND
  5
8DC
  8
0
  6
CONTINUOUS
  0
POLYLINE
  5
73B
  8
0
  6
CONTINUOUS
 66
     1
 10
0.0
 20
0.0
 30
0.0
  0
VERTEX
  5
8DD
  8
0
  6
CONTINUOUS
 10
-201.19097694262089
 20
-7.6212772484554012
 30
0.0
  0
VERTEX
  5
8DE
  8
0
  6
CONTINUOUS
 10
-247.1321701138497
 20
-1439.578660729059
 30
0.0
  0
VERTEX
  5
8DF
  8
0
  6
CONTINUOUS
 10
-298.46290787987789
 20
-2315.9055663752561
 30
0.0
  0
VERTEX
  5
8E0
  8
0
  6
CONTINUOUS
 10
-311.72902246238277
 20
-2576.9316571856389
 30
0.0
  0
VERTEX
  5
8E1
  8
0
  6
CONTINUOUS
 10
-314.0706997824434
 20
-2924.7371384169878
 30
0.0
  0
VERTEX
  5
8E2
  8
0
  6
CONTINUOUS
 10
-309.80037457180578
 20
-3179.1420633349471
 30
0.0
  0
VERTEX
  5
8E3
  8
0
  6
CONTINUOUS
 10
-308.31869312636422
 20
-3261.6839406995769
 30
0.0
  0
VERTEX
  5
8E4
  8
0
  6
CONTINUOUS
 10
-303.26346991126019
 20
-3529.8400933149719
 30
0.0
  0
VERTEX
  5
8E5
  8
0
  6
CONTINUOUS
 10
-290.54645385919162
 20
-3662.03484679537
 30
0.0
  0
VERTEX
  5
8E6
  8
0
  6
CONTINUOUS
 10
-266.18204572144049
 20
-3873.6154168168409
 30
0.0
  0
VERTEX
  5
8E7
  8
0
  6
CONTINUOUS
 10
-239.75802444475241
 20
-4032.1595444769282
 30
0.0
  0
VERTEX
  5
8E8
  8
0
  6
CONTINUOUS
 10
-224.9813952537468
 20
-4111.3178555959439
 30
0.0
  0
VERTEX
  5
8E9
  8
0
  6
CONTINUOUS
 10
-191.9131890782125
 20
-4234.80471243791
 30
0.0
  0
VERTEX
  5
8EA
  8
0
  6
CONTINUOUS
 10
-157.90503355140191
 20
-4326.7752598519619
 30
0.0
  0
VERTEX
  5
8EB
  8
0
  6
CONTINUOUS
 10
-121.8984881689546
 20
-4398.6841674894195
 30
0.0
  0
VERTEX
  5
8EC
  8
0
  6
CONTINUOUS
 10
-68.469884614944732
 20
-4456.8627492140813
 30
0.0
  0
VERTEX
  5
8ED
  8
0
  6
CONTINUOUS
 10
-35.944349335973847
 20
-4479.1495045888132
 30
0.0
  0
VERTEX
  5
8EE
  8
0
  6
CONTINUOUS
 10
0.0023912675034978
 20
-4500.6212772484623
 30
0.0
  0
VERTEX
  5
8EF
  8
0
  6
CONTINUOUS
 10
35.94913187098085
 20
-4479.1495045888132
 30
0.0
  0
VERTEX
  5
8F0
  8
0
  6
CONTINUOUS
 10
68.474667149950818
 20
-4456.8627492140813
 30
0.0
  0
VERTEX
  5
8F1
  8
0
  6
CONTINUOUS
 10
95.188968926954857
 20
-4427.7734583517486
 30
0.0
  0
VERTEX
  5
8F2
  8
0
  6
CONTINUOUS
 10
121.9032707039589
 20
-4398.6841674894195
 30
0.0
  0
VERTEX
  5
8F3
  8
0
  6
CONTINUOUS
 10
157.90981608640701
 20
-4326.7752598519619
 30
0.0
  0
VERTEX
  5
8F4
  8
0
  6
CONTINUOUS
 10
191.9179716132185
 20
-4234.80471243791
 30
0.0
  0
VERTEX
  5
8F5
  8
0
  6
CONTINUOUS
 10
208.4520747009858
 20
-4173.061284016926
 30
0.0
  0
VERTEX
  5
8F6
  8
0
  6
CONTINUOUS
 10
224.98617778875291
 20
-4111.3178555959439
 30
0.0
  0
VERTEX
  5
8F7
  8
0
  6
CONTINUOUS
 10
239.76280697975861
 20
-4032.1595444769282
 30
0.0
  0
VERTEX
  5
8F8
  8
0
  6
CONTINUOUS
 10
254.53943617076411
 20
-3953.001233357912
 30
0.0
  0
VERTEX
  5
8F9
  8
0
  6
CONTINUOUS
 10
266.18682825644618
 20
-3873.6154168168409
 30
0.0
  0
VERTEX
  5
8FA
  8
0
  6
CONTINUOUS
 10
277.83422034212811
 20
-3794.2296002757721
 30
0.0
  0
VERTEX
  5
8FB
  8
0
  6
CONTINUOUS
 10
290.5512363941973
 20
-3662.03484679537
 30
0.0
  0
VERTEX
  5
8FC
  8
0
  6
CONTINUOUS
 10
303.26825244626639
 20
-3529.8400933149719
 30
0.0
  0
VERTEX
  5
8FD
  8
0
  6
CONTINUOUS
 10
305.79586405381792
 20
-3395.7620170072751
 30
0.0
  0
VERTEX
  5
8FE
  8
0
  6
CONTINUOUS
 10
309.80515710681198
 20
-3179.1420633349471
 30
0.0
  0
VERTEX
  5
8FF
  8
0
  6
CONTINUOUS
 10
314.07548231744858
 20
-2924.7371384169878
 30
0.0
  0
VERTEX
  5
900
  8
0
  6
CONTINUOUS
 10
312.90464365741832
 20
-2750.8343978013131
 30
0.0
  0
VERTEX
  5
901
  8
0
  6
CONTINUOUS
 10
305.10074770613591
 20
-2446.418611780447
 30
0.0
  0
VERTEX
  5
902
  8
0
  6
CONTINUOUS
 10
280.45016990006411
 20
-2026.4655474174381
 30
0.0
  0
VERTEX
  5
903
  8
0
  6
CONTINUOUS
 10
262.0538206945987
 20
-1723.1892399411261
 30
0.0
  0
VERTEX
  5
904
  8
0
  6
CONTINUOUS
 10
247.13695264885629
 20
-1439.578660729059
 30
0.0
  0
VERTEX
  5
905
  8
0
  6
CONTINUOUS
 10
232.2200846031138
 20
-1155.9680815169911
 30
0.0
  0
VERTEX
  5
906
  8
0
  6
CONTINUOUS
 10
214.8876934144339
 20
-705.8147811651171
 30
0.0
  0
VERTEX
  5
907
  8
0
  6
CONTINUOUS
 10
207.9865609834961
 20
-356.71802920678698
 30
0.0
  0
VERTEX
  5
908
  8
0
  6
CONTINUOUS
 10
201.08542855255851
 20
-7.6212772484573721
 30
0.0
  0
SEQEND
  5
909
  8
0
  6
CONTINUOUS
  0
ENDSEC
  0
EOF
