  0
SECTION
  2
HEADER
  9
$ACADVER
  1
AC1009
  9
$INSBASE
 10
0.0
 20
0.0
 30
0.0
  9
$EXTMIN
 10
-742.21934825954565
 20
-9007.2807402986527
 30
-0.0015258207003583
  9
$EXTMAX
 10
940.89428012902226
 20
193.2807831395003
 30
0.0000000349246037
  9
$LIMMIN
 10
0.0
 20
0.0
  9
$LIMMAX
 10
12.0
 20
9.0
  9
$ORTHOMODE
 70
     1
  9
$REGENMODE
 70
     1
  9
$FILLMODE
 70
     1
  9
$QTEXTMODE
 70
     0
  9
$MIRRTEXT
 70
     0
  9
$DRAGMODE
 70
     2
  9
$LTSCALE
 40
1.0
  9
$OSMODE
 70
  3071
  9
$ATTMODE
 70
     1
  9
$TEXTSIZE
 40
3.200000047683714
  9
$TRACEWID
 40
0.05
  9
$TEXTSTYLE
  7
STANDARD1
  9
$CLAYER
  8
0
  9
$CELTYPE
  6
CONTINUOUS
  9
$CECOLOR
 62
   256
  9
$DIMSCALE
 40
1.0
  9
$DIMASZ
 40
1.931851648807023
  9
$DIMEXO
 40
1.0
  9
$DIMDLI
 40
0.38
  9
$DIMRND
 40
0.0
  9
$DIMDLE
 40
0.0
  9
$DIMEXE
 40
2.0
  9
$DIMTP
 40
0.0
  9
$DIMTM
 40
0.0
  9
$DIMTXT
 40
2.0
  9
$DIMCEN
 40
0.09
  9
$DIMTSZ
 40
0.0
  9
$DIMTOL
 70
     0
  9
$DIMLIM
 70
     0
  9
$DIMTIH
 70
     1
  9
$DIMTOH
 70
     1
  9
$DIMSE1
 70
     0
  9
$DIMSE2
 70
     0
  9
$DIMTAD
 70
     1
  9
$DIMZIN
 70
     0
  9
$DIMBLK
  1

  9
$DIMASO
 70
     1
  9
$DIMSHO
 70
     1
  9
$DIMPOST
  1

  9
$DIMAPOST
  1

  9
$DIMALT
 70
     0
  9
$DIMALTD
 70
     2
  9
$DIMALTF
 40
25.399999999999999
  9
$DIMLFAC
 40
1.0
  9
$DIMTOFL
 70
     0
  9
$DIMTVP
 40
0.0
  9
$DIMTIX
 70
     0
  9
$DIMSOXD
 70
     0
  9
$DIMSAH
 70
     0
  9
$DIMBLK1
  1

  9
$DIMBLK2
  1

  9
$DIMSTYLE
  2
STANDARD
  9
$DIMCLRD
 70
     0
  9
$DIMCLRE
 70
     0
  9
$DIMCLRT
 70
     0
  9
$DIMTFAC
 40
0.625
  9
$DIMGAP
 40
0.09
  9
$LUNITS
 70
     2
  9
$LUPREC
 70
     3
  9
$SKETCHINC
 40
0.1
  9
$FILLETRAD
 40
0.0
  9
$AUNITS
 70
     0
  9
$AUPREC
 70
     0
  9
$MENU
  1
.
  9
$ELEVATION
 40
0.0
  9
$PELEVATION
 40
0.0
  9
$THICKNESS
 40
0.0
  9
$LIMCHECK
 70
     0
  9
$BLIPMODE
 70
     0
  9
$CHAMFERA
 40
0.0
  9
$CHAMFERB
 40
0.0
  9
$SKPOLY
 70
     0
  9
$TDCREATE
 40
2453297.5458544912
  9
$TDUPDATE
 40
2454284.5486873039
  9
$TDINDWG
 40
0.0318211458
  9
$TDUSRTIMER
 40
0.0317972801
  9
$USRTIMER
 70
     1
  9
$ANGBASE
 50
0.0
  9
$ANGDIR
 70
     0
  9
$PDMODE
 70
     0
  9
$PDSIZE
 40
0.0
  9
$PLINEWID
 40
0.0
  9
$COORDS
 70
     1
  9
$SPLFRAME
 70
     0
  9
$SPLINETYPE
 70
     6
  9
$SPLINESEGS
 70
     8
  9
$ATTDIA
 70
     0
  9
$ATTREQ
 70
     1
  9
$HANDLING
 70
     1
  9
$HANDSEED
  5
AB6
  9
$SURFTAB1
 70
     6
  9
$SURFTAB2
 70
     6
  9
$SURFTYPE
 70
     6
  9
$SURFU
 70
     6
  9
$SURFV
 70
     6
  9
$UCSNAME
  2

  9
$UCSORG
 10
0.0
 20
0.0
 30
0.0
  9
$UCSXDIR
 10
1.0
 20
0.0
 30
0.0
  9
$UCSYDIR
 10
0.0
 20
1.0
 30
0.0
  9
$PUCSNAME
  2

  9
$PUCSORG
 10
0.0
 20
0.0
 30
0.0
  9
$PUCSXDIR
 10
1.0
 20
0.0
 30
0.0
  9
$PUCSYDIR
 10
0.0
 20
1.0
 30
0.0
  9
$USERI1
 70
     0
  9
$USERI2
 70
     0
  9
$USERI3
 70
     0
  9
$USERI4
 70
     0
  9
$USERI5
 70
     0
  9
$USERR1
 40
0.0
  9
$USERR2
 40
0.0
  9
$USERR3
 40
0.0
  9
$USERR4
 40
0.0
  9
$USERR5
 40
0.0
  9
$WORLDVIEW
 70
     1
  9
$SHADEDGE
 70
     3
  9
$SHADEDIF
 70
    70
  9
$TILEMODE
 70
     1
  9
$MAXACTVP
 70
    64
  9
$PLIMCHECK
 70
     0
  9
$PEXTMIN
 10
1.0000000000000000E+020
 20
1.0000000000000000E+020
 30
1.0000000000000000E+020
  9
$PEXTMAX
 10
-1.0000000000000000E+020
 20
-1.0000000000000000E+020
 30
-1.0000000000000000E+020
  9
$PLIMMIN
 10
0.0
 20
0.0
  9
$PLIMMAX
 10
12.0
 20
9.0
  9
$UNITMODE
 70
     0
  9
$VISRETAIN
 70
     1
  9
$PLINEGEN
 70
     0
  9
$PSLTSCALE
 70
     1
  0
ENDSEC
  0
SECTION
  2
TABLES
  0
TABLE
  2
VPORT
 70
     1
  0
VPORT
  2
*ACTIVE
 70
     0
 10
0.0
 20
0.0
 11
1.0
 21
1.0
 12
99.337465934737352
 22
-4406.9999785795753
 13
0.0
 23
0.0
 14
1.0
 24
1.0
 15
0.0
 25
0.0
 16
0.0
 26
0.0
 36
1.0
 17
0.0
 27
0.0
 37
0.0
 40
9279.5363004633728
 41
1.6704871060171911
 42
50.0
 43
0.0
 44
0.0
 50
0.0
 51
0.0
 71
     0
 72
   100
 73
     1
 74
     1
 75
     0
 76
     0
 77
     0
 78
     0
  0
ENDTAB
  0
TABLE
  2
LTYPE
 70
     4
  0
LTYPE
  2
CONTINUOUS
 70
     0
  3
Solid line
 72
    65
 73
     0
 40
0.0
  0
LTYPE
  2
DASHED
 70
     0
  3
-- -- -- -- -- -- -- -- -- -- -- -- -- -- --
 72
    65
 73
     2
 40
0.75
 49
0.5
 49
-0.25
  0
LTYPE
  2
DASHDOT
 70
     0
  3
__ . __ . __ . __ . __ . __ . __ . __ . __ . __
 72
    65
 73
     4
 40
1.0
 49
0.5
 49
-0.25
 49
0.0
 49
-0.25
  0
LTYPE
  2
DIVIDE
 70
     0
  3
__ . . __ . . __ . . __ . . __ . . __ . . __
 72
    65
 73
     6
 40
1.25
 49
0.5
 49
-0.25
 49
0.0
 49
-0.25
 49
0.0
 49
-0.25
  0
ENDTAB
  0
TABLE
  2
LAYER
 70
     2
  0
LAYER
  2
0
 70
     0
 62
     7
  6
CONTINUOUS
  0
LAYER
  2
DEFPOINTS
 70
     0
 62
     7
  6
CONTINUOUS
  0
ENDTAB
  0
TABLE
  2
STYLE
 70
     5
  0
STYLE
  2
STANDARD
 70
     0
 40
0.0
 41
1.0
 50
0.0
 71
     0
 42
0.2
  3
txt
  4

  0
STYLE
  2
STANDARD1
 70
     0
 40
0.0
 41
1.0
 50
0.0
 71
     0
 42
3.200000047683714
  3
MONOTXT
  4
BIGFONT
  0
STYLE
  2
STANDARD2
 70
     4
 40
0.0
 41
1.0
 50
0.0
 71
     0
 42
3.200000047683714
  3
MONOTXT
  4
BIGFONT
  0
STYLE
  2
STANDARD3
 70
     0
 40
0.0
 41
1.0
 50
0.0
 71
     0
 42
3.200000047683714
  3
MONOTXT
  4

  0
STYLE
  2
STANDARD4
 70
     4
 40
0.0
 41
1.0
 50
0.0
 71
     0
 42
3.200000047683714
  3
MONOTXT
  4

  0
ENDTAB
  0
TABLE
  2
VIEW
 70
     0
  0
ENDTAB
  0
TABLE
  2
UCS
 70
     0
  0
ENDTAB
  0
TABLE
  2
APPID
 70
     1
  0
APPID
  2
ACAD
 70
     0
  0
ENDTAB
  0
TABLE
  2
DIMSTYLE
 70
     1
  0
DIMSTYLE
  2
STANDARD
 70
     0
  3

  4

  5

  6

  7

 40
1.0
 41
0.18
 42
0.0625
 43
0.38
 44
0.18
 45
0.0
 46
0.0
 47
0.0
 48
0.0
140
0.18
141
0.09
142
0.0
143
25.399999999999999
144
1.0
145
0.0
146
1.0
147
0.09
 71
     0
 72
     0
 73
     1
 74
     1
 75
     0
 76
     0
 77
     0
 78
     0
170
     0
171
     2
172
     0
173
     0
174
     0
175
     0
176
     0
177
     0
178
     0
  0
ENDTAB
  0
ENDSEC
  0
SECTION
  2
BLOCKS
  0
BLOCK
  8
0
  2
$MODEL_SPACE
 70
     0
 10
0.0
 20
0.0
 30
0.0
  3
$MODEL_SPACE
  1

  0
ENDBLK
  5
776
  8
0
  0
BLOCK
 67
     1
  8
0
  2
$PAPER_SPACE
 70
     0
 10
0.0
 20
0.0
 30
0.0
  3
$PAPER_SPACE
  1

  0
ENDBLK
  5
772
 67
     1
  8
0
  0
BLOCK
  8
0
  2
*D2
 70
     1
 10
0.0
 20
0.0
 30
0.0
  3
*D2
  1

  0
LINE
  5
78D
  8
0
  6
CONTINUOUS
 62
     0
 10
2329.1771656855421
 20
2297.581134850926
 30
0.0
 11
2329.1771656855421
 21
2451.5363998018602
 31
0.0
  0
LINE
  5
78E
  8
0
  6
CONTINUOUS
 62
     0
 10
2079.1771656855421
 20
2297.581134850926
 30
0.0
 11
2079.1771656855421
 21
2451.5363998018602
 31
0.0
  0
LINE
  5
78F
  8
0
  6
CONTINUOUS
 62
     0
 10
2327.2453140367338
 20
2449.536399801857
 30
0.0
 11
2081.1090173343482
 21
2449.536399801857
 31
0.0
  0
SOLID
  5
790
  8
0
  6
CONTINUOUS
 62
     0
 10
2327.2453140367338
 20
2449.8583750766602
 30
0.0
 11
2327.2453140367338
 21
2449.214424527057
 31
0.0
 12
2329.1771656855421
 22
2449.536399801857
 32
0.0
 13
2329.1771656855421
 23
2449.536399801857
 33
0.0
  0
SOLID
  5
791
  8
0
  6
CONTINUOUS
 62
     0
 10
2081.1090173343482
 20
2449.8583750766602
 30
0.0
 11
2081.1090173343482
 21
2449.214424527057
 31
0.0
 12
2079.1771656855421
 22
2449.536399801857
 32
0.0
 13
2079.1771656855421
 23
2449.536399801857
 33
0.0
  0
INSERT
  5
793
  8
0
  6
CONTINUOUS
  2
*U3
 10
0.0
 20
0.0
 30
0.0
  0
POINT
  5
794
  8
DEFPOINTS
  6
CONTINUOUS
 62
     0
 10
2329.1771656855421
 20
2296.5811348509269
 30
0.0
  0
POINT
  5
795
  8
DEFPOINTS
  6
CONTINUOUS
 62
     0
 10
2079.1771656855421
 20
2296.5811348509269
 30
0.0
  0
POINT
  5
796
  8
DEFPOINTS
  6
CONTINUOUS
 62
     0
 10
2079.1771656855421
 20
2449.536399801857
 30
0.0
  0
ENDBLK
  5
797
  8
0
  0
BLOCK
  8
0
  2
*U3
 70
     1
 10
0.0
 20
0.0
 30
0.0
  3
*U3
  1

  0
TEXT
  5
822
  8
0
  6
CONTINUOUS
 62
     0
 10
2198.0104990188761
 20
2449.626399801859
 30
0.0
 40
2.0
  1
250.0000
  0
ENDBLK
  5
823
  8
0
  0
BLOCK
  8
0
  2
*D4
 70
     1
 10
0.0
 20
0.0
 30
0.0
  3
*D4
  1

  0
LINE
  5
79A
  8
0
  6
CONTINUOUS
 62
     0
 10
4975.1910712708486
 20
-1902.576053482567
 30
0.0
 11
6682.3601891438911
 21
-1902.5760534825681
 31
0.0
  0
LINE
  5
79B
  8
0
  6
CONTINUOUS
 62
     0
 10
4975.1910712708486
 20
-11402.3458697029
 30
0.0
 11
6682.3601891438893
 21
-11402.3458697029
 31
0.0
  0
LINE
  5
79C
  8
0
  6
CONTINUOUS
 62
     0
 10
6680.3601891438911
 20
-1904.5079051313751
 30
0.0
 11
6680.3601891438893
 21
-6651.3709615927391
 31
0.0
  0
LINE
  5
79D
  8
0
  6
CONTINUOUS
 62
     0
 10
6680.3601891438893
 20
-11400.4140180541
 30
0.0
 11
6680.3601891438893
 21
-6653.5509615927413
 31
0.0
  0
SOLID
  5
79E
  8
0
  6
CONTINUOUS
 62
     0
 10
6680.0382138690911
 20
-1904.5079051313751
 30
0.0
 11
6680.6821644186912
 21
-1904.5079051313751
 31
0.0
 12
6680.3601891438911
 22
-1902.5760534825681
 32
0.0
 13
6680.3601891438911
 23
-1902.5760534825681
 33
0.0
  0
SOLID
  5
79F
  8
0
  6
CONTINUOUS
 62
     0
 10
6680.0382138690884
 20
-11400.4140180541
 30
0.0
 11
6680.6821644186903
 21
-11400.4140180541
 31
0.0
 12
6680.3601891438893
 22
-11402.3458697029
 32
0.0
 13
6680.3601891438893
 23
-11402.3458697029
 33
0.0
  0
INSERT
  5
7A1
  8
0
  6
CONTINUOUS
  2
*U5
 10
0.0
 20
0.0
 30
0.0
  0
POINT
  5
7A2
  8
DEFPOINTS
  6
CONTINUOUS
 62
     0
 10
4974.1910712708486
 20
-1902.576053482567
 30
0.0
  0
POINT
  5
7A3
  8
DEFPOINTS
  6
CONTINUOUS
 62
     0
 10
4974.1910712708486
 20
-11402.3458697029
 30
0.0
  0
POINT
  5
7A4
  8
DEFPOINTS
  6
CONTINUOUS
 62
     0
 10
6680.3601891438893
 20
-11402.3458697029
 30
0.0
  0
ENDBLK
  5
7A5
  8
0
  0
BLOCK
  8
0
  2
*U5
 70
     1
 10
0.0
 20
0.0
 30
0.0
  3
*U5
  1

  0
TEXT
  5
825
  8
0
  6
CONTINUOUS
 62
     0
 10
6672.3601891438911
 20
-6653.4609615927393
 30
0.0
 40
2.0
  1
9499.7698
  0
ENDBLK
  5
826
  8
0
  0
BLOCK
  8
0
  2
*D6
 70
     1
 10
0.0
 20
0.0
 30
0.0
  3
*D6
  1

  0
LINE
  5
7A8
  8
0
  6
CONTINUOUS
 62
     0
 10
-3675.6624163892111
 20
-2067.5108606857671
 30
0.0
 11
1375.149264195964
 21
-2067.5108606857689
 31
0.0
  0
LINE
  5
7A9
  8
0
  6
CONTINUOUS
 62
     0
 10
-845.10592947032967
 20
-7567.3854343730509
 30
0.0
 11
1375.149264195963
 21
-7567.3854343730509
 31
0.0
  0
LINE
  5
7AA
  8
0
  6
CONTINUOUS
 62
     0
 10
1373.149264195964
 20
-2069.4427123345772
 30
0.0
 11
1373.149264195963
 21
-4816.3581475294113
 31
0.0
  0
LINE
  5
7AB
  8
0
  6
CONTINUOUS
 62
     0
 10
1373.149264195963
 20
-7565.4535827242407
 30
0.0
 11
1373.149264195963
 21
-4818.5381475294089
 31
0.0
  0
SOLID
  5
7AC
  8
0
  6
CONTINUOUS
 62
     0
 10
1372.827288921163
 20
-2069.4427123345772
 30
0.0
 11
1373.4712394707651
 21
-2069.4427123345772
 31
0.0
 12
1373.149264195964
 22
-2067.5108606857689
 32
0.0
 13
1373.149264195964
 23
-2067.5108606857689
 33
0.0
  0
SOLID
  5
7AD
  8
0
  6
CONTINUOUS
 62
     0
 10
1372.827288921161
 20
-7565.4535827242407
 30
0.0
 11
1373.471239470764
 21
-7565.4535827242407
 31
0.0
 12
1373.149264195963
 22
-7567.3854343730509
 32
0.0
 13
1373.149264195963
 23
-7567.3854343730509
 33
0.0
  0
INSERT
  5
7AF
  8
0
  6
CONTINUOUS
  2
*U7
 10
0.0
 20
0.0
 30
0.0
  0
POINT
  5
7B0
  8
DEFPOINTS
  6
CONTINUOUS
 62
     0
 10
-3676.6624163892111
 20
-2067.5108606857671
 30
0.0
  0
POINT
  5
7B1
  8
DEFPOINTS
  6
CONTINUOUS
 62
     0
 10
-846.10592947032978
 20
-7567.3854343730509
 30
0.0
  0
POINT
  5
7B2
  8
DEFPOINTS
  6
CONTINUOUS
 62
     0
 10
1373.149264195963
 20
-7567.3854343730509
 30
0.0
  0
ENDBLK
  5
7B3
  8
0
  0
BLOCK
  8
0
  2
*U7
 70
     1
 10
0.0
 20
0.0
 30
0.0
  3
*U7
  1

  0
TEXT
  5
828
  8
0
  6
CONTINUOUS
 62
     0
 10
1365.149264195964
 20
-4818.4481475294069
 30
0.0
 40
2.0
  1
5499.8746
  0
ENDBLK
  5
829
  8
0
  0
BLOCK
  8
0
  2
*D8
 70
     1
 10
0.0
 20
0.0
 30
0.0
  3
*D8
  1

  0
LINE
  5
7B6
  8
0
  6
CONTINUOUS
 62
     0
 10
-9124.2085593060492
 20
-1133.14129486346
 30
0.0
 11
-7615.0994780544997
 21
-1133.1412948634611
 31
0.0
  0
LINE
  5
7B7
  8
0
  6
CONTINUOUS
 62
     0
 10
-9146.8921840147796
 20
-10131.6241913842
 30
0.0
 11
-7615.0994780544997
 21
-10131.6241913842
 31
0.0
  0
LINE
  5
7B8
  8
0
  6
CONTINUOUS
 62
     0
 10
-7617.0994780544997
 20
-1135.0731465122681
 30
0.0
 11
-7617.0994780544997
 21
-5631.2927431238386
 31
0.0
  0
LINE
  5
7B9
  8
0
  6
CONTINUOUS
 62
     0
 10
-7617.0994780544997
 20
-10129.6923397354
 30
0.0
 11
-7617.0994780544997
 21
-5633.4727431238389
 31
0.0
  0
SOLID
  5
7BA
  8
0
  6
CONTINUOUS
 62
     0
 10
-7617.4214533292989
 20
-1135.0731465122681
 30
0.0
 11
-7616.777502779697
 21
-1135.0731465122681
 31
0.0
 12
-7617.0994780544997
 22
-1133.1412948634611
 32
0.0
 13
-7617.0994780544997
 23
-1133.1412948634611
 33
0.0
  0
SOLID
  5
7BB
  8
0
  6
CONTINUOUS
 62
     0
 10
-7617.4214533292989
 20
-10129.6923397354
 30
0.0
 11
-7616.7775027796988
 21
-10129.6923397354
 31
0.0
 12
-7617.0994780544997
 22
-10131.6241913842
 32
0.0
 13
-7617.0994780544997
 23
-10131.6241913842
 33
0.0
  0
INSERT
  5
7BD
  8
0
  6
CONTINUOUS
  2
*U9
 10
0.0
 20
0.0
 30
0.0
  0
POINT
  5
7BE
  8
DEFPOINTS
  6
CONTINUOUS
 62
     0
 10
-9125.2085593060528
 20
-1133.14129486346
 30
0.0
  0
POINT
  5
7BF
  8
DEFPOINTS
  6
CONTINUOUS
 62
     0
 10
-9147.8921840147796
 20
-10131.6241913842
 30
0.0
  0
POINT
  5
7C0
  8
DEFPOINTS
  6
CONTINUOUS
 62
     0
 10
-7617.0994780544997
 20
-10131.6241913842
 30
0.0
  0
ENDBLK
  5
7C1
  8
0
  0
BLOCK
  8
0
  2
*U9
 70
     1
 10
0.0
 20
0.0
 30
0.0
  3
*U9
  1

  0
TEXT
  5
82B
  8
0
  6
CONTINUOUS
 62
     0
 10
-7625.0994780544997
 20
-5633.3827431238424
 30
0.0
 40
2.0
  1
8998.4829
  0
ENDBLK
  5
82C
  8
0
  0
BLOCK
  8
0
  2
*D10
 70
     1
 10
0.0
 20
0.0
 30
0.0
  3
*D10
  1

  0
LINE
  5
7C4
  8
0
  6
CONTINUOUS
 62
     0
 10
-1.0
 20
0.0000000000000003
 30
0.0
 11
-1474.628008728349
 21
0.0000000000004177
 31
0.0
  0
LINE
  5
7C5
  8
0
  6
CONTINUOUS
 62
     0
 10
-0.9999999999727151
 20
-9006.9999999999964
 30
0.0
 11
-1474.6280087283519
 21
-9006.9999999999964
 31
0.0
  0
LINE
  5
7C6
  8
0
  6
CONTINUOUS
 62
     0
 10
-1472.628008728349
 20
-1.931851648806604
 30
0.0
 11
-1472.628008728351
 21
-4502.409999999998
 31
0.0
  0
LINE
  5
7C7
  8
0
  6
CONTINUOUS
 62
     0
 10
-1472.6280087283519
 20
-9005.0681483511908
 30
0.0
 11
-1472.628008728351
 21
-4504.5899999999983
 31
0.0
  0
SOLID
  5
7C8
  8
0
  6
CONTINUOUS
 62
     0
 10
-1472.9499840031499
 20
-1.931851648806604
 30
0.0
 11
-1472.306033453548
 21
-1.931851648806604
 31
0.0
 12
-1472.628008728349
 22
0.0000000000004172
 32
0.0
 13
-1472.628008728349
 23
0.0000000000004172
 33
0.0
  0
SOLID
  5
7C9
  8
0
  6
CONTINUOUS
 62
     0
 10
-1472.9499840031531
 20
-9005.0681483511908
 30
0.0
 11
-1472.306033453551
 21
-9005.0681483511908
 31
0.0
 12
-1472.6280087283519
 22
-9006.9999999999964
 32
0.0
 13
-1472.6280087283519
 23
-9006.9999999999964
 33
0.0
  0
INSERT
  5
7CB
  8
0
  6
CONTINUOUS
  2
*U11
 10
0.0
 20
0.0
 30
0.0
  0
POINT
  5
7CC
  8
DEFPOINTS
  6
CONTINUOUS
 62
     0
 10
0.0
 20
0.0
 30
0.0
  0
POINT
  5
7CD
  8
DEFPOINTS
  6
CONTINUOUS
 62
     0
 10
0.0000000000272848
 20
-9006.9999999999964
 30
0.0
  0
POINT
  5
7CE
  8
DEFPOINTS
  6
CONTINUOUS
 62
     0
 10
-1472.6280087283519
 20
-9006.9999999999964
 30
0.0
  0
ENDBLK
  5
7CF
  8
0
  0
BLOCK
  8
0
  2
*U11
 70
     1
 10
0.0
 20
0.0
 30
0.0
  3
*U11
  1

  0
TEXT
  5
82E
  8
0
  6
CONTINUOUS
 62
     0
 10
-1479.628008728349
 20
-4504.4999999999982
 30
0.0
 40
2.0
  1
9007.0000
  0
ENDBLK
  5
82F
  8
0
  0
BLOCK
  8
0
  2
*D12
 70
     1
 10
0.0
 20
0.0
 30
0.0
  3
*D12
  1

  0
LINE
  5
7D2
  8
0
  6
CONTINUOUS
 62
     0
 10
-0.0000000000000001
 20
38.206017305786169
 30
0.0
 11
-0.0000000000006041
 21
-9826.2915581016914
 31
0.0
  0
LINE
  5
7D3
  8
0
  6
CONTINUOUS
 62
     0
 10
693.35843713063321
 20
-5706.5151253135336
 30
0.0
 11
693.35843713063298
 21
-9826.2915581016914
 31
0.0
  0
LINE
  5
7D4
  8
0
  6
CONTINUOUS
 62
     0
 10
1.931851648806419
 20
-9824.2915581016914
 30
0.0
 11
691.42658548182601
 21
-9824.2915581016914
 31
0.0
  0
SOLID
  5
7D5
  8
0
  6
CONTINUOUS
 62
     0
 10
1.931851648806419
 20
-9823.9695828268905
 30
0.0
 11
1.931851648806419
 21
-9824.6135333764923
 31
0.0
 12
-0.0000000000006039
 22
-9824.2915581016914
 32
0.0
 13
-0.0000000000006039
 23
-9824.2915581016914
 33
0.0
  0
SOLID
  5
7D6
  8
0
  6
CONTINUOUS
 62
     0
 10
691.42658548182601
 20
-9823.9695828268905
 30
0.0
 11
691.42658548182601
 21
-9824.6135333764923
 31
0.0
 12
693.35843713063298
 22
-9824.2915581016914
 32
0.0
 13
693.35843713063298
 23
-9824.2915581016914
 33
0.0
  0
INSERT
  5
7D8
  8
0
  6
CONTINUOUS
  2
*U13
 10
0.0
 20
0.0
 30
0.0
  0
POINT
  5
7D9
  8
DEFPOINTS
  6
CONTINUOUS
 62
     0
 10
0.0
 20
39.20601730578619
 30
0.0
  0
POINT
  5
7DA
  8
DEFPOINTS
  6
CONTINUOUS
 62
     0
 10
693.35843713063321
 20
-5705.5151253135318
 30
0.0
  0
POINT
  5
7DB
  8
DEFPOINTS
  6
CONTINUOUS
 62
     0
 10
693.35843713063298
 20
-9824.2915581016914
 30
0.0
  0
ENDBLK
  5
7DC
  8
0
  0
BLOCK
  8
0
  2
*U13
 70
     1
 10
0.0
 20
0.0
 30
0.0
  3
*U13
  1

  0
TEXT
  5
831
  8
0
  6
CONTINUOUS
 62
     0
 10
339.67921856531621
 20
-9824.2015581016913
 30
0.0
 40
2.0
  1
693.3584
  0
ENDBLK
  5
832
  8
0
  0
BLOCK
  8
0
  2
*D14
 70
     1
 10
0.0
 20
0.0
 30
0.0
  3
*D14
  1

  0
LINE
  5
7DF
  8
0
  6
CONTINUOUS
 62
     0
 10
-1.0
 20
39.20601730578619
 30
0.0
 11
-796.65533167657134
 21
39.206017305786403
 31
0.0
  0
LINE
  5
7E0
  8
0
  6
CONTINUOUS
 62
     0
 10
-703.02645494244825
 20
-6042.5893569734653
 30
0.0
 11
-796.65533167657316
 21
-6042.5893569734653
 31
0.0
  0
LINE
  5
7E1
  8
0
  6
CONTINUOUS
 62
     0
 10
-794.65533167657179
 20
37.274165656979378
 30
0.0
 11
-794.65533167657236
 21
-3000.6016698338399
 31
0.0
  0
LINE
  5
7E2
  8
0
  6
CONTINUOUS
 62
     0
 10
-794.65533167657316
 20
-6040.6575053246579
 30
0.0
 11
-794.65533167657236
 21
-3002.7816698338402
 31
0.0
  0
SOLID
  5
7E3
  8
0
  6
CONTINUOUS
 62
     0
 10
-794.97730695137273
 20
37.274165656979378
 30
0.0
 11
-794.33335640177052
 21
37.274165656979378
 31
0.0
 12
-794.65533167657179
 22
39.206017305786403
 32
0.0
 13
-794.65533167657179
 23
39.206017305786403
 33
0.0
  0
SOLID
  5
7E4
  8
0
  6
CONTINUOUS
 62
     0
 10
-794.97730695137398
 20
-6040.6575053246579
 30
0.0
 11
-794.33335640177199
 21
-6040.6575053246579
 31
0.0
 12
-794.65533167657316
 22
-6042.5893569734653
 32
0.0
 13
-794.65533167657316
 23
-6042.5893569734653
 33
0.0
  0
INSERT
  5
7E6
  8
0
  6
CONTINUOUS
  2
*U15
 10
0.0
 20
0.0
 30
0.0
  0
POINT
  5
7E7
  8
DEFPOINTS
  6
CONTINUOUS
 62
     0
 10
0.0
 20
39.20601730578619
 30
0.0
  0
POINT
  5
7E8
  8
DEFPOINTS
  6
CONTINUOUS
 62
     0
 10
-702.02645494244825
 20
-6042.5893569734653
 30
0.0
  0
POINT
  5
7E9
  8
DEFPOINTS
  6
CONTINUOUS
 62
     0
 10
-794.65533167657316
 20
-6042.5893569734653
 30
0.0
  0
ENDBLK
  5
7EA
  8
0
  0
BLOCK
  8
0
  2
*U15
 70
     1
 10
0.0
 20
0.0
 30
0.0
  3
*U15
  1

  0
TEXT
  5
834
  8
0
  6
CONTINUOUS
 62
     0
 10
-802.15533167657179
 20
-3002.6916698338391
 30
0.0
 40
2.0
  1
6081.7954
  0
ENDBLK
  5
835
  8
0
  0
BLOCK
  8
0
  2
*D16
 70
     1
 10
0.0
 20
0.0
 30
0.0
  3
*D16
  1

  0
LINE
  5
7ED
  8
0
  6
CONTINUOUS
 62
     0
 10
-0.0000000000000001
 20
38.206017305786169
 30
0.0
 11
-0.0000000000004197
 21
-6814.9305650524811
 31
0.0
  0
LINE
  5
7EE
  8
0
  6
CONTINUOUS
 62
     0
 10
-702.02645494244825
 20
-6043.5893569734653
 30
0.0
 11
-702.02645494244825
 21
-6814.9305650524811
 31
0.0
  0
LINE
  5
7EF
  8
0
  6
CONTINUOUS
 62
     0
 10
-1.9318516488074391
 20
-6812.9305650524802
 30
0.0
 11
-700.09460329364094
 21
-6812.9305650524802
 31
0.0
  0
SOLID
  5
7F0
  8
0
  6
CONTINUOUS
 62
     0
 10
-1.9318516488074391
 20
-6812.6085897776793
 30
0.0
 11
-1.9318516488074391
 21
-6813.2525403272812
 31
0.0
 12
-0.0000000000004196
 22
-6812.9305650524802
 32
0.0
 13
-0.0000000000004196
 23
-6812.9305650524802
 33
0.0
  0
SOLID
  5
7F1
  8
0
  6
CONTINUOUS
 62
     0
 10
-700.09460329364094
 20
-6812.6085897776793
 30
0.0
 11
-700.09460329364094
 21
-6813.2525403272812
 31
0.0
 12
-702.02645494244825
 22
-6812.9305650524802
 32
0.0
 13
-702.02645494244825
 23
-6812.9305650524802
 33
0.0
  0
INSERT
  5
7F3
  8
0
  6
CONTINUOUS
  2
*U17
 10
0.0
 20
0.0
 30
0.0
  0
POINT
  5
7F4
  8
DEFPOINTS
  6
CONTINUOUS
 62
     0
 10
0.0
 20
39.20601730578619
 30
0.0
  0
POINT
  5
7F5
  8
DEFPOINTS
  6
CONTINUOUS
 62
     0
 10
-702.02645494244825
 20
-6042.5893569734653
 30
0.0
  0
POINT
  5
7F6
  8
DEFPOINTS
  6
CONTINUOUS
 62
     0
 10
-702.02645494244825
 20
-6812.9305650524802
 30
0.0
  0
ENDBLK
  5
7F7
  8
0
  0
BLOCK
  8
0
  2
*U17
 70
     1
 10
0.0
 20
0.0
 30
0.0
  3
*U17
  1

  0
TEXT
  5
837
  8
0
  6
CONTINUOUS
 62
     0
 10
-357.67989413789093
 20
-6812.8405650524792
 30
0.0
 40
2.0
  1
702.0265
  0
ENDBLK
  5
838
  8
0
  0
BLOCK
  8
0
  2
*D18
 70
     1
 10
0.0
 20
0.0
 30
0.0
  3
*D18
  1

  0
LINE
  5
7FA
  8
0
  6
CONTINUOUS
 62
     0
 10
125.0
 20
194.0
 30
0.0
 11
125.0
 21
251.2553669963963
 31
0.0
  0
LINE
  5
7FB
  8
0
  6
CONTINUOUS
 62
     0
 10
-125.0
 20
194.0
 30
0.0
 11
-125.0
 21
251.2553669963963
 31
0.0
  0
LINE
  5
7FC
  8
0
  6
CONTINUOUS
 62
     0
 10
123.0681483511929
 20
249.25536699639619
 30
0.0
 11
-123.0681483511929
 21
249.25536699639619
 31
0.0
  0
SOLID
  5
7FD
  8
0
  6
CONTINUOUS
 62
     0
 10
123.0681483511929
 20
249.57734227119741
 30
0.0
 11
123.0681483511929
 21
248.93339172159509
 31
0.0
 12
125.0
 22
249.25536699639619
 32
0.0
 13
125.0
 23
249.25536699639619
 33
0.0
  0
SOLID
  5
7FE
  8
0
  6
CONTINUOUS
 62
     0
 10
-123.0681483511929
 20
249.57734227119741
 30
0.0
 11
-123.0681483511929
 21
248.93339172159509
 31
0.0
 12
-125.0
 22
249.25536699639619
 32
0.0
 13
-125.0
 23
249.25536699639619
 33
0.0
  0
INSERT
  5
800
  8
0
  6
CONTINUOUS
  2
*U19
 10
0.0
 20
0.0
 30
0.0
  0
POINT
  5
801
  8
DEFPOINTS
  6
CONTINUOUS
 62
     0
 10
125.0
 20
193.0
 30
0.0
  0
POINT
  5
802
  8
DEFPOINTS
  6
CONTINUOUS
 62
     0
 10
-125.0
 20
193.0
 30
0.0
  0
POINT
  5
803
  8
DEFPOINTS
  6
CONTINUOUS
 62
     0
 10
-125.0
 20
249.25536699639619
 30
0.0
  0
ENDBLK
  5
804
  8
0
  0
BLOCK
  8
0
  2
*U19
 70
     1
 10
0.0
 20
0.0
 30
0.0
  3
*U19
  1

  0
TEXT
  5
83A
  8
0
  6
CONTINUOUS
 62
     0
 10
-6.166666666666667
 20
249.34536699639619
 30
0.0
 40
2.0
  1
250.0000
  0
ENDBLK
  5
83B
  8
0
  0
BLOCK
  8
0
  2
*D20
 70
     1
 10
0.0
 20
0.0
 30
0.0
  3
*D20
  1

  0
LINE
  5
807
  8
0
  6
CONTINUOUS
 62
     0
 10
126.0
 20
193.0
 30
0.0
 11
177.34830132566279
 21
193.0
 31
0.0
  0
LINE
  5
808
  8
0
  6
CONTINUOUS
 62
     0
 10
126.0
 20
-7.0
 30
0.0
 11
177.3483013256627
 21
-7.0000000000000133
 31
0.0
  0
LINE
  5
809
  8
0
  6
CONTINUOUS
 62
     0
 10
175.34830132566279
 20
191.06814835119289
 30
0.0
 11
175.34830132566279
 21
94.089999999999975
 31
0.0
  0
LINE
  5
80A
  8
0
  6
CONTINUOUS
 62
     0
 10
175.3483013256627
 20
-5.068148351192991
 30
0.0
 11
175.34830132566279
 21
91.909999999999982
 31
0.0
  0
SOLID
  5
80B
  8
0
  6
CONTINUOUS
 62
     0
 10
175.02632605086151
 20
191.06814835119289
 30
0.0
 11
175.67027660046381
 21
191.06814835119289
 31
0.0
 12
175.34830132566279
 22
193.0
 32
0.0
 13
175.34830132566279
 23
193.0
 33
0.0
  0
SOLID
  5
80C
  8
0
  6
CONTINUOUS
 62
     0
 10
175.02632605086151
 20
-5.068148351192991
 30
0.0
 11
175.67027660046381
 21
-5.068148351192991
 31
0.0
 12
175.3483013256627
 22
-7.0000000000000133
 32
0.0
 13
175.3483013256627
 23
-7.0000000000000133
 33
0.0
  0
INSERT
  5
80E
  8
0
  6
CONTINUOUS
  2
*U21
 10
0.0
 20
0.0
 30
0.0
  0
POINT
  5
80F
  8
DEFPOINTS
  6
CONTINUOUS
 62
     0
 10
125.0
 20
193.0
 30
0.0
  0
POINT
  5
810
  8
DEFPOINTS
  6
CONTINUOUS
 62
     0
 10
125.0
 20
-7.0
 30
0.0
  0
POINT
  5
811
  8
DEFPOINTS
  6
CONTINUOUS
 62
     0
 10
175.3483013256627
 20
-7.0000000000000133
 30
0.0
  0
ENDBLK
  5
812
  8
0
  0
BLOCK
  8
0
  2
*U21
 70
     1
 10
0.0
 20
0.0
 30
0.0
  3
*U21
  1

  0
TEXT
  5
83D
  8
0
  6
CONTINUOUS
 62
     0
 10
169.34830132566259
 20
92.0
 30
0.0
 40
2.0
  1
200.0000
  0
ENDBLK
  5
83E
  8
0
  0
BLOCK
  8
0
  2
*D22
 70
     1
 10
0.0
 20
0.0
 30
0.0
  3
*D22
  1

  0
LINE
  5
815
  8
0
  6
CONTINUOUS
 62
     0
 10
1.0
 20
-0.0000000000000003
 30
0.0
 11
696.39948778404698
 21
-0.0000000000001973
 31
0.0
  0
LINE
  5
816
  8
0
  6
CONTINUOUS
 62
     0
 10
1.0000000000272831
 20
-9006.9999999999964
 30
0.0
 11
696.39948778404482
 21
-9006.9999999999964
 31
0.0
  0
LINE
  5
817
  8
0
  6
CONTINUOUS
 62
     0
 10
694.3994877840471
 20
-1.931851648807219
 30
0.0
 11
694.39948778404596
 21
-4502.409999999998
 31
0.0
  0
LINE
  5
818
  8
0
  6
CONTINUOUS
 62
     0
 10
694.39948778404482
 20
-9005.0681483511908
 30
0.0
 11
694.39948778404596
 21
-4504.5899999999983
 31
0.0
  0
SOLID
  5
819
  8
0
  6
CONTINUOUS
 62
     0
 10
694.07751250924593
 20
-1.931851648807219
 30
0.0
 11
694.72146305884814
 21
-1.931851648807219
 31
0.0
 12
694.3994877840471
 22
-0.0000000000001967
 32
0.0
 13
694.3994877840471
 23
-0.0000000000001967
 33
0.0
  0
SOLID
  5
81A
  8
0
  6
CONTINUOUS
 62
     0
 10
694.07751250924377
 20
-9005.0681483511908
 30
0.0
 11
694.72146305884644
 21
-9005.0681483511908
 31
0.0
 12
694.39948778404482
 22
-9006.9999999999964
 32
0.0
 13
694.39948778404482
 23
-9006.9999999999964
 33
0.0
  0
INSERT
  5
81C
  8
0
  6
CONTINUOUS
  2
*U23
 10
0.0
 20
0.0
 30
0.0
  0
POINT
  5
81D
  8
DEFPOINTS
  6
CONTINUOUS
 62
     0
 10
0.0
 20
0.0
 30
0.0
  0
POINT
  5
81E
  8
DEFPOINTS
  6
CONTINUOUS
 62
     0
 10
0.0000000000272848
 20
-9006.9999999999964
 30
0.0
  0
POINT
  5
81F
  8
DEFPOINTS
  6
CONTINUOUS
 62
     0
 10
694.39948778404482
 20
-9006.9999999999964
 30
0.0
  0
ENDBLK
  5
820
  8
0
  0
BLOCK
  8
0
  2
*U23
 70
     1
 10
0.0
 20
0.0
 30
0.0
  3
*U23
  1

  0
TEXT
  5
840
  8
0
  6
CONTINUOUS
 62
     0
 10
687.39948778404676
 20
-4504.4999999999982
 30
0.0
 40
2.0
  1
9007.0000
  0
ENDBLK
  5
841
  8
0
  0
ENDSEC
  0
SECTION
  2
ENTITIES
  0
LINE
  5
842
  8
0
  6
CONTINUOUS
 10
0.0
 20
50.863582642645291
 30
0.0
 11
0.0
 21
-50.863582642645291
 31
0.0
  0
LINE
  5
843
  8
0
  6
CONTINUOUS
 10
132.0
 20
-7.0
 30
0.0
 11
-132.0
 21
-7.0
 31
0.0
  0
LINE
  5
844
  8
0
  6
CONTINUOUS
 10
125.0
 20
193.0
 30
0.0
 11
125.0
 21
0.0
 31
0.0
  0
LINE
  5
845
  8
0
  6
CONTINUOUS
 10
132.0
 20
0.0
 30
0.0
 11
132.0
 21
-7.0
 31
0.0
  0
LINE
  5
846
  8
0
  6
CONTINUOUS
 10
132.0
 20
0.0
 30
0.0
 11
-132.0
 21
0.0
 31
0.0
  0
LINE
  5
847
  8
0
  6
CONTINUOUS
 10
125.0
 20
193.0
 30
0.0
 11
-125.0
 21
193.0
 31
0.0
  0
LINE
  5
848
  8
0
  6
CONTINUOUS
 10
-125.0
 20
193.0
 30
0.0
 11
-125.0
 21
0.0
 31
0.0
  0
LINE
  5
849
  8
0
  6
CONTINUOUS
 10
-132.0
 20
0.0
 30
0.0
 11
-132.0
 21
-7.0
 31
0.0
  0
TEXT
  5
84A
  8
0
  6
CONTINUOUS
 10
577.8429210878802
 20
-531.02037945064183
 30
0.0
 40
144.0
  1
2m/s
 50
0.0000025044687019
 41
0.687499990065893
  7
STANDARD1
  0
TEXT
  5
84B
  8
0
  6
CONTINUOUS
 10
-153.44509803702931
 20
-2184.9032154414122
 30
0.0
 40
144.0
  1
1m/s
 50
0.0000025044687019
 41
0.687499990065893
  7
STANDARD1
  0
TEXT
  5
84C
  8
0
  6
CONTINUOUS
 10
-253.45056201061371
 20
-6227.6515844001842
 30
0.0
 40
144.0
  1
0.5m/s
 50
0.0000025044687019
 41
0.687499990065893
  7
STANDARD1
  0
TEXT
  5
84D
  8
0
  6
CONTINUOUS
 10
-246.16284042797039
 20
-8278.6703801754902
 30
0.0
 40
144.0
  1
0.3m/s
 50
0.0000025044687019
 41
0.687499990065893
  7
STANDARD1
  0
POLYLINE
  5
84E
  8
0
  6
CONTINUOUS
 66
     1
 10
0.0
 20
0.0
 30
0.0
  0
VERTEX
  5
9A6
  8
0
  6
CONTINUOUS
 10
27.849829093872302
 20
-7.0
 30
0.0
  0
VERTEX
  5
9A7
  8
0
  6
CONTINUOUS
 10
257.8989706141565
 20
-978.82630543678135
 30
0.0
  0
VERTEX
  5
9A8
  8
0
  6
CONTINUOUS
 10
352.26249586246382
 20
-1452.0102142308931
 30
0.0
  0
VERTEX
  5
9A9
  8
0
  6
CONTINUOUS
 10
430.38734113951591
 20
-1909.9190303157391
 30
0.0
  0
VERTEX
  5
9AA
  8
0
  6
CONTINUOUS
 10
430.38734113951591
 20
-1909.9190303157391
 30
0.0
  0
VERTEX
  5
9AB
  8
0
  6
CONTINUOUS
 10
489.04884828897588
 20
-2355.474913070309
 30
0.0
  0
VERTEX
  5
9AC
  8
0
  6
CONTINUOUS
 10
533.77529982427757
 20
-2823.6554496684948
 30
0.0
  0
VERTEX
  5
9AD
  8
0
  6
CONTINUOUS
 10
612.28910677638305
 20
-3999.8562608863108
 30
0.0
  0
VERTEX
  5
9AE
  8
0
  6
CONTINUOUS
 10
612.28910677638305
 20
-3999.8562608863108
 30
0.0
  0
VERTEX
  5
9AF
  8
0
  6
CONTINUOUS
 10
651.39227715201355
 20
-4664.2000511082479
 30
0.0
  0
VERTEX
  5
9B0
  8
0
  6
CONTINUOUS
 10
684.69041931882202
 20
-5368.440893653602
 30
0.0
  0
VERTEX
  5
9B1
  8
0
  6
CONTINUOUS
 10
684.69041931882202
 20
-5368.440893653602
 30
0.0
  0
VERTEX
  5
9B2
  8
0
  6
CONTINUOUS
 10
746.01835208202795
 20
-6042.5893569734653
 30
0.0
  0
VERTEX
  5
9B3
  8
0
  6
CONTINUOUS
 10
776.35128109533434
 20
-6637.2042851383776
 30
0.0
  0
VERTEX
  5
9B4
  8
0
  6
CONTINUOUS
 10
776.35128109533434
 20
-6637.2042851383776
 30
0.0
  0
VERTEX
  5
9B5
  8
0
  6
CONTINUOUS
 10
737.74490049897565
 20
-7124.8491792528685
 30
0.0
  0
VERTEX
  5
9B6
  8
0
  6
CONTINUOUS
 10
683.96757789893275
 20
-7545.5578929377689
 30
0.0
  0
VERTEX
  5
9B7
  8
0
  6
CONTINUOUS
 10
683.96757789893275
 20
-7545.5578929377689
 30
0.0
  0
VERTEX
  5
9B8
  8
0
  6
CONTINUOUS
 10
623.60624753253046
 20
-7936.2452237995849
 30
0.0
  0
VERTEX
  5
9B9
  8
0
  6
CONTINUOUS
 10
545.53382592476373
 20
-8253.8793928708219
 30
0.0
  0
VERTEX
  5
9BA
  8
0
  6
CONTINUOUS
 10
545.53382592476373
 20
-8253.8793928708219
 30
0.0
  0
VERTEX
  5
9BB
  8
0
  6
CONTINUOUS
 10
523.14332365910923
 20
-8370.4082358946634
 30
0.0
  0
VERTEX
  5
9BC
  8
0
  6
CONTINUOUS
 10
494.01655997455049
 20
-8473.8415880954963
 30
0.0
  0
VERTEX
  5
9BD
  8
0
  6
CONTINUOUS
 10
444.44051784337893
 20
-8585.1018548756783
 30
0.0
  0
VERTEX
  5
9BE
  8
0
  6
CONTINUOUS
 10
360.70218023817688
 20
-8725.1114416375967
 30
0.0
  0
VERTEX
  5
9BF
  8
0
  6
CONTINUOUS
 10
360.70218023817688
 20
-8725.1114416375967
 30
0.0
  0
VERTEX
  5
9C0
  8
0
  6
CONTINUOUS
 10
306.24617966598993
 20
-8805.8973882687369
 30
0.0
  0
VERTEX
  5
9C1
  8
0
  6
CONTINUOUS
 10
255.37613987779881
 20
-8876.8448918960821
 30
0.0
  0
VERTEX
  5
9C2
  8
0
  6
CONTINUOUS
 10
255.37613987779881
 20
-8876.8448918960821
 30
0.0
  0
VERTEX
  5
9C3
  8
0
  6
CONTINUOUS
 10
215.25123143612109
 20
-8923.678326898309
 30
0.0
  0
VERTEX
  5
9C4
  8
0
  6
CONTINUOUS
 10
161.99218691352681
 20
-8961.4055679929697
 30
0.0
  0
VERTEX
  5
9C5
  8
0
  6
CONTINUOUS
 10
161.99218691352681
 20
-8961.4055679929697
 30
0.0
  0
VERTEX
  5
9C6
  8
0
  6
CONTINUOUS
 10
128.38602732473919
 20
-8979.094410675998
 30
0.0
  0
VERTEX
  5
9C7
  8
0
  6
CONTINUOUS
 10
88.814091713602423
 20
-8994.5408932947885
 30
0.0
  0
VERTEX
  5
9C8
  8
0
  6
CONTINUOUS
 10
88.814091713602423
 20
-8994.5408932947885
 30
0.0
  0
VERTEX
  5
9C9
  8
0
  6
CONTINUOUS
 10
45.367249417378837
 20
-9003.9657930414942
 30
0.0
  0
VERTEX
  5
9CA
  8
0
  6
CONTINUOUS
 10
0.0000000000272848
 20
-9006.9999999999964
 30
0.0
  0
VERTEX
  5
9CB
  8
0
  6
CONTINUOUS
 10
0.0000000000272848
 20
-9006.9999999999964
 30
0.0
  0
VERTEX
  5
9CC
  8
0
  6
CONTINUOUS
 10
-45.367249417382482
 20
-9003.9657930414942
 30
0.0
  0
VERTEX
  5
9CD
  8
0
  6
CONTINUOUS
 10
-88.814091713606075
 20
-8994.5408932947885
 30
0.0
  0
VERTEX
  5
9CE
  8
0
  6
CONTINUOUS
 10
-88.814091713606075
 20
-8994.5408932947885
 30
0.0
  0
VERTEX
  5
9CF
  8
0
  6
CONTINUOUS
 10
-128.3860273247428
 20
-8979.094410675998
 30
0.0
  0
VERTEX
  5
9D0
  8
0
  6
CONTINUOUS
 10
-161.99218691353039
 20
-8961.4055679929697
 30
0.0
  0
VERTEX
  5
9D1
  8
0
  6
CONTINUOUS
 10
-161.99218691353039
 20
-8961.4055679929697
 30
0.0
  0
VERTEX
  5
9D2
  8
0
  6
CONTINUOUS
 10
-215.2512314361247
 20
-8923.678326898309
 30
0.0
  0
VERTEX
  5
9D3
  8
0
  6
CONTINUOUS
 10
-255.37613987780239
 20
-8876.8448918960821
 30
0.0
  0
VERTEX
  5
9D4
  8
0
  6
CONTINUOUS
 10
-255.37613987780239
 20
-8876.8448918960821
 30
0.0
  0
VERTEX
  5
9D5
  8
0
  6
CONTINUOUS
 10
-306.2461796659353
 20
-8805.8973882687369
 30
0.0
  0
VERTEX
  5
9D6
  8
0
  6
CONTINUOUS
 10
-360.70218023812231
 20
-8725.1114416375967
 30
0.0
  0
VERTEX
  5
9D7
  8
0
  6
CONTINUOUS
 10
-360.70218023812231
 20
-8725.1114416375967
 30
0.0
  0
VERTEX
  5
9D8
  8
0
  6
CONTINUOUS
 10
-444.44051784338239
 20
-8585.1018548756783
 30
0.0
  0
VERTEX
  5
9D9
  8
0
  6
CONTINUOUS
 10
-494.0165599745539
 20
-8473.8415880954963
 30
0.0
  0
VERTEX
  5
9DA
  8
0
  6
CONTINUOUS
 10
-523.14332365911275
 20
-8370.4082358946634
 30
0.0
  0
VERTEX
  5
9DB
  8
0
  6
CONTINUOUS
 10
-545.53382592476737
 20
-8253.8793928708219
 30
0.0
  0
VERTEX
  5
9DC
  8
0
  6
CONTINUOUS
 10
-545.53382592476737
 20
-8253.8793928708219
 30
0.0
  0
VERTEX
  5
9DD
  8
0
  6
CONTINUOUS
 10
-601.94943545412536
 20
-7936.2452237995849
 30
0.0
  0
VERTEX
  5
9DE
  8
0
  6
CONTINUOUS
 10
-657.92413050550545
 20
-7545.5578929377689
 30
0.0
  0
VERTEX
  5
9DF
  8
0
  6
CONTINUOUS
 10
-657.92413050550545
 20
-7545.5578929377689
 30
0.0
  0
VERTEX
  5
9E0
  8
0
  6
CONTINUOUS
 10
-713.43257083877688
 20
-7124.8491792528685
 30
0.0
  0
VERTEX
  5
9E1
  8
0
  6
CONTINUOUS
 10
-742.16799076125585
 20
-6637.2042851383776
 30
0.0
  0
VERTEX
  5
9E2
  8
0
  6
CONTINUOUS
 10
-742.16799076125585
 20
-6637.2042851383776
 30
0.0
  0
VERTEX
  5
9E3
  8
0
  6
CONTINUOUS
 10
-721.18291688573674
 20
-6042.5893569734653
 30
0.0
  0
VERTEX
  5
9E4
  8
0
  6
CONTINUOUS
 10
-684.69041931882555
 20
-5368.440893653602
 30
0.0
  0
VERTEX
  5
9E5
  8
0
  6
CONTINUOUS
 10
-684.69041931882555
 20
-5368.440893653602
 30
0.0
  0
VERTEX
  5
9E6
  8
0
  6
CONTINUOUS
 10
-651.39227715195921
 20
-4664.2000511082479
 30
0.0
  0
VERTEX
  5
9E7
  8
0
  6
CONTINUOUS
 10
-612.28910677638635
 20
-3999.8562608863108
 30
0.0
  0
VERTEX
  5
9E8
  8
0
  6
CONTINUOUS
 10
-612.28910677638635
 20
-3999.8562608863108
 30
0.0
  0
VERTEX
  5
9E9
  8
0
  6
CONTINUOUS
 10
-533.77529982428121
 20
-2823.6554496684948
 30
0.0
  0
VERTEX
  5
9EA
  8
0
  6
CONTINUOUS
 10
-489.04884828897963
 20
-2355.474913070309
 30
0.0
  0
VERTEX
  5
9EB
  8
0
  6
CONTINUOUS
 10
-430.38734113951961
 20
-1909.9190303157391
 30
0.0
  0
VERTEX
  5
9EC
  8
0
  6
CONTINUOUS
 10
-430.38734113951961
 20
-1909.9190303157391
 30
0.0
  0
VERTEX
  5
9ED
  8
0
  6
CONTINUOUS
 10
-352.26249586246718
 20
-1452.0102142308931
 30
0.0
  0
VERTEX
  5
9EE
  8
0
  6
CONTINUOUS
 10
-257.89897061410193
 20
-978.82630543678135
 30
0.0
  0
VERTEX
  5
9EF
  8
0
  6
CONTINUOUS
 10
-27.849829093875929
 20
-7.0
 30
0.0
  0
SEQEND
  5
9F0
  8
0
  6
CONTINUOUS
  0
POLYLINE
  5
89A
  8
0
  6
CONTINUOUS
 66
     1
 10
0.0
 20
0.0
 30
0.0
  0
VERTEX
  5
9F1
  8
0
  6
CONTINUOUS
 10
27.849829093872302
 20
-7.0
 30
0.0
  0
VERTEX
  5
9F2
  8
0
  6
CONTINUOUS
 10
122.5487653231976
 20
-375.46278701787389
 30
0.0
  0
VERTEX
  5
9F3
  8
0
  6
CONTINUOUS
 10
207.66080734229581
 20
-766.48775989449814
 30
0.0
  0
VERTEX
  5
9F4
  8
0
  6
CONTINUOUS
 10
282.34896320171339
 20
-1202.549100742453
 30
0.0
  0
VERTEX
  5
9F5
  8
0
  6
CONTINUOUS
 10
344.78413964315951
 20
-1706.1913946683301
 30
0.0
  0
VERTEX
  5
9F6
  8
0
  6
CONTINUOUS
 10
344.78413964315951
 20
-1706.1913946683301
 30
0.0
  0
VERTEX
  5
9F7
  8
0
  6
CONTINUOUS
 10
384.21098305759187
 20
-2185.46099709497
 30
0.0
  0
VERTEX
  5
9F8
  8
0
  6
CONTINUOUS
 10
413.41016754167322
 20
-2758.457155750129
 30
0.0
  0
VERTEX
  5
9F9
  8
0
  6
CONTINUOUS
 10
413.41016754167322
 20
-2758.457155750129
 30
0.0
  0
VERTEX
  5
9FA
  8
0
  6
CONTINUOUS
 10
432.66117584923438
 20
-3436.9515278219069
 30
0.0
  0
VERTEX
  5
9FB
  8
0
  6
CONTINUOUS
 10
440.94250298148643
 20
-4143.8790771065933
 30
0.0
  0
VERTEX
  5
9FC
  8
0
  6
CONTINUOUS
 10
440.94250298148643
 20
-4143.8790771065933
 30
0.0
  0
VERTEX
  5
9FD
  8
0
  6
CONTINUOUS
 10
438.30630734920641
 20
-4790.6764787666434
 30
0.0
  0
VERTEX
  5
9FE
  8
0
  6
CONTINUOUS
 10
430.40038875324342
 20
-5331.6239468211543
 30
0.0
  0
VERTEX
  5
9FF
  8
0
  6
CONTINUOUS
 10
430.40038875324342
 20
-5331.6239468211543
 30
0.0
  0
VERTEX
  5
A00
  8
0
  6
CONTINUOUS
 10
419.8689256737398
 20
-5778.4222404260181
 30
0.0
  0
VERTEX
  5
A01
  8
0
  6
CONTINUOUS
 10
391.7459699163137
 20
-6329.610760427433
 30
0.0
  0
VERTEX
  5
A02
  8
0
  6
CONTINUOUS
 10
391.7459699163137
 20
-6329.610760427433
 30
0.0
  0
VERTEX
  5
A03
  8
0
  6
CONTINUOUS
 10
381.3065219965336
 20
-6490.4887033559608
 30
0.0
  0
VERTEX
  5
A04
  8
0
  6
CONTINUOUS
 10
370.04928761944569
 20
-6663.5320516906486
 30
0.0
  0
VERTEX
  5
A05
  8
0
  6
CONTINUOUS
 10
370.04928761944569
 20
-6663.5320516906486
 30
0.0
  0
VERTEX
  5
A06
  8
0
  6
CONTINUOUS
 10
354.36518183586122
 20
-6854.6429503040163
 30
0.0
  0
VERTEX
  5
A07
  8
0
  6
CONTINUOUS
 10
312.10383350724982
 20
-7114.4479247196768
 30
0.0
  0
VERTEX
  5
A08
  8
0
  6
CONTINUOUS
 10
312.10383350724982
 20
-7114.4479247196768
 30
0.0
  0
VERTEX
  5
A09
  8
0
  6
CONTINUOUS
 10
294.73843625283718
 20
-7199.2718553497634
 30
0.0
  0
VERTEX
  5
A0A
  8
0
  6
CONTINUOUS
 10
280.25141476644592
 20
-7287.7214219965899
 30
0.0
  0
VERTEX
  5
A0B
  8
0
  6
CONTINUOUS
 10
280.25141476644592
 20
-7287.7214219965899
 30
0.0
  0
VERTEX
  5
A0C
  8
0
  6
CONTINUOUS
 10
265.3080311075592
 20
-7377.6724996874291
 30
0.0
  0
VERTEX
  5
A0D
  8
0
  6
CONTINUOUS
 10
245.01557294322811
 20
-7426.0628098656989
 30
0.0
  0
VERTEX
  5
A0E
  8
0
  6
CONTINUOUS
 10
207.474516047192
 20
-7478.8426265917042
 30
0.0
  0
VERTEX
  5
A0F
  8
0
  6
CONTINUOUS
 10
207.474516047192
 20
-7478.8426265917042
 30
0.0
  0
VERTEX
  5
A10
  8
0
  6
CONTINUOUS
 10
173.72098094035559
 20
-7514.3132982910611
 30
0.0
  0
VERTEX
  5
A11
  8
0
  6
CONTINUOUS
 10
139.42774922432531
 20
-7547.6857870808562
 30
0.0
  0
VERTEX
  5
A12
  8
0
  6
CONTINUOUS
 10
139.42774922432531
 20
-7547.6857870808562
 30
0.0
  0
VERTEX
  5
A13
  8
0
  6
CONTINUOUS
 10
110.4815239836152
 20
-7574.966762854292
 30
0.0
  0
VERTEX
  5
A14
  8
0
  6
CONTINUOUS
 10
80.599301230364262
 20
-7594.0998574209989
 30
0.0
  0
VERTEX
  5
A15
  8
0
  6
CONTINUOUS
 10
80.599301230364262
 20
-7594.0998574209989
 30
0.0
  0
VERTEX
  5
A16
  8
0
  6
CONTINUOUS
 10
42.865007689832048
 20
-7604.183706558526
 30
0.0
  0
VERTEX
  5
A17
  8
0
  6
CONTINUOUS
 10
0.0000000099225872
 20
-7606.9999999995871
 30
0.0
  0
VERTEX
  5
A18
  8
0
  6
CONTINUOUS
 10
0.0000000099225872
 20
-7606.9999999995871
 30
0.0
  0
VERTEX
  5
A19
  8
0
  6
CONTINUOUS
 10
-42.86500767796133
 20
-7604.183706558526
 30
0.0
  0
VERTEX
  5
A1A
  8
0
  6
CONTINUOUS
 10
-80.599301230367914
 20
-7594.0998574209989
 30
0.0
  0
VERTEX
  5
A1B
  8
0
  6
CONTINUOUS
 10
-80.599301230367914
 20
-7594.0998574209989
 30
0.0
  0
VERTEX
  5
A1C
  8
0
  6
CONTINUOUS
 10
-110.48152398617989
 20
-7574.966762854292
 30
0.0
  0
VERTEX
  5
A1D
  8
0
  6
CONTINUOUS
 10
-139.42774922432901
 20
-7547.6857870808562
 30
0.0
  0
VERTEX
  5
A1E
  8
0
  6
CONTINUOUS
 10
-139.42774922432901
 20
-7547.6857870808562
 30
0.0
  0
VERTEX
  5
A1F
  8
0
  6
CONTINUOUS
 10
-173.7209809396609
 20
-7514.3132982910611
 30
0.0
  0
VERTEX
  5
A20
  8
0
  6
CONTINUOUS
 10
-207.47451604719569
 20
-7478.8426265917042
 30
0.0
  0
VERTEX
  5
A21
  8
0
  6
CONTINUOUS
 10
-207.47451604719569
 20
-7478.8426265917042
 30
0.0
  0
VERTEX
  5
A22
  8
0
  6
CONTINUOUS
 10
-245.0155729441631
 20
-7426.0628098656989
 30
0.0
  0
VERTEX
  5
A23
  8
0
  6
CONTINUOUS
 10
-265.30803110843578
 20
-7377.6724996874291
 30
0.0
  0
VERTEX
  5
A24
  8
0
  6
CONTINUOUS
 10
-280.25141476644973
 20
-7287.7214219965899
 30
0.0
  0
VERTEX
  5
A25
  8
0
  6
CONTINUOUS
 10
-280.25141476644973
 20
-7287.7214219965899
 30
0.0
  0
VERTEX
  5
A26
  8
0
  6
CONTINUOUS
 10
-294.73843625254972
 20
-7199.2718553497634
 30
0.0
  0
VERTEX
  5
A27
  8
0
  6
CONTINUOUS
 10
-312.10383350725351
 20
-7114.4479247196768
 30
0.0
  0
VERTEX
  5
A28
  8
0
  6
CONTINUOUS
 10
-312.10383350725351
 20
-7114.4479247196768
 30
0.0
  0
VERTEX
  5
A29
  8
0
  6
CONTINUOUS
 10
-354.36518183621422
 20
-6854.6429503040163
 30
0.0
  0
VERTEX
  5
A2A
  8
0
  6
CONTINUOUS
 10
-370.04928761944927
 20
-6663.5320516906486
 30
0.0
  0
VERTEX
  5
A2B
  8
0
  6
CONTINUOUS
 10
-370.04928761944927
 20
-6663.5320516906486
 30
0.0
  0
VERTEX
  5
A2C
  8
0
  6
CONTINUOUS
 10
-381.30652199642088
 20
-6490.4887033559608
 30
0.0
  0
VERTEX
  5
A2D
  8
0
  6
CONTINUOUS
 10
-391.74596991631739
 20
-6329.610760427433
 30
0.0
  0
VERTEX
  5
A2E
  8
0
  6
CONTINUOUS
 10
-391.74596991631739
 20
-6329.610760427433
 30
0.0
  0
VERTEX
  5
A2F
  8
0
  6
CONTINUOUS
 10
-419.868925673918
 20
-5778.4222404260099
 30
0.0
  0
VERTEX
  5
A30
  8
0
  6
CONTINUOUS
 10
-430.40038875324723
 20
-5331.6239468211543
 30
0.0
  0
VERTEX
  5
A31
  8
0
  6
CONTINUOUS
 10
-430.40038875324723
 20
-5331.6239468211543
 30
0.0
  0
VERTEX
  5
A32
  8
0
  6
CONTINUOUS
 10
-438.30630734909357
 20
-4790.6764787666434
 30
0.0
  0
VERTEX
  5
A33
  8
0
  6
CONTINUOUS
 10
-440.94250298149018
 20
-4143.8790771065933
 30
0.0
  0
VERTEX
  5
A34
  8
0
  6
CONTINUOUS
 10
-440.94250298149018
 20
-4143.8790771065933
 30
0.0
  0
VERTEX
  5
A35
  8
0
  6
CONTINUOUS
 10
-432.66117584923791
 20
-3436.9515278219069
 30
0.0
  0
VERTEX
  5
A36
  8
0
  6
CONTINUOUS
 10
-413.4101675416768
 20
-2758.457155750129
 30
0.0
  0
VERTEX
  5
A37
  8
0
  6
CONTINUOUS
 10
-413.4101675416768
 20
-2758.457155750129
 30
0.0
  0
VERTEX
  5
A38
  8
0
  6
CONTINUOUS
 10
-384.21098305759551
 20
-2185.46099709497
 30
0.0
  0
VERTEX
  5
A39
  8
0
  6
CONTINUOUS
 10
-344.78413964316309
 20
-1706.1913946683301
 30
0.0
  0
VERTEX
  5
A3A
  8
0
  6
CONTINUOUS
 10
-344.78413964316309
 20
-1706.1913946683301
 30
0.0
  0
VERTEX
  5
A3B
  8
0
  6
CONTINUOUS
 10
-282.34896320171708
 20
-1202.549100742453
 30
0.0
  0
VERTEX
  5
A3C
  8
0
  6
CONTINUOUS
 10
-203.75820269327949
 20
-766.23983140393102
 30
0.0
  0
VERTEX
  5
A3D
  8
0
  6
CONTINUOUS
 10
-115.4336622933122
 20
-376.99170034597199
 30
0.0
  0
VERTEX
  5
A3E
  8
0
  6
CONTINUOUS
 10
-27.849829093875929
 20
-7.0
 30
0.0
  0
SEQEND
  5
A3F
  8
0
  6
CONTINUOUS
  0
POLYLINE
  5
8EA
  8
0
  6
CONTINUOUS
 66
     1
 10
0.0
 20
0.0
 30
0.0
  0
VERTEX
  5
A40
  8
0
  6
CONTINUOUS
 10
27.849829093872302
 20
-7.0
 30
0.0
  0
VERTEX
  5
A41
  8
0
  6
CONTINUOUS
 10
88.454482892846514
 20
-225.83288648857291
 30
0.0
  0
VERTEX
  5
A42
  8
0
  6
CONTINUOUS
 10
137.38625961114121
 20
-467.82448087378998
 30
0.0
  0
VERTEX
  5
A43
  8
0
  6
CONTINUOUS
 10
181.704092961996
 20
-756.13349105230304
 30
0.0
  0
VERTEX
  5
A44
  8
0
  6
CONTINUOUS
 10
219.10101126166231
 20
-1113.9186249207589
 30
0.0
  0
VERTEX
  5
A45
  8
0
  6
CONTINUOUS
 10
219.10101126166231
 20
-1113.9186249207589
 30
0.0
  0
VERTEX
  5
A46
  8
0
  6
CONTINUOUS
 10
244.0321291896671
 20
-1478.9610346667939
 30
0.0
  0
VERTEX
  5
A47
  8
0
  6
CONTINUOUS
 10
261.25509686409902
 20
-1835.2218675346919
 30
0.0
  0
VERTEX
  5
A48
  8
0
  6
CONTINUOUS
 10
261.25509686409902
 20
-1835.2218675346919
 30
0.0
  0
VERTEX
  5
A49
  8
0
  6
CONTINUOUS
 10
270.36735662378311
 20
-2127.4626146828991
 30
0.0
  0
VERTEX
  5
A4A
  8
0
  6
CONTINUOUS
 10
272.96456508830119
 20
-2387.9087677194129
 30
0.0
  0
VERTEX
  5
A4B
  8
0
  6
CONTINUOUS
 10
272.96456508830119
 20
-2387.9087677194129
 30
0.0
  0
VERTEX
  5
A4C
  8
0
  6
CONTINUOUS
 10
271.59543276656592
 20
-2653.6486354481131
 30
0.0
  0
VERTEX
  5
A4D
  8
0
  6
CONTINUOUS
 10
270.62267144347243
 20
-2893.7577950070881
 30
0.0
  0
VERTEX
  5
A4E
  8
0
  6
CONTINUOUS
 10
270.62267144347243
 20
-2893.7577950070881
 30
0.0
  0
VERTEX
  5
A4F
  8
0
  6
CONTINUOUS
 10
268.157887793057
 20
-3081.280015489257
 30
0.0
  0
VERTEX
  5
A50
  8
0
  6
CONTINUOUS
 10
257.81414573293091
 20
-3171.8007090777778
 30
0.0
  0
VERTEX
  5
A51
  8
0
  6
CONTINUOUS
 10
235.49426677074919
 20
-3273.144565472855
 30
0.0
  0
VERTEX
  5
A52
  8
0
  6
CONTINUOUS
 10
235.49426677074919
 20
-3273.144565472855
 30
0.0
  0
VERTEX
  5
A53
  8
0
  6
CONTINUOUS
 10
204.78151790975051
 20
-3373.2018898050701
 30
0.0
  0
VERTEX
  5
A54
  8
0
  6
CONTINUOUS
 10
160.5536701048531
 20
-3497.9663553785022
 30
0.0
  0
VERTEX
  5
A55
  8
0
  6
CONTINUOUS
 10
160.5536701048531
 20
-3497.9663553785022
 30
0.0
  0
VERTEX
  5
A56
  8
0
  6
CONTINUOUS
 10
141.23031894667449
 20
-3538.8115322871408
 30
0.0
  0
VERTEX
  5
A57
  8
0
  6
CONTINUOUS
 10
123.8054789733995
 20
-3558.7688714272181
 30
0.0
  0
VERTEX
  5
A58
  8
0
  6
CONTINUOUS
 10
97.322541724510273
 20
-3577.590739303424
 30
0.0
  0
VERTEX
  5
A59
  8
0
  6
CONTINUOUS
 10
97.322541724510273
 20
-3577.590739303424
 30
0.0
  0
VERTEX
  5
A5A
  8
0
  6
CONTINUOUS
 10
69.236191947156826
 20
-3591.0463889529451
 30
0.0
  0
VERTEX
  5
A5B
  8
0
  6
CONTINUOUS
 10
41.117094248153073
 20
-3601.0096757519318
 30
0.0
  0
VERTEX
  5
A5C
  8
0
  6
CONTINUOUS
 10
41.117094248153073
 20
-3601.0096757519318
 30
0.0
  0
VERTEX
  5
A5D
  8
0
  6
CONTINUOUS
 10
18.66704498362196
 20
-3605.861296143145
 30
0.0
  0
VERTEX
  5
A5E
  8
0
  6
CONTINUOUS
 10
0.0000000000272848
 20
-3606.999999999995
 30
0.0
  0
VERTEX
  5
A5F
  8
0
  6
CONTINUOUS
 10
0.0000000000272848
 20
-3606.999999999995
 30
0.0
  0
VERTEX
  5
A60
  8
0
  6
CONTINUOUS
 10
-18.667044983625601
 20
-3605.861296143145
 30
0.0
  0
VERTEX
  5
A61
  8
0
  6
CONTINUOUS
 10
-41.117094248156697
 20
-3601.0096757519318
 30
0.0
  0
VERTEX
  5
A62
  8
0
  6
CONTINUOUS
 10
-41.117094248156697
 20
-3601.0096757519318
 30
0.0
  0
VERTEX
  5
A63
  8
0
  6
CONTINUOUS
 10
-69.23619194710227
 20
-3591.0463889529451
 30
0.0
  0
VERTEX
  5
A64
  8
0
  6
CONTINUOUS
 10
-97.322541724513925
 20
-3577.590739303424
 30
0.0
  0
VERTEX
  5
A65
  8
0
  6
CONTINUOUS
 10
-97.322541724513925
 20
-3577.590739303424
 30
0.0
  0
VERTEX
  5
A66
  8
0
  6
CONTINUOUS
 10
-123.805478973345
 20
-3558.7688714272181
 30
0.0
  0
VERTEX
  5
A67
  8
0
  6
CONTINUOUS
 10
-141.23031894667841
 20
-3538.8115322871408
 30
0.0
  0
VERTEX
  5
A68
  8
0
  6
CONTINUOUS
 10
-160.55367010485679
 20
-3497.9663553785022
 30
0.0
  0
VERTEX
  5
A69
  8
0
  6
CONTINUOUS
 10
-160.55367010485679
 20
-3497.9663553785022
 30
0.0
  0
VERTEX
  5
A6A
  8
0
  6
CONTINUOUS
 10
-204.78151790975409
 20
-3373.2018898050701
 30
0.0
  0
VERTEX
  5
A6B
  8
0
  6
CONTINUOUS
 10
-235.4942667707528
 20
-3273.144565472855
 30
0.0
  0
VERTEX
  5
A6C
  8
0
  6
CONTINUOUS
 10
-235.4942667707528
 20
-3273.144565472855
 30
0.0
  0
VERTEX
  5
A6D
  8
0
  6
CONTINUOUS
 10
-257.81414573293472
 20
-3171.8007090777778
 30
0.0
  0
VERTEX
  5
A6E
  8
0
  6
CONTINUOUS
 10
-268.15788779306058
 20
-3081.280015489257
 30
0.0
  0
VERTEX
  5
A6F
  8
0
  6
CONTINUOUS
 10
-270.62267144347612
 20
-2893.7577950070881
 30
0.0
  0
VERTEX
  5
A70
  8
0
  6
CONTINUOUS
 10
-270.62267144347612
 20
-2893.7577950070881
 30
0.0
  0
VERTEX
  5
A71
  8
0
  6
CONTINUOUS
 10
-271.5954327665695
 20
-2653.6486354481131
 30
0.0
  0
VERTEX
  5
A72
  8
0
  6
CONTINUOUS
 10
-272.96456508830482
 20
-2387.9087677194129
 30
0.0
  0
VERTEX
  5
A73
  8
0
  6
CONTINUOUS
 10
-272.96456508830482
 20
-2387.9087677194129
 30
0.0
  0
VERTEX
  5
A74
  8
0
  6
CONTINUOUS
 10
-270.36735662378669
 20
-2127.4626146828991
 30
0.0
  0
VERTEX
  5
A75
  8
0
  6
CONTINUOUS
 10
-261.2550968641026
 20
-1835.2218675346919
 30
0.0
  0
VERTEX
  5
A76
  8
0
  6
CONTINUOUS
 10
-261.2550968641026
 20
-1835.2218675346919
 30
0.0
  0
VERTEX
  5
A77
  8
0
  6
CONTINUOUS
 10
-244.0321291896708
 20
-1478.9610346667939
 30
0.0
  0
VERTEX
  5
A78
  8
0
  6
CONTINUOUS
 10
-219.10101126166589
 20
-1113.9186249207589
 30
0.0
  0
VERTEX
  5
A79
  8
0
  6
CONTINUOUS
 10
-219.10101126166589
 20
-1113.9186249207589
 30
0.0
  0
VERTEX
  5
A7A
  8
0
  6
CONTINUOUS
 10
-181.70409296199981
 20
-756.13349105230304
 30
0.0
  0
VERTEX
  5
A7B
  8
0
  6
CONTINUOUS
 10
-137.38625961114471
 20
-467.82448087378998
 30
0.0
  0
VERTEX
  5
A7C
  8
0
  6
CONTINUOUS
 10
-88.454482892850137
 20
-225.83288648857291
 30
0.0
  0
VERTEX
  5
A7D
  8
0
  6
CONTINUOUS
 10
-27.849829093875929
 20
-7.0
 30
0.0
  0
SEQEND
  5
A7E
  8
0
  6
CONTINUOUS
  0
POLYLINE
  5
92A
  8
0
  6
CONTINUOUS
 66
     1
 10
0.0
 20
0.0
 30
0.0
  0
VERTEX
  5
A7F
  8
0
  6
CONTINUOUS
 10
27.849829093871438
 20
-6.9999999999959073
 30
0.0
  0
VERTEX
  5
A80
  8
0
  6
CONTINUOUS
 10
77.60100842741484
 20
-247.20098585431279
 30
0.0
  0
VERTEX
  5
A81
  8
0
  6
CONTINUOUS
 10
130.61847680466411
 20
-599.78543204522725
 30
0.0
  0
VERTEX
  5
A82
  8
0
  6
CONTINUOUS
 10
130.61847680466411
 20
-599.78543204522725
 30
0.0
  0
VERTEX
  5
A83
  8
0
  6
CONTINUOUS
 10
143.67446634996841
 20
-711.36850399565765
 30
0.0
  0
VERTEX
  5
A84
  8
0
  6
CONTINUOUS
 10
153.26124571295611
 20
-817.28270832506269
 30
0.0
  0
VERTEX
  5
A85
  8
0
  6
CONTINUOUS
 10
153.26124571295611
 20
-817.28270832506269
 30
0.0
  0
VERTEX
  5
A86
  8
0
  6
CONTINUOUS
 10
155.6645527899654
 20
-903.47098229431435
 30
0.0
  0
VERTEX
  5
A87
  8
0
  6
CONTINUOUS
 10
147.7241658294497
 20
-975.11247383704483
 30
0.0
  0
VERTEX
  5
A88
  8
0
  6
CONTINUOUS
 10
147.7241658294497
 20
-975.11247383704483
 30
0.0
  0
VERTEX
  5
A89
  8
0
  6
CONTINUOUS
 10
127.995261937116
 20
-1043.0033253039981
 30
0.0
  0
VERTEX
  5
A8A
  8
0
  6
CONTINUOUS
 10
101.34057329580349
 20
-1121.171446041629
 30
0.0
  0
VERTEX
  5
A8B
  8
0
  6
CONTINUOUS
 10
101.34057329580349
 20
-1121.171446041629
 30
0.0
  0
VERTEX
  5
A8C
  8
0
  6
CONTINUOUS
 10
90.072926162711155
 20
-1149.5007928306691
 30
0.0
  0
VERTEX
  5
A8D
  8
0
  6
CONTINUOUS
 10
62.852060349976462
 20
-1180.384542881324
 30
0.0
  0
VERTEX
  5
A8E
  8
0
  6
CONTINUOUS
 10
62.852060349976462
 20
-1180.384542881324
 30
0.0
  0
VERTEX
  5
A8F
  8
0
  6
CONTINUOUS
 10
45.241901560422768
 20
-1192.702822423696
 30
0.0
  0
VERTEX
  5
A90
  8
0
  6
CONTINUOUS
 10
27.324202246176348
 20
-1202.0960117225291
 30
0.0
  0
VERTEX
  5
A91
  8
0
  6
CONTINUOUS
 10
27.324202246176348
 20
-1202.0960117225291
 30
0.0
  0
VERTEX
  5
A92
  8
0
  6
CONTINUOUS
 10
12.58538738675816
 20
-1206.2516561208131
 30
0.0
  0
VERTEX
  5
A93
  8
0
  6
CONTINUOUS
 10
0.0000000000272848
 20
-1206.9999999999959
 30
0.0
  0
VERTEX
  5
A94
  8
0
  6
CONTINUOUS
 10
0.0000000000272848
 20
-1206.9999999999959
 30
0.0
  0
VERTEX
  5
A95
  8
0
  6
CONTINUOUS
 10
-12.58538738676179
 20
-1206.2516561208131
 30
0.0
  0
VERTEX
  5
A96
  8
0
  6
CONTINUOUS
 10
-27.32420224618
 20
-1202.0960117225291
 30
0.0
  0
VERTEX
  5
A97
  8
0
  6
CONTINUOUS
 10
-27.32420224618
 20
-1202.0960117225291
 30
0.0
  0
VERTEX
  5
A98
  8
0
  6
CONTINUOUS
 10
-45.241901560426399
 20
-1192.702822423696
 30
0.0
  0
VERTEX
  5
A99
  8
0
  6
CONTINUOUS
 10
-62.8520603499801
 20
-1180.384542881324
 30
0.0
  0
VERTEX
  5
A9A
  8
0
  6
CONTINUOUS
 10
-62.8520603499801
 20
-1180.384542881324
 30
0.0
  0
VERTEX
  5
A9B
  8
0
  6
CONTINUOUS
 10
-90.072926162714808
 20
-1149.5007928306691
 30
0.0
  0
VERTEX
  5
A9C
  8
0
  6
CONTINUOUS
 10
-101.3405732958072
 20
-1121.171446041629
 30
0.0
  0
VERTEX
  5
A9D
  8
0
  6
CONTINUOUS
 10
-101.3405732958072
 20
-1121.171446041629
 30
0.0
  0
VERTEX
  5
A9E
  8
0
  6
CONTINUOUS
 10
-127.99526193711959
 20
-1043.0033253039981
 30
0.0
  0
VERTEX
  5
A9F
  8
0
  6
CONTINUOUS
 10
-147.72416582945331
 20
-975.11247383704483
 30
0.0
  0
VERTEX
  5
AA0
  8
0
  6
CONTINUOUS
 10
-147.72416582945331
 20
-975.11247383704483
 30
0.0
  0
VERTEX
  5
AA1
  8
0
  6
CONTINUOUS
 10
-155.66455278996901
 20
-903.47098229431435
 30
0.0
  0
VERTEX
  5
AA2
  8
0
  6
CONTINUOUS
 10
-153.2612457129016
 20
-817.28270832506269
 30
0.0
  0
VERTEX
  5
AA3
  8
0
  6
CONTINUOUS
 10
-153.2612457129016
 20
-817.28270832506269
 30
0.0
  0
VERTEX
  5
AA4
  8
0
  6
CONTINUOUS
 10
-143.67446634997211
 20
-711.36850399565765
 30
0.0
  0
VERTEX
  5
AA5
  8
0
  6
CONTINUOUS
 10
-130.61847680466781
 20
-599.78543204522725
 30
0.0
  0
VERTEX
  5
AA6
  8
0
  6
CONTINUOUS
 10
-130.61847680466781
 20
-599.78543204522725
 30
0.0
  0
VERTEX
  5
AA7
  8
0
  6
CONTINUOUS
 10
-77.601008427418449
 20
-247.20098585431279
 30
0.0
  0
VERTEX
  5
AA8
  8
0
  6
CONTINUOUS
 10
-27.84982909387508
 20
-6.9999999999959073
 30
0.0
  0
SEQEND
  5
AA9
  8
0
  6
CONTINUOUS
  0
LINE
  5
956
  8
0
  6
CONTINUOUS
 10
19.352160269350861
 20
-698.81144282907167
 30
0.0
 11
483.96971145165293
 21
-524.64563197441748
 31
0.0
  0
ENDSEC
  0
EOF
