  0
SECTION
  2
HEADER
  9
$ACADVER
  1
AC1009
  9
$INSBASE
 10
0.0
 20
0.0
 30
0.0
  9
$EXTMIN
 10
-1134.7546062115509
 20
-14027.76429263924
 30
-0.0015258207003583
  9
$EXTMAX
 10
1134.7546167790899
 20
270.63635921727109
 30
0.0000000349246037
  9
$LIMMIN
 10
0.0
 20
0.0
  9
$LIMMAX
 10
12.0
 20
9.0
  9
$ORTHOMODE
 70
     0
  9
$REGENMODE
 70
     1
  9
$FILLMODE
 70
     1
  9
$QTEXTMODE
 70
     0
  9
$MIRRTEXT
 70
     0
  9
$DRAGMODE
 70
     2
  9
$LTSCALE
 40
1.0
  9
$OSMODE
 70
  3071
  9
$ATTMODE
 70
     1
  9
$TEXTSIZE
 40
8.0
  9
$TRACEWID
 40
0.05
  9
$TEXTSTYLE
  7
STANDARD1
  9
$CLAYER
  8
0
  9
$CELTYPE
  6
CONTINUOUS
  9
$CECOLOR
 62
   256
  9
$DIMSCALE
 40
1.0
  9
$DIMASZ
 40
1.931851648807023
  9
$DIMEXO
 40
1.0
  9
$DIMDLI
 40
0.38
  9
$DIMRND
 40
0.0
  9
$DIMDLE
 40
0.0
  9
$DIMEXE
 40
2.0
  9
$DIMTP
 40
0.0
  9
$DIMTM
 40
0.0
  9
$DIMTXT
 40
3.2000000476837149
  9
$DIMCEN
 40
0.09
  9
$DIMTSZ
 40
0.0
  9
$DIMTOL
 70
     0
  9
$DIMLIM
 70
     0
  9
$DIMTIH
 70
     1
  9
$DIMTOH
 70
     1
  9
$DIMSE1
 70
     0
  9
$DIMSE2
 70
     0
  9
$DIMTAD
 70
     1
  9
$DIMZIN
 70
     0
  9
$DIMBLK
  1

  9
$DIMASO
 70
     1
  9
$DIMSHO
 70
     1
  9
$DIMPOST
  1

  9
$DIMAPOST
  1

  9
$DIMALT
 70
     0
  9
$DIMALTD
 70
     2
  9
$DIMALTF
 40
25.399999999999999
  9
$DIMLFAC
 40
0.7142857264499281
  9
$DIMTOFL
 70
     0
  9
$DIMTVP
 40
0.0
  9
$DIMTIX
 70
     0
  9
$DIMSOXD
 70
     0
  9
$DIMSAH
 70
     0
  9
$DIMBLK1
  1

  9
$DIMBLK2
  1

  9
$DIMSTYLE
  2
STANDARD
  9
$DIMCLRD
 70
     0
  9
$DIMCLRE
 70
     0
  9
$DIMCLRT
 70
     0
  9
$DIMTFAC
 40
0.625
  9
$DIMGAP
 40
0.09
  9
$LUNITS
 70
     2
  9
$LUPREC
 70
     3
  9
$SKETCHINC
 40
0.1
  9
$FILLETRAD
 40
0.0
  9
$AUNITS
 70
     0
  9
$AUPREC
 70
     0
  9
$MENU
  1
.
  9
$ELEVATION
 40
0.0
  9
$PELEVATION
 40
0.0
  9
$THICKNESS
 40
0.0
  9
$LIMCHECK
 70
     0
  9
$BLIPMODE
 70
     0
  9
$CHAMFERA
 40
0.0
  9
$CHAMFERB
 40
0.0
  9
$SKPOLY
 70
     0
  9
$TDCREATE
 40
2454190.4393909262
  9
$TDUPDATE
 40
2454284.553374792
  9
$TDINDWG
 40
0.0338843634
  9
$TDUSRTIMER
 40
0.033878206
  9
$USRTIMER
 70
     1
  9
$ANGBASE
 50
0.0
  9
$ANGDIR
 70
     0
  9
$PDMODE
 70
     0
  9
$PDSIZE
 40
0.0
  9
$PLINEWID
 40
0.0
  9
$COORDS
 70
     1
  9
$SPLFRAME
 70
     0
  9
$SPLINETYPE
 70
     6
  9
$SPLINESEGS
 70
     8
  9
$ATTDIA
 70
     0
  9
$ATTREQ
 70
     1
  9
$HANDLING
 70
     1
  9
$HANDSEED
  5
7E1
  9
$SURFTAB1
 70
     6
  9
$SURFTAB2
 70
     6
  9
$SURFTYPE
 70
     6
  9
$SURFU
 70
     6
  9
$SURFV
 70
     6
  9
$UCSNAME
  2

  9
$UCSORG
 10
0.0
 20
0.0
 30
0.0
  9
$UCSXDIR
 10
1.0
 20
0.0
 30
0.0
  9
$UCSYDIR
 10
0.0
 20
1.0
 30
0.0
  9
$PUCSNAME
  2

  9
$PUCSORG
 10
0.0
 20
0.0
 30
0.0
  9
$PUCSXDIR
 10
1.0
 20
0.0
 30
0.0
  9
$PUCSYDIR
 10
0.0
 20
1.0
 30
0.0
  9
$USERI1
 70
     0
  9
$USERI2
 70
     0
  9
$USERI3
 70
     0
  9
$USERI4
 70
     0
  9
$USERI5
 70
     0
  9
$USERR1
 40
0.0
  9
$USERR2
 40
0.0
  9
$USERR3
 40
0.0
  9
$USERR4
 40
0.0
  9
$USERR5
 40
0.0
  9
$WORLDVIEW
 70
     1
  9
$SHADEDGE
 70
     3
  9
$SHADEDIF
 70
    70
  9
$TILEMODE
 70
     1
  9
$MAXACTVP
 70
    64
  9
$PLIMCHECK
 70
     0
  9
$PEXTMIN
 10
1.0000000000000000E+020
 20
1.0000000000000000E+020
 30
1.0000000000000000E+020
  9
$PEXTMAX
 10
-1.0000000000000000E+020
 20
-1.0000000000000000E+020
 30
-1.0000000000000000E+020
  9
$PLIMMIN
 10
0.0
 20
0.0
  9
$PLIMMAX
 10
12.0
 20
9.0
  9
$UNITMODE
 70
     0
  9
$VISRETAIN
 70
     1
  9
$PLINEGEN
 70
     0
  9
$PSLTSCALE
 70
     1
  0
ENDSEC
  0
SECTION
  2
TABLES
  0
TABLE
  2
VPORT
 70
     1
  0
VPORT
  2
*ACTIVE
 70
     0
 10
0.0
 20
0.0
 11
1.0
 21
1.0
 12
0.0000052837694966
 22
-6878.5639667109863
 13
0.0
 23
0.0
 14
1.0
 24
1.0
 15
0.0
 25
0.0
 16
0.0
 26
0.0
 36
1.0
 17
0.0
 27
0.0
 37
0.0
 40
14421.13370466215
 41
1.6704871060171911
 42
50.0
 43
0.0
 44
0.0
 50
0.0
 51
0.0
 71
     0
 72
   100
 73
     1
 74
     1
 75
     0
 76
     0
 77
     0
 78
     0
  0
ENDTAB
  0
TABLE
  2
LTYPE
 70
     4
  0
LTYPE
  2
CONTINUOUS
 70
     0
  3
Solid line
 72
    65
 73
     0
 40
0.0
  0
LTYPE
  2
DASHED
 70
     0
  3
-- -- -- -- -- -- -- -- -- -- -- -- -- -- --
 72
    65
 73
     2
 40
0.75
 49
0.5
 49
-0.25
  0
LTYPE
  2
DASHDOT
 70
     0
  3
__ . __ . __ . __ . __ . __ . __ . __ . __ . __
 72
    65
 73
     4
 40
1.0
 49
0.5
 49
-0.25
 49
0.0
 49
-0.25
  0
LTYPE
  2
DIVIDE
 70
     0
  3
__ . . __ . . __ . . __ . . __ . . __ . . __
 72
    65
 73
     6
 40
1.25
 49
0.5
 49
-0.25
 49
0.0
 49
-0.25
 49
0.0
 49
-0.25
  0
ENDTAB
  0
TABLE
  2
LAYER
 70
     2
  0
LAYER
  2
0
 70
     0
 62
     7
  6
CONTINUOUS
  0
LAYER
  2
DEFPOINTS
 70
     0
 62
     7
  6
CONTINUOUS
  0
ENDTAB
  0
TABLE
  2
STYLE
 70
     5
  0
STYLE
  2
STANDARD
 70
     0
 40
0.0
 41
1.0
 50
0.0
 71
     0
 42
0.2
  3
txt
  4

  0
STYLE
  2
STANDARD1
 70
     0
 40
0.0
 41
1.0
 50
0.0
 71
     0
 42
8.0
  3
MONOTXT
  4
BIGFONT
  0
STYLE
  2
STANDARD2
 70
     4
 40
0.0
 41
1.0
 50
0.0
 71
     0
 42
8.0
  3
MONOTXT
  4
BIGFONT
  0
STYLE
  2
STANDARD3
 70
     0
 40
0.0
 41
1.0
 50
0.0
 71
     0
 42
8.0
  3
MONOTXT
  4

  0
STYLE
  2
STANDARD4
 70
     4
 40
0.0
 41
1.0
 50
0.0
 71
     0
 42
8.0
  3
MONOTXT
  4

  0
ENDTAB
  0
TABLE
  2
VIEW
 70
     0
  0
ENDTAB
  0
TABLE
  2
UCS
 70
     0
  0
ENDTAB
  0
TABLE
  2
APPID
 70
     1
  0
APPID
  2
ACAD
 70
     0
  0
ENDTAB
  0
TABLE
  2
DIMSTYLE
 70
     1
  0
DIMSTYLE
  2
STANDARD
 70
     0
  3

  4

  5

  6

  7

 40
1.0
 41
0.18
 42
0.0625
 43
0.38
 44
0.18
 45
0.0
 46
0.0
 47
0.0
 48
0.0
140
0.18
141
0.09
142
0.0
143
25.399999999999999
144
1.0
145
0.0
146
1.0
147
0.09
 71
     0
 72
     0
 73
     1
 74
     1
 75
     0
 76
     0
 77
     0
 78
     0
170
     0
171
     2
172
     0
173
     0
174
     0
175
     0
176
     0
177
     0
178
     0
  0
ENDTAB
  0
ENDSEC
  0
SECTION
  2
BLOCKS
  0
BLOCK
  8
0
  2
$MODEL_SPACE
 70
     0
 10
0.0
 20
0.0
 30
0.0
  3
$MODEL_SPACE
  1

  0
ENDBLK
  5
6D6
  8
0
  0
BLOCK
 67
     1
  8
0
  2
$PAPER_SPACE
 70
     0
 10
0.0
 20
0.0
 30
0.0
  3
$PAPER_SPACE
  1

  0
ENDBLK
  5
6D2
 67
     1
  8
0
  0
BLOCK
  8
0
  2
*D2
 70
     1
 10
0.0
 20
0.0
 30
0.0
  3
*D2
  1

  0
LINE
  5
17E
  8
0
  6
CONTINUOUS
 62
     0
 10
174.8093019390115
 20
301.67429519084362
 30
0.0
 11
174.8093019390115
 21
577.46985565015802
 31
0.0
  0
LINE
  5
17F
  8
0
  6
CONTINUOUS
 62
     0
 10
-175.16829806098821
 20
301.67429519084362
 30
0.0
 11
-175.16829806098821
 21
577.46985565015802
 31
0.0
  0
LINE
  5
180
  8
0
  6
CONTINUOUS
 62
     0
 10
172.87745029020451
 20
575.46985565015802
 30
0.0
 11
-173.23644641218121
 21
575.46985565015802
 31
0.0
  0
SOLID
  5
181
  8
0
  6
CONTINUOUS
 62
     0
 10
172.87745029020451
 20
575.7918309249593
 30
0.0
 11
172.87745029020451
 21
575.14788037535686
 31
0.0
 12
174.8093019390115
 22
575.46985565015802
 32
0.0
 13
174.8093019390115
 23
575.46985565015802
 33
0.0
  0
SOLID
  5
182
  8
0
  6
CONTINUOUS
 62
     0
 10
-173.23644641218121
 20
575.7918309249593
 30
0.0
 11
-173.23644641218121
 21
575.14788037535686
 31
0.0
 12
-175.16829806098821
 22
575.46985565015802
 32
0.0
 13
-175.16829806098821
 23
575.46985565015802
 33
0.0
  0
INSERT
  5
183
  8
0
  6
CONTINUOUS
  2
*U3
 10
0.0
 20
0.0
 30
0.0
  0
POINT
  5
184
  8
DEFPOINTS
  6
CONTINUOUS
 62
     0
 10
174.8093019390115
 20
300.67429519084362
 30
0.0
  0
POINT
  5
185
  8
DEFPOINTS
  6
CONTINUOUS
 62
     0
 10
-175.16829806098821
 20
300.67429519084362
 30
0.0
  0
POINT
  5
186
  8
DEFPOINTS
  6
CONTINUOUS
 62
     0
 10
-175.16829806098821
 20
575.46985565015802
 30
0.0
  0
ENDBLK
  5
17D
  8
0
  0
BLOCK
  8
0
  2
*U3
 70
     1
 10
0.0
 20
0.0
 30
0.0
  3
*U3
  1

  0
TEXT
  5
5BF
  8
0
  6
CONTINUOUS
 62
     0
 10
-11.11283155724106
 20
575.55985565015783
 30
0.0
 40
3.2000000476837149
  1
249.9840
  0
ENDBLK
  5
5C1
  8
0
  0
BLOCK
  8
0
  2
*D4
 70
     1
 10
0.0
 20
0.0
 30
0.0
  3
*D4
  1

  0
LINE
  5
189
  8
0
  6
CONTINUOUS
 62
     0
 10
0.820501939011592
 20
20.69221519084363
 30
0.0
 11
6192.5689927085423
 21
20.692215190841871
 31
0.0
  0
LINE
  5
18A
  8
0
  6
CONTINUOUS
 62
     0
 10
3954.6475462666922
 20
-7661.7380526203942
 30
0.0
 11
6192.5689927085396
 21
-7661.7380526203942
 31
0.0
  0
LINE
  5
18B
  8
0
  6
CONTINUOUS
 62
     0
 10
6190.5689927085423
 20
18.760363542034849
 30
0.0
 11
6190.5689927085414
 21
-3818.8329186909332
 31
0.0
  0
LINE
  5
18C
  8
0
  6
CONTINUOUS
 62
     0
 10
6190.5689927085396
 20
-7659.8062009715868
 30
0.0
 11
6190.5689927085414
 21
-3822.2129187386181
 31
0.0
  0
SOLID
  5
18D
  8
0
  6
CONTINUOUS
 62
     0
 10
6190.2470174337413
 20
18.760363542034849
 30
0.0
 11
6190.8909679833432
 21
18.760363542034849
 31
0.0
 12
6190.5689927085423
 22
20.692215190841871
 32
0.0
 13
6190.5689927085423
 23
20.692215190841871
 33
0.0
  0
SOLID
  5
18E
  8
0
  6
CONTINUOUS
 62
     0
 10
6190.2470174337413
 20
-7659.8062009715868
 30
0.0
 11
6190.8909679833414
 21
-7659.8062009715868
 31
0.0
 12
6190.5689927085396
 22
-7661.7380526203942
 32
0.0
 13
6190.5689927085396
 23
-7661.7380526203942
 33
0.0
  0
INSERT
  5
18F
  8
0
  6
CONTINUOUS
  2
*U5
 10
0.0
 20
0.0
 30
0.0
  0
POINT
  5
190
  8
DEFPOINTS
  6
CONTINUOUS
 62
     0
 10
-0.1794980609884078
 20
20.69221519084363
 30
0.0
  0
POINT
  5
191
  8
DEFPOINTS
  6
CONTINUOUS
 62
     0
 10
3953.6475462666922
 20
-7661.7380526203942
 30
0.0
  0
POINT
  5
192
  8
DEFPOINTS
  6
CONTINUOUS
 62
     0
 10
6190.5689927085396
 20
-7661.7380526203942
 30
0.0
  0
ENDBLK
  5
194
  8
0
  0
BLOCK
  8
0
  2
*U5
 70
     1
 10
0.0
 20
0.0
 30
0.0
  3
*U5
  1

  0
TEXT
  5
5C3
  8
0
  6
CONTINUOUS
 62
     0
 10
6178.0356591884492
 20
-3822.1229187386161
 30
0.0
 40
3.2000000476837149
  1
5487.4503
  0
ENDBLK
  5
5C5
  8
0
  0
BLOCK
  8
0
  2
*D6
 70
     1
 10
0.0
 20
0.0
 30
0.0
  3
*D6
  1

  0
LINE
  5
1B7
  8
0
  6
CONTINUOUS
 62
     0
 10
174.82050193901151
 20
301.69221519084323
 30
0.0
 11
174.82050193901151
 21
369.76351222784717
 31
0.0
  0
LINE
  5
1B8
  8
0
  6
CONTINUOUS
 62
     0
 10
-175.17949806098841
 20
301.6922151908434
 30
0.0
 11
-175.17949806098841
 21
369.76351222784717
 31
0.0
  0
LINE
  5
1B9
  8
0
  6
CONTINUOUS
 62
     0
 10
172.88865029020451
 20
367.76351222784717
 30
0.0
 11
-173.24764641218141
 21
367.76351222784717
 31
0.0
  0
SOLID
  5
1BA
  8
0
  6
CONTINUOUS
 62
     0
 10
172.88865029020451
 20
368.0854875026485
 30
0.0
 11
172.88865029020451
 21
367.44153695304601
 31
0.0
 12
174.82050193901151
 22
367.76351222784717
 32
0.0
 13
174.82050193901151
 23
367.76351222784717
 33
0.0
  0
SOLID
  5
1BB
  8
0
  6
CONTINUOUS
 62
     0
 10
-173.24764641218141
 20
368.0854875026485
 30
0.0
 11
-173.24764641218141
 21
367.44153695304601
 31
0.0
 12
-175.17949806098841
 22
367.76351222784717
 32
0.0
 13
-175.17949806098841
 23
367.76351222784717
 33
0.0
  0
INSERT
  5
1BC
  8
0
  6
CONTINUOUS
  2
*U7
 10
0.0
 20
0.0
 30
0.0
  0
POINT
  5
1BD
  8
DEFPOINTS
  6
CONTINUOUS
 62
     0
 10
174.82050193901151
 20
300.6922151908434
 30
0.0
  0
POINT
  5
1BE
  8
DEFPOINTS
  6
CONTINUOUS
 62
     0
 10
-175.17949806098841
 20
300.6922151908434
 30
0.0
  0
POINT
  5
1BF
  8
DEFPOINTS
  6
CONTINUOUS
 62
     0
 10
-175.17949806098841
 20
367.76351222784717
 30
0.0
  0
ENDBLK
  5
1B6
  8
0
  0
BLOCK
  8
0
  2
*U7
 70
     1
 10
0.0
 20
0.0
 30
0.0
  3
*U7
  1

  0
TEXT
  5
5C7
  8
0
  6
CONTINUOUS
 62
     0
 10
-10.046164874679921
 20
367.85351222784738
 30
0.0
 40
3.2000000476837149
  1
250.0000
  0
ENDBLK
  5
5C9
  8
0
  0
BLOCK
  8
0
  2
*D8
 70
     1
 10
0.0
 20
0.0
 30
0.0
  3
*D8
  1

  0
LINE
  5
1D6
  8
0
  6
CONTINUOUS
 62
     0
 10
175.00000000000071
 20
271.1999999999997
 30
0.0
 11
175.00000000000071
 21
436.11790512035083
 31
0.0
  0
LINE
  5
1D7
  8
0
  6
CONTINUOUS
 62
     0
 10
-174.99999999999909
 20
271.1999999999997
 30
0.0
 11
-174.99999999999909
 21
436.11790512035083
 31
0.0
  0
LINE
  5
1D8
  8
0
  6
CONTINUOUS
 62
     0
 10
173.06814835119371
 20
434.11790512035071
 30
0.0
 11
-173.06814835119209
 21
434.11790512035071
 31
0.0
  0
SOLID
  5
1D9
  8
0
  6
CONTINUOUS
 62
     0
 10
173.06814835119371
 20
434.43988039515182
 30
0.0
 11
173.06814835119371
 21
433.79592984554961
 31
0.0
 12
175.00000000000071
 22
434.11790512035071
 32
0.0
 13
175.00000000000071
 23
434.11790512035071
 33
0.0
  0
SOLID
  5
1DA
  8
0
  6
CONTINUOUS
 62
     0
 10
-173.06814835119209
 20
434.43988039515182
 30
0.0
 11
-173.06814835119209
 21
433.79592984554961
 31
0.0
 12
-174.99999999999909
 22
434.11790512035071
 32
0.0
 13
-174.99999999999909
 23
434.11790512035071
 33
0.0
  0
INSERT
  5
1DB
  8
0
  6
CONTINUOUS
  2
*U9
 10
0.0
 20
0.0
 30
0.0
  0
POINT
  5
1DC
  8
DEFPOINTS
  6
CONTINUOUS
 62
     0
 10
175.00000000000071
 20
270.19999999999987
 30
0.0
  0
POINT
  5
1DD
  8
DEFPOINTS
  6
CONTINUOUS
 62
     0
 10
-174.99999999999909
 20
270.19999999999987
 30
0.0
  0
POINT
  5
1DE
  8
DEFPOINTS
  6
CONTINUOUS
 62
     0
 10
-174.99999999999909
 20
434.11790512035071
 30
0.0
  0
ENDBLK
  5
1E0
  8
0
  0
BLOCK
  8
0
  2
*U9
 70
     1
 10
0.0
 20
0.0
 30
0.0
  3
*U9
  1

  0
TEXT
  5
5CB
  8
0
  6
CONTINUOUS
 62
     0
 10
-9.8666668136906637
 20
434.2079051203508
 30
0.0
 40
3.2000000476837149
  1
250.0000
  0
ENDBLK
  5
5CD
  8
0
  0
BLOCK
  8
0
  2
*D10
 70
     1
 10
0.0
 20
0.0
 30
0.0
  3
*D10
  1

  0
LINE
  5
58F
  8
0
  6
CONTINUOUS
 62
     0
 10
-1197.916309804717
 20
-1359.2954078113321
 30
0.0
 11
-1197.916309804717
 21
-1068.655129209779
 31
0.0
  0
LINE
  5
590
  8
0
  6
CONTINUOUS
 62
     0
 10
-1547.916309804717
 20
-1359.2954078113321
 30
0.0
 11
-1547.916309804717
 21
-1068.655129209779
 31
0.0
  0
LINE
  5
591
  8
0
  6
CONTINUOUS
 62
     0
 10
-1199.848161453524
 20
-1070.655129209779
 30
0.0
 11
-1545.98445815591
 21
-1070.655129209779
 31
0.0
  0
SOLID
  5
592
  8
0
  6
CONTINUOUS
 62
     0
 10
-1199.848161453524
 20
-1070.3331539349781
 30
0.0
 11
-1199.848161453524
 21
-1070.97710448458
 31
0.0
 12
-1197.916309804717
 22
-1070.655129209779
 32
0.0
 13
-1197.916309804717
 23
-1070.655129209779
 33
0.0
  0
SOLID
  5
593
  8
0
  6
CONTINUOUS
 62
     0
 10
-1545.98445815591
 20
-1070.3331539349781
 30
0.0
 11
-1545.98445815591
 21
-1070.97710448458
 31
0.0
 12
-1547.916309804717
 22
-1070.655129209779
 32
0.0
 13
-1547.916309804717
 23
-1070.655129209779
 33
0.0
  0
INSERT
  5
594
  8
0
  6
CONTINUOUS
  2
*U11
 10
0.0
 20
0.0
 30
0.0
  0
POINT
  5
595
  8
DEFPOINTS
  6
CONTINUOUS
 62
     0
 10
-1197.916309804717
 20
-1360.2954078113321
 30
0.0
  0
POINT
  5
596
  8
DEFPOINTS
  6
CONTINUOUS
 62
     0
 10
-1547.916309804717
 20
-1360.2954078113321
 30
0.0
  0
POINT
  5
597
  8
DEFPOINTS
  6
CONTINUOUS
 62
     0
 10
-1547.916309804717
 20
-1070.655129209779
 30
0.0
  0
ENDBLK
  5
58E
  8
0
  0
BLOCK
  8
0
  2
*U11
 70
     1
 10
0.0
 20
0.0
 30
0.0
  3
*U11
  1

  0
TEXT
  5
5CF
  8
0
  6
CONTINUOUS
 62
     0
 10
-1382.7829766184079
 20
-1070.5651292097789
 30
0.0
 40
3.2000000476837149
  1
250.0000
  0
ENDBLK
  5
5D1
  8
0
  0
ENDSEC
  0
SECTION
  2
ENTITIES
  0
TEXT
  5
1EA
  8
0
  6
CONTINUOUS
 10
-207.59079108146031
 20
-13159.83012108
 30
0.0
 40
120.0
  1
0.3m/s
 50
0.0000025044687019
 41
0.5833333271245161
  7
STANDARD1
  0
TEXT
  5
1EB
  8
0
  6
CONTINUOUS
 10
-184.27139869172601
 20
-10322.510569740751
 30
0.0
 40
120.0
  1
0.5m/s
 50
0.0000025044687019
 41
0.5833333271245161
  7
STANDARD1
  0
TEXT
  5
1EC
  8
0
  6
CONTINUOUS
 10
-156.6311426863376
 20
-5486.005687733189
 30
0.0
 40
120.0
  1
1m/s
 50
0.0000025044687019
 41
0.5833333271245161
  7
STANDARD1
  0
TEXT
  5
1ED
  8
0
  6
CONTINUOUS
 10
-108.5940205561965
 20
-2105.983291155645
 30
0.0
 40
120.0
  1
2m/s
 50
0.0000025044687019
 41
0.5833333271245161
  7
STANDARD1
  0
LINE
  5
4A6
  8
0
  6
CONTINUOUS
 10
184.80000000000541
 20
-9.7999999999974534
 30
0.0
 11
-184.7999999999989
 21
-9.7999999999974534
 31
0.0
  0
LINE
  5
4A7
  8
0
  6
CONTINUOUS
 10
184.7999999999989
 20
0.0
 30
0.0
 11
-184.7999999999989
 21
0.0
 31
0.0
  0
LINE
  5
4A8
  8
0
  6
CONTINUOUS
 10
0.0000000000015916
 20
70.0
 30
0.0
 11
0.0000000000015916
 21
-70.0
 31
0.0
  0
LINE
  5
4A9
  8
0
  6
CONTINUOUS
 10
-184.7999999999958
 20
0.0
 30
0.0
 11
-184.7999999999989
 21
-9.7999999999974534
 31
0.0
  0
LINE
  5
4AA
  8
0
  6
CONTINUOUS
 10
184.7999999999989
 20
0.0
 30
0.0
 11
184.80000000000541
 21
-9.7999999999974534
 31
0.0
  0
LINE
  5
4AB
  8
0
  6
CONTINUOUS
 10
175.00000000000159
 20
270.2000000000026
 30
0.0
 11
175.00000000000159
 21
0.0
 31
0.0
  0
LINE
  5
4AC
  8
0
  6
CONTINUOUS
 10
175.00000000000159
 20
270.2000000000026
 30
0.0
 11
-174.99999999999841
 21
270.2000000000026
 31
0.0
  0
LINE
  5
4AD
  8
0
  6
CONTINUOUS
 10
-174.99999999999841
 20
270.2000000000026
 30
0.0
 11
-174.99999999999841
 21
0.0
 31
0.0
  0
POLYLINE
  5
5A4
  8
0
  6
CONTINUOUS
 66
     1
 10
0.0
 20
0.0
 30
0.0
  0
VERTEX
  5
704
  8
0
  6
CONTINUOUS
 10
-175.3416000000272
 20
-9.7999999999974534
 30
0.0
  0
VERTEX
  5
705
  8
0
  6
CONTINUOUS
 10
-204.59683683080971
 20
-530.40768389164623
 30
0.0
  0
VERTEX
  5
706
  8
0
  6
CONTINUOUS
 10
-204.59683683080971
 20
-530.40768389164623
 30
0.0
  0
VERTEX
  5
707
  8
0
  6
CONTINUOUS
 10
-216.8755310574345
 20
-900.55225324319269
 30
0.0
  0
VERTEX
  5
708
  8
0
  6
CONTINUOUS
 10
-229.15422528405929
 20
-1270.6968225947389
 30
0.0
  0
VERTEX
  5
709
  8
0
  6
CONTINUOUS
 10
-229.15422528405929
 20
-1270.6968225947389
 30
0.0
  0
VERTEX
  5
70A
  8
0
  6
CONTINUOUS
 10
-235.0526974057768
 20
-1589.757873872353
 30
0.0
  0
VERTEX
  5
70B
  8
0
  6
CONTINUOUS
 10
-237.24725253488421
 20
-1905.999461785143
 30
0.0
  0
VERTEX
  5
70C
  8
0
  6
CONTINUOUS
 10
-233.72639444892161
 20
-2180.5671793278229
 30
0.0
  0
VERTEX
  5
70D
  8
0
  6
CONTINUOUS
 10
-225.10771165864679
 20
-2415.8601785876072
 30
0.0
  0
VERTEX
  5
70E
  8
0
  6
CONTINUOUS
 10
-218.831000604591
 20
-2518.0143855562669
 30
0.0
  0
VERTEX
  5
70F
  8
0
  6
CONTINUOUS
 10
-212.55428955053529
 20
-2620.1685925249262
 30
0.0
  0
VERTEX
  5
710
  8
0
  6
CONTINUOUS
 10
-196.7821162807343
 20
-2784.0929185005211
 30
0.0
  0
VERTEX
  5
711
  8
0
  6
CONTINUOUS
 10
-176.73559756110151
 20
-2904.2158912233472
 30
0.0
  0
VERTEX
  5
712
  8
0
  6
CONTINUOUS
 10
-160.72775205886319
 20
-2961.47736080911
 30
0.0
  0
VERTEX
  5
713
  8
0
  6
CONTINUOUS
 10
-144.71990655662481
 20
-3018.7388303948719
 30
0.0
  0
VERTEX
  5
714
  8
0
  6
CONTINUOUS
 10
-128.85183417031081
 20
-3061.9780773078969
 30
0.0
  0
VERTEX
  5
715
  8
0
  6
CONTINUOUS
 10
-115.2946876304847
 20
-3085.1317512117489
 30
0.0
  0
VERTEX
  5
716
  8
0
  6
CONTINUOUS
 10
-101.7375410906586
 20
-3108.2854251156
 30
0.0
  0
VERTEX
  5
717
  8
0
  6
CONTINUOUS
 10
-86.944048364115815
 20
-3125.8252361309728
 30
0.0
  0
VERTEX
  5
718
  8
0
  6
CONTINUOUS
 10
-78.670140651255906
 20
-3133.1737176730371
 30
0.0
  0
VERTEX
  5
719
  8
0
  6
CONTINUOUS
 10
-70.396232938395997
 20
-3140.5221992151019
 30
0.0
  0
VERTEX
  5
71A
  8
0
  6
CONTINUOUS
 10
-53.099240559284439
 20
-3150.0181944345391
 30
0.0
  0
VERTEX
  5
71B
  8
0
  6
CONTINUOUS
 10
-35.473060997294631
 20
-3154.8496543704141
 30
0.0
  0
VERTEX
  5
71C
  8
0
  6
CONTINUOUS
 10
-17.75040210020256
 20
-3156.350343328661
 30
0.0
  0
VERTEX
  5
71D
  8
0
  6
CONTINUOUS
 10
-8.875201050110034
 20
-3156.2495716643361
 30
0.0
  0
VERTEX
  5
71E
  8
0
  6
CONTINUOUS
 10
8.8752010500734251
 20
-3156.2495716643361
 30
0.0
  0
VERTEX
  5
71F
  8
0
  6
CONTINUOUS
 10
17.750402100164361
 20
-3156.350343328661
 30
0.0
  0
VERTEX
  5
720
  8
0
  6
CONTINUOUS
 10
35.473060997253242
 20
-3154.8496543704141
 30
0.0
  0
VERTEX
  5
721
  8
0
  6
CONTINUOUS
 10
44.286150778244973
 20
-3152.4339244024768
 30
0.0
  0
VERTEX
  5
722
  8
0
  6
CONTINUOUS
 10
53.099240559236698
 20
-3150.0181944345391
 30
0.0
  0
VERTEX
  5
723
  8
0
  6
CONTINUOUS
 10
61.747736748789293
 20
-3145.2701968248198
 30
0.0
  0
VERTEX
  5
724
  8
0
  6
CONTINUOUS
 10
70.396232938341882
 20
-3140.5221992151019
 30
0.0
  0
VERTEX
  5
725
  8
0
  6
CONTINUOUS
 10
78.670140651204989
 20
-3133.1737176730371
 30
0.0
  0
VERTEX
  5
726
  8
0
  6
CONTINUOUS
 10
86.944048364068067
 20
-3125.8252361309728
 30
0.0
  0
VERTEX
  5
727
  8
0
  6
CONTINUOUS
 10
94.340794727341034
 20
-3117.055330623286
 30
0.0
  0
VERTEX
  5
728
  8
0
  6
CONTINUOUS
 10
101.737541090614
 20
-3108.2854251156
 30
0.0
  0
VERTEX
  5
729
  8
0
  6
CONTINUOUS
 10
115.29468763044009
 20
-3085.1317512117489
 30
0.0
  0
VERTEX
  5
72A
  8
0
  6
CONTINUOUS
 10
128.8518341702663
 20
-3061.9780773078969
 30
0.0
  0
VERTEX
  5
72B
  8
0
  6
CONTINUOUS
 10
136.7858703634233
 20
-3040.3584538513842
 30
0.0
  0
VERTEX
  5
72C
  8
0
  6
CONTINUOUS
 10
144.7199065565803
 20
-3018.7388303948719
 30
0.0
  0
VERTEX
  5
72D
  8
0
  6
CONTINUOUS
 10
176.7355975610505
 20
-2904.2158912233472
 30
0.0
  0
VERTEX
  5
72E
  8
0
  6
CONTINUOUS
 10
196.78211628068641
 20
-2784.0929185005211
 30
0.0
  0
VERTEX
  5
72F
  8
0
  6
CONTINUOUS
 10
204.6682029155902
 20
-2702.1307555127241
 30
0.0
  0
VERTEX
  5
730
  8
0
  6
CONTINUOUS
 10
212.55428955049391
 20
-2620.1685925249262
 30
0.0
  0
VERTEX
  5
731
  8
0
  6
CONTINUOUS
 10
218.8310006045497
 20
-2518.0143855562669
 30
0.0
  0
VERTEX
  5
732
  8
0
  6
CONTINUOUS
 10
225.1077116586055
 20
-2415.8601785876072
 30
0.0
  0
VERTEX
  5
733
  8
0
  6
CONTINUOUS
 10
233.7263944488802
 20
-2180.5671793278229
 30
0.0
  0
VERTEX
  5
734
  8
0
  6
CONTINUOUS
 10
233.7263944488802
 20
-2180.5671793278229
 30
0.0
  0
VERTEX
  5
735
  8
0
  6
CONTINUOUS
 10
235.4868234918583
 20
-2043.283320556483
 30
0.0
  0
VERTEX
  5
736
  8
0
  6
CONTINUOUS
 10
236.14997497028281
 20
-1747.8786678287479
 30
0.0
  0
VERTEX
  5
737
  8
0
  6
CONTINUOUS
 10
236.14997497028281
 20
-1747.8786678287479
 30
0.0
  0
VERTEX
  5
738
  8
0
  6
CONTINUOUS
 10
229.15422528401791
 20
-1270.6968225947389
 30
0.0
  0
VERTEX
  5
739
  8
0
  6
CONTINUOUS
 10
216.87553105739309
 20
-900.55225324319269
 30
0.0
  0
VERTEX
  5
73A
  8
0
  6
CONTINUOUS
 10
204.5968368307683
 20
-530.40768389164623
 30
0.0
  0
VERTEX
  5
73B
  8
0
  6
CONTINUOUS
 10
175.35065566863591
 20
-9.7999999999974534
 30
0.0
  0
SEQEND
  5
73C
  8
0
  6
CONTINUOUS
  0
POLYLINE
  5
5A5
  8
0
  6
CONTINUOUS
 66
     1
 10
0.0
 20
0.0
 30
0.0
  0
VERTEX
  5
73D
  8
0
  6
CONTINUOUS
 10
-175.3416000000272
 20
-9.7999999999974534
 30
0.0
  0
VERTEX
  5
73E
  8
0
  6
CONTINUOUS
 10
-269.26813896678351
 20
-997.47025041168763
 30
0.0
  0
VERTEX
  5
73F
  8
0
  6
CONTINUOUS
 10
-318.91850713521802
 20
-1712.2258177233989
 30
0.0
  0
VERTEX
  5
740
  8
0
  6
CONTINUOUS
 10
-368.56887530365242
 20
-2426.9813850351111
 30
0.0
  0
VERTEX
  5
741
  8
0
  6
CONTINUOUS
 10
-386.92845391753099
 20
-2772.977497930407
 30
0.0
  0
VERTEX
  5
742
  8
0
  6
CONTINUOUS
 10
-405.28803253140961
 20
-3118.973610825703
 30
0.0
  0
VERTEX
  5
743
  8
0
  6
CONTINUOUS
 10
-417.5055148977649
 20
-3443.297032348652
 30
0.0
  0
VERTEX
  5
744
  8
0
  6
CONTINUOUS
 10
-430.3271966809408
 20
-4022.737660413869
 30
0.0
  0
VERTEX
  5
745
  8
0
  6
CONTINUOUS
 10
-430.93139609776119
 20
-4277.8548669561387
 30
0.0
  0
VERTEX
  5
746
  8
0
  6
CONTINUOUS
 10
-420.06379535734459
 20
-4547.8945109602319
 30
0.0
  0
VERTEX
  5
747
  8
0
  6
CONTINUOUS
 10
-399.71607986559479
 20
-4965.250790962471
 30
0.0
  0
VERTEX
  5
748
  8
0
  6
CONTINUOUS
 10
-390.23596511426172
 20
-5112.5674269606179
 30
0.0
  0
VERTEX
  5
749
  8
0
  6
CONTINUOUS
 10
-368.19894455892683
 20
-5294.3963604054979
 30
0.0
  0
VERTEX
  5
74A
  8
0
  6
CONTINUOUS
 10
-346.16192400359182
 20
-5476.225293850378
 30
0.0
  0
VERTEX
  5
74B
  8
0
  6
CONTINUOUS
 10
-302.35255794383193
 20
-5693.5620663837999
 30
0.0
  0
VERTEX
  5
74C
  8
0
  6
CONTINUOUS
 10
-284.17299983912949
 20
-5767.0466838932889
 30
0.0
  0
VERTEX
  5
74D
  8
0
  6
CONTINUOUS
 10
-234.6672426445445
 20
-5907.5222648561312
 30
0.0
  0
VERTEX
  5
74E
  8
0
  6
CONTINUOUS
 10
-207.66808987444381
 20
-5965.8531535057882
 30
0.0
  0
VERTEX
  5
74F
  8
0
  6
CONTINUOUS
 10
-180.66893710434331
 20
-6024.1840421554471
 30
0.0
  0
VERTEX
  5
750
  8
0
  6
CONTINUOUS
 10
-131.9863710418997
 20
-6102.4041015389648
 30
0.0
  0
VERTEX
  5
751
  8
0
  6
CONTINUOUS
 10
-91.973187645490057
 20
-6146.0328857310742
 30
0.0
  0
VERTEX
  5
752
  8
0
  6
CONTINUOUS
 10
-61.497819095759702
 20
-6164.2312808628531
 30
0.0
  0
VERTEX
  5
753
  8
0
  6
CONTINUOUS
 10
-37.942498177801333
 20
-6168.923589715343
 30
0.0
  0
VERTEX
  5
754
  8
0
  6
CONTINUOUS
 10
0.0000000217685283
 20
-6172.0243199888182
 30
0.0
  0
VERTEX
  5
755
  8
0
  6
CONTINUOUS
 10
28.028032317758289
 20
-6169.8101384506899
 30
0.0
  0
VERTEX
  5
756
  8
0
  6
CONTINUOUS
 10
37.942498177753578
 20
-6168.923589715343
 30
0.0
  0
VERTEX
  5
757
  8
0
  6
CONTINUOUS
 10
61.497819095715151
 20
-6164.2312808628531
 30
0.0
  0
VERTEX
  5
758
  8
0
  6
CONTINUOUS
 10
91.973187645445449
 20
-6146.0328857310742
 30
0.0
  0
VERTEX
  5
759
  8
0
  6
CONTINUOUS
 10
111.9797793436487
 20
-6124.2184936350186
 30
0.0
  0
VERTEX
  5
75A
  8
0
  6
CONTINUOUS
 10
131.9863710418519
 20
-6102.4041015389648
 30
0.0
  0
VERTEX
  5
75B
  8
0
  6
CONTINUOUS
 10
156.3276540730769
 20
-6063.2940718472064
 30
0.0
  0
VERTEX
  5
75C
  8
0
  6
CONTINUOUS
 10
180.6689371043019
 20
-6024.1840421554471
 30
0.0
  0
VERTEX
  5
75D
  8
0
  6
CONTINUOUS
 10
234.66724264449999
 20
-5907.5222648561312
 30
0.0
  0
VERTEX
  5
75E
  8
0
  6
CONTINUOUS
 10
284.17299983908168
 20
-5767.0466838932889
 30
0.0
  0
VERTEX
  5
75F
  8
0
  6
CONTINUOUS
 10
320.53211604848337
 20
-5620.07744887431
 30
0.0
  0
VERTEX
  5
760
  8
0
  6
CONTINUOUS
 10
346.16192400353771
 20
-5476.225293850378
 30
0.0
  0
VERTEX
  5
761
  8
0
  6
CONTINUOUS
 10
390.23596511422028
 20
-5112.5674269606179
 30
0.0
  0
VERTEX
  5
762
  8
0
  6
CONTINUOUS
 10
409.19619461688001
 20
-4817.934154964325
 30
0.0
  0
VERTEX
  5
763
  8
0
  6
CONTINUOUS
 10
409.19619461688001
 20
-4817.934154964325
 30
0.0
  0
VERTEX
  5
764
  8
0
  6
CONTINUOUS
 10
430.9313960977164
 20
-4277.8548669561387
 30
0.0
  0
VERTEX
  5
765
  8
0
  6
CONTINUOUS
 10
430.3271966808976
 20
-4022.737660413869
 30
0.0
  0
VERTEX
  5
766
  8
0
  6
CONTINUOUS
 10
429.72299726407851
 20
-3767.620453871602
 30
0.0
  0
VERTEX
  5
767
  8
0
  6
CONTINUOUS
 10
405.28803253136482
 20
-3118.973610825703
 30
0.0
  0
VERTEX
  5
768
  8
0
  6
CONTINUOUS
 10
368.56887530360768
 20
-2426.9813850351111
 30
0.0
  0
VERTEX
  5
769
  8
0
  6
CONTINUOUS
 10
318.91850713517488
 20
-1712.2258177233989
 30
0.0
  0
VERTEX
  5
76A
  8
0
  6
CONTINUOUS
 10
269.26813896674207
 20
-997.47025041168763
 30
0.0
  0
VERTEX
  5
76B
  8
0
  6
CONTINUOUS
 10
175.35065566863591
 20
-9.7999999999974534
 30
0.0
  0
SEQEND
  5
76C
  8
0
  6
CONTINUOUS
  0
POLYLINE
  5
5A6
  8
0
  6
CONTINUOUS
 66
     1
 10
0.0
 20
0.0
 30
0.0
  0
VERTEX
  5
76D
  8
0
  6
CONTINUOUS
 10
-175.3416000000272
 20
-9.799999999996249
 30
0.0
  0
VERTEX
  5
76E
  8
0
  6
CONTINUOUS
 10
-288.77453843938218
 20
-935.48669517472615
 30
0.0
  0
VERTEX
  5
76F
  8
0
  6
CONTINUOUS
 10
-402.20747687873711
 20
-1861.173390349456
 30
0.0
  0
VERTEX
  5
770
  8
0
  6
CONTINUOUS
 10
-457.44621523746002
 20
-2441.340401382618
 30
0.0
  0
VERTEX
  5
771
  8
0
  6
CONTINUOUS
 10
-512.68495359618305
 20
-3021.50741241578
 30
0.0
  0
VERTEX
  5
772
  8
0
  6
CONTINUOUS
 10
-619.62128420131523
 20
-4457.571242755952
 30
0.0
  0
VERTEX
  5
773
  8
0
  6
CONTINUOUS
 10
-692.78665687646412
 20
-5751.9941771283984
 30
0.0
  0
VERTEX
  5
774
  8
0
  6
CONTINUOUS
 10
-712.00231269268045
 20
-6399.3042479101341
 30
0.0
  0
VERTEX
  5
775
  8
0
  6
CONTINUOUS
 10
-712.00231269268045
 20
-6399.3042479101341
 30
0.0
  0
VERTEX
  5
776
  8
0
  6
CONTINUOUS
 10
-723.98782343453115
 20
-7607.1336051089756
 30
0.0
  0
VERTEX
  5
777
  8
0
  6
CONTINUOUS
 10
-716.75767836016598
 20
-8167.6528915260851
 30
0.0
  0
VERTEX
  5
778
  8
0
  6
CONTINUOUS
 10
-686.57929478586561
 20
-9099.9933099514019
 30
0.0
  0
VERTEX
  5
779
  8
0
  6
CONTINUOUS
 10
-662.88533138258674
 20
-9911.2002926048317
 30
0.0
  0
VERTEX
  5
77A
  8
0
  6
CONTINUOUS
 10
-626.20383126787442
 20
-10343.573931239571
 30
0.0
  0
VERTEX
  5
77B
  8
0
  6
CONTINUOUS
 10
-552.66327361676485
 20
-10840.901585149701
 30
0.0
  0
VERTEX
  5
77C
  8
0
  6
CONTINUOUS
 10
-486.3696274172699
 20
-11159.94414879728
 30
0.0
  0
VERTEX
  5
77D
  8
0
  6
CONTINUOUS
 10
-382.82357062626562
 20
-11501.84756625615
 30
0.0
  0
VERTEX
  5
77E
  8
0
  6
CONTINUOUS
 10
-321.29635523160721
 20
-11642.00133163104
 30
0.0
  0
VERTEX
  5
77F
  8
0
  6
CONTINUOUS
 10
-215.0055466992697
 20
-11787.495266557389
 30
0.0
  0
VERTEX
  5
780
  8
0
  6
CONTINUOUS
 10
-156.2429699900178
 20
-11843.91319762883
 30
0.0
  0
VERTEX
  5
781
  8
0
  6
CONTINUOUS
 10
-96.901209074754007
 20
-11888.416528401631
 30
0.0
  0
VERTEX
  5
782
  8
0
  6
CONTINUOUS
 10
-71.302445921204935
 20
-11900.25852483336
 30
0.0
  0
VERTEX
  5
783
  8
0
  6
CONTINUOUS
 10
-45.70368276765587
 20
-11912.100521265091
 30
0.0
  0
VERTEX
  5
784
  8
0
  6
CONTINUOUS
 10
-0.0000000000175078
 20
-11923.228800000001
 30
0.0
  0
VERTEX
  5
785
  8
0
  6
CONTINUOUS
 10
45.703682767614488
 20
-11912.100521265091
 30
0.0
  0
VERTEX
  5
786
  8
0
  6
CONTINUOUS
 10
96.90120907470623
 20
-11888.416528401631
 30
0.0
  0
VERTEX
  5
787
  8
0
  6
CONTINUOUS
 10
156.24296998997639
 20
-11843.91319762883
 30
0.0
  0
VERTEX
  5
788
  8
0
  6
CONTINUOUS
 10
215.00554669922511
 20
-11787.495266557389
 30
0.0
  0
VERTEX
  5
789
  8
0
  6
CONTINUOUS
 10
268.1509509653938
 20
-11714.74829909421
 30
0.0
  0
VERTEX
  5
78A
  8
0
  6
CONTINUOUS
 10
321.29635523156247
 20
-11642.00133163104
 30
0.0
  0
VERTEX
  5
78B
  8
0
  6
CONTINUOUS
 10
352.05996292888852
 20
-11571.92444894359
 30
0.0
  0
VERTEX
  5
78C
  8
0
  6
CONTINUOUS
 10
382.82357062621458
 20
-11501.84756625615
 30
0.0
  0
VERTEX
  5
78D
  8
0
  6
CONTINUOUS
 10
434.59659902171683
 20
-11330.89585752671
 30
0.0
  0
VERTEX
  5
78E
  8
0
  6
CONTINUOUS
 10
486.36962741721908
 20
-11159.94414879728
 30
0.0
  0
VERTEX
  5
78F
  8
0
  6
CONTINUOUS
 10
519.5164505169713
 20
-11000.42286697348
 30
0.0
  0
VERTEX
  5
790
  8
0
  6
CONTINUOUS
 10
552.66327361672336
 20
-10840.901585149701
 30
0.0
  0
VERTEX
  5
791
  8
0
  6
CONTINUOUS
 10
626.20383126782974
 20
-10343.573931239571
 30
0.0
  0
VERTEX
  5
792
  8
0
  6
CONTINUOUS
 10
644.54458132518585
 20
-10127.3871119222
 30
0.0
  0
VERTEX
  5
793
  8
0
  6
CONTINUOUS
 10
662.88533138254206
 20
-9911.2002926048317
 30
0.0
  0
VERTEX
  5
794
  8
0
  6
CONTINUOUS
 10
674.73231308418178
 20
-9505.5968012781159
 30
0.0
  0
VERTEX
  5
795
  8
0
  6
CONTINUOUS
 10
686.57929478582105
 20
-9099.9933099514019
 30
0.0
  0
VERTEX
  5
796
  8
0
  6
CONTINUOUS
 10
716.75767836012119
 20
-8167.6528915260851
 30
0.0
  0
VERTEX
  5
797
  8
0
  6
CONTINUOUS
 10
731.21796850885562
 20
-7046.6143186918707
 30
0.0
  0
VERTEX
  5
798
  8
0
  6
CONTINUOUS
 10
692.78665687641956
 20
-5751.9941771283984
 30
0.0
  0
VERTEX
  5
799
  8
0
  6
CONTINUOUS
 10
619.62128420127056
 20
-4457.571242755952
 30
0.0
  0
VERTEX
  5
79A
  8
0
  6
CONTINUOUS
 10
512.68495359614155
 20
-3021.50741241578
 30
0.0
  0
VERTEX
  5
79B
  8
0
  6
CONTINUOUS
 10
402.2074768786926
 20
-1861.173390349456
 30
0.0
  0
VERTEX
  5
79C
  8
0
  6
CONTINUOUS
 10
288.7790662736644
 20
-935.48669517472615
 30
0.0
  0
VERTEX
  5
79D
  8
0
  6
CONTINUOUS
 10
175.35065566863591
 20
-9.799999999996249
 30
0.0
  0
SEQEND
  5
79E
  8
0
  6
CONTINUOUS
  0
POLYLINE
  5
5A8
  8
0
  6
CONTINUOUS
 66
     1
 10
0.0
 20
0.0
 30
0.0
  0
VERTEX
  5
79F
  8
0
  6
CONTINUOUS
 10
-175.3416000000278
 20
-9.8000000000010807
 30
0.0
  0
VERTEX
  5
7A0
  8
0
  6
CONTINUOUS
 10
-315.91973276122411
 20
-871.3865750505513
 30
0.0
  0
VERTEX
  5
7A1
  8
0
  6
CONTINUOUS
 10
-696.24998139245395
 20
-3312.116641189657
 30
0.0
  0
VERTEX
  5
7A2
  8
0
  6
CONTINUOUS
 10
-780.67298748867415
 20
-3981.4426302699871
 30
0.0
  0
VERTEX
  5
7A3
  8
0
  6
CONTINUOUS
 10
-865.0959935848947
 20
-4650.7686193503141
 30
0.0
  0
VERTEX
  5
7A4
  8
0
  6
CONTINUOUS
 10
-1024.5656378988249
 20
-6623.4909915644184
 30
0.0
  0
VERTEX
  5
7A5
  8
0
  6
CONTINUOUS
 10
-1067.98854521467
 20
-7316.04353207236
 30
0.0
  0
VERTEX
  5
7A6
  8
0
  6
CONTINUOUS
 10
-1123.5891051782421
 20
-8626.4621549360618
 30
0.0
  0
VERTEX
  5
7A7
  8
0
  6
CONTINUOUS
 10
-1134.6853557972761
 20
-9720.2778000103317
 30
0.0
  0
VERTEX
  5
7A8
  8
0
  6
CONTINUOUS
 10
-1101.7436969117559
 20
-10334.855801096121
 30
0.0
  0
VERTEX
  5
7A9
  8
0
  6
CONTINUOUS
 10
-1002.867307376792
 20
-11645.81390262877
 30
0.0
  0
VERTEX
  5
7AA
  8
0
  6
CONTINUOUS
 10
-948.32955025025831
 20
-12044.588464576151
 30
0.0
  0
VERTEX
  5
7AB
  8
0
  6
CONTINUOUS
 10
-893.79179312372469
 20
-12443.363026523541
 30
0.0
  0
VERTEX
  5
7AC
  8
0
  6
CONTINUOUS
 10
-813.78472615309056
 20
-12836.4233302509
 30
0.0
  0
VERTEX
  5
7AD
  8
0
  6
CONTINUOUS
 10
-728.37418715775652
 20
-13081.10895145167
 30
0.0
  0
VERTEX
  5
7AE
  8
0
  6
CONTINUOUS
 10
-642.96364816242215
 20
-13325.794572652439
 30
0.0
  0
VERTEX
  5
7AF
  8
0
  6
CONTINUOUS
 10
-496.49453773967213
 20
-13626.91379426172
 30
0.0
  0
VERTEX
  5
7B0
  8
0
  6
CONTINUOUS
 10
-446.53196837347082
 20
-13718.657932230361
 30
0.0
  0
VERTEX
  5
7B1
  8
0
  6
CONTINUOUS
 10
-358.60457039212469
 20
-13839.59364559236
 30
0.0
  0
VERTEX
  5
7B2
  8
0
  6
CONTINUOUS
 10
-250.01181285480899
 20
-13935.70678338817
 30
0.0
  0
VERTEX
  5
7B3
  8
0
  6
CONTINUOUS
 10
-150.37343576856821
 20
-13990.64025809202
 30
0.0
  0
VERTEX
  5
7B4
  8
0
  6
CONTINUOUS
 10
0.0000000004408776
 20
-14027.32800000003
 30
0.0
  0
VERTEX
  5
7B5
  8
0
  6
CONTINUOUS
 10
77.421239038953644
 20
-14011.55572580839
 30
0.0
  0
VERTEX
  5
7B6
  8
0
  6
CONTINUOUS
 10
150.3734357685141
 20
-13990.64025809202
 30
0.0
  0
VERTEX
  5
7B7
  8
0
  6
CONTINUOUS
 10
216.6810528530884
 20
-13959.34598059993
 30
0.0
  0
VERTEX
  5
7B8
  8
0
  6
CONTINUOUS
 10
283.34257285644679
 20
-13912.067586176419
 30
0.0
  0
VERTEX
  5
7B9
  8
0
  6
CONTINUOUS
 10
358.6045703920833
 20
-13839.59364559236
 30
0.0
  0
VERTEX
  5
7BA
  8
0
  6
CONTINUOUS
 10
446.53196837342313
 20
-13718.657932230361
 30
0.0
  0
VERTEX
  5
7BB
  8
0
  6
CONTINUOUS
 10
496.49453773962603
 20
-13626.91379426172
 30
0.0
  0
VERTEX
  5
7BC
  8
0
  6
CONTINUOUS
 10
546.45710710582875
 20
-13535.16965629309
 30
0.0
  0
VERTEX
  5
7BD
  8
0
  6
CONTINUOUS
 10
594.71037763410482
 20
-13430.482114472759
 30
0.0
  0
VERTEX
  5
7BE
  8
0
  6
CONTINUOUS
 10
813.78472615304918
 20
-12836.4233302509
 30
0.0
  0
VERTEX
  5
7BF
  8
0
  6
CONTINUOUS
 10
893.7917931236766
 20
-12443.363026523541
 30
0.0
  0
VERTEX
  5
7C0
  8
0
  6
CONTINUOUS
 10
948.32955025021317
 20
-12044.588464576151
 30
0.0
  0
VERTEX
  5
7C1
  8
0
  6
CONTINUOUS
 10
1002.86730737675
 20
-11645.81390262877
 30
0.0
  0
VERTEX
  5
7C2
  8
0
  6
CONTINUOUS
 10
1035.8346727014689
 20
-11297.623852405341
 30
0.0
  0
VERTEX
  5
7C3
  8
0
  6
CONTINUOUS
 10
1068.802038026188
 20
-10949.4338021819
 30
0.0
  0
VERTEX
  5
7C4
  8
0
  6
CONTINUOUS
 10
1101.7436969117109
 20
-10334.855801096121
 30
0.0
  0
VERTEX
  5
7C5
  8
0
  6
CONTINUOUS
 10
1134.685355797234
 20
-9720.2778000103317
 30
0.0
  0
VERTEX
  5
7C6
  8
0
  6
CONTINUOUS
 10
1129.1372304877191
 20
-9173.3699774731958
 30
0.0
  0
VERTEX
  5
7C7
  8
0
  6
CONTINUOUS
 10
1123.5891051782039
 20
-8626.4621549360618
 30
0.0
  0
VERTEX
  5
7C8
  8
0
  6
CONTINUOUS
 10
1095.7888251964159
 20
-7971.2528435042123
 30
0.0
  0
VERTEX
  5
7C9
  8
0
  6
CONTINUOUS
 10
1067.9885452146291
 20
-7316.04353207236
 30
0.0
  0
VERTEX
  5
7CA
  8
0
  6
CONTINUOUS
 10
981.1427305829427
 20
-5930.938451056476
 30
0.0
  0
VERTEX
  5
7CB
  8
0
  6
CONTINUOUS
 10
923.11936208389955
 20
-5290.8535352033959
 30
0.0
  0
VERTEX
  5
7CC
  8
0
  6
CONTINUOUS
 10
780.672987488638
 20
-3981.4426302699871
 30
0.0
  0
VERTEX
  5
7CD
  8
0
  6
CONTINUOUS
 10
696.24998139241939
 20
-3312.116641189657
 30
0.0
  0
VERTEX
  5
7CE
  8
0
  6
CONTINUOUS
 10
456.49786552237651
 20
-1732.9731501011049
 30
0.0
  0
VERTEX
  5
7CF
  8
0
  6
CONTINUOUS
 10
175.35065566863651
 20
-9.8000000000012033
 30
0.0
  0
SEQEND
  5
7D0
  8
0
  6
CONTINUOUS
  0
ENDSEC
  0
EOF
