  0
SECTION
  2
HEADER
  9
$ACADVER
  1
AC1009
  9
$INSBASE
 10
0.0
 20
0.0
 30
0.0
  9
$EXTMIN
 10
-398.83322800993989
 20
-5007.1583733874604
 30
-0.0015258207003583
  9
$EXTMAX
 10
1326.3579293258381
 20
183.1583983145392
 30
0.0000000349246037
  9
$LIMMIN
 10
0.0
 20
0.0
  9
$LIMMAX
 10
12.0
 20
9.0
  9
$ORTHOMODE
 70
     0
  9
$REGENMODE
 70
     1
  9
$FILLMODE
 70
     1
  9
$QTEXTMODE
 70
     0
  9
$MIRRTEXT
 70
     0
  9
$DRAGMODE
 70
     2
  9
$LTSCALE
 40
1.0
  9
$OSMODE
 70
  3071
  9
$ATTMODE
 70
     1
  9
$TEXTSIZE
 40
3.2000000476837149
  9
$TRACEWID
 40
0.05
  9
$TEXTSTYLE
  7
STANDARD1
  9
$CLAYER
  8
0
  9
$CELTYPE
  6
CONTINUOUS
  9
$CECOLOR
 62
   256
  9
$DIMSCALE
 40
1.0
  9
$DIMASZ
 40
1.931851648807023
  9
$DIMEXO
 40
1.0
  9
$DIMDLI
 40
0.38
  9
$DIMRND
 40
0.0
  9
$DIMDLE
 40
0.0
  9
$DIMEXE
 40
2.0
  9
$DIMTP
 40
0.0
  9
$DIMTM
 40
0.0
  9
$DIMTXT
 40
2.0
  9
$DIMCEN
 40
0.09
  9
$DIMTSZ
 40
0.0
  9
$DIMTOL
 70
     0
  9
$DIMLIM
 70
     0
  9
$DIMTIH
 70
     1
  9
$DIMTOH
 70
     1
  9
$DIMSE1
 70
     0
  9
$DIMSE2
 70
     0
  9
$DIMTAD
 70
     1
  9
$DIMZIN
 70
     0
  9
$DIMBLK
  1

  9
$DIMASO
 70
     1
  9
$DIMSHO
 70
     1
  9
$DIMPOST
  1

  9
$DIMAPOST
  1

  9
$DIMALT
 70
     0
  9
$DIMALTD
 70
     2
  9
$DIMALTF
 40
25.399999999999999
  9
$DIMLFAC
 40
1.0
  9
$DIMTOFL
 70
     0
  9
$DIMTVP
 40
0.0
  9
$DIMTIX
 70
     0
  9
$DIMSOXD
 70
     0
  9
$DIMSAH
 70
     0
  9
$DIMBLK1
  1

  9
$DIMBLK2
  1

  9
$DIMSTYLE
  2
STANDARD
  9
$DIMCLRD
 70
     0
  9
$DIMCLRE
 70
     0
  9
$DIMCLRT
 70
     0
  9
$DIMTFAC
 40
0.625
  9
$DIMGAP
 40
0.09
  9
$LUNITS
 70
     2
  9
$LUPREC
 70
     3
  9
$SKETCHINC
 40
0.1
  9
$FILLETRAD
 40
0.0
  9
$AUNITS
 70
     0
  9
$AUPREC
 70
     0
  9
$MENU
  1
.
  9
$ELEVATION
 40
0.0
  9
$PELEVATION
 40
0.0
  9
$THICKNESS
 40
0.0
  9
$LIMCHECK
 70
     0
  9
$BLIPMODE
 70
     0
  9
$CHAMFERA
 40
0.0
  9
$CHAMFERB
 40
0.0
  9
$SKPOLY
 70
     0
  9
$TDCREATE
 40
2453297.5458544912
  9
$TDUPDATE
 40
2454284.5448893979
  9
$TDINDWG
 40
0.0300691782
  9
$TDUSRTIMER
 40
0.0300436806
  9
$USRTIMER
 70
     1
  9
$ANGBASE
 50
0.0
  9
$ANGDIR
 70
     0
  9
$PDMODE
 70
     0
  9
$PDSIZE
 40
0.0
  9
$PLINEWID
 40
0.0
  9
$COORDS
 70
     1
  9
$SPLFRAME
 70
     0
  9
$SPLINETYPE
 70
     6
  9
$SPLINESEGS
 70
     8
  9
$ATTDIA
 70
     0
  9
$ATTREQ
 70
     1
  9
$HANDLING
 70
     1
  9
$HANDSEED
  5
CAE
  9
$SURFTAB1
 70
     6
  9
$SURFTAB2
 70
     6
  9
$SURFTYPE
 70
     6
  9
$SURFU
 70
     6
  9
$SURFV
 70
     6
  9
$UCSNAME
  2

  9
$UCSORG
 10
0.0
 20
0.0
 30
0.0
  9
$UCSXDIR
 10
1.0
 20
0.0
 30
0.0
  9
$UCSYDIR
 10
0.0
 20
1.0
 30
0.0
  9
$PUCSNAME
  2

  9
$PUCSORG
 10
0.0
 20
0.0
 30
0.0
  9
$PUCSXDIR
 10
1.0
 20
0.0
 30
0.0
  9
$PUCSYDIR
 10
0.0
 20
1.0
 30
0.0
  9
$USERI1
 70
     0
  9
$USERI2
 70
     0
  9
$USERI3
 70
     0
  9
$USERI4
 70
     0
  9
$USERI5
 70
     0
  9
$USERR1
 40
0.0
  9
$USERR2
 40
0.0
  9
$USERR3
 40
0.0
  9
$USERR4
 40
0.0
  9
$USERR5
 40
0.0
  9
$WORLDVIEW
 70
     1
  9
$SHADEDGE
 70
     3
  9
$SHADEDIF
 70
    70
  9
$TILEMODE
 70
     1
  9
$MAXACTVP
 70
    64
  9
$PLIMCHECK
 70
     0
  9
$PEXTMIN
 10
1.0000000000000000E+020
 20
1.0000000000000000E+020
 30
1.0000000000000000E+020
  9
$PEXTMAX
 10
-1.0000000000000000E+020
 20
-1.0000000000000000E+020
 30
-1.0000000000000000E+020
  9
$PLIMMIN
 10
0.0
 20
0.0
  9
$PLIMMAX
 10
12.0
 20
9.0
  9
$UNITMODE
 70
     0
  9
$VISRETAIN
 70
     1
  9
$PLINEGEN
 70
     0
  9
$PSLTSCALE
 70
     1
  0
ENDSEC
  0
SECTION
  2
TABLES
  0
TABLE
  2
VPORT
 70
     1
  0
VPORT
  2
*ACTIVE
 70
     0
 10
0.0
 20
0.0
 11
1.0
 21
1.0
 12
463.7623506579497
 22
-2411.9999875364601
 13
0.0
 23
0.0
 14
1.0
 24
1.0
 15
0.0
 25
0.0
 16
0.0
 26
0.0
 36
1.0
 17
0.0
 27
0.0
 37
0.0
 40
5234.8688469955778
 41
1.6704871060171911
 42
50.0
 43
0.0
 44
0.0
 50
0.0
 51
0.0
 71
     0
 72
   100
 73
     1
 74
     1
 75
     0
 76
     0
 77
     0
 78
     0
  0
ENDTAB
  0
TABLE
  2
LTYPE
 70
     4
  0
LTYPE
  2
CONTINUOUS
 70
     0
  3
Solid line
 72
    65
 73
     0
 40
0.0
  0
LTYPE
  2
DASHED
 70
     0
  3
-- -- -- -- -- -- -- -- -- -- -- -- -- -- --
 72
    65
 73
     2
 40
0.75
 49
0.5
 49
-0.25
  0
LTYPE
  2
DASHDOT
 70
     0
  3
__ . __ . __ . __ . __ . __ . __ . __ . __ . __
 72
    65
 73
     4
 40
1.0
 49
0.5
 49
-0.25
 49
0.0
 49
-0.25
  0
LTYPE
  2
DIVIDE
 70
     0
  3
__ . . __ . . __ . . __ . . __ . . __ . . __
 72
    65
 73
     6
 40
1.25
 49
0.5
 49
-0.25
 49
0.0
 49
-0.25
 49
0.0
 49
-0.25
  0
ENDTAB
  0
TABLE
  2
LAYER
 70
     2
  0
LAYER
  2
0
 70
     0
 62
     7
  6
CONTINUOUS
  0
LAYER
  2
DEFPOINTS
 70
     0
 62
     7
  6
CONTINUOUS
  0
ENDTAB
  0
TABLE
  2
STYLE
 70
     5
  0
STYLE
  2
STANDARD
 70
     0
 40
0.0
 41
1.0
 50
0.0
 71
     0
 42
0.2
  3
txt
  4

  0
STYLE
  2
STANDARD1
 70
     0
 40
0.0
 41
1.0
 50
0.0
 71
     0
 42
3.2000000476837149
  3
MONOTXT
  4
BIGFONT
  0
STYLE
  2
STANDARD2
 70
     4
 40
0.0
 41
1.0
 50
0.0
 71
     0
 42
3.2000000476837149
  3
MONOTXT
  4
BIGFONT
  0
STYLE
  2
STANDARD3
 70
     0
 40
0.0
 41
1.0
 50
0.0
 71
     0
 42
3.2000000476837149
  3
MONOTXT
  4

  0
STYLE
  2
STANDARD4
 70
     4
 40
0.0
 41
1.0
 50
0.0
 71
     0
 42
3.2000000476837149
  3
MONOTXT
  4

  0
ENDTAB
  0
TABLE
  2
VIEW
 70
     0
  0
ENDTAB
  0
TABLE
  2
UCS
 70
     0
  0
ENDTAB
  0
TABLE
  2
APPID
 70
     2
  0
APPID
  2
ACAD
 70
     0
  0
APPID
  2
CONTENTBLOCKICON
 70
     0
  0
ENDTAB
  0
TABLE
  2
DIMSTYLE
 70
     1
  0
DIMSTYLE
  2
STANDARD
 70
     0
  3

  4

  5

  6

  7

 40
1.0
 41
0.18
 42
0.0625
 43
0.38
 44
0.18
 45
0.0
 46
0.0
 47
0.0
 48
0.0
140
0.18
141
0.09
142
0.0
143
25.399999999999999
144
1.0
145
0.0
146
1.0
147
0.09
 71
     0
 72
     0
 73
     1
 74
     1
 75
     0
 76
     0
 77
     0
 78
     0
170
     0
171
     2
172
     0
173
     0
174
     0
175
     0
176
     0
177
     0
178
     0
  0
ENDTAB
  0
ENDSEC
  0
SECTION
  2
BLOCKS
  0
BLOCK
  8
0
  2
$MODEL_SPACE
 70
     0
 10
0.0
 20
0.0
 30
0.0
  3
$MODEL_SPACE
  1

  0
ENDBLK
  5
B0F
  8
0
  0
BLOCK
 67
     1
  8
0
  2
$PAPER_SPACE
 70
     0
 10
0.0
 20
0.0
 30
0.0
  3
$PAPER_SPACE
  1

  0
ENDBLK
  5
B0B
 67
     1
  8
0
  0
BLOCK
  8
0
  2
*D2
 70
     1
 10
0.0
 20
0.0
 30
0.0
  3
*D2
  1

  0
LINE
  5
4D6
  8
0
  6
CONTINUOUS
 62
     0
 10
2329.1771656855421
 20
2297.5811348509269
 30
0.0
 11
2329.1771656855421
 21
2451.5363998018602
 31
0.0
  0
LINE
  5
4D7
  8
0
  6
CONTINUOUS
 62
     0
 10
2079.1771656855421
 20
2297.5811348509269
 30
0.0
 11
2079.1771656855421
 21
2451.5363998018602
 31
0.0
  0
LINE
  5
4D8
  8
0
  6
CONTINUOUS
 62
     0
 10
2327.2453140367352
 20
2449.536399801857
 30
0.0
 11
2081.1090173343491
 21
2449.536399801857
 31
0.0
  0
SOLID
  5
4D9
  8
0
  6
CONTINUOUS
 62
     0
 10
2327.2453140367352
 20
2449.8583750766602
 30
0.0
 11
2327.2453140367352
 21
2449.214424527057
 31
0.0
 12
2329.1771656855421
 22
2449.536399801857
 32
0.0
 13
2329.1771656855421
 23
2449.536399801857
 33
0.0
  0
SOLID
  5
4DA
  8
0
  6
CONTINUOUS
 62
     0
 10
2081.1090173343491
 20
2449.8583750766602
 30
0.0
 11
2081.1090173343491
 21
2449.214424527057
 31
0.0
 12
2079.1771656855421
 22
2449.536399801857
 32
0.0
 13
2079.1771656855421
 23
2449.536399801857
 33
0.0
  0
INSERT
  5
4DB
  8
0
  6
CONTINUOUS
  2
*U3
 10
0.0
 20
0.0
 30
0.0
  0
POINT
  5
4DC
  8
DEFPOINTS
  6
CONTINUOUS
 62
     0
 10
2329.1771656855421
 20
2296.5811348509269
 30
0.0
  0
POINT
  5
4DD
  8
DEFPOINTS
  6
CONTINUOUS
 62
     0
 10
2079.1771656855421
 20
2296.5811348509269
 30
0.0
  0
POINT
  5
4DE
  8
DEFPOINTS
  6
CONTINUOUS
 62
     0
 10
2079.1771656855421
 20
2449.536399801857
 30
0.0
  0
ENDBLK
  5
4E0
  8
0
  0
BLOCK
  8
0
  2
*U3
 70
     1
 10
0.0
 20
0.0
 30
0.0
  3
*U3
  1

  0
TEXT
  5
968
  8
0
  6
CONTINUOUS
 62
     0
 10
2198.0104990188761
 20
2449.626399801859
 30
0.0
 40
2.0
  1
250.0000
  0
ENDBLK
  5
96A
  8
0
  0
BLOCK
  8
0
  2
*D4
 70
     1
 10
0.0
 20
0.0
 30
0.0
  3
*D4
  1

  0
LINE
  5
50E
  8
0
  6
CONTINUOUS
 62
     0
 10
6636.1074256030852
 20
-3614.8037890943242
 30
0.0
 11
8006.7563343625488
 21
-3614.8037890943242
 31
0.0
  0
LINE
  5
50F
  8
0
  6
CONTINUOUS
 62
     0
 10
6636.1074256029679
 20
-7508.8660935798862
 30
0.0
 11
8006.7563343625488
 21
-7508.8660935798862
 31
0.0
  0
LINE
  5
510
  8
0
  6
CONTINUOUS
 62
     0
 10
8004.7563343625498
 20
-3616.7356407431321
 30
0.0
 11
8004.7563343625498
 21
-5560.7449413371032
 31
0.0
  0
LINE
  5
511
  8
0
  6
CONTINUOUS
 62
     0
 10
8004.7563343625498
 20
-7506.934241931076
 30
0.0
 11
8004.7563343625498
 21
-5562.9249413371044
 31
0.0
  0
SOLID
  5
512
  8
0
  6
CONTINUOUS
 62
     0
 10
8004.4343590877506
 20
-3616.7356407431321
 30
0.0
 11
8005.0783096373534
 21
-3616.7356407431321
 31
0.0
 12
8004.7563343625498
 22
-3614.8037890943242
 32
0.0
 13
8004.7563343625498
 23
-3614.8037890943242
 33
0.0
  0
SOLID
  5
513
  8
0
  6
CONTINUOUS
 62
     0
 10
8004.4343590877506
 20
-7506.934241931076
 30
0.0
 11
8005.0783096373534
 21
-7506.934241931076
 31
0.0
 12
8004.7563343625498
 22
-7508.8660935798862
 32
0.0
 13
8004.7563343625498
 23
-7508.8660935798862
 33
0.0
  0
INSERT
  5
514
  8
0
  6
CONTINUOUS
  2
*U5
 10
0.0
 20
0.0
 30
0.0
  0
POINT
  5
515
  8
DEFPOINTS
  6
CONTINUOUS
 62
     0
 10
6635.1074256030843
 20
-3614.8037890943242
 30
0.0
  0
POINT
  5
516
  8
DEFPOINTS
  6
CONTINUOUS
 62
     0
 10
6635.1074256029669
 20
-7508.8660935798862
 30
0.0
  0
POINT
  5
517
  8
DEFPOINTS
  6
CONTINUOUS
 62
     0
 10
8004.7563343625498
 20
-7508.8660935798862
 30
0.0
  0
ENDBLK
  5
50D
  8
0
  0
BLOCK
  8
0
  2
*U5
 70
     1
 10
0.0
 20
0.0
 30
0.0
  3
*U5
  1

  0
TEXT
  5
96C
  8
0
  6
CONTINUOUS
 62
     0
 10
7996.9230010292204
 20
-5562.8349413371043
 30
0.0
 40
2.0
  1
3894.0623
  0
ENDBLK
  5
96E
  8
0
  0
BLOCK
  8
0
  2
*D6
 70
     1
 10
0.0
 20
0.0
 30
0.0
  3
*D6
  1

  0
LINE
  5
51A
  8
0
  6
CONTINUOUS
 62
     0
 10
7030.107425603107
 20
-3413.6700150742399
 30
0.0
 11
7030.107425603107
 21
-3224.3866560524912
 31
0.0
  0
LINE
  5
51B
  8
0
  6
CONTINUOUS
 62
     0
 10
6240.1074256031079
 20
-3413.6700150742399
 30
0.0
 11
6240.1074256031079
 21
-3224.3866560524912
 31
0.0
  0
LINE
  5
51C
  8
0
  6
CONTINUOUS
 62
     0
 10
7028.1755739542996
 20
-3226.3866560524912
 30
0.0
 11
6242.0392772519153
 21
-3226.3866560524912
 31
0.0
  0
SOLID
  5
51D
  8
0
  6
CONTINUOUS
 62
     0
 10
7028.1755739542996
 20
-3226.0646807776889
 30
0.0
 11
7028.1755739542996
 21
-3226.708631327293
 31
0.0
 12
7030.107425603107
 22
-3226.3866560524912
 32
0.0
 13
7030.107425603107
 23
-3226.3866560524912
 33
0.0
  0
SOLID
  5
51E
  8
0
  6
CONTINUOUS
 62
     0
 10
6242.0392772519153
 20
-3226.0646807776889
 30
0.0
 11
6242.0392772519153
 21
-3226.708631327293
 31
0.0
 12
6240.1074256031079
 22
-3226.3866560524912
 32
0.0
 13
6240.1074256031079
 23
-3226.3866560524912
 33
0.0
  0
INSERT
  5
51F
  8
0
  6
CONTINUOUS
  2
*U7
 10
0.0
 20
0.0
 30
0.0
  0
POINT
  5
520
  8
DEFPOINTS
  6
CONTINUOUS
 62
     0
 10
7030.107425603107
 20
-3414.6700150742399
 30
0.0
  0
POINT
  5
521
  8
DEFPOINTS
  6
CONTINUOUS
 62
     0
 10
6240.1074256031079
 20
-3414.6700150742399
 30
0.0
  0
POINT
  5
522
  8
DEFPOINTS
  6
CONTINUOUS
 62
     0
 10
6240.1074256031079
 20
-3226.3866560524912
 30
0.0
  0
ENDBLK
  5
524
  8
0
  0
BLOCK
  8
0
  2
*U7
 70
     1
 10
0.0
 20
0.0
 30
0.0
  3
*U7
  1

  0
TEXT
  5
970
  8
0
  6
CONTINUOUS
 62
     0
 10
6628.94075893644
 20
-3226.296656052491
 30
0.0
 40
2.0
  1
790.0000
  0
ENDBLK
  5
972
  8
0
  0
BLOCK
  8
0
  2
*D8
 70
     1
 10
0.0
 20
0.0
 30
0.0
  3
*D8
  1

  0
LINE
  5
541
  8
0
  6
CONTINUOUS
 62
     0
 10
1.0
 20
-7.0
 30
0.0
 11
66.630829577181473
 21
-7.000000000000016
 31
0.0
  0
LINE
  5
542
  8
0
  6
CONTINUOUS
 62
     0
 10
-1.3557948332849981
 20
-196.9212700911425
 30
0.0
 11
66.63082957718143
 21
-196.92127009114259
 31
0.0
  0
LINE
  5
543
  8
0
  6
CONTINUOUS
 62
     0
 10
64.630829577181473
 20
-8.9318516488070401
 30
0.0
 11
64.63082957718143
 21
-100.8706350455713
 31
0.0
  0
LINE
  5
544
  8
0
  6
CONTINUOUS
 62
     0
 10
64.63082957718143
 20
-194.98941844233551
 30
0.0
 11
64.63082957718143
 21
-103.0506350455713
 31
0.0
  0
SOLID
  5
545
  8
0
  6
CONTINUOUS
 62
     0
 10
64.308854302380297
 20
-8.9318516488070401
 30
0.0
 11
64.952804851982634
 21
-8.9318516488070401
 31
0.0
 12
64.630829577181473
 22
-7.000000000000016
 32
0.0
 13
64.630829577181473
 23
-7.000000000000016
 33
0.0
  0
SOLID
  5
546
  8
0
  6
CONTINUOUS
 62
     0
 10
64.30885430238024
 20
-194.98941844233551
 30
0.0
 11
64.952804851982606
 21
-194.98941844233551
 31
0.0
 12
64.63082957718143
 22
-196.92127009114259
 32
0.0
 13
64.63082957718143
 23
-196.92127009114259
 33
0.0
  0
INSERT
  5
547
  8
0
  6
CONTINUOUS
  2
*U9
 10
0.0
 20
0.0
 30
0.0
  0
POINT
  5
548
  8
DEFPOINTS
  6
CONTINUOUS
 62
     0
 10
0.0
 20
-7.0
 30
0.0
  0
POINT
  5
549
  8
DEFPOINTS
  6
CONTINUOUS
 62
     0
 10
-2.3557948332849992
 20
-196.9212700911425
 30
0.0
  0
POINT
  5
54A
  8
DEFPOINTS
  6
CONTINUOUS
 62
     0
 10
64.63082957718143
 20
-196.92127009114259
 30
0.0
  0
ENDBLK
  5
54C
  8
0
  0
BLOCK
  8
0
  2
*U9
 70
     1
 10
0.0
 20
0.0
 30
0.0
  3
*U9
  1

  0
TEXT
  5
974
  8
0
  6
CONTINUOUS
 62
     0
 10
58.29749624384813
 20
-102.96063504557129
 30
0.0
 40
2.0
  1
189.9213
  0
ENDBLK
  5
976
  8
0
  0
BLOCK
  8
0
  2
A$C7EF44B2E
 70
     0
 10
0.0
 20
0.0
 30
0.0
  3
A$C7EF44B2E
  1

  0
LINE
  5
6F2
  8
0
  6
CONTINUOUS
 10
724.99994277741598
 20
4492.9999491778844
 30
0.0
 11
-0.0000572225837345
 21
4492.999949177889
 31
0.0
  0
LINE
  5
6F3
  8
0
  6
CONTINUOUS
 10
362.49994277741638
 20
4435.4485552597489
 30
0.0
 11
362.49994277741638
 21
4557.238970894894
 31
0.0
  0
LINE
  5
6F4
  8
0
  6
CONTINUOUS
 10
712.49994277741598
 20
4499.9999491778872
 30
0.0
 11
712.49994277741598
 21
4682.9999491778863
 31
0.0
  0
LINE
  5
6F5
  8
0
  6
CONTINUOUS
 10
12.49994277741626
 20
4499.999949177889
 30
0.0
 11
12.49994277741626
 21
4682.9999491778872
 31
0.0
  0
LINE
  5
6F6
  8
0
  6
CONTINUOUS
 10
712.49994277741598
 20
4682.9999491778872
 30
0.0
 11
12.49994277741626
 21
4682.9999491778872
 31
0.0
  0
LINE
  5
6F7
  8
0
  6
CONTINUOUS
 10
724.99994277741598
 20
4499.9999491778854
 30
0.0
 11
-0.0000572225837345
 21
4499.999949177889
 31
0.0
  0
LINE
  5
6F8
  8
0
  6
CONTINUOUS
 10
-0.0000572225837345
 20
4492.999949177889
 30
0.0
 11
-0.0000572225837345
 21
4499.9999491778872
 31
0.0
  0
LINE
  5
6F9
  8
0
  6
CONTINUOUS
 10
724.99994277741598
 20
4492.999949177889
 30
0.0
 11
724.99994277741598
 21
4499.9999491778872
 31
0.0
  0
LINE
  5
6FA
  8
0
  6
CONTINUOUS
 10
373.98374194227631
 20
4050.8194325839791
 30
0.0
 11
362.49994277741229
 21
4049.9495001643149
 31
0.0
  0
LINE
  5
6FB
  8
0
  6
CONTINUOUS
 10
351.01614361255417
 20
4050.8194325839791
 30
0.0
 11
362.4999427774174
 21
4049.9495001643149
 31
0.0
  0
LINE
  5
6FC
  8
0
  6
CONTINUOUS
 10
577.38524492434544
 20
3794.8064452612261
 30
0.0
 11
563.58298006247014
 21
4492.9999491778844
 31
0.0
  0
LINE
  5
6FD
  8
0
  6
CONTINUOUS
 10
565.22762185965325
 20
4065.704162092798
 30
0.0
 11
563.58298006247014
 21
4492.9999491778844
 31
0.0
  0
LINE
  5
6FE
  8
0
  6
CONTINUOUS
 10
568.05072117900727
 20
4135.274150304107
 30
0.0
 11
563.58298006247014
 21
4492.9999491778844
 31
0.0
  0
LINE
  5
6FF
  8
0
  6
CONTINUOUS
 10
156.94916437582259
 20
4135.274150304107
 30
0.0
 11
161.30657456729099
 21
4492.9999491778881
 31
0.0
  0
LINE
  5
700
  8
0
  6
CONTINUOUS
 10
159.7722636951747
 20
4065.704162092798
 30
0.0
 11
161.30657456729099
 21
4492.9999491778881
 31
0.0
  0
LINE
  5
701
  8
0
  6
CONTINUOUS
 10
147.6146406304841
 20
3794.8064452612261
 30
0.0
 11
161.30657456729099
 21
4492.9999491778881
 31
0.0
  0
LINE
  5
702
  8
0
  6
CONTINUOUS
 10
130.282249441804
 20
3344.6531449093509
 30
0.0
 11
147.6146406304841
 21
3794.8064452612261
 31
0.0
  0
LINE
  5
703
  8
0
  6
CONTINUOUS
 10
100.4485133503203
 20
2777.4319864852168
 30
0.0
 11
130.282249441804
 21
3344.6531449093509
 31
0.0
  0
LINE
  5
704
  8
0
  6
CONTINUOUS
 10
100.4485133503203
 20
2777.4319864852168
 30
0.0
 11
100.4485133503203
 21
2777.4319864852168
 31
0.0
  0
LINE
  5
705
  8
0
  6
CONTINUOUS
 10
82.052164144853108
 20
2474.1556790089048
 30
0.0
 11
100.4485133503203
 21
2777.4319864852168
 31
0.0
  0
LINE
  5
706
  8
0
  6
CONTINUOUS
 10
64.034643630034452
 20
2184.715660051088
 30
0.0
 11
82.052164144853108
 21
2474.1556790089048
 31
0.0
  0
LINE
  5
707
  8
0
  6
CONTINUOUS
 10
64.034643630034452
 20
2184.715660051088
 30
0.0
 11
64.034643630034452
 21
2184.715660051088
 31
0.0
  0
LINE
  5
708
  8
0
  6
CONTINUOUS
 10
50.768529047529292
 20
1923.689569240704
 30
0.0
 11
64.034643630034452
 21
2184.715660051088
 31
0.0
  0
LINE
  5
709
  8
0
  6
CONTINUOUS
 10
48.426851727469057
 20
1575.8840880093551
 30
0.0
 11
50.768529047529292
 21
1923.689569240704
 31
0.0
  0
LINE
  5
70A
  8
0
  6
CONTINUOUS
 10
48.426851727469057
 20
1575.8840880093551
 30
0.0
 11
48.426851727469057
 21
1575.8840880093551
 31
0.0
  0
LINE
  5
70B
  8
0
  6
CONTINUOUS
 10
51.215495492664097
 20
1404.021040456026
 30
0.0
 11
48.426851727469057
 21
1575.8840880093551
 31
0.0
  0
LINE
  5
70C
  8
0
  6
CONTINUOUS
 10
54.178858383547592
 20
1238.9372857267649
 30
0.0
 11
51.215495492664097
 21
1404.021040456026
 31
0.0
  0
LINE
  5
70D
  8
0
  6
CONTINUOUS
 10
54.178858383547592
 20
1238.9372857267649
 30
0.0
 11
54.178858383547592
 21
1238.9372857267649
 31
0.0
  0
LINE
  5
70E
  8
0
  6
CONTINUOUS
 10
59.234081598651358
 20
970.78113311137133
 30
0.0
 11
54.178858383547592
 21
1238.9372857267649
 31
0.0
  0
LINE
  5
70F
  8
0
  6
CONTINUOUS
 10
84.668113702789384
 20
706.3916261505733
 30
0.0
 11
59.234081598651358
 21
970.78113311137133
 31
0.0
  0
LINE
  5
710
  8
0
  6
CONTINUOUS
 10
84.668113702789384
 20
706.3916261505733
 30
0.0
 11
84.668113702789384
 21
706.3916261505733
 31
0.0
  0
LINE
  5
711
  8
0
  6
CONTINUOUS
 10
107.96289787415419
 20
547.61999306843109
 30
0.0
 11
84.668113702789384
 21
706.3916261505733
 31
0.0
  0
LINE
  5
712
  8
0
  6
CONTINUOUS
 10
137.5161562561654
 20
389.30337083039831
 30
0.0
 11
107.96289787415419
 21
547.61999306843109
 31
0.0
  0
LINE
  5
713
  8
0
  6
CONTINUOUS
 10
137.5161562561654
 20
389.30337083039831
 30
0.0
 11
137.5161562561654
 21
389.30337083039831
 31
0.0
  0
LINE
  5
714
  8
0
  6
CONTINUOUS
 10
170.5843624316995
 20
265.816513988434
 30
0.0
 11
137.5161562561654
 21
389.30337083039831
 31
0.0
  0
LINE
  5
715
  8
0
  6
CONTINUOUS
 10
204.59251795851009
 20
173.84596657438121
 30
0.0
 11
170.5843624316995
 21
265.816513988434
 31
0.0
  0
LINE
  5
716
  8
0
  6
CONTINUOUS
 10
204.59251795851009
 20
173.84596657438121
 30
0.0
 11
204.59251795851009
 21
173.84596657438121
 31
0.0
  0
LINE
  5
717
  8
0
  6
CONTINUOUS
 10
240.5990633409576
 20
101.9370589369255
 30
0.0
 11
204.59251795851009
 21
173.84596657438121
 31
0.0
  0
LINE
  5
718
  8
0
  6
CONTINUOUS
 10
294.02766689496741
 20
43.758477212260892
 30
0.0
 11
240.5990633409576
 21
101.9370589369255
 31
0.0
  0
LINE
  5
719
  8
0
  6
CONTINUOUS
 10
294.02766689496741
 20
43.758477212260892
 30
0.0
 11
294.02766689496741
 21
43.758477212260892
 31
0.0
  0
LINE
  5
71A
  8
0
  6
CONTINUOUS
 10
326.5532021739383
 20
21.471721837529898
 30
0.0
 11
294.02766689496741
 21
43.758477212260892
 31
0.0
  0
LINE
  5
71B
  8
0
  6
CONTINUOUS
 10
362.4999427774153
 20
-0.0000508221191922
 30
0.0
 11
326.5532021739383
 21
21.471721837529898
 31
0.0
  0
LINE
  5
71C
  8
0
  6
CONTINUOUS
 10
148.69239539424609
 20
3463.7339651313719
 30
0.0
 11
159.7722636951747
 21
4065.704162092798
 31
0.0
  0
LINE
  5
71D
  8
0
  6
CONTINUOUS
 10
148.69239539424609
 20
3463.7339651313719
 30
0.0
 11
148.69239539424609
 21
3463.7339651313719
 31
0.0
  0
LINE
  5
71E
  8
0
  6
CONTINUOUS
 10
140.9395765543463
 20
3195.556656102648
 30
0.0
 11
148.69239539424609
 21
3463.7339651313719
 31
0.0
  0
LINE
  5
71F
  8
0
  6
CONTINUOUS
 10
130.2085178329456
 20
2929.7552800270541
 30
0.0
 11
140.9395765543463
 21
3195.556656102648
 31
0.0
  0
LINE
  5
720
  8
0
  6
CONTINUOUS
 10
130.2085178329456
 20
2929.7552800270541
 30
0.0
 11
130.2085178329456
 21
2929.7552800270541
 31
0.0
  0
LINE
  5
721
  8
0
  6
CONTINUOUS
 10
117.8000987540737
 20
2696.807881625743
 30
0.0
 11
130.2085178329456
 21
2929.7552800270541
 31
0.0
  0
LINE
  5
722
  8
0
  6
CONTINUOUS
 10
113.2122519344159
 20
2480.638991931381
 30
0.0
 11
117.8000987540737
 21
2696.807881625743
 31
0.0
  0
LINE
  5
723
  8
0
  6
CONTINUOUS
 10
113.2122519344159
 20
2480.638991931381
 30
0.0
 11
113.2122519344159
 21
2480.638991931381
 31
0.0
  0
LINE
  5
724
  8
0
  6
CONTINUOUS
 10
123.8110958476861
 20
2265.4736361726832
 30
0.0
 11
113.2122519344159
 21
2480.638991931381
 31
0.0
  0
LINE
  5
725
  8
0
  6
CONTINUOUS
 10
140.2384393030411
 20
2083.2923300511329
 30
0.0
 11
123.8110958476861
 21
2265.4736361726832
 31
0.0
  0
LINE
  5
726
  8
0
  6
CONTINUOUS
 10
140.2384393030411
 20
2083.2923300511329
 30
0.0
 11
140.2384393030411
 21
2083.2923300511329
 31
0.0
  0
LINE
  5
727
  8
0
  6
CONTINUOUS
 10
152.8154654799485
 20
1963.8520578715491
 30
0.0
 11
140.2384393030411
 21
2083.2923300511329
 31
0.0
  0
LINE
  5
728
  8
0
  6
CONTINUOUS
 10
167.30516470367661
 20
1880.2601878794701
 30
0.0
 11
152.8154654799485
 21
1963.8520578715491
 31
0.0
  0
LINE
  5
729
  8
0
  6
CONTINUOUS
 10
167.30516470367661
 20
1880.2601878794701
 30
0.0
 11
167.30516470367661
 21
1880.2601878794701
 31
0.0
  0
LINE
  5
72A
  8
0
  6
CONTINUOUS
 10
190.9619899214735
 20
1799.9613988700521
 30
0.0
 11
167.30516470367661
 21
1880.2601878794701
 31
0.0
  0
LINE
  5
72B
  8
0
  6
CONTINUOUS
 10
221.5644374227077
 20
1724.39922789613
 30
0.0
 11
190.9619899214735
 21
1799.9613988700521
 31
0.0
  0
LINE
  5
72C
  8
0
  6
CONTINUOUS
 10
221.5644374227077
 20
1724.39922789613
 30
0.0
 11
221.5644374227077
 21
1724.39922789613
 31
0.0
  0
LINE
  5
72D
  8
0
  6
CONTINUOUS
 10
255.1513502063587
 20
1662.3461817609141
 30
0.0
 11
221.5644374227077
 21
1724.39922789613
 31
0.0
  0
LINE
  5
72E
  8
0
  6
CONTINUOUS
 10
290.27891476775022
 20
1617.891788011322
 30
0.0
 11
255.1513502063587
 21
1662.3461817609141
 31
0.0
  0
LINE
  5
72F
  8
0
  6
CONTINUOUS
 10
290.27891476775022
 20
1617.891788011322
 30
0.0
 11
290.27891476775022
 21
1617.891788011322
 31
0.0
  0
LINE
  5
730
  8
0
  6
CONTINUOUS
 10
326.20788523579438
 20
1591.758579331505
 30
0.0
 11
290.27891476775022
 21
1617.891788011322
 31
0.0
  0
LINE
  5
731
  8
0
  6
CONTINUOUS
 10
362.4999427774153
 20
1575.8840882109109
 30
0.0
 11
326.20788523579438
 21
1591.758579331505
 31
0.0
  0
LINE
  5
732
  8
0
  6
CONTINUOUS
 10
161.80494042731891
 20
3584.441655571688
 30
0.0
 11
156.94916437582259
 21
4135.274150304107
 31
0.0
  0
LINE
  5
733
  8
0
  6
CONTINUOUS
 10
161.80494042731891
 20
3584.441655571688
 30
0.0
 11
161.80494042731891
 21
3584.441655571688
 31
0.0
  0
LINE
  5
734
  8
0
  6
CONTINUOUS
 10
164.89077538025541
 20
3463.9963478434051
 30
0.0
 11
161.80494042731891
 21
3584.441655571688
 31
0.0
  0
LINE
  5
735
  8
0
  6
CONTINUOUS
 10
172.75028345128709
 20
3350.2479568902249
 30
0.0
 11
164.89077538025541
 21
3463.9963478434051
 31
0.0
  0
LINE
  5
736
  8
0
  6
CONTINUOUS
 10
172.75028345128709
 20
3350.2479568902249
 30
0.0
 11
172.75028345128709
 21
3350.2479568902249
 31
0.0
  0
LINE
  5
737
  8
0
  6
CONTINUOUS
 10
188.00114529437701
 20
3256.211783146578
 30
0.0
 11
172.75028345128709
 21
3350.2479568902249
 31
0.0
  0
LINE
  5
738
  8
0
  6
CONTINUOUS
 10
206.7303766329041
 20
3178.5126077632772
 30
0.0
 11
188.00114529437701
 21
3256.211783146578
 31
0.0
  0
LINE
  5
739
  8
0
  6
CONTINUOUS
 10
206.7303766329041
 20
3178.5126077632772
 30
0.0
 11
206.7303766329041
 21
3178.5126077632772
 31
0.0
  0
LINE
  5
73A
  8
0
  6
CONTINUOUS
 10
225.2264650607116
 20
3112.1413250501628
 30
0.0
 11
206.7303766329041
 21
3178.5126077632772
 31
0.0
  0
LINE
  5
73B
  8
0
  6
CONTINUOUS
 10
247.11445058410629
 20
3061.9438012368059
 30
0.0
 11
225.2264650607116
 21
3112.1413250501628
 31
0.0
  0
LINE
  5
73C
  8
0
  6
CONTINUOUS
 10
247.11445058410629
 20
3061.9438012368059
 30
0.0
 11
247.11445058410629
 21
3061.9438012368059
 31
0.0
  0
LINE
  5
73D
  8
0
  6
CONTINUOUS
 10
275.87829343856538
 20
3032.4393192821431
 30
0.0
 11
247.11445058410629
 21
3061.9438012368059
 31
0.0
  0
LINE
  5
73E
  8
0
  6
CONTINUOUS
 10
307.10108236377448
 20
3016.9858571426998
 30
0.0
 11
275.87829343856538
 21
3032.4393192821431
 31
0.0
  0
LINE
  5
73F
  8
0
  6
CONTINUOUS
 10
307.10108236377448
 20
3016.9858571426998
 30
0.0
 11
307.10108236377448
 21
3016.9858571426998
 31
0.0
  0
LINE
  5
740
  8
0
  6
CONTINUOUS
 10
335.78380833647287
 20
3007.3382352799999
 30
0.0
 11
307.10108236377448
 21
3016.9858571426998
 31
0.0
  0
LINE
  5
741
  8
0
  6
CONTINUOUS
 10
362.4999427774153
 20
2999.9999491778808
 30
0.0
 11
335.78380833647287
 21
3007.3382352799999
 31
0.0
  0
LINE
  5
742
  8
0
  6
CONTINUOUS
 10
563.19494512751123
 20
3584.441655571688
 30
0.0
 11
568.05072117900727
 21
4135.274150304107
 31
0.0
  0
LINE
  5
743
  8
0
  6
CONTINUOUS
 10
563.19494512751123
 20
3584.441655571688
 30
0.0
 11
563.19494512751123
 21
3584.441655571688
 31
0.0
  0
LINE
  5
744
  8
0
  6
CONTINUOUS
 10
560.10911017457397
 20
3463.9963478434051
 30
0.0
 11
563.19494512751123
 21
3584.441655571688
 31
0.0
  0
LINE
  5
745
  8
0
  6
CONTINUOUS
 10
552.24960210354345
 20
3350.2479568902249
 30
0.0
 11
560.10911017457397
 21
3463.9963478434051
 31
0.0
  0
LINE
  5
746
  8
0
  6
CONTINUOUS
 10
552.24960210354345
 20
3350.2479568902249
 30
0.0
 11
552.24960210354345
 21
3350.2479568902249
 31
0.0
  0
LINE
  5
747
  8
0
  6
CONTINUOUS
 10
536.99874026045222
 20
3256.211783146578
 30
0.0
 11
552.24960210354345
 21
3350.2479568902249
 31
0.0
  0
LINE
  5
748
  8
0
  6
CONTINUOUS
 10
518.26950892192622
 20
3178.5126077632772
 30
0.0
 11
536.99874026045222
 21
3256.211783146578
 31
0.0
  0
LINE
  5
749
  8
0
  6
CONTINUOUS
 10
518.26950892192622
 20
3178.5126077632772
 30
0.0
 11
518.26950892192622
 21
3178.5126077632772
 31
0.0
  0
LINE
  5
74A
  8
0
  6
CONTINUOUS
 10
499.77342049411828
 20
3112.1413250501628
 30
0.0
 11
518.26950892192622
 21
3178.5126077632772
 31
0.0
  0
LINE
  5
74B
  8
0
  6
CONTINUOUS
 10
477.88543497072311
 20
3061.9438012368059
 30
0.0
 11
499.77342049411828
 21
3112.1413250501628
 31
0.0
  0
LINE
  5
74C
  8
0
  6
CONTINUOUS
 10
477.88543497072311
 20
3061.9438012368059
 30
0.0
 11
477.88543497072311
 21
3061.9438012368059
 31
0.0
  0
LINE
  5
74D
  8
0
  6
CONTINUOUS
 10
449.12159211626431
 20
3032.4393192821431
 30
0.0
 11
477.88543497072311
 21
3061.9438012368059
 31
0.0
  0
LINE
  5
74E
  8
0
  6
CONTINUOUS
 10
417.89880319105509
 20
3016.9858571426998
 30
0.0
 11
449.12159211626431
 21
3032.4393192821431
 31
0.0
  0
LINE
  5
74F
  8
0
  6
CONTINUOUS
 10
417.89880319105509
 20
3016.9858571426998
 30
0.0
 11
417.89880319105509
 21
3016.9858571426998
 31
0.0
  0
LINE
  5
750
  8
0
  6
CONTINUOUS
 10
389.2160772183563
 20
3007.3382352799999
 30
0.0
 11
417.89880319105509
 21
3016.9858571426998
 31
0.0
  0
LINE
  5
751
  8
0
  6
CONTINUOUS
 10
362.4999427774153
 20
2999.9999491778808
 30
0.0
 11
389.2160772183563
 21
3007.3382352799999
 31
0.0
  0
LINE
  5
752
  8
0
  6
CONTINUOUS
 10
576.30749016058405
 20
3463.7339651313719
 30
0.0
 11
565.22762185965325
 21
4065.704162092798
 31
0.0
  0
LINE
  5
753
  8
0
  6
CONTINUOUS
 10
576.30749016058405
 20
3463.7339651313719
 30
0.0
 11
576.30749016058405
 21
3463.7339651313719
 31
0.0
  0
LINE
  5
754
  8
0
  6
CONTINUOUS
 10
584.06030900048324
 20
3195.556656102648
 30
0.0
 11
576.30749016058405
 21
3463.7339651313719
 31
0.0
  0
LINE
  5
755
  8
0
  6
CONTINUOUS
 10
594.79136772188406
 20
2929.7552800270541
 30
0.0
 11
584.06030900048324
 21
3195.556656102648
 31
0.0
  0
LINE
  5
756
  8
0
  6
CONTINUOUS
 10
594.79136772188406
 20
2929.7552800270541
 30
0.0
 11
594.79136772188406
 21
2929.7552800270541
 31
0.0
  0
LINE
  5
757
  8
0
  6
CONTINUOUS
 10
607.1997868007561
 20
2696.807881625743
 30
0.0
 11
594.79136772188406
 21
2929.7552800270541
 31
0.0
  0
LINE
  5
758
  8
0
  6
CONTINUOUS
 10
611.78763362041332
 20
2480.638991931381
 30
0.0
 11
607.1997868007561
 21
2696.807881625743
 31
0.0
  0
LINE
  5
759
  8
0
  6
CONTINUOUS
 10
611.78763362041332
 20
2480.638991931381
 30
0.0
 11
611.78763362041332
 21
2480.638991931381
 31
0.0
  0
LINE
  5
75A
  8
0
  6
CONTINUOUS
 10
601.188789707144
 20
2265.4736361726832
 30
0.0
 11
611.78763362041332
 21
2480.638991931381
 31
0.0
  0
LINE
  5
75B
  8
0
  6
CONTINUOUS
 10
584.76144625178949
 20
2083.2923300511329
 30
0.0
 11
601.188789707144
 21
2265.4736361726832
 31
0.0
  0
LINE
  5
75C
  8
0
  6
CONTINUOUS
 10
584.76144625178949
 20
2083.2923300511329
 30
0.0
 11
584.76144625178949
 21
2083.2923300511329
 31
0.0
  0
LINE
  5
75D
  8
0
  6
CONTINUOUS
 10
572.18442007488125
 20
1963.85205787155
 30
0.0
 11
584.76144625178949
 21
2083.2923300511329
 31
0.0
  0
LINE
  5
75E
  8
0
  6
CONTINUOUS
 10
557.69472085115353
 20
1880.260187879481
 30
0.0
 11
572.18442007488125
 21
1963.85205787155
 31
0.0
  0
LINE
  5
75F
  8
0
  6
CONTINUOUS
 10
557.69472085115353
 20
1880.260187879481
 30
0.0
 11
557.69472085115353
 21
1880.260187879481
 31
0.0
  0
LINE
  5
760
  8
0
  6
CONTINUOUS
 10
534.03789563335636
 20
1799.961398870053
 30
0.0
 11
557.69472085115353
 21
1880.260187879481
 31
0.0
  0
LINE
  5
761
  8
0
  6
CONTINUOUS
 10
503.43544813212247
 20
1724.39922789613
 30
0.0
 11
534.03789563335636
 21
1799.961398870053
 31
0.0
  0
LINE
  5
762
  8
0
  6
CONTINUOUS
 10
503.43544813212247
 20
1724.39922789613
 30
0.0
 11
503.43544813212247
 21
1724.39922789613
 31
0.0
  0
LINE
  5
763
  8
0
  6
CONTINUOUS
 10
469.84853534847122
 20
1662.3461817609141
 30
0.0
 11
503.43544813212247
 21
1724.39922789613
 31
0.0
  0
LINE
  5
764
  8
0
  6
CONTINUOUS
 10
434.7209707870793
 20
1617.891788011322
 30
0.0
 11
469.84853534847122
 21
1662.3461817609141
 31
0.0
  0
LINE
  5
765
  8
0
  6
CONTINUOUS
 10
434.7209707870793
 20
1617.891788011322
 30
0.0
 11
434.7209707870793
 21
1617.891788011322
 31
0.0
  0
LINE
  5
766
  8
0
  6
CONTINUOUS
 10
398.79200031903542
 20
1591.758579331505
 30
0.0
 11
434.7209707870793
 21
1617.891788011322
 31
0.0
  0
LINE
  5
767
  8
0
  6
CONTINUOUS
 10
362.4999427774153
 20
1575.8840882109109
 30
0.0
 11
398.79200031903542
 21
1591.758579331505
 31
0.0
  0
LINE
  5
768
  8
0
  6
CONTINUOUS
 10
594.71763611302549
 20
3344.6531449093509
 30
0.0
 11
577.38524492434544
 21
3794.8064452612261
 31
0.0
  0
LINE
  5
769
  8
0
  6
CONTINUOUS
 10
624.55137220451024
 20
2777.4319864852168
 30
0.0
 11
594.71763611302549
 21
3344.6531449093509
 31
0.0
  0
LINE
  5
76A
  8
0
  6
CONTINUOUS
 10
624.55137220451024
 20
2777.4319864852168
 30
0.0
 11
624.55137220451024
 21
2777.4319864852168
 31
0.0
  0
LINE
  5
76B
  8
0
  6
CONTINUOUS
 10
642.94772140997611
 20
2474.1556790089048
 30
0.0
 11
624.55137220451024
 21
2777.4319864852168
 31
0.0
  0
LINE
  5
76C
  8
0
  6
CONTINUOUS
 10
660.96524192479546
 20
2184.715660051088
 30
0.0
 11
642.94772140997611
 21
2474.1556790089048
 31
0.0
  0
LINE
  5
76D
  8
0
  6
CONTINUOUS
 10
660.96524192479546
 20
2184.715660051088
 30
0.0
 11
660.96524192479546
 21
2184.715660051088
 31
0.0
  0
LINE
  5
76E
  8
0
  6
CONTINUOUS
 10
674.23135650730012
 20
1923.689569240704
 30
0.0
 11
660.96524192479546
 21
2184.715660051088
 31
0.0
  0
LINE
  5
76F
  8
0
  6
CONTINUOUS
 10
676.57303382736006
 20
1575.8840880093551
 30
0.0
 11
674.23135650730012
 21
1923.689569240704
 31
0.0
  0
LINE
  5
770
  8
0
  6
CONTINUOUS
 10
676.57303382736006
 20
1575.8840880093551
 30
0.0
 11
676.57303382736006
 21
1575.8840880093551
 31
0.0
  0
LINE
  5
771
  8
0
  6
CONTINUOUS
 10
673.78439006216615
 20
1404.021040456026
 30
0.0
 11
676.57303382736006
 21
1575.8840880093551
 31
0.0
  0
LINE
  5
772
  8
0
  6
CONTINUOUS
 10
670.82102717128123
 20
1238.9372857267649
 30
0.0
 11
673.78439006216615
 21
1404.021040456026
 31
0.0
  0
LINE
  5
773
  8
0
  6
CONTINUOUS
 10
670.82102717128123
 20
1238.9372857267649
 30
0.0
 11
670.82102717128123
 21
1238.9372857267649
 31
0.0
  0
LINE
  5
774
  8
0
  6
CONTINUOUS
 10
665.76580395617805
 20
970.78113311137133
 30
0.0
 11
670.82102717128123
 21
1238.9372857267649
 31
0.0
  0
LINE
  5
775
  8
0
  6
CONTINUOUS
 10
640.33177185204045
 20
706.3916261505733
 30
0.0
 11
665.76580395617805
 21
970.78113311137133
 31
0.0
  0
LINE
  5
776
  8
0
  6
CONTINUOUS
 10
640.33177185204045
 20
706.3916261505733
 30
0.0
 11
640.33177185204045
 21
706.3916261505733
 31
0.0
  0
LINE
  5
777
  8
0
  6
CONTINUOUS
 10
617.03698768067625
 20
547.61999306843109
 30
0.0
 11
640.33177185204045
 21
706.3916261505733
 31
0.0
  0
LINE
  5
778
  8
0
  6
CONTINUOUS
 10
587.48372929866446
 20
389.30337083039831
 30
0.0
 11
617.03698768067625
 21
547.61999306843109
 31
0.0
  0
LINE
  5
779
  8
0
  6
CONTINUOUS
 10
587.48372929866446
 20
389.30337083039831
 30
0.0
 11
587.48372929866446
 21
389.30337083039831
 31
0.0
  0
LINE
  5
77A
  8
0
  6
CONTINUOUS
 10
554.41552312313047
 20
265.816513988434
 30
0.0
 11
587.48372929866446
 21
389.30337083039831
 31
0.0
  0
LINE
  5
77B
  8
0
  6
CONTINUOUS
 10
520.40736759631932
 20
173.84596657438121
 30
0.0
 11
554.41552312313047
 21
265.816513988434
 31
0.0
  0
LINE
  5
77C
  8
0
  6
CONTINUOUS
 10
520.40736759631932
 20
173.84596657438121
 30
0.0
 11
520.40736759631932
 21
173.84596657438121
 31
0.0
  0
LINE
  5
77D
  8
0
  6
CONTINUOUS
 10
484.40082221387121
 20
101.9370589369255
 30
0.0
 11
520.40736759631932
 21
173.84596657438121
 31
0.0
  0
LINE
  5
77E
  8
0
  6
CONTINUOUS
 10
430.97221865986239
 20
43.758477212260892
 30
0.0
 11
484.40082221387121
 21
101.9370589369255
 31
0.0
  0
LINE
  5
77F
  8
0
  6
CONTINUOUS
 10
430.97221865986239
 20
43.758477212260892
 30
0.0
 11
430.97221865986239
 21
43.758477212260892
 31
0.0
  0
LINE
  5
780
  8
0
  6
CONTINUOUS
 10
398.44668338089241
 20
21.471721837529898
 30
0.0
 11
430.97221865986239
 21
43.758477212260892
 31
0.0
  0
LINE
  5
781
  8
0
  6
CONTINUOUS
 10
362.4999427774153
 20
-0.0000508221191922
 30
0.0
 11
398.44668338089241
 21
21.471721837529898
 31
0.0
  0
LINE
  5
782
  8
0
  6
CONTINUOUS
 10
339.32050222680527
 20
4051.8082778755129
 30
0.0
 11
351.01614361255417
 21
4050.8194325839791
 31
0.0
  0
LINE
  5
783
  8
0
  6
CONTINUOUS
 10
339.32050222680527
 20
4051.8082778755129
 30
0.0
 11
339.32050222680527
 21
4051.8082778755129
 31
0.0
  0
LINE
  5
784
  8
0
  6
CONTINUOUS
 10
327.38706223838199
 20
4052.964244492598
 30
0.0
 11
339.32050222680527
 21
4051.8082778755129
 31
0.0
  0
LINE
  5
785
  8
0
  6
CONTINUOUS
 10
315.93341062187159
 20
4054.0527232161712
 30
0.0
 11
327.38706223838199
 21
4052.964244492598
 31
0.0
  0
LINE
  5
786
  8
0
  6
CONTINUOUS
 10
315.93341062187159
 20
4054.0527232161712
 30
0.0
 11
315.93341062187159
 21
4054.0527232161712
 31
0.0
  0
LINE
  5
787
  8
0
  6
CONTINUOUS
 10
283.01095115612458
 20
4057.0042548289339
 30
0.0
 11
315.93341062187159
 21
4054.0527232161712
 31
0.0
  0
LINE
  5
788
  8
0
  6
CONTINUOUS
 10
258.11575275012831
 20
4066.7117586592049
 30
0.0
 11
283.01095115612458
 21
4057.0042548289339
 31
0.0
  0
LINE
  5
789
  8
0
  6
CONTINUOUS
 10
258.11575275012831
 20
4066.7117586592049
 30
0.0
 11
258.11575275012831
 21
4066.7117586592049
 31
0.0
  0
LINE
  5
78A
  8
0
  6
CONTINUOUS
 10
232.81375120359101
 20
4091.3432610737868
 30
0.0
 11
258.11575275012831
 21
4066.7117586592049
 31
0.0
  0
LINE
  5
78B
  8
0
  6
CONTINUOUS
 10
209.6484098812108
 20
4124.0105506646169
 30
0.0
 11
232.81375120359101
 21
4091.3432610737868
 31
0.0
  0
LINE
  5
78C
  8
0
  6
CONTINUOUS
 10
209.6484098812108
 20
4124.0105506646169
 30
0.0
 11
209.6484098812108
 21
4124.0105506646169
 31
0.0
  0
LINE
  5
78D
  8
0
  6
CONTINUOUS
 10
192.658684135833
 20
4157.1463051465307
 30
0.0
 11
209.6484098812108
 21
4124.0105506646169
 31
0.0
  0
LINE
  5
78E
  8
0
  6
CONTINUOUS
 10
180.88796970794439
 20
4195.5229965008029
 30
0.0
 11
192.658684135833
 21
4157.1463051465307
 31
0.0
  0
LINE
  5
78F
  8
0
  6
CONTINUOUS
 10
180.88796970794439
 20
4195.5229965008029
 30
0.0
 11
180.88796970794439
 21
4195.5229965008029
 31
0.0
  0
LINE
  5
790
  8
0
  6
CONTINUOUS
 10
172.47012319294399
 20
4244.1410852360923
 30
0.0
 11
180.88796970794439
 21
4195.5229965008029
 31
0.0
  0
LINE
  5
791
  8
0
  6
CONTINUOUS
 10
166.8964042182578
 20
4296.5731917041494
 30
0.0
 11
172.47012319294399
 21
4244.1410852360923
 31
0.0
  0
LINE
  5
792
  8
0
  6
CONTINUOUS
 10
166.8964042182578
 20
4296.5731917041494
 30
0.0
 11
166.8964042182578
 21
4296.5731917041494
 31
0.0
  0
LINE
  5
793
  8
0
  6
CONTINUOUS
 10
163.85409587175161
 20
4345.885805958208
 30
0.0
 11
166.8964042182578
 21
4296.5731917041494
 31
0.0
  0
LINE
  5
794
  8
0
  6
CONTINUOUS
 10
162.45717205103119
 20
4394.548737014281
 30
0.0
 11
163.85409587175161
 21
4345.885805958208
 31
0.0
  0
LINE
  5
795
  8
0
  6
CONTINUOUS
 10
162.45717205103119
 20
4394.548737014281
 30
0.0
 11
162.45717205103119
 21
4394.548737014281
 31
0.0
  0
LINE
  5
796
  8
0
  6
CONTINUOUS
 10
161.79650232897899
 20
4446.2316042064012
 30
0.0
 11
162.45717205103119
 21
4394.548737014281
 31
0.0
  0
LINE
  5
797
  8
0
  6
CONTINUOUS
 10
161.30657456729099
 20
4492.9999491778881
 30
0.0
 11
161.79650232897899
 21
4446.2316042064012
 31
0.0
  0
LINE
  5
798
  8
0
  6
CONTINUOUS
 10
385.67938332802441
 20
4051.8082778755129
 30
0.0
 11
373.98374194227631
 21
4050.8194325839791
 31
0.0
  0
LINE
  5
799
  8
0
  6
CONTINUOUS
 10
385.67938332802441
 20
4051.8082778755129
 30
0.0
 11
385.67938332802441
 21
4051.8082778755129
 31
0.0
  0
LINE
  5
79A
  8
0
  6
CONTINUOUS
 10
397.61282331644838
 20
4052.964244492598
 30
0.0
 11
385.67938332802441
 21
4051.8082778755129
 31
0.0
  0
LINE
  5
79B
  8
0
  6
CONTINUOUS
 10
409.0664749329585
 20
4054.0527232161712
 30
0.0
 11
397.61282331644838
 21
4052.964244492598
 31
0.0
  0
LINE
  5
79C
  8
0
  6
CONTINUOUS
 10
409.0664749329585
 20
4054.0527232161712
 30
0.0
 11
409.0664749329585
 21
4054.0527232161712
 31
0.0
  0
LINE
  5
79D
  8
0
  6
CONTINUOUS
 10
441.9889343987054
 20
4057.0042548289339
 30
0.0
 11
409.0664749329585
 21
4054.0527232161712
 31
0.0
  0
LINE
  5
79E
  8
0
  6
CONTINUOUS
 10
466.88413280470138
 20
4066.7117586592049
 30
0.0
 11
441.9889343987054
 21
4057.0042548289339
 31
0.0
  0
LINE
  5
79F
  8
0
  6
CONTINUOUS
 10
466.88413280470138
 20
4066.7117586592049
 30
0.0
 11
466.88413280470138
 21
4066.7117586592049
 31
0.0
  0
LINE
  5
7A0
  8
0
  6
CONTINUOUS
 10
492.18613435123922
 20
4091.3432610737868
 30
0.0
 11
466.88413280470138
 21
4066.7117586592049
 31
0.0
  0
LINE
  5
7A1
  8
0
  6
CONTINUOUS
 10
515.35147567361832
 20
4124.0105506646169
 30
0.0
 11
492.18613435123922
 21
4091.3432610737868
 31
0.0
  0
LINE
  5
7A2
  8
0
  6
CONTINUOUS
 10
515.35147567361832
 20
4124.0105506646169
 30
0.0
 11
515.35147567361832
 21
4124.0105506646169
 31
0.0
  0
LINE
  5
7A3
  8
0
  6
CONTINUOUS
 10
532.34120141899609
 20
4157.1463051465307
 30
0.0
 11
515.35147567361832
 21
4124.0105506646169
 31
0.0
  0
LINE
  5
7A4
  8
0
  6
CONTINUOUS
 10
544.11191584688549
 20
4195.5229965008029
 30
0.0
 11
532.34120141899609
 21
4157.1463051465307
 31
0.0
  0
LINE
  5
7A5
  8
0
  6
CONTINUOUS
 10
544.11191584688549
 20
4195.5229965008029
 30
0.0
 11
544.11191584688549
 21
4195.5229965008029
 31
0.0
  0
LINE
  5
7A6
  8
0
  6
CONTINUOUS
 10
552.52976236188624
 20
4244.1410852360923
 30
0.0
 11
544.11191584688549
 21
4195.5229965008029
 31
0.0
  0
LINE
  5
7A7
  8
0
  6
CONTINUOUS
 10
558.10348133657226
 20
4296.5731917041494
 30
0.0
 11
552.52976236188624
 21
4244.1410852360923
 31
0.0
  0
LINE
  5
7A8
  8
0
  6
CONTINUOUS
 10
558.10348133657226
 20
4296.5731917041494
 30
0.0
 11
558.10348133657226
 21
4296.5731917041494
 31
0.0
  0
LINE
  5
7A9
  8
0
  6
CONTINUOUS
 10
561.14578968307922
 20
4345.885805958208
 30
0.0
 11
558.10348133657226
 21
4296.5731917041494
 31
0.0
  0
LINE
  5
7AA
  8
0
  6
CONTINUOUS
 10
562.5427135037985
 20
4394.548737014281
 30
0.0
 11
561.14578968307922
 21
4345.885805958208
 31
0.0
  0
LINE
  5
7AB
  8
0
  6
CONTINUOUS
 10
562.5427135037985
 20
4394.548737014281
 30
0.0
 11
562.5427135037985
 21
4394.548737014281
 31
0.0
  0
LINE
  5
7AC
  8
0
  6
CONTINUOUS
 10
563.20338322585008
 20
4446.2316042064012
 30
0.0
 11
562.5427135037985
 21
4394.548737014281
 31
0.0
  0
LINE
  5
7AD
  8
0
  6
CONTINUOUS
 10
563.58298006247014
 20
4492.9999491778844
 30
0.0
 11
563.20338322585008
 21
4446.2316042064012
 31
0.0
  0
TEXT
  5
7AE
  8
0
  6
CONTINUOUS
 10
1104.812756623352
 20
4170.5706634623539
 30
0.0
 40
160.0
  1
1.5m/s
 50
0.0000025044687019
 41
0.687499990065893
  7
STANDARD1
  0
TEXT
  5
7AF
  8
0
  6
CONTINUOUS
 10
1198.961406214519
 20
3643.2508326945681
 30
0.0
 40
160.0
  1
1m/s
 50
0.0000025044687019
 41
0.687499990065893
  7
STANDARD1
  0
TEXT
  5
7B0
  8
0
  6
CONTINUOUS
 10
1127.014897468536
 20
2102.274467344555
 30
0.0
 40
160.0
  1
0.5m/s
 50
0.0000025044687019
 41
0.687499990065893
  7
STANDARD1
  0
TEXT
  5
7B1
  8
0
  6
CONTINUOUS
 10
1127.014897468536
 20
393.43110923199953
 30
0.0
 40
160.0
  1
0.3m/s
 50
0.0000025044687019
 41
0.687499990065893
  7
STANDARD1
  0
LINE
  5
7B2
  8
0
  6
CONTINUOUS
 10
457.76702702116722
 20
4309.8406146826892
 30
0.0
 11
1071.2442866701749
 21
4240.153609515065
 31
0.0
  0
LINE
  5
7B3
  8
0
  6
CONTINUOUS
 10
388.05370206105732
 20
3543.2835957866482
 30
0.0
 11
1168.8428867388061
 21
3696.5950071554248
 31
0.0
  0
LINE
  5
7B4
  8
0
  6
CONTINUOUS
 10
443.82436202914658
 20
1996.232156961049
 30
0.0
 11
1029.4162916941059
 21
2163.4809693633511
 31
0.0
  0
LINE
  5
7B5
  8
0
  6
CONTINUOUS
 10
429.88169703712612
 20
630.36693157127604
 30
0.0
 11
1043.358956686126
 21
477.0555202025061
 31
0.0
  0
ENDBLK
  5
7B9
  8
0
  0
BLOCK
  8
0
  2
*D11
 70
     1
 10
0.0
 20
0.0
 30
0.0
  3
*D11
  1

  0
LINE
  5
7EC
  8
0
  6
CONTINUOUS
 62
     0
 10
10364.3135832305
 20
-10458.868787205351
 30
0.0
 11
10364.3135832305
 21
-10318.887484439731
 31
0.0
  0
LINE
  5
7ED
  8
0
  6
CONTINUOUS
 62
     0
 10
10214.3135832305
 20
-10458.868787205351
 30
0.0
 11
10214.3135832305
 21
-10318.887484439731
 31
0.0
  0
LINE
  5
7EE
  8
0
  6
CONTINUOUS
 62
     0
 10
10362.3817315817
 20
-10320.887484439731
 30
0.0
 11
10216.245434879311
 21
-10320.887484439731
 31
0.0
  0
SOLID
  5
7EF
  8
0
  6
CONTINUOUS
 62
     0
 10
10362.3817315817
 20
-10320.565509164921
 30
0.0
 11
10362.3817315817
 21
-10321.20945971453
 31
0.0
 12
10364.3135832305
 22
-10320.887484439731
 32
0.0
 13
10364.3135832305
 23
-10320.887484439731
 33
0.0
  0
SOLID
  5
7F0
  8
0
  6
CONTINUOUS
 62
     0
 10
10216.245434879311
 20
-10320.565509164921
 30
0.0
 11
10216.245434879311
 21
-10321.20945971453
 31
0.0
 12
10214.3135832305
 22
-10320.887484439731
 32
0.0
 13
10214.3135832305
 23
-10320.887484439731
 33
0.0
  0
INSERT
  5
7F1
  8
0
  6
CONTINUOUS
  2
*U12
 10
0.0
 20
0.0
 30
0.0
  0
POINT
  5
7F2
  8
DEFPOINTS
  6
CONTINUOUS
 62
     0
 10
10364.3135832305
 20
-10459.868787205351
 30
0.0
  0
POINT
  5
7F3
  8
DEFPOINTS
  6
CONTINUOUS
 62
     0
 10
10214.3135832305
 20
-10459.868787205351
 30
0.0
  0
POINT
  5
7F4
  8
DEFPOINTS
  6
CONTINUOUS
 62
     0
 10
10214.3135832305
 20
-10320.887484439731
 30
0.0
  0
ENDBLK
  5
7F6
  8
0
  0
BLOCK
  8
0
  2
*U12
 70
     1
 10
0.0
 20
0.0
 30
0.0
  3
*U12
  1

  0
TEXT
  5
978
  8
0
  6
CONTINUOUS
 62
     0
 10
10283.48024989716
 20
-10320.79748443973
 30
0.0
 40
2.0
  1
150.0000
  0
ENDBLK
  5
97A
  8
0
  0
BLOCK
  8
0
  2
*D13
 70
     1
 10
0.0
 20
0.0
 30
0.0
  3
*D13
  1

  0
LINE
  5
837
  8
0
  6
CONTINUOUS
 62
     0
 10
1.0
 20
-7.0
 30
0.0
 11
876.09621148134568
 21
-7.0000000000002451
 31
0.0
  0
LINE
  5
838
  8
0
  6
CONTINUOUS
 62
     0
 10
1.000000000004547
 20
-5006.9999992407402
 30
0.0
 11
876.09621148134465
 21
-5006.9999992407402
 31
0.0
  0
LINE
  5
839
  8
0
  6
CONTINUOUS
 62
     0
 10
874.09621148134556
 20
-8.9318516488072692
 30
0.0
 11
874.09621148134522
 21
-2505.909999620369
 31
0.0
  0
LINE
  5
83A
  8
0
  6
CONTINUOUS
 62
     0
 10
874.09621148134465
 20
-5005.0681475919318
 30
0.0
 11
874.09621148134522
 21
-2508.0899996203698
 31
0.0
  0
SOLID
  5
83B
  8
0
  6
CONTINUOUS
 62
     0
 10
873.77423620654463
 20
-8.9318516488072692
 30
0.0
 11
874.41818675614695
 21
-8.9318516488072692
 31
0.0
 12
874.09621148134556
 22
-7.0000000000002451
 32
0.0
 13
874.09621148134556
 23
-7.0000000000002451
 33
0.0
  0
SOLID
  5
83C
  8
0
  6
CONTINUOUS
 62
     0
 10
873.77423620654338
 20
-5005.0681475919318
 30
0.0
 11
874.41818675614581
 21
-5005.0681475919318
 31
0.0
 12
874.09621148134465
 22
-5006.9999992407402
 32
0.0
 13
874.09621148134465
 23
-5006.9999992407402
 33
0.0
  0
INSERT
  5
83D
  8
0
  6
CONTINUOUS
  2
*U14
 10
0.0
 20
0.0
 30
0.0
  0
POINT
  5
83E
  8
DEFPOINTS
  6
CONTINUOUS
 62
     0
 10
0.0
 20
-7.0
 30
0.0
  0
POINT
  5
83F
  8
DEFPOINTS
  6
CONTINUOUS
 62
     0
 10
0.0000000000045475
 20
-5006.9999992407402
 30
0.0
  0
POINT
  5
840
  8
DEFPOINTS
  6
CONTINUOUS
 62
     0
 10
874.09621148134465
 20
-5006.9999992407402
 30
0.0
  0
ENDBLK
  5
842
  8
0
  0
BLOCK
  8
0
  2
*U14
 70
     1
 10
0.0
 20
0.0
 30
0.0
  3
*U14
  1

  0
TEXT
  5
97C
  8
0
  6
CONTINUOUS
 62
     0
 10
867.26287814801242
 20
-2507.9999996203701
 30
0.0
 40
2.0
  1
5000.0000
  0
ENDBLK
  5
97E
  8
0
  0
BLOCK
  8
0
  2
*D15
 70
     1
 10
0.0
 20
0.0
 30
0.0
  3
*D15
  1

  0
LINE
  5
851
  8
0
  6
CONTINUOUS
 62
     0
 10
75.0
 20
183.99999999999761
 30
0.0
 11
75.0
 21
229.06273574857551
 31
0.0
  0
LINE
  5
852
  8
0
  6
CONTINUOUS
 62
     0
 10
-75.0
 20
183.99999999999761
 30
0.0
 11
-75.0
 21
229.06273574857551
 31
0.0
  0
LINE
  5
853
  8
0
  6
CONTINUOUS
 62
     0
 10
73.068148351192974
 20
227.06273574857551
 30
0.0
 11
-73.068148351192974
 21
227.06273574857551
 31
0.0
  0
SOLID
  5
854
  8
0
  6
CONTINUOUS
 62
     0
 10
73.068148351192974
 20
227.38471102337661
 30
0.0
 11
73.068148351192974
 21
226.74076047377429
 31
0.0
 12
75.0
 22
227.06273574857551
 32
0.0
 13
75.0
 23
227.06273574857551
 33
0.0
  0
SOLID
  5
855
  8
0
  6
CONTINUOUS
 62
     0
 10
-73.068148351192974
 20
227.38471102337661
 30
0.0
 11
-73.068148351192974
 21
226.74076047377429
 31
0.0
 12
-75.0
 22
227.06273574857551
 32
0.0
 13
-75.0
 23
227.06273574857551
 33
0.0
  0
INSERT
  5
856
  8
0
  6
CONTINUOUS
  2
*U16
 10
0.0
 20
0.0
 30
0.0
  0
POINT
  5
857
  8
DEFPOINTS
  6
CONTINUOUS
 62
     0
 10
75.0
 20
182.99999999999761
 30
0.0
  0
POINT
  5
858
  8
DEFPOINTS
  6
CONTINUOUS
 62
     0
 10
-75.0
 20
182.99999999999761
 30
0.0
  0
POINT
  5
859
  8
DEFPOINTS
  6
CONTINUOUS
 62
     0
 10
-75.0
 20
227.06273574857551
 30
0.0
  0
ENDBLK
  5
85B
  8
0
  0
BLOCK
  8
0
  2
*U16
 70
     1
 10
0.0
 20
0.0
 30
0.0
  3
*U16
  1

  0
TEXT
  5
980
  8
0
  6
CONTINUOUS
 62
     0
 10
-5.833333333333333
 20
227.15273574857551
 30
0.0
 40
2.0
  1
150.0000
  0
ENDBLK
  5
982
  8
0
  0
BLOCK
  8
0
  2
*D17
 70
     1
 10
0.0
 20
0.0
 30
0.0
  3
*D17
  1

  0
LINE
  5
85E
  8
0
  6
CONTINUOUS
 62
     0
 10
1.0
 20
-0.0000000000000003
 30
0.0
 11
1020.916757696458
 21
-0.0000000000002892
 31
0.0
  0
LINE
  5
85F
  8
0
  6
CONTINUOUS
 62
     0
 10
1.000000000004547
 20
-5006.9999992407402
 30
0.0
 11
1020.916757696457
 21
-5006.9999992407402
 31
0.0
  0
LINE
  5
860
  8
0
  6
CONTINUOUS
 62
     0
 10
1018.916757696458
 20
-1.9318516488073101
 30
0.0
 11
1018.916757696458
 21
-2502.4099996203699
 31
0.0
  0
LINE
  5
861
  8
0
  6
CONTINUOUS
 62
     0
 10
1018.916757696457
 20
-5005.0681475919318
 30
0.0
 11
1018.916757696458
 21
-2504.5899996203698
 31
0.0
  0
SOLID
  5
862
  8
0
  6
CONTINUOUS
 62
     0
 10
1018.594782421657
 20
-1.9318516488073101
 30
0.0
 11
1019.238732971259
 21
-1.9318516488073101
 31
0.0
 12
1018.916757696458
 22
-0.0000000000002886
 32
0.0
 13
1018.916757696458
 23
-0.0000000000002886
 33
0.0
  0
SOLID
  5
863
  8
0
  6
CONTINUOUS
 62
     0
 10
1018.594782421656
 20
-5005.0681475919318
 30
0.0
 11
1019.2387329712579
 21
-5005.0681475919318
 31
0.0
 12
1018.916757696457
 22
-5006.9999992407402
 32
0.0
 13
1018.916757696457
 23
-5006.9999992407402
 33
0.0
  0
INSERT
  5
864
  8
0
  6
CONTINUOUS
  2
*U18
 10
0.0
 20
0.0
 30
0.0
  0
POINT
  5
865
  8
DEFPOINTS
  6
CONTINUOUS
 62
     0
 10
0.0
 20
0.0
 30
0.0
  0
POINT
  5
866
  8
DEFPOINTS
  6
CONTINUOUS
 62
     0
 10
0.0000000000045475
 20
-5006.9999992407402
 30
0.0
  0
POINT
  5
867
  8
DEFPOINTS
  6
CONTINUOUS
 62
     0
 10
1018.916757696457
 20
-5006.9999992407402
 30
0.0
  0
ENDBLK
  5
869
  8
0
  0
BLOCK
  8
0
  2
*U18
 70
     1
 10
0.0
 20
0.0
 30
0.0
  3
*U18
  1

  0
TEXT
  5
984
  8
0
  6
CONTINUOUS
 62
     0
 10
1011.916757696458
 20
-2504.4999996203701
 30
0.0
 40
2.0
  1
5007.0000
  0
ENDBLK
  5
986
  8
0
  0
BLOCK
  8
0
  2
*D19
 70
     1
 10
0.0
 20
0.0
 30
0.0
  3
*D19
  1

  0
LINE
  5
86C
  8
0
  6
CONTINUOUS
 62
     0
 10
797.56117316741881
 20
-3898.9710435427919
 30
0.0
 11
797.56117316741927
 21
862.39400879033565
 31
0.0
  0
LINE
  5
86D
  8
0
  6
CONTINUOUS
 62
     0
 10
0.0000000000000001
 20
-34.335462851893681
 30
0.0
 11
0.000000000000055
 21
862.39400879033565
 31
0.0
  0
LINE
  5
86E
  8
0
  6
CONTINUOUS
 62
     0
 10
795.62932151861196
 20
860.39400879033565
 30
0.0
 11
1.931851648807078
 21
860.39400879033565
 31
0.0
  0
SOLID
  5
86F
  8
0
  6
CONTINUOUS
 62
     0
 10
795.62932151861196
 20
860.71598406513658
 30
0.0
 11
795.62932151861196
 21
860.07203351553414
 31
0.0
 12
797.56117316741927
 22
860.39400879033565
 32
0.0
 13
797.56117316741927
 23
860.39400879033565
 33
0.0
  0
SOLID
  5
870
  8
0
  6
CONTINUOUS
 62
     0
 10
1.931851648807078
 20
860.71598406513658
 30
0.0
 11
1.931851648807078
 21
860.07203351553414
 31
0.0
 12
0.0000000000000548
 22
860.39400879033565
 32
0.0
 13
0.0000000000000548
 23
860.39400879033565
 33
0.0
  0
INSERT
  5
871
  8
0
  6
CONTINUOUS
  2
*U20
 10
0.0
 20
0.0
 30
0.0
  0
POINT
  5
872
  8
DEFPOINTS
  6
CONTINUOUS
 62
     0
 10
797.56117316741881
 20
-3899.971043542791
 30
0.0
  0
POINT
  5
873
  8
DEFPOINTS
  6
CONTINUOUS
 62
     0
 10
0.0
 20
-35.335462851893681
 30
0.0
  0
POINT
  5
874
  8
DEFPOINTS
  6
CONTINUOUS
 62
     0
 10
0.0000000000000548
 20
860.39400879033565
 30
0.0
  0
ENDBLK
  5
876
  8
0
  0
BLOCK
  8
0
  2
*U20
 70
     1
 10
0.0
 20
0.0
 30
0.0
  3
*U20
  1

  0
TEXT
  5
988
  8
0
  6
CONTINUOUS
 62
     0
 10
392.11391991704312
 20
860.48400879033545
 30
0.0
 40
2.0
  1
797.5612
  0
ENDBLK
  5
98A
  8
0
  0
BLOCK
  8
0
  2
1
 70
     0
 10
0.0
 20
0.0
 30
0.0
  3
1
  1

  0
POLYLINE
  5
87A
  8
0
  6
CONTINUOUS
 66
     1
 10
0.0
 20
0.0
 30
0.0
  0
VERTEX
  5
B56
  8
0
  6
CONTINUOUS
 10
75.000000159801857
 20
-7.0000000000013607
 30
0.0
  0
VERTEX
  5
B57
  8
0
  6
CONTINUOUS
 10
76.90635121805191
 20
-47.945369874371387
 30
0.0
  0
VERTEX
  5
B58
  8
0
  6
CONTINUOUS
 10
78.77375318810391
 20
-85.350134412920426
 30
0.0
  0
VERTEX
  5
B59
  8
0
  6
CONTINUOUS
 10
78.77375318810391
 20
-85.350134412920426
 30
0.0
  0
VERTEX
  5
B5A
  8
0
  6
CONTINUOUS
 10
80.371052474633871
 20
-116.39692727706399
 30
0.0
  0
VERTEX
  5
B5B
  8
0
  6
CONTINUOUS
 10
80.698277453759133
 20
-141.16133811715051
 30
0.0
  0
VERTEX
  5
B5C
  8
0
  6
CONTINUOUS
 10
80.698277453759133
 20
-141.16133811715051
 30
0.0
  0
VERTEX
  5
B5D
  8
0
  6
CONTINUOUS
 10
79.012539230761817
 20
-161.07902385342589
 30
0.0
  0
VERTEX
  5
B5E
  8
0
  6
CONTINUOUS
 10
76.368097856041913
 20
-180.1329544968107
 30
0.0
  0
VERTEX
  5
B5F
  8
0
  6
CONTINUOUS
 10
76.368097856041913
 20
-180.1329544968107
 30
0.0
  0
VERTEX
  5
B60
  8
0
  6
CONTINUOUS
 10
73.514947482383818
 20
-201.30547226876061
 30
0.0
  0
VERTEX
  5
B61
  8
0
  6
CONTINUOUS
 10
68.188869726989651
 20
-221.029095142138
 30
0.0
  0
VERTEX
  5
B62
  8
0
  6
CONTINUOUS
 10
68.188869726989651
 20
-221.029095142138
 30
0.0
  0
VERTEX
  5
B63
  8
0
  6
CONTINUOUS
 10
58.493625173217879
 20
-235.2005703394193
 30
0.0
  0
VERTEX
  5
B64
  8
0
  6
CONTINUOUS
 10
47.019102804692011
 20
-244.1233863300827
 30
0.0
  0
VERTEX
  5
B65
  8
0
  6
CONTINUOUS
 10
47.019102804692011
 20
-244.1233863300827
 30
0.0
  0
VERTEX
  5
B66
  8
0
  6
CONTINUOUS
 10
36.510652070627657
 20
-249.26007672569591
 30
0.0
  0
VERTEX
  5
B67
  8
0
  6
CONTINUOUS
 10
25.849335882392548
 20
-252.3026144591436
 30
0.0
  0
VERTEX
  5
B68
  8
0
  6
CONTINUOUS
 10
25.849335882392548
 20
-252.3026144591436
 30
0.0
  0
VERTEX
  5
B69
  8
0
  6
CONTINUOUS
 10
13.48413648551468
 20
-254.73751182468041
 30
0.0
  0
VERTEX
  5
B6A
  8
0
  6
CONTINUOUS
 10
0.0000000000045475
 20
-256.99999924073791
 30
0.0
  0
SEQEND
  5
B6B
  8
0
  6
CONTINUOUS
  0
POLYLINE
  5
87B
  8
0
  6
CONTINUOUS
 66
     1
 10
0.0
 20
0.0
 30
0.0
  0
VERTEX
  5
B6C
  8
0
  6
CONTINUOUS
 10
-75.000000159794581
 20
-7.0000000000013607
 30
0.0
  0
VERTEX
  5
B6D
  8
0
  6
CONTINUOUS
 10
-76.906351218045543
 20
-47.945369874371387
 30
0.0
  0
VERTEX
  5
B6E
  8
0
  6
CONTINUOUS
 10
-78.773753188098453
 20
-85.350134412920426
 30
0.0
  0
VERTEX
  5
B6F
  8
0
  6
CONTINUOUS
 10
-78.773753188098453
 20
-85.350134412920426
 30
0.0
  0
VERTEX
  5
B70
  8
0
  6
CONTINUOUS
 10
-80.371052474627518
 20
-116.39692727706399
 30
0.0
  0
VERTEX
  5
B71
  8
0
  6
CONTINUOUS
 10
-80.698277453755509
 20
-141.16133811715051
 30
0.0
  0
VERTEX
  5
B72
  8
0
  6
CONTINUOUS
 10
-80.698277453755509
 20
-141.16133811715051
 30
0.0
  0
VERTEX
  5
B73
  8
0
  6
CONTINUOUS
 10
-79.012539230756374
 20
-161.07902385342589
 30
0.0
  0
VERTEX
  5
B74
  8
0
  6
CONTINUOUS
 10
-76.368097856036911
 20
-180.1329544968107
 30
0.0
  0
VERTEX
  5
B75
  8
0
  6
CONTINUOUS
 10
-76.368097856036911
 20
-180.1329544968107
 30
0.0
  0
VERTEX
  5
B76
  8
0
  6
CONTINUOUS
 10
-73.514947482378375
 20
-201.30547226876061
 30
0.0
  0
VERTEX
  5
B77
  8
0
  6
CONTINUOUS
 10
-68.18886972698418
 20
-221.029095142138
 30
0.0
  0
VERTEX
  5
B78
  8
0
  6
CONTINUOUS
 10
-68.18886972698418
 20
-221.029095142138
 30
0.0
  0
VERTEX
  5
B79
  8
0
  6
CONTINUOUS
 10
-58.493625173212422
 20
-235.2005703394193
 30
0.0
  0
VERTEX
  5
B7A
  8
0
  6
CONTINUOUS
 10
-47.019102804685623
 20
-244.1233863300827
 30
0.0
  0
VERTEX
  5
B7B
  8
0
  6
CONTINUOUS
 10
-47.019102804685623
 20
-244.1233863300827
 30
0.0
  0
VERTEX
  5
B7C
  8
0
  6
CONTINUOUS
 10
-36.510652070619471
 20
-249.26007672569591
 30
0.0
  0
VERTEX
  5
B7D
  8
0
  6
CONTINUOUS
 10
-25.849335882387098
 20
-252.3026144591436
 30
0.0
  0
VERTEX
  5
B7E
  8
0
  6
CONTINUOUS
 10
-25.849335882387098
 20
-252.3026144591436
 30
0.0
  0
VERTEX
  5
B7F
  8
0
  6
CONTINUOUS
 10
-13.48413648550831
 20
-254.73751182468041
 30
0.0
  0
VERTEX
  5
B80
  8
0
  6
CONTINUOUS
 10
0.0000000000045475
 20
-256.99999924073791
 30
0.0
  0
SEQEND
  5
B81
  8
0
  6
CONTINUOUS
  0
POLYLINE
  5
87C
  8
0
  6
CONTINUOUS
 66
     1
 10
0.0
 20
0.0
 30
0.0
  0
VERTEX
  5
B82
  8
0
  6
CONTINUOUS
 10
0.0000000000045475
 20
-5006.9999992407402
 30
0.0
  0
VERTEX
  5
B83
  8
0
  6
CONTINUOUS
 10
119.79415421551759
 20
-4997.4441186573413
 30
0.0
  0
VERTEX
  5
B84
  8
0
  6
CONTINUOUS
 10
248.7657894501599
 20
-4970.6459559081632
 30
0.0
  0
VERTEX
  5
B85
  8
0
  6
CONTINUOUS
 10
248.7657894501599
 20
-4970.6459559081632
 30
0.0
  0
VERTEX
  5
B86
  8
0
  6
CONTINUOUS
 10
390.46662589190521
 20
-4908.449716978208
 30
0.0
  0
VERTEX
  5
B87
  8
0
  6
CONTINUOUS
 10
460.51981613718891
 20
-4857.3188379947987
 30
0.0
  0
VERTEX
  5
B88
  8
0
  6
CONTINUOUS
 10
525.94534040411213
 20
-4789.0455604555791
 30
0.0
  0
VERTEX
  5
B89
  8
0
  6
CONTINUOUS
 10
525.94534040411213
 20
-4789.0455604555791
 30
0.0
  0
VERTEX
  5
B8A
  8
0
  6
CONTINUOUS
 10
635.27179697374049
 20
-4602.7941310212946
 30
0.0
  0
VERTEX
  5
B8B
  8
0
  6
CONTINUOUS
 10
717.10365140679824
 20
-4392.3920651249427
 30
0.0
  0
VERTEX
  5
B8C
  8
0
  6
CONTINUOUS
 10
717.10365140679824
 20
-4392.3920651249427
 30
0.0
  0
VERTEX
  5
B8D
  8
0
  6
CONTINUOUS
 10
773.30776135076565
 20
-4199.212676874231
 30
0.0
  0
VERTEX
  5
B8E
  8
0
  6
CONTINUOUS
 10
800.00000000000546
 20
-4006.9999992407352
 30
0.0
  0
VERTEX
  5
B8F
  8
0
  6
CONTINUOUS
 10
800.00000000000546
 20
-4006.9999992407352
 30
0.0
  0
VERTEX
  5
B90
  8
0
  6
CONTINUOUS
 10
795.12234633483217
 20
-3792.9420878448468
 30
0.0
  0
VERTEX
  5
B91
  8
0
  6
CONTINUOUS
 10
769.67218693255575
 20
-3565.6323700381931
 30
0.0
  0
VERTEX
  5
B92
  8
0
  6
CONTINUOUS
 10
769.67218693255575
 20
-3565.6323700381931
 30
0.0
  0
VERTEX
  5
B93
  8
0
  6
CONTINUOUS
 10
736.32467058705777
 20
-3340.2047264797138
 30
0.0
  0
VERTEX
  5
B94
  8
0
  6
CONTINUOUS
 10
701.41058736164985
 20
-3126.5494793262328
 30
0.0
  0
VERTEX
  5
B95
  8
0
  6
CONTINUOUS
 10
701.41058736164985
 20
-3126.5494793262328
 30
0.0
  0
VERTEX
  5
B96
  8
0
  6
CONTINUOUS
 10
555.9222478665788
 20
-2277.8778965763231
 30
0.0
  0
VERTEX
  5
B97
  8
0
  6
CONTINUOUS
 10
427.65380346282018
 20
-1615.817597810498
 30
0.0
  0
VERTEX
  5
B98
  8
0
  6
CONTINUOUS
 10
427.65380346282018
 20
-1615.817597810498
 30
0.0
  0
VERTEX
  5
B99
  8
0
  6
CONTINUOUS
 10
264.05901175205508
 20
-854.77139410611153
 30
0.0
  0
VERTEX
  5
B9A
  8
0
  6
CONTINUOUS
 10
75.000000159801857
 20
-7.0000000000013607
 30
0.0
  0
SEQEND
  5
B9B
  8
0
  6
CONTINUOUS
  0
POLYLINE
  5
87D
  8
0
  6
CONTINUOUS
 66
     1
 10
0.0
 20
0.0
 30
0.0
  0
VERTEX
  5
B9C
  8
0
  6
CONTINUOUS
 10
0.0000000000045475
 20
-3256.9999992407402
 30
0.0
  0
VERTEX
  5
B9D
  8
0
  6
CONTINUOUS
 10
127.99989605032169
 20
-3226.512963367858
 30
0.0
  0
VERTEX
  5
B9E
  8
0
  6
CONTINUOUS
 10
242.87828766330591
 20
-3186.5529655781429
 30
0.0
  0
VERTEX
  5
B9F
  8
0
  6
CONTINUOUS
 10
242.87828766330591
 20
-3186.5529655781429
 30
0.0
  0
VERTEX
  5
BA0
  8
0
  6
CONTINUOUS
 10
333.91982359928079
 20
-3129.1342989995978
 30
0.0
  0
VERTEX
  5
BA1
  8
0
  6
CONTINUOUS
 10
400.03376540919612
 20
-3052.2202769395699
 30
0.0
  0
VERTEX
  5
BA2
  8
0
  6
CONTINUOUS
 10
400.03376540919612
 20
-3052.2202769395699
 30
0.0
  0
VERTEX
  5
BA3
  8
0
  6
CONTINUOUS
 10
443.53597515640359
 20
-2958.6186523272809
 30
0.0
  0
VERTEX
  5
BA4
  8
0
  6
CONTINUOUS
 10
470.74410416323991
 20
-2864.5659164000481
 30
0.0
  0
VERTEX
  5
BA5
  8
0
  6
CONTINUOUS
 10
470.74410416323991
 20
-2864.5659164000481
 30
0.0
  0
VERTEX
  5
BA6
  8
0
  6
CONTINUOUS
 10
499.43900713833767
 20
-2702.1148149688902
 30
0.0
  0
VERTEX
  5
BA7
  8
0
  6
CONTINUOUS
 10
500.00000000000551
 20
-2562.5834394726021
 30
0.0
  0
VERTEX
  5
BA8
  8
0
  6
CONTINUOUS
 10
500.00000000000551
 20
-2562.5834394726021
 30
0.0
  0
VERTEX
  5
BA9
  8
0
  6
CONTINUOUS
 10
486.18746844702571
 20
-2381.065776629529
 30
0.0
  0
VERTEX
  5
BAA
  8
0
  6
CONTINUOUS
 10
454.42633368154748
 20
-2135.7055015508449
 30
0.0
  0
VERTEX
  5
BAB
  8
0
  6
CONTINUOUS
 10
454.42633368154748
 20
-2135.7055015508449
 30
0.0
  0
VERTEX
  5
BAC
  8
0
  6
CONTINUOUS
 10
401.07096128618622
 20
-1827.0908793660201
 30
0.0
  0
VERTEX
  5
BAD
  8
0
  6
CONTINUOUS
 10
339.52895886209438
 20
-1502.5388468849451
 30
0.0
  0
VERTEX
  5
BAE
  8
0
  6
CONTINUOUS
 10
339.52895886209438
 20
-1502.5388468849451
 30
0.0
  0
VERTEX
  5
BAF
  8
0
  6
CONTINUOUS
 10
177.54815488412169
 20
-619.84782675761835
 30
0.0
  0
VERTEX
  5
BB0
  8
0
  6
CONTINUOUS
 10
75.000000159801857
 20
-7.0000000000013607
 30
0.0
  0
SEQEND
  5
BB1
  8
0
  6
CONTINUOUS
  0
POLYLINE
  5
87E
  8
0
  6
CONTINUOUS
 66
     1
 10
0.0
 20
0.0
 30
0.0
  0
VERTEX
  5
BB2
  8
0
  6
CONTINUOUS
 10
0.0000000000045475
 20
-1756.9999992407379
 30
0.0
  0
VERTEX
  5
BB3
  8
0
  6
CONTINUOUS
 10
40.967466253500767
 20
-1743.55468040959
 30
0.0
  0
VERTEX
  5
BB4
  8
0
  6
CONTINUOUS
 10
77.902479299998063
 20
-1730.345521972074
 30
0.0
  0
VERTEX
  5
BB5
  8
0
  6
CONTINUOUS
 10
77.902479299998063
 20
-1730.345521972074
 30
0.0
  0
VERTEX
  5
BB6
  8
0
  6
CONTINUOUS
 10
155.28086723729299
 20
-1682.0647965846531
 30
0.0
  0
VERTEX
  5
BB7
  8
0
  6
CONTINUOUS
 10
202.85041786971851
 20
-1595.235825529679
 30
0.0
  0
VERTEX
  5
BB8
  8
0
  6
CONTINUOUS
 10
202.85041786971851
 20
-1595.235825529679
 30
0.0
  0
VERTEX
  5
BB9
  8
0
  6
CONTINUOUS
 10
214.69861334855071
 20
-1567.783794593917
 30
0.0
  0
VERTEX
  5
BBA
  8
0
  6
CONTINUOUS
 10
225.96287564911469
 20
-1540.133522630324
 30
0.0
  0
VERTEX
  5
BBB
  8
0
  6
CONTINUOUS
 10
225.96287564911469
 20
-1540.133522630324
 30
0.0
  0
VERTEX
  5
BBC
  8
0
  6
CONTINUOUS
 10
248.8358780941299
 20
-1461.283353817264
 30
0.0
  0
VERTEX
  5
BBD
  8
0
  6
CONTINUOUS
 10
253.4915413333409
 20
-1397.533040806622
 30
0.0
  0
VERTEX
  5
BBE
  8
0
  6
CONTINUOUS
 10
253.4915413333409
 20
-1397.533040806622
 30
0.0
  0
VERTEX
  5
BBF
  8
0
  6
CONTINUOUS
 10
253.43763867133569
 20
-1324.9913816981921
 30
0.0
  0
VERTEX
  5
BC0
  8
0
  6
CONTINUOUS
 10
249.67713690503211
 20
-1248.0169407959711
 30
0.0
  0
VERTEX
  5
BC1
  8
0
  6
CONTINUOUS
 10
249.67713690503211
 20
-1248.0169407959711
 30
0.0
  0
VERTEX
  5
BC2
  8
0
  6
CONTINUOUS
 10
241.02715410756809
 20
-1176.0978113739111
 30
0.0
  0
VERTEX
  5
BC3
  8
0
  6
CONTINUOUS
 10
230.0662199646722
 20
-1110.990436381544
 30
0.0
  0
VERTEX
  5
BC4
  8
0
  6
CONTINUOUS
 10
230.0662199646722
 20
-1110.990436381544
 30
0.0
  0
VERTEX
  5
BC5
  8
0
  6
CONTINUOUS
 10
198.1052558030369
 20
-929.00996120210846
 30
0.0
  0
VERTEX
  5
BC6
  8
0
  6
CONTINUOUS
 10
175.0142605976898
 20
-791.927732878744
 30
0.0
  0
VERTEX
  5
BC7
  8
0
  6
CONTINUOUS
 10
175.0142605976898
 20
-791.927732878744
 30
0.0
  0
VERTEX
  5
BC8
  8
0
  6
CONTINUOUS
 10
115.3644244623929
 20
-372.19867117382319
 30
0.0
  0
VERTEX
  5
BC9
  8
0
  6
CONTINUOUS
 10
75.000000159801857
 20
-7.0000000000013607
 30
0.0
  0
SEQEND
  5
BCA
  8
0
  6
CONTINUOUS
  0
POLYLINE
  5
87F
  8
0
  6
CONTINUOUS
 66
     1
 10
0.0
 20
0.0
 30
0.0
  0
VERTEX
  5
BCB
  8
0
  6
CONTINUOUS
 10
0.0000000000045475
 20
-1756.9999992407379
 30
0.0
  0
VERTEX
  5
BCC
  8
0
  6
CONTINUOUS
 10
-40.967466253491679
 20
-1743.55468040959
 30
0.0
  0
VERTEX
  5
BCD
  8
0
  6
CONTINUOUS
 10
-77.902479299994368
 20
-1730.345521972074
 30
0.0
  0
VERTEX
  5
BCE
  8
0
  6
CONTINUOUS
 10
-77.902479299994368
 20
-1730.345521972074
 30
0.0
  0
VERTEX
  5
BCF
  8
0
  6
CONTINUOUS
 10
-155.2808672372885
 20
-1682.0647965846531
 30
0.0
  0
VERTEX
  5
BD0
  8
0
  6
CONTINUOUS
 10
-202.85041786971581
 20
-1595.235825529679
 30
0.0
  0
VERTEX
  5
BD1
  8
0
  6
CONTINUOUS
 10
-202.85041786971581
 20
-1595.235825529679
 30
0.0
  0
VERTEX
  5
BD2
  8
0
  6
CONTINUOUS
 10
-214.69861334854519
 20
-1567.783794593917
 30
0.0
  0
VERTEX
  5
BD3
  8
0
  6
CONTINUOUS
 10
-225.96287564910929
 20
-1540.133522630324
 30
0.0
  0
VERTEX
  5
BD4
  8
0
  6
CONTINUOUS
 10
-225.96287564910929
 20
-1540.133522630324
 30
0.0
  0
VERTEX
  5
BD5
  8
0
  6
CONTINUOUS
 10
-248.8358780941262
 20
-1461.283353817264
 30
0.0
  0
VERTEX
  5
BD6
  8
0
  6
CONTINUOUS
 10
-253.4915413333338
 20
-1397.533040806622
 30
0.0
  0
VERTEX
  5
BD7
  8
0
  6
CONTINUOUS
 10
-253.4915413333338
 20
-1397.533040806622
 30
0.0
  0
VERTEX
  5
BD8
  8
0
  6
CONTINUOUS
 10
-253.43763867133109
 20
-1324.9913816981921
 30
0.0
  0
VERTEX
  5
BD9
  8
0
  6
CONTINUOUS
 10
-249.67713690502751
 20
-1248.0169407959711
 30
0.0
  0
VERTEX
  5
BDA
  8
0
  6
CONTINUOUS
 10
-249.67713690502751
 20
-1248.0169407959711
 30
0.0
  0
VERTEX
  5
BDB
  8
0
  6
CONTINUOUS
 10
-241.0271541075636
 20
-1176.0978113739111
 30
0.0
  0
VERTEX
  5
BDC
  8
0
  6
CONTINUOUS
 10
-230.0662199646676
 20
-1110.990436381544
 30
0.0
  0
VERTEX
  5
BDD
  8
0
  6
CONTINUOUS
 10
-230.0662199646676
 20
-1110.990436381544
 30
0.0
  0
VERTEX
  5
BDE
  8
0
  6
CONTINUOUS
 10
-198.10525580303329
 20
-929.00996120210846
 30
0.0
  0
VERTEX
  5
BDF
  8
0
  6
CONTINUOUS
 10
-175.01426059768241
 20
-791.927732878744
 30
0.0
  0
VERTEX
  5
BE0
  8
0
  6
CONTINUOUS
 10
-175.01426059768241
 20
-791.927732878744
 30
0.0
  0
VERTEX
  5
BE1
  8
0
  6
CONTINUOUS
 10
-115.3644244623874
 20
-372.19867117382319
 30
0.0
  0
VERTEX
  5
BE2
  8
0
  6
CONTINUOUS
 10
-75.000000159794581
 20
-7.0000000000013607
 30
0.0
  0
SEQEND
  5
BE3
  8
0
  6
CONTINUOUS
  0
POLYLINE
  5
880
  8
0
  6
CONTINUOUS
 66
     1
 10
0.0
 20
0.0
 30
0.0
  0
VERTEX
  5
BE4
  8
0
  6
CONTINUOUS
 10
0.0000000000045475
 20
-3256.9999992407402
 30
0.0
  0
VERTEX
  5
BE5
  8
0
  6
CONTINUOUS
 10
-127.9998960503153
 20
-3226.512963367858
 30
0.0
  0
VERTEX
  5
BE6
  8
0
  6
CONTINUOUS
 10
-242.87828766329949
 20
-3186.5529655781429
 30
0.0
  0
VERTEX
  5
BE7
  8
0
  6
CONTINUOUS
 10
-242.87828766329949
 20
-3186.5529655781429
 30
0.0
  0
VERTEX
  5
BE8
  8
0
  6
CONTINUOUS
 10
-333.91982359927619
 20
-3129.1342989995978
 30
0.0
  0
VERTEX
  5
BE9
  8
0
  6
CONTINUOUS
 10
-400.03376540919078
 20
-3052.2202769395699
 30
0.0
  0
VERTEX
  5
BEA
  8
0
  6
CONTINUOUS
 10
-400.03376540919078
 20
-3052.2202769395699
 30
0.0
  0
VERTEX
  5
BEB
  8
0
  6
CONTINUOUS
 10
-443.53597515639638
 20
-2958.6186523272809
 30
0.0
  0
VERTEX
  5
BEC
  8
0
  6
CONTINUOUS
 10
-470.7441041632336
 20
-2864.5659164000481
 30
0.0
  0
VERTEX
  5
BED
  8
0
  6
CONTINUOUS
 10
-470.7441041632336
 20
-2864.5659164000481
 30
0.0
  0
VERTEX
  5
BEE
  8
0
  6
CONTINUOUS
 10
-499.43900713833119
 20
-2702.1148149688902
 30
0.0
  0
VERTEX
  5
BEF
  8
0
  6
CONTINUOUS
 10
-499.99999999999523
 20
-2562.5834394726021
 30
0.0
  0
VERTEX
  5
BF0
  8
0
  6
CONTINUOUS
 10
-499.99999999999523
 20
-2562.5834394726021
 30
0.0
  0
VERTEX
  5
BF1
  8
0
  6
CONTINUOUS
 10
-486.18746844702031
 20
-2381.065776629529
 30
0.0
  0
VERTEX
  5
BF2
  8
0
  6
CONTINUOUS
 10
-454.42633368154191
 20
-2135.7055015508449
 30
0.0
  0
VERTEX
  5
BF3
  8
0
  6
CONTINUOUS
 10
-454.42633368154191
 20
-2135.7055015508449
 30
0.0
  0
VERTEX
  5
BF4
  8
0
  6
CONTINUOUS
 10
-401.07096128618088
 20
-1827.0908793660201
 30
0.0
  0
VERTEX
  5
BF5
  8
0
  6
CONTINUOUS
 10
-339.52895886208989
 20
-1502.5388468849451
 30
0.0
  0
VERTEX
  5
BF6
  8
0
  6
CONTINUOUS
 10
-339.52895886208989
 20
-1502.5388468849451
 30
0.0
  0
VERTEX
  5
BF7
  8
0
  6
CONTINUOUS
 10
-177.54815488411529
 20
-619.84782675761835
 30
0.0
  0
VERTEX
  5
BF8
  8
0
  6
CONTINUOUS
 10
-75.000000159794581
 20
-7.0000000000013607
 30
0.0
  0
SEQEND
  5
BF9
  8
0
  6
CONTINUOUS
  0
POLYLINE
  5
881
  8
0
  6
CONTINUOUS
 66
     1
 10
0.0
 20
0.0
 30
0.0
  0
VERTEX
  5
BFA
  8
0
  6
CONTINUOUS
 10
0.0000000000045475
 20
-5006.9999992407402
 30
0.0
  0
VERTEX
  5
BFB
  8
0
  6
CONTINUOUS
 10
-119.7941542155131
 20
-4997.4441186573413
 30
0.0
  0
VERTEX
  5
BFC
  8
0
  6
CONTINUOUS
 10
-248.76578945015629
 20
-4970.6459559081632
 30
0.0
  0
VERTEX
  5
BFD
  8
0
  6
CONTINUOUS
 10
-248.76578945015629
 20
-4970.6459559081632
 30
0.0
  0
VERTEX
  5
BFE
  8
0
  6
CONTINUOUS
 10
-390.46662589190049
 20
-4908.449716978208
 30
0.0
  0
VERTEX
  5
BFF
  8
0
  6
CONTINUOUS
 10
-460.51981613718362
 20
-4857.3188379947987
 30
0.0
  0
VERTEX
  5
C00
  8
0
  6
CONTINUOUS
 10
-525.94534040410656
 20
-4789.0455604555791
 30
0.0
  0
VERTEX
  5
C01
  8
0
  6
CONTINUOUS
 10
-525.94534040410656
 20
-4789.0455604555791
 30
0.0
  0
VERTEX
  5
C02
  8
0
  6
CONTINUOUS
 10
-635.27179697373765
 20
-4602.7941310212946
 30
0.0
  0
VERTEX
  5
C03
  8
0
  6
CONTINUOUS
 10
-717.1036514067946
 20
-4392.3920651249427
 30
0.0
  0
VERTEX
  5
C04
  8
0
  6
CONTINUOUS
 10
-717.1036514067946
 20
-4392.3920651249427
 30
0.0
  0
VERTEX
  5
C05
  8
0
  6
CONTINUOUS
 10
-773.30776135075996
 20
-4199.212676874231
 30
0.0
  0
VERTEX
  5
C06
  8
0
  6
CONTINUOUS
 10
-799.99999999999545
 20
-4006.9999992407352
 30
0.0
  0
VERTEX
  5
C07
  8
0
  6
CONTINUOUS
 10
-799.99999999999545
 20
-4006.9999992407352
 30
0.0
  0
VERTEX
  5
C08
  8
0
  6
CONTINUOUS
 10
-795.12234633482683
 20
-3792.9420878448468
 30
0.0
  0
VERTEX
  5
C09
  8
0
  6
CONTINUOUS
 10
-769.67218693254915
 20
-3565.6323700381931
 30
0.0
  0
VERTEX
  5
C0A
  8
0
  6
CONTINUOUS
 10
-769.67218693254915
 20
-3565.6323700381931
 30
0.0
  0
VERTEX
  5
C0B
  8
0
  6
CONTINUOUS
 10
-736.32467058705311
 20
-3340.2047264797138
 30
0.0
  0
VERTEX
  5
C0C
  8
0
  6
CONTINUOUS
 10
-701.41058736164416
 20
-3126.5494793262328
 30
0.0
  0
VERTEX
  5
C0D
  8
0
  6
CONTINUOUS
 10
-701.41058736164416
 20
-3126.5494793262328
 30
0.0
  0
VERTEX
  5
C0E
  8
0
  6
CONTINUOUS
 10
-555.92224786657414
 20
-2277.8778965763231
 30
0.0
  0
VERTEX
  5
C0F
  8
0
  6
CONTINUOUS
 10
-427.65380346281557
 20
-1615.817597810498
 30
0.0
  0
VERTEX
  5
C10
  8
0
  6
CONTINUOUS
 10
-427.65380346281557
 20
-1615.817597810498
 30
0.0
  0
VERTEX
  5
C11
  8
0
  6
CONTINUOUS
 10
-264.05901175204781
 20
-854.77139410611153
 30
0.0
  0
VERTEX
  5
C12
  8
0
  6
CONTINUOUS
 10
-75.000000159794581
 20
-7.0000000000013607
 30
0.0
  0
SEQEND
  5
C13
  8
0
  6
CONTINUOUS
  0
ENDBLK
  5
879
  8
0
  0
BLOCK
  8
0
  2
*D22
 70
     1
 10
0.0
 20
0.0
 30
0.0
  3
*D22
  1

  0
LINE
  5
887
  8
0
  6
CONTINUOUS
 62
     0
 10
-0.0000000000000001
 20
-36.335462851893681
 30
0.0
 11
-0.0000000000002549
 21
-4197.5609323963636
 31
0.0
  0
LINE
  5
888
  8
0
  6
CONTINUOUS
 62
     0
 10
400.00000000000261
 20
-4007.9999992407361
 30
0.0
 11
400.00000000000261
 21
-4197.5609323963636
 31
0.0
  0
LINE
  5
889
  8
0
  6
CONTINUOUS
 62
     0
 10
1.9318516488067681
 20
-4195.5609323963636
 30
0.0
 11
398.0681483511957
 21
-4195.5609323963636
 31
0.0
  0
SOLID
  5
88A
  8
0
  6
CONTINUOUS
 62
     0
 10
1.9318516488067681
 20
-4195.2389571215626
 30
0.0
 11
1.9318516488067681
 21
-4195.8829076711654
 31
0.0
 12
-0.0000000000002547
 22
-4195.5609323963636
 32
0.0
 13
-0.0000000000002547
 23
-4195.5609323963636
 33
0.0
  0
SOLID
  5
88B
  8
0
  6
CONTINUOUS
 62
     0
 10
398.0681483511957
 20
-4195.2389571215626
 30
0.0
 11
398.0681483511957
 21
-4195.8829076711654
 31
0.0
 12
400.00000000000261
 22
-4195.5609323963636
 32
0.0
 13
400.00000000000261
 23
-4195.5609323963636
 33
0.0
  0
INSERT
  5
88C
  8
0
  6
CONTINUOUS
  2
*U23
 10
0.0
 20
0.0
 30
0.0
  0
POINT
  5
88D
  8
DEFPOINTS
  6
CONTINUOUS
 62
     0
 10
0.0
 20
-35.335462851893681
 30
0.0
  0
POINT
  5
88E
  8
DEFPOINTS
  6
CONTINUOUS
 62
     0
 10
400.00000000000261
 20
-4006.9999992407352
 30
0.0
  0
POINT
  5
88F
  8
DEFPOINTS
  6
CONTINUOUS
 62
     0
 10
400.00000000000261
 20
-4195.5609323963636
 30
0.0
  0
ENDBLK
  5
891
  8
0
  0
BLOCK
  8
0
  2
*U23
 70
     1
 10
0.0
 20
0.0
 30
0.0
  3
*U23
  1

  0
TEXT
  5
A4B
  8
0
  6
CONTINUOUS
 62
     0
 10
194.00000000000119
 20
-4195.4709323963634
 30
0.0
 40
2.0
  1
400.0000
  0
ENDBLK
  5
A4D
  8
0
  0
ENDSEC
  0
SECTION
  2
ENTITIES
  0
LINE
  5
820
  8
0
  6
CONTINUOUS
 10
87.5
 20
-7.0000000000013607
 30
0.0
 11
-87.5
 21
-6.9999999999986331
 31
0.0
  0
LINE
  5
821
  8
0
  6
CONTINUOUS
 10
0.0
 20
-35.335462851893681
 30
0.0
 11
0.0
 21
35.335462851893681
 31
0.0
  0
LINE
  5
822
  8
0
  6
CONTINUOUS
 10
75.0
 20
-0.0000000000004547
 30
0.0
 11
75.0
 21
182.99999999999761
 31
0.0
  0
LINE
  5
823
  8
0
  6
CONTINUOUS
 10
-75.0
 20
0.0000000000013642
 30
0.0
 11
-75.0
 21
182.9999999999994
 31
0.0
  0
LINE
  5
824
  8
0
  6
CONTINUOUS
 10
75.0
 20
182.9999999999994
 30
0.0
 11
-75.0
 21
182.9999999999994
 31
0.0
  0
LINE
  5
825
  8
0
  6
CONTINUOUS
 10
87.5
 20
-0.0000000000013642
 30
0.0
 11
-87.5
 21
0.0000000000013642
 31
0.0
  0
LINE
  5
826
  8
0
  6
CONTINUOUS
 10
-87.5
 20
-6.9999999999986331
 30
0.0
 11
-87.5
 21
-0.0000000000004547
 31
0.0
  0
LINE
  5
827
  8
0
  6
CONTINUOUS
 10
87.5
 20
-6.9999999999986331
 30
0.0
 11
87.5
 21
-0.0000000000004547
 31
0.0
  0
TEXT
  5
830
  8
0
  6
CONTINUOUS
 10
491.30141666214962
 20
-253.85197933400971
 30
0.0
 40
160.0
  1
1.5m/s
 50
0.0000025044687019
 41
0.687499990065893
  7
STANDARD1
  0
TEXT
  5
831
  8
0
  6
CONTINUOUS
 10
799.96930250318815
 20
-1231.6879941679019
 30
0.0
 40
160.0
  1
1m/s
 50
0.0000025044687019
 41
0.687499990065893
  7
STANDARD1
  0
TEXT
  5
832
  8
0
  6
CONTINUOUS
 10
702.97195670576923
 20
-2969.5658092692779
 30
0.0
 40
160.0
  1
0.5m/s
 50
0.0000025044687019
 41
0.687499990065893
  7
STANDARD1
  0
TEXT
  5
833
  8
0
  6
CONTINUOUS
 10
702.97195670576923
 20
-4678.409167381833
 30
0.0
 40
160.0
  1
0.3m/s
 50
0.0000025044687019
 41
0.687499990065893
  7
STANDARD1
  0
LINE
  5
834
  8
0
  6
CONTINUOUS
 10
23.22082661077275
 20
-145.32003121045679
 30
0.0
 11
466.58879537391022
 21
-192.97599962896169
 31
0.0
  0
LINE
  5
940
  8
0
  6
CONTINUOUS
 10
6.8558229926093164
 20
-1374.098540056759
 30
0.0
 11
746.49735643013264
 21
-1169.4648412683341
 31
0.0
  0
LINE
  5
941
  8
0
  6
CONTINUOUS
 10
13.45976114755466
 20
-2832.9388527257538
 30
0.0
 11
627.62639296050816
 21
-2905.5508196808628
 31
0.0
  0
LINE
  5
942
  8
0
  6
CONTINUOUS
 10
89.171276326018429
 20
-4675.6223986080358
 30
0.0
 11
640.15549255794758
 21
-4598.1099975314792
 31
0.0
  0
POLYLINE
  5
94F
  8
0
  6
CONTINUOUS
 66
     1
 10
0.0
 20
0.0
 30
0.0
  0
VERTEX
  5
C14
  8
0
  6
CONTINUOUS
 10
-37.500000079897312
 20
-7.000000000001477
 30
0.0
  0
VERTEX
  5
C15
  8
0
  6
CONTINUOUS
 10
-39.786201415681489
 20
-100.8735308449922
 30
0.0
  0
VERTEX
  5
C16
  8
0
  6
CONTINUOUS
 10
-39.506269615378187
 20
-161.07902385342589
 30
0.0
  0
VERTEX
  5
C17
  8
0
  6
CONTINUOUS
 10
-36.757473741189187
 20
-201.30547226876061
 30
0.0
  0
VERTEX
  5
C18
  8
0
  6
CONTINUOUS
 10
-34.09443486349209
 20
-221.029095142138
 30
0.0
  0
VERTEX
  5
C19
  8
0
  6
CONTINUOUS
 10
-29.246812586606211
 20
-235.2005703394193
 30
0.0
  0
VERTEX
  5
C1A
  8
0
  6
CONTINUOUS
 10
-23.509551402342812
 20
-244.1233863300827
 30
0.0
  0
VERTEX
  5
C1B
  8
0
  6
CONTINUOUS
 10
-20.882438718826261
 20
-246.69173152788929
 30
0.0
  0
VERTEX
  5
C1C
  8
0
  6
CONTINUOUS
 10
-18.255326035309729
 20
-249.26007672569591
 30
0.0
  0
VERTEX
  5
C1D
  8
0
  6
CONTINUOUS
 10
-12.924667941193549
 20
-252.3026144591436
 30
0.0
  0
VERTEX
  5
C1E
  8
0
  6
CONTINUOUS
 10
-3.3710341213759381
 20
-255.86875553270909
 30
0.0
  0
VERTEX
  5
C1F
  8
0
  6
CONTINUOUS
 10
0.0000000000022737
 20
-256.99999924073791
 30
0.0
  0
VERTEX
  5
C20
  8
0
  6
CONTINUOUS
 10
9.8333680919768032
 20
-253.520063141912
 30
0.0
  0
VERTEX
  5
C21
  8
0
  6
CONTINUOUS
 10
15.58999698825505
 20
-250.7813455924198
 30
0.0
  0
VERTEX
  5
C22
  8
0
  6
CONTINUOUS
 10
18.255326035313828
 20
-249.26007672569591
 30
0.0
  0
VERTEX
  5
C23
  8
0
  6
CONTINUOUS
 10
23.509551402346009
 20
-244.1233863300827
 30
0.0
  0
VERTEX
  5
C24
  8
0
  6
CONTINUOUS
 10
26.378181994477469
 20
-239.66197833475101
 30
0.0
  0
VERTEX
  5
C25
  8
0
  6
CONTINUOUS
 10
29.246812586608939
 20
-235.2005703394193
 30
0.0
  0
VERTEX
  5
C26
  8
0
  6
CONTINUOUS
 10
34.094434863494833
 20
-221.029095142138
 30
0.0
  0
VERTEX
  5
C27
  8
0
  6
CONTINUOUS
 10
36.757473741191909
 20
-201.30547226876061
 30
0.0
  0
VERTEX
  5
C28
  8
0
  6
CONTINUOUS
 10
37.470761334606443
 20
-190.7192133827856
 30
0.0
  0
VERTEX
  5
C29
  8
0
  6
CONTINUOUS
 10
38.845159271700943
 20
-170.60598917511831
 30
0.0
  0
VERTEX
  5
C2A
  8
0
  6
CONTINUOUS
 10
39.506269615380909
 20
-161.07902385342589
 30
0.0
  0
VERTEX
  5
C2B
  8
0
  6
CONTINUOUS
 10
40.349138726879559
 20
-141.16133811715051
 30
0.0
  0
VERTEX
  5
C2C
  8
0
  6
CONTINUOUS
 10
40.185526237316921
 20
-116.39692727706399
 30
0.0
  0
VERTEX
  5
C2D
  8
0
  6
CONTINUOUS
 10
39.386876594051962
 20
-85.350134412920426
 30
0.0
  0
VERTEX
  5
C2E
  8
0
  6
CONTINUOUS
 10
37.500000079900907
 20
-7.00000000000058
 30
0.0
  0
SEQEND
  5
C2F
  8
0
  6
CONTINUOUS
  0
POLYLINE
  5
950
  8
0
  6
CONTINUOUS
 66
     1
 10
0.0
 20
0.0
 30
0.0
  0
VERTEX
  5
C30
  8
0
  6
CONTINUOUS
 10
-37.500000079897312
 20
-7.0000000000016813
 30
0.0
  0
VERTEX
  5
C31
  8
0
  6
CONTINUOUS
 10
-47.591106155545503
 20
-189.5993355869123
 30
0.0
  0
VERTEX
  5
C32
  8
0
  6
CONTINUOUS
 10
-57.682212231193702
 20
-372.19867117382319
 30
0.0
  0
VERTEX
  5
C33
  8
0
  6
CONTINUOUS
 10
-72.594671265017453
 20
-582.06320202628365
 30
0.0
  0
VERTEX
  5
C34
  8
0
  6
CONTINUOUS
 10
-87.507130298841204
 20
-791.927732878744
 30
0.0
  0
VERTEX
  5
C35
  8
0
  6
CONTINUOUS
 10
-99.052627901516644
 20
-929.00996120210846
 30
0.0
  0
VERTEX
  5
C36
  8
0
  6
CONTINUOUS
 10
-115.0331099823338
 20
-1110.990436381544
 30
0.0
  0
VERTEX
  5
C37
  8
0
  6
CONTINUOUS
 10
-120.5135770537818
 20
-1176.0978113739111
 30
0.0
  0
VERTEX
  5
C38
  8
0
  6
CONTINUOUS
 10
-124.8385684525137
 20
-1248.0169407959711
 30
0.0
  0
VERTEX
  5
C39
  8
0
  6
CONTINUOUS
 10
-126.7188193356655
 20
-1324.9913816981921
 30
0.0
  0
VERTEX
  5
C3A
  8
0
  6
CONTINUOUS
 10
-126.7457706666669
 20
-1397.533040806622
 30
0.0
  0
VERTEX
  5
C3B
  8
0
  6
CONTINUOUS
 10
-124.4179390470631
 20
-1461.283353817264
 30
0.0
  0
VERTEX
  5
C3C
  8
0
  6
CONTINUOUS
 10
-118.6996884358088
 20
-1500.708438223794
 30
0.0
  0
VERTEX
  5
C3D
  8
0
  6
CONTINUOUS
 10
-104.38725780456519
 20
-1581.5098100617979
 30
0.0
  0
VERTEX
  5
C3E
  8
0
  6
CONTINUOUS
 10
-89.532821276751065
 20
-1638.6503110571659
 30
0.0
  0
VERTEX
  5
C3F
  8
0
  6
CONTINUOUS
 10
-77.640433618644266
 20
-1682.0647965846531
 30
0.0
  0
VERTEX
  5
C40
  8
0
  6
CONTINUOUS
 10
-38.951239649997198
 20
-1730.345521972074
 30
0.0
  0
VERTEX
  5
C41
  8
0
  6
CONTINUOUS
 10
-10.241866563371779
 20
-1750.2773398251641
 30
0.0
  0
VERTEX
  5
C42
  8
0
  6
CONTINUOUS
 10
0.0000000000022738
 20
-1756.9999992407379
 30
0.0
  0
VERTEX
  5
C43
  8
0
  6
CONTINUOUS
 10
20.483733126750391
 20
-1743.55468040959
 30
0.0
  0
VERTEX
  5
C44
  8
0
  6
CONTINUOUS
 10
38.951239649999017
 20
-1730.345521972074
 30
0.0
  0
VERTEX
  5
C45
  8
0
  6
CONTINUOUS
 10
58.295836634322761
 20
-1706.205159278363
 30
0.0
  0
VERTEX
  5
C46
  8
0
  6
CONTINUOUS
 10
77.640433618646497
 20
-1682.0647965846531
 30
0.0
  0
VERTEX
  5
C47
  8
0
  6
CONTINUOUS
 10
89.532821276752856
 20
-1638.6503110571659
 30
0.0
  0
VERTEX
  5
C48
  8
0
  6
CONTINUOUS
 10
104.3872578045672
 20
-1581.5098100617979
 30
0.0
  0
VERTEX
  5
C49
  8
0
  6
CONTINUOUS
 10
118.6996884358111
 20
-1500.708438223794
 30
0.0
  0
VERTEX
  5
C4A
  8
0
  6
CONTINUOUS
 10
124.41793904706491
 20
-1461.283353817264
 30
0.0
  0
VERTEX
  5
C4B
  8
0
  6
CONTINUOUS
 10
126.7457706666705
 20
-1397.533040806622
 30
0.0
  0
VERTEX
  5
C4C
  8
0
  6
CONTINUOUS
 10
126.7188193356678
 20
-1324.9913816981921
 30
0.0
  0
VERTEX
  5
C4D
  8
0
  6
CONTINUOUS
 10
124.838568452516
 20
-1248.0169407959711
 30
0.0
  0
VERTEX
  5
C4E
  8
0
  6
CONTINUOUS
 10
122.67607275315
 20
-1212.0573760849411
 30
0.0
  0
VERTEX
  5
C4F
  8
0
  6
CONTINUOUS
 10
117.77334351806
 20
-1143.5441238777271
 30
0.0
  0
VERTEX
  5
C50
  8
0
  6
CONTINUOUS
 10
115.0331099823361
 20
-1110.990436381544
 30
0.0
  0
VERTEX
  5
C51
  8
0
  6
CONTINUOUS
 10
99.052627901518463
 20
-929.00996120210846
 30
0.0
  0
VERTEX
  5
C52
  8
0
  6
CONTINUOUS
 10
87.507130298844913
 20
-791.927732878744
 30
0.0
  0
VERTEX
  5
C53
  8
0
  6
CONTINUOUS
 10
57.682212231196452
 20
-372.19867117382319
 30
0.0
  0
VERTEX
  5
C54
  8
0
  6
CONTINUOUS
 10
37.500000079901007
 20
-7.0000000000047322
 30
0.0
  0
SEQEND
  5
C55
  8
0
  6
CONTINUOUS
  0
POLYLINE
  5
951
  8
0
  6
CONTINUOUS
 66
     1
 10
0.0
 20
0.0
 30
0.0
  0
VERTEX
  5
C56
  8
0
  6
CONTINUOUS
 10
-37.500000079897312
 20
-7.0000000000016813
 30
0.0
  0
VERTEX
  5
C57
  8
0
  6
CONTINUOUS
 10
-84.764752977960597
 20
-430.88569705305628
 30
0.0
  0
VERTEX
  5
C58
  8
0
  6
CONTINUOUS
 10
-172.9282038037158
 20
-1235.294495958304
 30
0.0
  0
VERTEX
  5
C59
  8
0
  6
CONTINUOUS
 10
-245.8940128323475
 20
-1946.8477471934109
 30
0.0
  0
VERTEX
  5
C5A
  8
0
  6
CONTINUOUS
 10
-277.96112393328718
 20
-2277.8778965763231
 30
0.0
  0
VERTEX
  5
C5B
  8
0
  6
CONTINUOUS
 10
-314.33320880705458
 20
-2702.2136879512791
 30
0.0
  0
VERTEX
  5
C5C
  8
0
  6
CONTINUOUS
 10
-359.4338144871744
 20
-3233.3771029029749
 30
0.0
  0
VERTEX
  5
C5D
  8
0
  6
CONTINUOUS
 10
-391.19863331684411
 20
-3679.2872289415209
 30
0.0
  0
VERTEX
  5
C5E
  8
0
  6
CONTINUOUS
 10
-398.7805865837056
 20
-3899.971043542791
 30
0.0
  0
VERTEX
  5
C5F
  8
0
  6
CONTINUOUS
 10
-393.32694033768888
 20
-4103.1063380574833
 30
0.0
  0
VERTEX
  5
C60
  8
0
  6
CONTINUOUS
 10
-386.65388067538009
 20
-4199.212676874231
 30
0.0
  0
VERTEX
  5
C61
  8
0
  6
CONTINUOUS
 10
-372.60285318938872
 20
-4295.8023709995869
 30
0.0
  0
VERTEX
  5
C62
  8
0
  6
CONTINUOUS
 10
-358.5518257033973
 20
-4392.3920651249427
 30
0.0
  0
VERTEX
  5
C63
  8
0
  6
CONTINUOUS
 10
-317.63589848686888
 20
-4602.7941310212946
 30
0.0
  0
VERTEX
  5
C64
  8
0
  6
CONTINUOUS
 10
-262.97267020205339
 20
-4789.0455604555791
 30
0.0
  0
VERTEX
  5
C65
  8
0
  6
CONTINUOUS
 10
-230.25990806859181
 20
-4857.3188379947987
 30
0.0
  0
VERTEX
  5
C66
  8
0
  6
CONTINUOUS
 10
-195.2333129459501
 20
-4908.449716978208
 30
0.0
  0
VERTEX
  5
C67
  8
0
  6
CONTINUOUS
 10
-124.3828947250781
 20
-4970.6459559081632
 30
0.0
  0
VERTEX
  5
C68
  8
0
  6
CONTINUOUS
 10
-59.897077107756537
 20
-4997.4441186573413
 30
0.0
  0
VERTEX
  5
C69
  8
0
  6
CONTINUOUS
 10
0.0000000000022738
 20
-5006.9999992407402
 30
0.0
  0
VERTEX
  5
C6A
  8
0
  6
CONTINUOUS
 10
59.897077107758797
 20
-4997.4441186573413
 30
0.0
  0
VERTEX
  5
C6B
  8
0
  6
CONTINUOUS
 10
124.38289472507989
 20
-4970.6459559081632
 30
0.0
  0
VERTEX
  5
C6C
  8
0
  6
CONTINUOUS
 10
195.2333129459526
 20
-4908.449716978208
 30
0.0
  0
VERTEX
  5
C6D
  8
0
  6
CONTINUOUS
 10
230.25990806859451
 20
-4857.3188379947987
 30
0.0
  0
VERTEX
  5
C6E
  8
0
  6
CONTINUOUS
 10
262.97267020205618
 20
-4789.0455604555791
 30
0.0
  0
VERTEX
  5
C6F
  8
0
  6
CONTINUOUS
 10
317.6358984868703
 20
-4602.7941310212946
 30
0.0
  0
VERTEX
  5
C70
  8
0
  6
CONTINUOUS
 10
338.09386209513468
 20
-4497.5930980731191
 30
0.0
  0
VERTEX
  5
C71
  8
0
  6
CONTINUOUS
 10
358.55182570339912
 20
-4392.3920651249427
 30
0.0
  0
VERTEX
  5
C72
  8
0
  6
CONTINUOUS
 10
372.602853189391
 20
-4295.8023709995869
 30
0.0
  0
VERTEX
  5
C73
  8
0
  6
CONTINUOUS
 10
386.65388067538282
 20
-4199.212676874231
 30
0.0
  0
VERTEX
  5
C74
  8
0
  6
CONTINUOUS
 10
400.00000000000261
 20
-4006.9999992407352
 30
0.0
  0
VERTEX
  5
C75
  8
0
  6
CONTINUOUS
 10
397.56117316741609
 20
-3792.9420878448468
 30
0.0
  0
VERTEX
  5
C76
  8
0
  6
CONTINUOUS
 10
391.19863331684712
 20
-3679.2872289415209
 30
0.0
  0
VERTEX
  5
C77
  8
0
  6
CONTINUOUS
 10
368.16233529352888
 20
-3340.2047264797138
 30
0.0
  0
VERTEX
  5
C78
  8
0
  6
CONTINUOUS
 10
350.70529368082498
 20
-3126.5494793262328
 30
0.0
  0
VERTEX
  5
C79
  8
0
  6
CONTINUOUS
 10
245.89401283234969
 20
-1946.8477471934109
 30
0.0
  0
VERTEX
  5
C7A
  8
0
  6
CONTINUOUS
 10
172.92820380371879
 20
-1235.294495958304
 30
0.0
  0
VERTEX
  5
C7B
  8
0
  6
CONTINUOUS
 10
37.500000079901007
 20
-7.0000000000047322
 30
0.0
  0
SEQEND
  5
C7C
  8
0
  6
CONTINUOUS
  0
POLYLINE
  5
952
  8
0
  6
CONTINUOUS
 66
     1
 10
0.0
 20
0.0
 30
0.0
  0
VERTEX
  5
C7D
  8
0
  6
CONTINUOUS
 10
-37.500000079897312
 20
-7.0000000000016813
 30
0.0
  0
VERTEX
  5
C7E
  8
0
  6
CONTINUOUS
 10
-88.774077442057632
 20
-619.84782675761835
 30
0.0
  0
VERTEX
  5
C7F
  8
0
  6
CONTINUOUS
 10
-169.76447943104489
 20
-1502.5388468849451
 30
0.0
  0
VERTEX
  5
C80
  8
0
  6
CONTINUOUS
 10
-213.87432374193079
 20
-1981.3981904584321
 30
0.0
  0
VERTEX
  5
C81
  8
0
  6
CONTINUOUS
 10
-243.09373422351021
 20
-2381.065776629529
 30
0.0
  0
VERTEX
  5
C82
  8
0
  6
CONTINUOUS
 10
-249.8597517845817
 20
-2632.3491272207461
 30
0.0
  0
VERTEX
  5
C83
  8
0
  6
CONTINUOUS
 10
-242.5457778253913
 20
-2783.3403656844689
 30
0.0
  0
VERTEX
  5
C84
  8
0
  6
CONTINUOUS
 10
-221.76798757819819
 20
-2958.6186523272809
 30
0.0
  0
VERTEX
  5
C85
  8
0
  6
CONTINUOUS
 10
-210.89243514139679
 20
-3005.4194646334249
 30
0.0
  0
VERTEX
  5
C86
  8
0
  6
CONTINUOUS
 10
-200.01688270459539
 20
-3052.2202769395699
 30
0.0
  0
VERTEX
  5
C87
  8
0
  6
CONTINUOUS
 10
-166.95991179963809
 20
-3129.1342989995978
 30
0.0
  0
VERTEX
  5
C88
  8
0
  6
CONTINUOUS
 10
-121.4391438316497
 20
-3186.5529655781429
 30
0.0
  0
VERTEX
  5
C89
  8
0
  6
CONTINUOUS
 10
-63.99994802515765
 20
-3226.512963367858
 30
0.0
  0
VERTEX
  5
C8A
  8
0
  6
CONTINUOUS
 10
0.0000000000022738
 20
-3256.9999992407402
 30
0.0
  0
VERTEX
  5
C8B
  8
0
  6
CONTINUOUS
 10
63.999948025160847
 20
-3226.512963367858
 30
0.0
  0
VERTEX
  5
C8C
  8
0
  6
CONTINUOUS
 10
121.4391438316529
 20
-3186.5529655781429
 30
0.0
  0
VERTEX
  5
C8D
  8
0
  6
CONTINUOUS
 10
166.95991179964039
 20
-3129.1342989995978
 30
0.0
  0
VERTEX
  5
C8E
  8
0
  6
CONTINUOUS
 10
200.01688270459809
 20
-3052.2202769395699
 30
0.0
  0
VERTEX
  5
C8F
  8
0
  6
CONTINUOUS
 10
221.7679875782018
 20
-2958.6186523272809
 30
0.0
  0
VERTEX
  5
C90
  8
0
  6
CONTINUOUS
 10
235.37205208162001
 20
-2864.5659164000481
 30
0.0
  0
VERTEX
  5
C91
  8
0
  6
CONTINUOUS
 10
249.71950356916889
 20
-2702.1148149688902
 30
0.0
  0
VERTEX
  5
C92
  8
0
  6
CONTINUOUS
 10
249.8597517845858
 20
-2632.3491272207461
 30
0.0
  0
VERTEX
  5
C93
  8
0
  6
CONTINUOUS
 10
246.54686711175771
 20
-2471.8246080510648
 30
0.0
  0
VERTEX
  5
C94
  8
0
  6
CONTINUOUS
 10
243.09373422351291
 20
-2381.065776629529
 30
0.0
  0
VERTEX
  5
C95
  8
0
  6
CONTINUOUS
 10
235.1534505321433
 20
-2258.3856390901869
 30
0.0
  0
VERTEX
  5
C96
  8
0
  6
CONTINUOUS
 10
213.87432374193341
 20
-1981.3981904584321
 30
0.0
  0
VERTEX
  5
C97
  8
0
  6
CONTINUOUS
 10
200.53548064309319
 20
-1827.0908793660201
 30
0.0
  0
VERTEX
  5
C98
  8
0
  6
CONTINUOUS
 10
169.76447943104719
 20
-1502.5388468849451
 30
0.0
  0
VERTEX
  5
C99
  8
0
  6
CONTINUOUS
 10
129.269278436554
 20
-1061.1933368212819
 30
0.0
  0
VERTEX
  5
C9A
  8
0
  6
CONTINUOUS
 10
88.774077442060857
 20
-619.84782675761835
 30
0.0
  0
VERTEX
  5
C9B
  8
0
  6
CONTINUOUS
 10
63.137038760980893
 20
-313.42391337881008
 30
0.0
  0
VERTEX
  5
C9C
  8
0
  6
CONTINUOUS
 10
37.500000079901838
 20
-7.0000000000122764
 30
0.0
  0
SEQEND
  5
C9D
  8
0
  6
CONTINUOUS
  0
ENDSEC
  0
EOF
