  0
SECTION
  2
HEADER
  9
$ACADVER
  1
AC1009
  9
$INSBASE
 10
0.0
 20
0.0
 30
0.0
  9
$EXTMIN
 10
-350.77031845635418
 20
-4372.5875652379982
 30
0.0
  9
$EXTMAX
 10
1482.323391318627
 20
221.99999999999949
 30
0.0
  9
$LIMMIN
 10
0.0
 20
0.0
  9
$LIMMAX
 10
12.0
 20
9.0
  9
$ORTHOMODE
 70
     0
  9
$REGENMODE
 70
     1
  9
$FILLMODE
 70
     1
  9
$QTEXTMODE
 70
     0
  9
$MIRRTEXT
 70
     0
  9
$DRAGMODE
 70
     2
  9
$LTSCALE
 40
1.0
  9
$OSMODE
 70
  2535
  9
$ATTMODE
 70
     1
  9
$TEXTSIZE
 40
3.200000047683714
  9
$TRACEWID
 40
0.05
  9
$TEXTSTYLE
  7
STANDARD1
  9
$CLAYER
  8
0
  9
$CELTYPE
  6
CONTINUOUS
  9
$CECOLOR
 62
   256
  9
$DIMSCALE
 40
1.0
  9
$DIMASZ
 40
3.863703297614046
  9
$DIMEXO
 40
1.0
  9
$DIMDLI
 40
0.38
  9
$DIMRND
 40
0.0
  9
$DIMDLE
 40
0.0
  9
$DIMEXE
 40
2.0
  9
$DIMTP
 40
0.0
  9
$DIMTM
 40
0.0
  9
$DIMTXT
 40
3.200000047683714
  9
$DIMCEN
 40
0.09
  9
$DIMTSZ
 40
0.0
  9
$DIMTOL
 70
     0
  9
$DIMLIM
 70
     0
  9
$DIMTIH
 70
     1
  9
$DIMTOH
 70
     1
  9
$DIMSE1
 70
     0
  9
$DIMSE2
 70
     0
  9
$DIMTAD
 70
     1
  9
$DIMZIN
 70
     0
  9
$DIMBLK
  1

  9
$DIMASO
 70
     1
  9
$DIMSHO
 70
     1
  9
$DIMPOST
  1

  9
$DIMAPOST
  1

  9
$DIMALT
 70
     0
  9
$DIMALTD
 70
     2
  9
$DIMALTF
 40
25.399999999999999
  9
$DIMLFAC
 40
1.0
  9
$DIMTOFL
 70
     0
  9
$DIMTVP
 40
0.0
  9
$DIMTIX
 70
     0
  9
$DIMSOXD
 70
     0
  9
$DIMSAH
 70
     0
  9
$DIMBLK1
  1

  9
$DIMBLK2
  1

  9
$DIMSTYLE
  2
STANDARD
  9
$DIMCLRD
 70
     0
  9
$DIMCLRE
 70
     0
  9
$DIMCLRT
 70
     0
  9
$DIMTFAC
 40
0.625
  9
$DIMGAP
 40
0.09
  9
$LUNITS
 70
     2
  9
$LUPREC
 70
     3
  9
$SKETCHINC
 40
0.1
  9
$FILLETRAD
 40
0.0
  9
$AUNITS
 70
     0
  9
$AUPREC
 70
     0
  9
$MENU
  1
.
  9
$ELEVATION
 40
0.0
  9
$PELEVATION
 40
0.0
  9
$THICKNESS
 40
0.0
  9
$LIMCHECK
 70
     0
  9
$BLIPMODE
 70
     0
  9
$CHAMFERA
 40
0.0
  9
$CHAMFERB
 40
0.0
  9
$SKPOLY
 70
     0
  9
$TDCREATE
 40
2453355.6184872221
  9
$TDUPDATE
 40
2455377.7234576852
  9
$TDINDWG
 40
0.0234027315
  9
$TDUSRTIMER
 40
0.0233971412
  9
$USRTIMER
 70
     1
  9
$ANGBASE
 50
0.0
  9
$ANGDIR
 70
     0
  9
$PDMODE
 70
     0
  9
$PDSIZE
 40
0.0
  9
$PLINEWID
 40
0.0
  9
$COORDS
 70
     0
  9
$SPLFRAME
 70
     0
  9
$SPLINETYPE
 70
     6
  9
$SPLINESEGS
 70
     8
  9
$ATTDIA
 70
     0
  9
$ATTREQ
 70
     1
  9
$HANDLING
 70
-16383
  9
$HANDSEED
  5
12E0
  9
$SURFTAB1
 70
     6
  9
$SURFTAB2
 70
     6
  9
$SURFTYPE
 70
     6
  9
$SURFU
 70
     6
  9
$SURFV
 70
     6
  9
$UCSNAME
  2

  9
$UCSORG
 10
0.0
 20
0.0
 30
0.0
  9
$UCSXDIR
 10
1.0
 20
0.0
 30
0.0
  9
$UCSYDIR
 10
0.0
 20
1.0
 30
0.0
  9
$PUCSNAME
  2

  9
$PUCSORG
 10
0.0
 20
0.0
 30
0.0
  9
$PUCSXDIR
 10
1.0
 20
0.0
 30
0.0
  9
$PUCSYDIR
 10
0.0
 20
1.0
 30
0.0
  9
$USERI1
 70
     0
  9
$USERI2
 70
     0
  9
$USERI3
 70
     0
  9
$USERI4
 70
     0
  9
$USERI5
 70
     0
  9
$USERR1
 40
0.0
  9
$USERR2
 40
0.0
  9
$USERR3
 40
0.0
  9
$USERR4
 40
0.0
  9
$USERR5
 40
0.0
  9
$WORLDVIEW
 70
     1
  9
$SHADEDGE
 70
     3
  9
$SHADEDIF
 70
    70
  9
$TILEMODE
 70
     1
  9
$MAXACTVP
 70
    64
  9
$PLIMCHECK
 70
     0
  9
$PEXTMIN
 10
1.0000000000000000E+020
 20
1.0000000000000000E+020
 30
1.0000000000000000E+020
  9
$PEXTMAX
 10
-1.0000000000000000E+020
 20
-1.0000000000000000E+020
 30
-1.0000000000000000E+020
  9
$PLIMMIN
 10
0.0
 20
0.0
  9
$PLIMMAX
 10
12.0
 20
9.0
  9
$UNITMODE
 70
     0
  9
$VISRETAIN
 70
     1
  9
$PLINEGEN
 70
     0
  9
$PSLTSCALE
 70
     1
  0
ENDSEC
  0
SECTION
  2
TABLES
  0
TABLE
  2
VPORT
 70
     2
  0
VPORT
  2
*ACTIVE
 70
     0
 10
0.0
 20
0.0
 11
1.0
 21
1.0
 12
378.6526044683842
 22
-1944.588639840676
 13
0.0
 23
0.0
 14
1.0
 24
1.0
 15
0.0
 25
0.0
 16
0.0
 26
0.0
 36
1.0
 17
0.0
 27
0.0
 37
0.0
 40
5701.9917632645811
 41
1.615485564304461
 42
50.0
 43
0.0
 44
0.0
 50
0.0
 51
0.0
 71
     0
 72
   100
 73
     1
 74
     1
 75
     0
 76
     0
 77
     0
 78
     0
  0
ENDTAB
  0
TABLE
  2
LTYPE
 70
     4
  0
LTYPE
  2
CONTINUOUS
 70
     0
  3
Solid line
 72
    65
 73
     0
 40
0.0
  0
LTYPE
  2
DASHED
 70
     0
  3
-- -- -- -- -- -- -- -- -- -- -- -- -- -- --
 72
    65
 73
     2
 40
0.75
 49
0.5
 49
-0.25
  0
LTYPE
  2
DASHDOT
 70
     0
  3
__ . __ . __ . __ . __ . __ . __ . __ . __ . __
 72
    65
 73
     4
 40
1.0
 49
0.5
 49
-0.25
 49
0.0
 49
-0.25
  0
LTYPE
  2
DIVIDE
 70
     0
  3
__ . . __ . . __ . . __ . . __ . . __ . . __
 72
    65
 73
     6
 40
1.25
 49
0.5
 49
-0.25
 49
0.0
 49
-0.25
 49
0.0
 49
-0.25
  0
ENDTAB
  0
TABLE
  2
LAYER
 70
     2
  0
LAYER
  2
0
 70
     0
 62
     7
  6
CONTINUOUS
  0
LAYER
  2
DEFPOINTS
 70
     0
 62
     7
  6
CONTINUOUS
  0
ENDTAB
  0
TABLE
  2
STYLE
 70
     5
  0
STYLE
  2
STANDARD
 70
     0
 40
0.0
 41
1.0
 50
0.0
 71
     0
 42
0.2
  3
txt
  4

  0
STYLE
  2
STANDARD1
 70
     0
 40
0.0
 41
1.0
 50
0.0
 71
     0
 42
3.200000047683714
  3
MONOTXT
  4
BIGFONT
  0
STYLE
  2
STANDARD2
 70
     4
 40
0.0
 41
1.0
 50
0.0
 71
     0
 42
3.200000047683714
  3
MONOTXT
  4
BIGFONT
  0
STYLE
  2
STANDARD3
 70
     0
 40
0.0
 41
1.0
 50
0.0
 71
     0
 42
3.200000047683714
  3
MONOTXT
  4

  0
STYLE
  2
STANDARD4
 70
     4
 40
0.0
 41
1.0
 50
0.0
 71
     0
 42
3.200000047683714
  3
MONOTXT
  4

  0
ENDTAB
  0
TABLE
  2
VIEW
 70
     0
  0
ENDTAB
  0
TABLE
  2
UCS
 70
     0
  0
ENDTAB
  0
TABLE
  2
APPID
 70
     2
  0
APPID
  2
ACAD
 70
     0
  0
APPID
  2
ACAECLAYERSTANDARD
 70
     0
  0
ENDTAB
  0
TABLE
  2
DIMSTYLE
 70
     1
  0
DIMSTYLE
  2
STANDARD
 70
     0
  3

  4

  5

  6

  7

 40
1.0
 41
0.18
 42
0.0625
 43
0.38
 44
0.18
 45
0.0
 46
0.0
 47
0.0
 48
0.0
140
0.18
141
0.09
142
0.0
143
25.399999999999999
144
1.0
145
0.0
146
1.0
147
0.09
 71
     0
 72
     0
 73
     1
 74
     1
 75
     0
 76
     0
 77
     0
 78
     0
170
     0
171
     2
172
     0
173
     0
174
     0
175
     0
176
     0
177
     0
178
     0
  0
ENDTAB
  0
ENDSEC
  0
SECTION
  2
BLOCKS
  0
BLOCK
  8
0
  2
$MODEL_SPACE
 70
     0
 10
0.0
 20
0.0
 30
0.0
  3
$MODEL_SPACE
  1

  0
ENDBLK
  5
576
  8
0
  0
BLOCK
 67
     1
  8
0
  2
$PAPER_SPACE
 70
     0
 10
0.0
 20
0.0
 30
0.0
  3
$PAPER_SPACE
  1

  0
ENDBLK
  5
572
 67
     1
  8
0
  0
BLOCK
  8
0
  2
*D2
 70
     1
 10
0.0
 20
0.0
 30
0.0
  3
*D2
  1

  0
LINE
  5
58D
  8
0
  6
CONTINUOUS
 62
     0
 10
-19.294687727910841
 20
48.10481806685501
 30
0.0
 11
-23.386407425122108
 21
48.10481806685501
 31
0.0
  0
LINE
  5
58E
  8
0
  6
CONTINUOUS
 62
     0
 10
-19.294687727910841
 20
38.105458066854958
 30
0.0
 11
-23.386407425122119
 21
38.105458066854958
 31
0.0
  0
LINE
  5
58F
  8
0
  6
CONTINUOUS
 62
     0
 10
-21.386407425122101
 20
44.241114769240973
 30
0.0
 11
-21.386407425122101
 21
41.969161364469002
 31
0.0
  0
LINE
  5
590
  8
0
  6
CONTINUOUS
 62
     0
 10
-21.386407425122101
 20
38.105458066854958
 30
0.0
 11
-21.386407425122101
 21
34.24175476924092
 31
0.0
  0
LINE
  5
591
  8
0
  6
CONTINUOUS
 62
     0
 10
-21.386407425122101
 20
34.24175476924092
 30
0.0
 11
-37.476407663540698
 21
34.24175476924092
 31
0.0
  0
SOLID
  5
592
  8
0
  6
CONTINUOUS
 62
     0
 10
-22.03035797472446
 20
44.241114769240973
 30
0.0
 11
-20.742456875519771
 21
44.241114769240973
 31
0.0
 12
-21.386407425122101
 22
48.10481806685501
 32
0.0
 13
-21.386407425122101
 23
48.10481806685501
 33
0.0
  0
SOLID
  5
593
  8
0
  6
CONTINUOUS
 62
     0
 10
-22.03035797472446
 20
41.969161364469002
 30
0.0
 11
-20.742456875519771
 21
41.969161364469002
 31
0.0
 12
-21.386407425122101
 22
38.105458066854958
 32
0.0
 13
-21.386407425122101
 23
38.105458066854958
 33
0.0
  0
INSERT
  5
595
  8
0
  6
CONTINUOUS
  2
*U3
 10
0.0
 20
0.0
 30
0.0
  0
POINT
  5
596
  8
DEFPOINTS
  6
CONTINUOUS
 62
     0
 10
-18.294687727910841
 20
48.10481806685501
 30
0.0
  0
POINT
  5
597
  8
DEFPOINTS
  6
CONTINUOUS
 62
     0
 10
-18.294687727910841
 20
38.105458066854958
 30
0.0
  0
POINT
  5
598
  8
DEFPOINTS
  6
CONTINUOUS
 62
     0
 10
-21.386407425122101
 20
38.105458066854958
 30
0.0
  0
ENDBLK
  5
599
  8
0
  0
BLOCK
  8
0
  2
*U3
 70
     1
 10
0.0
 20
0.0
 30
0.0
  3
*U3
  1

  0
TEXT
  5
5DF
  8
0
  6
CONTINUOUS
 62
     0
 10
-37.476407663540698
 20
34.331754769240931
 30
0.0
 40
3.200000047683714
  1
9.9994
  0
ENDBLK
  5
5E0
  8
0
  0
BLOCK
  8
0
  2
*D4
 70
     1
 10
0.0
 20
0.0
 30
0.0
  3
*D4
  1

  0
LINE
  5
59C
  8
0
  6
CONTINUOUS
 62
     0
 10
1.704032272089079
 20
49.104818066855017
 30
0.0
 11
1.704032272089079
 21
64.975319357266685
 31
0.0
  0
LINE
  5
59D
  8
0
  6
CONTINUOUS
 62
     0
 10
11.70339227208899
 20
49.104818066855017
 30
0.0
 11
11.70339227208899
 21
64.975319357266685
 31
0.0
  0
LINE
  5
59E
  8
0
  6
CONTINUOUS
 62
     0
 10
5.5677355697031272
 20
62.975319357266699
 30
0.0
 11
7.8396889744749441
 21
62.975319357266699
 31
0.0
  0
LINE
  5
59F
  8
0
  6
CONTINUOUS
 62
     0
 10
11.70339227208899
 20
62.975319357266699
 30
0.0
 11
31.74709580812161
 21
62.975319357266699
 31
0.0
  0
SOLID
  5
5A0
  8
0
  6
CONTINUOUS
 62
     0
 10
5.5677355697031272
 20
63.619269906869043
 30
0.0
 11
5.5677355697031272
 21
62.33136880766434
 31
0.0
 12
1.704032272089079
 22
62.975319357266699
 32
0.0
 13
1.704032272089079
 23
62.975319357266699
 33
0.0
  0
SOLID
  5
5A1
  8
0
  6
CONTINUOUS
 62
     0
 10
7.8396889744749441
 20
63.619269906869043
 30
0.0
 11
7.8396889744749441
 21
62.33136880766434
 31
0.0
 12
11.70339227208899
 22
62.975319357266699
 32
0.0
 13
11.70339227208899
 23
62.975319357266699
 33
0.0
  0
INSERT
  5
5A3
  8
0
  6
CONTINUOUS
  2
*U5
 10
0.0
 20
0.0
 30
0.0
  0
POINT
  5
5A4
  8
DEFPOINTS
  6
CONTINUOUS
 62
     0
 10
1.704032272089079
 20
48.10481806685501
 30
0.0
  0
POINT
  5
5A5
  8
DEFPOINTS
  6
CONTINUOUS
 62
     0
 10
11.70339227208899
 20
48.10481806685501
 30
0.0
  0
POINT
  5
5A6
  8
DEFPOINTS
  6
CONTINUOUS
 62
     0
 10
11.70339227208899
 20
62.975319357266699
 30
0.0
  0
ENDBLK
  5
5A7
  8
0
  0
BLOCK
  8
0
  2
*U5
 70
     1
 10
0.0
 20
0.0
 30
0.0
  3
*U5
  1

  0
TEXT
  5
5E2
  8
0
  6
CONTINUOUS
 62
     0
 10
15.65709556970301
 20
63.065319357266702
 30
0.0
 40
3.200000047683714
  1
9.9994
  0
ENDBLK
  5
5E3
  8
0
  0
BLOCK
  8
0
  2
*D6
 70
     1
 10
0.0
 20
0.0
 30
0.0
  3
*D6
  1

  0
LINE
  5
5AA
  8
0
  6
CONTINUOUS
 62
     0
 10
947.91413369706243
 20
6037.7896966667831
 30
0.0
 11
947.91413369706243
 21
6694.6513361002126
 31
0.0
  0
LINE
  5
5AB
  8
0
  6
CONTINUOUS
 62
     0
 10
-607.08586630293723
 20
6037.7896966667831
 30
0.0
 11
-607.08586630293723
 21
6694.6513361002126
 31
0.0
  0
LINE
  5
5AC
  8
0
  6
CONTINUOUS
 62
     0
 10
944.05043039944803
 20
6692.6513361002153
 30
0.0
 11
-603.22216300532295
 21
6692.6513361002153
 31
0.0
  0
SOLID
  5
5AD
  8
0
  6
CONTINUOUS
 62
     0
 10
944.05043039944803
 20
6693.2952866498172
 30
0.0
 11
944.05043039944803
 21
6692.0073855506116
 31
0.0
 12
947.91413369706243
 22
6692.6513361002153
 32
0.0
 13
947.91413369706243
 23
6692.6513361002153
 33
0.0
  0
SOLID
  5
5AE
  8
0
  6
CONTINUOUS
 62
     0
 10
-603.22216300532295
 20
6693.2952866498172
 30
0.0
 11
-603.22216300532295
 21
6692.0073855506116
 31
0.0
 12
-607.08586630293723
 22
6692.6513361002153
 32
0.0
 13
-607.08586630293723
 23
6692.6513361002153
 33
0.0
  0
INSERT
  5
5B0
  8
0
  6
CONTINUOUS
  2
*U7
 10
0.0
 20
0.0
 30
0.0
  0
POINT
  5
5B1
  8
DEFPOINTS
  6
CONTINUOUS
 62
     0
 10
947.91413369706243
 20
6036.7896966667849
 30
0.0
  0
POINT
  5
5B2
  8
DEFPOINTS
  6
CONTINUOUS
 62
     0
 10
-607.08586630293723
 20
6036.7896966667849
 30
0.0
  0
POINT
  5
5B3
  8
DEFPOINTS
  6
CONTINUOUS
 62
     0
 10
-607.08586630293723
 20
6692.6513361002153
 30
0.0
  0
ENDBLK
  5
5B4
  8
0
  0
BLOCK
  8
0
  2
*U7
 70
     1
 10
0.0
 20
0.0
 30
0.0
  3
*U7
  1

  0
TEXT
  5
5E5
  8
0
  6
CONTINUOUS
 62
     0
 10
159.21413353016951
 20
6692.7413361002164
 30
0.0
 40
3.200000047683714
  1
1555.0000
  0
ENDBLK
  5
5E6
  8
0
  0
BLOCK
  8
0
  2
*D8
 70
     1
 10
0.0
 20
0.0
 30
0.0
  3
*D8
  1

  0
LINE
  5
5B7
  8
0
  6
CONTINUOUS
 62
     0
 10
171.4141336970626
 20
5814.7896966667849
 30
0.0
 11
1174.025621370617
 21
5814.7896966667849
 31
0.0
  0
LINE
  5
5B8
  8
0
  6
CONTINUOUS
 62
     0
 10
171.41413369706231
 20
761.93677315455875
 30
0.0
 11
1174.025621370615
 21
761.93677315455841
 31
0.0
  0
LINE
  5
5B9
  8
0
  6
CONTINUOUS
 62
     0
 10
1172.025621370617
 20
5810.925993369171
 30
0.0
 11
1172.025621370615
 21
3290.053234934514
 31
0.0
  0
LINE
  5
5BA
  8
0
  6
CONTINUOUS
 62
     0
 10
1172.025621370615
 20
765.80047645217246
 30
0.0
 11
1172.025621370615
 21
3286.6732348868291
 31
0.0
  0
SOLID
  5
5BB
  8
0
  6
CONTINUOUS
 62
     0
 10
1171.381670821014
 20
5810.925993369171
 30
0.0
 11
1172.669571920218
 21
5810.925993369171
 31
0.0
 12
1172.025621370617
 22
5814.7896966667849
 32
0.0
 13
1172.025621370617
 23
5814.7896966667849
 33
0.0
  0
SOLID
  5
5BC
  8
0
  6
CONTINUOUS
 62
     0
 10
1171.381670821014
 20
765.80047645217246
 30
0.0
 11
1172.669571920218
 21
765.80047645217246
 31
0.0
 12
1172.025621370615
 22
761.93677315455841
 32
0.0
 13
1172.025621370615
 23
761.93677315455841
 33
0.0
  0
INSERT
  5
5BE
  8
0
  6
CONTINUOUS
  2
*U9
 10
0.0
 20
0.0
 30
0.0
  0
POINT
  5
5BF
  8
DEFPOINTS
  6
CONTINUOUS
 62
     0
 10
170.41413369706231
 20
5814.7896966667849
 30
0.0
  0
POINT
  5
5C0
  8
DEFPOINTS
  6
CONTINUOUS
 62
     0
 10
170.41413369706231
 20
761.93677315455875
 30
0.0
  0
POINT
  5
5C1
  8
DEFPOINTS
  6
CONTINUOUS
 62
     0
 10
1172.025621370615
 20
761.93677315455841
 30
0.0
  0
ENDBLK
  5
5C2
  8
0
  0
BLOCK
  8
0
  2
*U9
 70
     1
 10
0.0
 20
0.0
 30
0.0
  3
*U9
  1

  0
TEXT
  5
5E8
  8
0
  6
CONTINUOUS
 62
     0
 10
1159.4922878505199
 20
3286.763234886831
 30
0.0
 40
3.200000047683714
  1
5052.8529
  0
ENDBLK
  5
5E9
  8
0
  0
BLOCK
  8
0
  2
*D10
 70
     1
 10
0.0
 20
0.0
 30
0.0
  3
*D10
  1

  0
LINE
  5
5C5
  8
0
  6
CONTINUOUS
 62
     0
 10
170.41413369706231
 20
5865.7896966667859
 30
0.0
 11
170.41413369706251
 21
7065.5608446596134
 31
0.0
  0
LINE
  5
5C6
  8
0
  6
CONTINUOUS
 62
     0
 10
1434.933539024147
 20
2475.508512802001
 30
0.0
 11
1434.933539024147
 21
7065.5608446596134
 31
0.0
  0
LINE
  5
5C7
  8
0
  6
CONTINUOUS
 62
     0
 10
174.2778369946767
 20
7063.5608446596116
 30
0.0
 11
1431.0698357265339
 21
7063.5608446596116
 31
0.0
  0
SOLID
  5
5C8
  8
0
  6
CONTINUOUS
 62
     0
 10
174.2778369946767
 20
7064.2047952092153
 30
0.0
 11
174.2778369946767
 21
7062.9168941100097
 31
0.0
 12
170.41413369706251
 22
7063.5608446596116
 32
0.0
 13
170.41413369706251
 23
7063.5608446596116
 33
0.0
  0
SOLID
  5
5C9
  8
0
  6
CONTINUOUS
 62
     0
 10
1431.0698357265339
 20
7064.2047952092153
 30
0.0
 11
1431.0698357265339
 21
7062.9168941100097
 31
0.0
 12
1434.933539024147
 22
7063.5608446596116
 32
0.0
 13
1434.933539024147
 23
7063.5608446596116
 33
0.0
  0
INSERT
  5
5CB
  8
0
  6
CONTINUOUS
  2
*U11
 10
0.0
 20
0.0
 30
0.0
  0
POINT
  5
5CC
  8
DEFPOINTS
  6
CONTINUOUS
 62
     0
 10
170.41413369706231
 20
5864.7896966667859
 30
0.0
  0
POINT
  5
5CD
  8
DEFPOINTS
  6
CONTINUOUS
 62
     0
 10
1434.933539024147
 20
2474.508512802001
 30
0.0
  0
POINT
  5
5CE
  8
DEFPOINTS
  6
CONTINUOUS
 62
     0
 10
1434.933539024147
 20
7063.5608446596116
 30
0.0
  0
ENDBLK
  5
5CF
  8
0
  0
BLOCK
  8
0
  2
*U11
 70
     1
 10
0.0
 20
0.0
 30
0.0
  3
*U11
  1

  0
TEXT
  5
5EB
  8
0
  6
CONTINUOUS
 62
     0
 10
790.94050285243122
 20
7063.6508446596117
 30
0.0
 40
3.200000047683714
  1
1264.5194
  0
ENDBLK
  5
5EC
  8
0
  0
BLOCK
  8
0
  2
*D12
 70
     1
 10
0.0
 20
0.0
 30
0.0
  3
*D12
  1

  0
LINE
  5
5D2
  8
0
  6
CONTINUOUS
 62
     0
 10
778.49999999999955
 20
221.99999999999889
 30
0.0
 11
842.65029451892792
 21
221.99999999999889
 31
0.0
  0
LINE
  5
5D3
  8
0
  6
CONTINUOUS
 62
     0
 10
778.50000000000011
 20
-3.9999999999972942
 30
0.0
 11
842.65029451892792
 21
-3.9999999999973119
 31
0.0
  0
LINE
  5
5D4
  8
0
  6
CONTINUOUS
 62
     0
 10
840.65029451892792
 20
218.1362967023849
 30
0.0
 11
840.65029451892792
 21
110.6900000238427
 31
0.0
  0
LINE
  5
5D5
  8
0
  6
CONTINUOUS
 62
     0
 10
840.65029451892792
 20
-0.1362967023832661
 30
0.0
 11
840.65029451892792
 21
107.30999997615891
 31
0.0
  0
SOLID
  5
5D6
  8
0
  6
CONTINUOUS
 62
     0
 10
840.00634396932514
 20
218.1362967023849
 30
0.0
 11
841.29424506852979
 21
218.1362967023849
 31
0.0
 12
840.65029451892792
 22
221.99999999999889
 32
0.0
 13
840.65029451892792
 23
221.99999999999889
 33
0.0
  0
SOLID
  5
5D7
  8
0
  6
CONTINUOUS
 62
     0
 10
840.00634396932514
 20
-0.136296702383266
 30
0.0
 11
841.29424506852979
 21
-0.1362967023832662
 31
0.0
 12
840.65029451892792
 22
-3.9999999999973119
 32
0.0
 13
840.65029451892792
 23
-3.9999999999973119
 33
0.0
  0
INSERT
  5
5D9
  8
0
  6
CONTINUOUS
  2
*U13
 10
0.0
 20
0.0
 30
0.0
  0
POINT
  5
5DA
  8
DEFPOINTS
  6
CONTINUOUS
 62
     0
 10
777.49999999999955
 20
221.99999999999889
 30
0.0
  0
POINT
  5
5DB
  8
DEFPOINTS
  6
CONTINUOUS
 62
     0
 10
777.50000000000011
 20
-3.9999999999972942
 30
0.0
  0
POINT
  5
5DC
  8
DEFPOINTS
  6
CONTINUOUS
 62
     0
 10
840.65029451892792
 20
-3.9999999999973119
 30
0.0
  0
ENDBLK
  5
5DD
  8
0
  0
BLOCK
  8
0
  2
*U13
 70
     1
 10
0.0
 20
0.0
 30
0.0
  3
*U13
  1

  0
TEXT
  5
5EE
  8
0
  6
CONTINUOUS
 62
     0
 10
830.51696103459608
 20
107.3999999761589
 30
0.0
 40
3.200000047683714
  1
226.0000
  0
ENDBLK
  5
5EF
  8
0
  0
BLOCK
  8
0
  2
*D14
 70
     1
 10
0.0
 20
0.0
 30
0.0
  3
*D14
  1

  0
LINE
  5
8AA
  8
0
  6
CONTINUOUS
 62
     0
 10
125.0
 20
222.99999999999949
 30
0.0
 11
125.0
 21
290.47673765063507
 31
0.0
  0
LINE
  5
8AB
  8
0
  6
CONTINUOUS
 62
     0
 10
-125.0
 20
222.99999999999949
 30
0.0
 11
-125.0
 21
290.47673765063507
 31
0.0
  0
LINE
  5
8AC
  8
0
  6
CONTINUOUS
 62
     0
 10
121.13629670238591
 20
288.47673765063507
 30
0.0
 11
-121.13629670238591
 21
288.47673765063507
 31
0.0
  0
SOLID
  5
8AD
  8
0
  6
CONTINUOUS
 62
     0
 10
121.13629670238591
 20
289.12068820023751
 30
0.0
 11
121.13629670238591
 21
287.83278710103269
 31
0.0
 12
125.0
 22
288.47673765063507
 32
0.0
 13
125.0
 23
288.47673765063507
 33
0.0
  0
SOLID
  5
8AE
  8
0
  6
CONTINUOUS
 62
     0
 10
-121.13629670238591
 20
289.12068820023751
 30
0.0
 11
-121.13629670238591
 21
287.83278710103269
 31
0.0
 12
-125.0
 22
288.47673765063507
 32
0.0
 13
-125.0
 23
288.47673765063507
 33
0.0
  0
TEXT
  5
8AF
  8
0
  6
CONTINUOUS
 62
     0
 10
-9.8666668136914542
 20
288.5667376506351
 30
0.0
 40
3.200000047683714
  1
250.0000
  0
POINT
  5
8B0
  8
DEFPOINTS
  6
CONTINUOUS
 62
     0
 10
125.0
 20
221.99999999999949
 30
0.0
  0
POINT
  5
8B1
  8
DEFPOINTS
  6
CONTINUOUS
 62
     0
 10
-125.0
 20
221.99999999999949
 30
0.0
  0
POINT
  5
8B2
  8
DEFPOINTS
  6
CONTINUOUS
 62
     0
 10
-125.0
 20
288.47673765063507
 30
0.0
  0
ENDBLK
  5
8B4
  8
0
  0
BLOCK
  8
0
  2
*D15
 70
     1
 10
0.0
 20
0.0
 30
0.0
  3
*D15
  1

  0
LINE
  5
8B7
  8
0
  6
CONTINUOUS
 62
     0
 10
1.0
 20
-4.0000000000004521
 30
0.0
 11
1840.83503159677
 21
-4.0000000000009761
 31
0.0
  0
LINE
  5
8B8
  8
0
  6
CONTINUOUS
 62
     0
 10
14.333586558732661
 20
-3008.1765631871722
 30
0.0
 11
1840.8350315967691
 21
-3008.1765631871722
 31
0.0
  0
LINE
  5
8B9
  8
0
  6
CONTINUOUS
 62
     0
 10
1838.83503159677
 20
-7.8637032976150216
 30
0.0
 11
1838.8350315967691
 21
-1504.398281569742
 31
0.0
  0
LINE
  5
8BA
  8
0
  6
CONTINUOUS
 62
     0
 10
1838.8350315967691
 20
-3004.3128598895591
 30
0.0
 11
1838.8350315967691
 21
-1507.7782816174281
 31
0.0
  0
SOLID
  5
8BB
  8
0
  6
CONTINUOUS
 62
     0
 10
1838.1910810471679
 20
-7.8637032976150216
 30
0.0
 11
1839.4789821463719
 21
-7.8637032976150216
 31
0.0
 12
1838.83503159677
 22
-4.0000000000009761
 32
0.0
 13
1838.83503159677
 23
-4.0000000000009761
 33
0.0
  0
SOLID
  5
8BC
  8
0
  6
CONTINUOUS
 62
     0
 10
1838.191081047167
 20
-3004.3128598895591
 30
0.0
 11
1839.4789821463701
 21
-3004.3128598895591
 31
0.0
 12
1838.8350315967691
 22
-3008.1765631871722
 32
0.0
 13
1838.8350315967691
 23
-3008.1765631871722
 33
0.0
  0
TEXT
  5
8BD
  8
0
  6
CONTINUOUS
 62
     0
 10
1827.1016980885961
 20
-1507.688281617427
 30
0.0
 40
3.200000047683714
  1
3004.1766
  0
POINT
  5
8BE
  8
DEFPOINTS
  6
CONTINUOUS
 62
     0
 10
0.0
 20
-4.0000000000004521
 30
0.0
  0
POINT
  5
8BF
  8
DEFPOINTS
  6
CONTINUOUS
 62
     0
 10
13.333586558732669
 20
-3008.1765631871722
 30
0.0
  0
POINT
  5
8C0
  8
DEFPOINTS
  6
CONTINUOUS
 62
     0
 10
1838.8350315967691
 20
-3008.1765631871722
 30
0.0
  0
ENDBLK
  5
8C2
  8
0
  0
BLOCK
  8
0
  2
*D16
 70
     1
 10
0.0
 20
0.0
 30
0.0
  3
*D16
  1

  0
LINE
  5
8C5
  8
0
  6
CONTINUOUS
 62
     0
 10
1.0
 20
-0.0000000000000003
 30
0.0
 11
1266.77887858801
 21
-0.0000000000003588
 31
0.0
  0
LINE
  5
8C6
  8
0
  6
CONTINUOUS
 62
     0
 10
14.330055418223351
 20
-3008.1765788471162
 30
0.0
 11
1266.77887858801
 21
-3008.1765788471162
 31
0.0
  0
LINE
  5
8C7
  8
0
  6
CONTINUOUS
 62
     0
 10
1264.77887858801
 20
-3.863703297614403
 30
0.0
 11
1264.77887858801
 21
-1502.3982893997161
 31
0.0
  0
LINE
  5
8C8
  8
0
  6
CONTINUOUS
 62
     0
 10
1264.77887858801
 20
-3004.3128755494999
 30
0.0
 11
1264.77887858801
 21
-1505.778289447398
 31
0.0
  0
SOLID
  5
8C9
  8
0
  6
CONTINUOUS
 62
     0
 10
1264.134928038409
 20
-3.863703297614403
 30
0.0
 11
1265.422829137613
 21
-3.863703297614403
 31
0.0
 12
1264.77887858801
 22
-0.0000000000003583
 32
0.0
 13
1264.77887858801
 23
-0.0000000000003583
 33
0.0
  0
SOLID
  5
8CA
  8
0
  6
CONTINUOUS
 62
     0
 10
1264.134928038409
 20
-3004.3128755494999
 30
0.0
 11
1265.422829137613
 21
-3004.3128755494999
 31
0.0
 12
1264.77887858801
 22
-3008.1765788471162
 32
0.0
 13
1264.77887858801
 23
-3008.1765788471162
 33
0.0
  0
TEXT
  5
8CB
  8
0
  6
CONTINUOUS
 62
     0
 10
1253.045545079837
 20
-1505.6882894473999
 30
0.0
 40
3.200000047683714
  1
3008.1766
  0
POINT
  5
8CC
  8
DEFPOINTS
  6
CONTINUOUS
 62
     0
 10
0.0
 20
0.0
 30
0.0
  0
POINT
  5
8CD
  8
DEFPOINTS
  6
CONTINUOUS
 62
     0
 10
13.330055418223351
 20
-3008.1765788471162
 30
0.0
  0
POINT
  5
8CE
  8
DEFPOINTS
  6
CONTINUOUS
 62
     0
 10
1264.77887858801
 20
-3008.1765788471162
 30
0.0
  0
ENDBLK
  5
8D0
  8
0
  0
BLOCK
  8
0
  2
*D17
 70
     1
 10
0.0
 20
0.0
 30
0.0
  3
*D17
  1

  0
LINE
  5
8D3
  8
0
  6
CONTINUOUS
 62
     0
 10
-1.0
 20
-4.0000000000004521
 30
0.0
 11
-751.05407502343485
 21
-4.0000000000002407
 31
0.0
  0
LINE
  5
8D4
  8
0
  6
CONTINUOUS
 62
     0
 10
-1.0635135754274041
 20
-4372.5875356454126
 30
0.0
 11
-751.05407502343576
 21
-4372.5875356454126
 31
0.0
  0
LINE
  5
8D5
  8
0
  6
CONTINUOUS
 62
     0
 10
-749.05407502343485
 20
-7.8637032976142871
 30
0.0
 11
-749.05407502343519
 21
-2186.6037677988661
 31
0.0
  0
LINE
  5
8D6
  8
0
  6
CONTINUOUS
 62
     0
 10
-749.05407502343598
 20
-4368.7238323478005
 30
0.0
 11
-749.05407502343519
 21
-2189.9837678465501
 31
0.0
  0
SOLID
  5
8D7
  8
0
  6
CONTINUOUS
 62
     0
 10
-749.69802557303717
 20
-7.8637032976142871
 30
0.0
 11
-748.41012447383252
 21
-7.8637032976142871
 31
0.0
 12
-749.05407502343485
 22
-4.0000000000002407
 32
0.0
 13
-749.05407502343485
 23
-4.0000000000002407
 33
0.0
  0
SOLID
  5
8D8
  8
0
  6
CONTINUOUS
 62
     0
 10
-749.69802557303819
 20
-4368.7238323478005
 30
0.0
 11
-748.41012447383366
 21
-4368.7238323478005
 31
0.0
 12
-749.05407502343598
 22
-4372.5875356454126
 32
0.0
 13
-749.05407502343598
 23
-4372.5875356454126
 33
0.0
  0
TEXT
  5
8D9
  8
0
  6
CONTINUOUS
 62
     0
 10
-761.85407521416994
 20
-2189.8937678465481
 30
0.0
 40
3.200000047683714
  1
4368.5875
  0
POINT
  5
8DA
  8
DEFPOINTS
  6
CONTINUOUS
 62
     0
 10
0.0
 20
-4.0000000000004521
 30
0.0
  0
POINT
  5
8DB
  8
DEFPOINTS
  6
CONTINUOUS
 62
     0
 10
-0.0635135754274074
 20
-4372.5875356454126
 30
0.0
  0
POINT
  5
8DC
  8
DEFPOINTS
  6
CONTINUOUS
 62
     0
 10
-749.05407502343598
 20
-4372.5875356454126
 30
0.0
  0
ENDBLK
  5
8DE
  8
0
  0
BLOCK
  8
0
  2
*D18
 70
     1
 10
0.0
 20
0.0
 30
0.0
  3
*D18
  1

  0
LINE
  5
8E1
  8
0
  6
CONTINUOUS
 62
     0
 10
251.06073709764161
 20
-1953.4423894829399
 30
0.0
 11
251.06073709764161
 21
-3436.9254045874341
 31
0.0
  0
LINE
  5
8E2
  8
0
  6
CONTINUOUS
 62
     0
 10
-250.7900877093866
 20
-1943.683051321417
 30
0.0
 11
-250.7900877093866
 21
-3436.9254045874341
 31
0.0
  0
LINE
  5
8E3
  8
0
  6
CONTINUOUS
 62
     0
 10
247.1970338000275
 20
-3434.9254045874341
 30
0.0
 11
-246.9263844117724
 21
-3434.9254045874341
 31
0.0
  0
SOLID
  5
8E4
  8
0
  6
CONTINUOUS
 62
     0
 10
247.1970338000275
 20
-3434.2814540378299
 30
0.0
 11
247.1970338000275
 21
-3435.569355137035
 31
0.0
 12
251.06073709764161
 22
-3434.9254045874341
 32
0.0
 13
251.06073709764161
 23
-3434.9254045874341
 33
0.0
  0
SOLID
  5
8E5
  8
0
  6
CONTINUOUS
 62
     0
 10
-246.9263844117724
 20
-3434.2814540378299
 30
0.0
 11
-246.9263844117724
 21
-3435.569355137035
 31
0.0
 12
-250.7900877093866
 22
-3434.9254045874341
 32
0.0
 13
-250.7900877093866
 23
-3434.9254045874341
 33
0.0
  0
TEXT
  5
8E6
  8
0
  6
CONTINUOUS
 62
     0
 10
-9.9980087902042722
 20
-3434.8354045874321
 30
0.0
 40
3.200000047683714
  1
501.8508
  0
POINT
  5
8E7
  8
DEFPOINTS
  6
CONTINUOUS
 62
     0
 10
251.06073709764161
 20
-1952.442389482939
 30
0.0
  0
POINT
  5
8E8
  8
DEFPOINTS
  6
CONTINUOUS
 62
     0
 10
-250.7900877093866
 20
-1942.683051321417
 30
0.0
  0
POINT
  5
8E9
  8
DEFPOINTS
  6
CONTINUOUS
 62
     0
 10
-250.7900877093866
 20
-3434.9254045874341
 30
0.0
  0
ENDBLK
  5
8EB
  8
0
  0
BLOCK
  8
0
  2
*D19
 70
     1
 10
0.0
 20
0.0
 30
0.0
  3
*D19
  1

  0
LINE
  5
8EE
  8
0
  6
CONTINUOUS
 62
     0
 10
-352.68784055685029
 20
-3467.9977495674761
 30
0.0
 11
-352.68784055685029
 21
-3130.0560427873361
 31
0.0
  0
LINE
  5
8EF
  8
0
  6
CONTINUOUS
 62
     0
 10
351.64692745980813
 20
-3485.3696999119502
 30
0.0
 11
351.64692745980813
 21
-3130.0560427873361
 31
0.0
  0
LINE
  5
8F0
  8
0
  6
CONTINUOUS
 62
     0
 10
-348.82413725923629
 20
-3132.0560427873352
 30
0.0
 11
347.78322416219407
 21
-3132.0560427873352
 31
0.0
  0
SOLID
  5
8F1
  8
0
  6
CONTINUOUS
 62
     0
 10
-348.82413725923629
 20
-3131.4120922377328
 30
0.0
 11
-348.82413725923629
 21
-3132.699993336938
 31
0.0
 12
-352.68784055685029
 22
-3132.0560427873352
 32
0.0
 13
-352.68784055685029
 23
-3132.0560427873352
 33
0.0
  0
SOLID
  5
8F2
  8
0
  6
CONTINUOUS
 62
     0
 10
347.78322416219407
 20
-3131.4120922377328
 30
0.0
 11
347.78322416219407
 21
-3132.699993336938
 31
0.0
 12
351.64692745980813
 22
-3132.0560427873352
 32
0.0
 13
351.64692745980813
 23
-3132.0560427873352
 33
0.0
  0
TEXT
  5
8F3
  8
0
  6
CONTINUOUS
 62
     0
 10
-11.45379004477374
 20
-3131.966042787335
 30
0.0
 40
3.200000047683714
  1
704.3348
  0
POINT
  5
8F4
  8
DEFPOINTS
  6
CONTINUOUS
 62
     0
 10
-352.68784055685029
 20
-3468.9977495674739
 30
0.0
  0
POINT
  5
8F5
  8
DEFPOINTS
  6
CONTINUOUS
 62
     0
 10
351.64692745980813
 20
-3486.3696999119502
 30
0.0
  0
POINT
  5
8F6
  8
DEFPOINTS
  6
CONTINUOUS
 62
     0
 10
351.64692745980813
 20
-3132.0560427873352
 30
0.0
  0
ENDBLK
  5
8F8
  8
0
  0
BLOCK
  8
0
  2
*D20
 70
     1
 10
0.0
 20
0.0
 30
0.0
  3
*D20
  1

  0
LINE
  5
916
  8
0
  6
CONTINUOUS
 62
     0
 10
137.0
 20
-4.0000000000004521
 30
0.0
 11
245.21766138978259
 21
-4.0000000000004832
 31
0.0
  0
LINE
  5
917
  8
0
  6
CONTINUOUS
 62
     0
 10
126.0
 20
221.99999999999949
 30
0.0
 11
245.21766138978259
 21
221.99999999999929
 31
0.0
  0
LINE
  5
918
  8
0
  6
CONTINUOUS
 62
     0
 10
243.21766138978259
 20
-0.1362967023864357
 30
0.0
 11
243.21766138978259
 21
107.3099999761575
 31
0.0
  0
LINE
  5
919
  8
0
  6
CONTINUOUS
 62
     0
 10
243.21766138978259
 20
218.13629670238541
 30
0.0
 11
243.21766138978259
 21
110.69000002384131
 31
0.0
  0
SOLID
  5
91A
  8
0
  6
CONTINUOUS
 62
     0
 10
242.5737108401803
 20
-0.1362967023864356
 30
0.0
 11
243.861611939385
 21
-0.1362967023864358
 31
0.0
 12
243.21766138978259
 22
-4.0000000000004823
 32
0.0
 13
243.21766138978259
 23
-4.0000000000004823
 33
0.0
  0
SOLID
  5
91B
  8
0
  6
CONTINUOUS
 62
     0
 10
242.57371084018041
 20
218.13629670238541
 30
0.0
 11
243.86161193938511
 21
218.13629670238541
 31
0.0
 12
243.21766138978259
 22
221.99999999999929
 32
0.0
 13
243.21766138978259
 23
221.99999999999929
 33
0.0
  0
TEXT
  5
91C
  8
0
  6
CONTINUOUS
 62
     0
 10
233.08432790545081
 20
107.3999999761576
 30
0.0
 40
3.200000047683714
  1
226.0000
  0
POINT
  5
91D
  8
DEFPOINTS
  6
CONTINUOUS
 62
     0
 10
136.0
 20
-4.0000000000004521
 30
0.0
  0
POINT
  5
91E
  8
DEFPOINTS
  6
CONTINUOUS
 62
     0
 10
125.0
 20
221.99999999999949
 30
0.0
  0
POINT
  5
91F
  8
DEFPOINTS
  6
CONTINUOUS
 62
     0
 10
243.21766138978259
 20
221.99999999999929
 30
0.0
  0
ENDBLK
  5
921
  8
0
  0
BLOCK
  8
0
  2
*D21
 70
     1
 10
0.0
 20
0.0
 30
0.0
  3
*D21
  1

  0
LINE
  5
924
  8
0
  6
CONTINUOUS
 62
     0
 10
138.0
 20
-4.0000000000004521
 30
0.0
 11
190.0737850392324
 21
-4.0000000000004681
 31
0.0
  0
LINE
  5
925
  8
0
  6
CONTINUOUS
 62
     0
 10
137.99999999999989
 20
0.0000000000004579
 30
0.0
 11
190.0737850392324
 21
0.0000000000004431
 31
0.0
  0
LINE
  5
926
  8
0
  6
CONTINUOUS
 62
     0
 10
188.07378503923229
 20
-7.8637032976145118
 30
0.0
 11
188.07378503923229
 21
-11.727406595228549
 31
0.0
  0
LINE
  5
927
  8
0
  6
CONTINUOUS
 62
     0
 10
188.07378503923229
 20
3.8637032976144901
 30
0.0
 11
188.07378503923229
 21
7.727406595228536
 31
0.0
  0
SOLID
  5
928
  8
0
  6
CONTINUOUS
 62
     0
 10
187.42983448963
 20
-7.8637032976145118
 30
0.0
 11
188.71773558883481
 21
-7.8637032976145118
 31
0.0
 12
188.07378503923229
 22
-4.0000000000004663
 32
0.0
 13
188.07378503923229
 23
-4.0000000000004663
 33
0.0
  0
SOLID
  5
929
  8
0
  6
CONTINUOUS
 62
     0
 10
187.42983448963
 20
3.8637032976144901
 30
0.0
 11
188.71773558883481
 21
3.8637032976144901
 31
0.0
 12
188.07378503923229
 22
0.0000000000004437
 32
0.0
 13
188.07378503923229
 23
0.0000000000004437
 33
0.0
  0
TEXT
  5
92A
  8
0
  6
CONTINUOUS
 62
     0
 10
181.14045160258431
 20
-3.600000023841837
 30
0.0
 40
3.200000047683714
  1
4.0000
  0
POINT
  5
92B
  8
DEFPOINTS
  6
CONTINUOUS
 62
     0
 10
137.0
 20
-4.0000000000004521
 30
0.0
  0
POINT
  5
92C
  8
DEFPOINTS
  6
CONTINUOUS
 62
     0
 10
136.99999999999989
 20
0.0000000000004581
 30
0.0
  0
POINT
  5
92D
  8
DEFPOINTS
  6
CONTINUOUS
 62
     0
 10
188.07378503923229
 20
0.0000000000004437
 30
0.0
  0
ENDBLK
  5
92F
  8
0
  0
ENDSEC
  0
SECTION
  2
ENTITIES
  0
LINE
  5
876
  8
0
  6
CONTINUOUS
 10
-136.0
 20
-4.0000000000004521
 30
0.0
 11
136.0
 21
-4.0000000000004521
 31
0.0
  0
LINE
  5
877
  8
0
  6
CONTINUOUS
 10
-136.0
 20
-0.0000000000004548
 30
0.0
 11
136.0
 21
0.0000000000004548
 31
0.0
  0
LINE
  5
878
  8
0
  6
CONTINUOUS
 10
-125.0
 20
221.99999999999949
 30
0.0
 11
125.0
 21
221.99999999999949
 31
0.0
  0
LINE
  5
879
  8
0
  6
CONTINUOUS
 10
136.0
 20
-4.0000000000004521
 30
0.0
 11
136.0
 21
-0.0000000000022738
 31
0.0
  0
LINE
  5
87A
  8
0
  6
CONTINUOUS
 10
-136.0
 20
-4.0000000000004521
 30
0.0
 11
-136.0
 21
-0.0000000000022738
 31
0.0
  0
LINE
  5
87B
  8
0
  6
DASHDOT
 10
0.0
 20
-50.0
 30
0.0
 11
0.0
 21
50.0
 31
0.0
  0
LINE
  5
87C
  8
0
  6
CONTINUOUS
 10
125.0
 20
0.0000000000004548
 30
0.0
 11
125.0
 21
221.99999999999949
 31
0.0
  0
LINE
  5
87D
  8
0
  6
CONTINUOUS
 10
-125.0
 20
-0.0000000000004548
 30
0.0
 11
-125.0
 21
221.99999999999949
 31
0.0
  0
TEXT
  5
89E
  8
0
  6
CONTINUOUS
 10
875.64652399069712
 20
-443.29742084667862
 30
0.0
 40
160.0
  1
1m/s
 50
0.0000025044687019
 41
0.687499990065893
  7
STANDARD1
  0
TEXT
  5
89F
  8
0
  6
CONTINUOUS
 10
835.63368844898423
 20
-1637.038684748527
 30
0.0
 40
160.0
  1
0.5m/s
 50
0.0000025044687019
 41
0.687499990065893
  7
STANDARD1
  0
TEXT
  5
8A0
  8
0
  6
CONTINUOUS
 10
858.99006815785049
 20
-3757.2728653644999
 30
0.0
 40
160.0
  1
0.3m/s
 50
0.0000025044687019
 41
0.687499990065893
  7
STANDARD1
  0
POLYLINE
  8
0
  5
93A
  66
     1
 10
0.000000
 20
0.000000
 30
0.000000
  70
     8
  0
VERTEX
  8
0
  5
93B
 10
-123.888
 20
-4.00000
 30
0.000000
  70
    32
  0
VERTEX
  8
0
  5
93C
 10
-123.814
 20
-6.44774
 30
0.000000
  70
    32
  0
VERTEX
  8
0
  5
93D
 10
-123.739
 20
-8.89549
 30
0.000000
  70
    32
  0
VERTEX
  8
0
  5
93E
 10
-123.663
 20
-11.3433
 30
0.000000
  70
    32
  0
VERTEX
  8
0
  5
93F
 10
-123.584
 20
-13.7910
 30
0.000000
  70
    32
  0
VERTEX
  8
0
  5
940
 10
-123.504
 20
-16.2389
 30
0.000000
  70
    32
  0
VERTEX
  8
0
  5
941
 10
-123.423
 20
-18.6867
 30
0.000000
  70
    32
  0
VERTEX
  8
0
  5
942
 10
-123.340
 20
-21.1347
 30
0.000000
  70
    32
  0
VERTEX
  8
0
  5
943
 10
-123.256
 20
-23.5826
 30
0.000000
  70
    32
  0
VERTEX
  8
0
  5
944
 10
-123.170
 20
-26.0307
 30
0.000000
  70
    32
  0
VERTEX
  8
0
  5
945
 10
-123.082
 20
-28.4788
 30
0.000000
  70
    32
  0
VERTEX
  8
0
  5
946
 10
-122.993
 20
-30.9270
 30
0.000000
  70
    32
  0
VERTEX
  8
0
  5
947
 10
-122.903
 20
-33.3753
 30
0.000000
  70
    32
  0
VERTEX
  8
0
  5
948
 10
-122.812
 20
-35.8237
 30
0.000000
  70
    32
  0
VERTEX
  8
0
  5
949
 10
-122.719
 20
-38.2722
 30
0.000000
  70
    32
  0
VERTEX
  8
0
  5
94A
 10
-122.625
 20
-40.7208
 30
0.000000
  70
    32
  0
VERTEX
  8
0
  5
94B
 10
-122.529
 20
-43.1696
 30
0.000000
  70
    32
  0
VERTEX
  8
0
  5
94C
 10
-122.432
 20
-45.6185
 30
0.000000
  70
    32
  0
VERTEX
  8
0
  5
94D
 10
-122.334
 20
-48.0675
 30
0.000000
  70
    32
  0
VERTEX
  8
0
  5
94E
 10
-122.235
 20
-50.5167
 30
0.000000
  70
    32
  0
VERTEX
  8
0
  5
94F
 10
-122.134
 20
-52.9660
 30
0.000000
  70
    32
  0
VERTEX
  8
0
  5
950
 10
-122.032
 20
-55.4156
 30
0.000000
  70
    32
  0
VERTEX
  8
0
  5
951
 10
-121.930
 20
-57.8653
 30
0.000000
  70
    32
  0
VERTEX
  8
0
  5
952
 10
-121.826
 20
-60.3151
 30
0.000000
  70
    32
  0
VERTEX
  8
0
  5
953
 10
-121.721
 20
-62.7652
 30
0.000000
  70
    32
  0
VERTEX
  8
0
  5
954
 10
-121.614
 20
-65.2155
 30
0.000000
  70
    32
  0
VERTEX
  8
0
  5
955
 10
-121.507
 20
-67.6660
 30
0.000000
  70
    32
  0
VERTEX
  8
0
  5
956
 10
-121.399
 20
-70.1167
 30
0.000000
  70
    32
  0
VERTEX
  8
0
  5
957
 10
-121.289
 20
-72.5676
 30
0.000000
  70
    32
  0
VERTEX
  8
0
  5
958
 10
-121.179
 20
-75.0188
 30
0.000000
  70
    32
  0
VERTEX
  8
0
  5
959
 10
-121.068
 20
-77.4702
 30
0.000000
  70
    32
  0
VERTEX
  8
0
  5
95A
 10
-120.956
 20
-79.9219
 30
0.000000
  70
    32
  0
VERTEX
  8
0
  5
95B
 10
-120.843
 20
-82.3738
 30
0.000000
  70
    32
  0
VERTEX
  8
0
  5
95C
 10
-120.729
 20
-84.8260
 30
0.000000
  70
    32
  0
VERTEX
  8
0
  5
95D
 10
-120.614
 20
-87.2785
 30
0.000000
  70
    32
  0
VERTEX
  8
0
  5
95E
 10
-120.498
 20
-89.7313
 30
0.000000
  70
    32
  0
VERTEX
  8
0
  5
95F
 10
-120.382
 20
-92.1843
 30
0.000000
  70
    32
  0
VERTEX
  8
0
  5
960
 10
-120.264
 20
-94.6377
 30
0.000000
  70
    32
  0
VERTEX
  8
0
  5
961
 10
-120.146
 20
-97.0914
 30
0.000000
  70
    32
  0
VERTEX
  8
0
  5
962
 10
-120.027
 20
-99.5454
 30
0.000000
  70
    32
  0
VERTEX
  8
0
  5
963
 10
-119.908
 20
-102.000
 30
0.000000
  70
    32
  0
VERTEX
  8
0
  5
964
 10
-119.788
 20
-104.454
 30
0.000000
  70
    32
  0
VERTEX
  8
0
  5
965
 10
-119.667
 20
-106.909
 30
0.000000
  70
    32
  0
VERTEX
  8
0
  5
966
 10
-119.545
 20
-109.365
 30
0.000000
  70
    32
  0
VERTEX
  8
0
  5
967
 10
-119.423
 20
-111.821
 30
0.000000
  70
    32
  0
VERTEX
  8
0
  5
968
 10
-119.300
 20
-114.277
 30
0.000000
  70
    32
  0
VERTEX
  8
0
  5
969
 10
-119.177
 20
-116.733
 30
0.000000
  70
    32
  0
VERTEX
  8
0
  5
96A
 10
-119.053
 20
-119.190
 30
0.000000
  70
    32
  0
VERTEX
  8
0
  5
96B
 10
-118.929
 20
-121.647
 30
0.000000
  70
    32
  0
VERTEX
  8
0
  5
96C
 10
-118.804
 20
-124.105
 30
0.000000
  70
    32
  0
VERTEX
  8
0
  5
96D
 10
-118.678
 20
-126.563
 30
0.000000
  70
    32
  0
VERTEX
  8
0
  5
96E
 10
-118.553
 20
-129.022
 30
0.000000
  70
    32
  0
VERTEX
  8
0
  5
96F
 10
-118.426
 20
-131.481
 30
0.000000
  70
    32
  0
VERTEX
  8
0
  5
970
 10
-118.300
 20
-133.940
 30
0.000000
  70
    32
  0
VERTEX
  8
0
  5
971
 10
-118.173
 20
-136.400
 30
0.000000
  70
    32
  0
VERTEX
  8
0
  5
972
 10
-118.045
 20
-138.860
 30
0.000000
  70
    32
  0
VERTEX
  8
0
  5
973
 10
-117.917
 20
-141.321
 30
0.000000
  70
    32
  0
VERTEX
  8
0
  5
974
 10
-117.789
 20
-143.782
 30
0.000000
  70
    32
  0
VERTEX
  8
0
  5
975
 10
-117.661
 20
-146.244
 30
0.000000
  70
    32
  0
VERTEX
  8
0
  5
976
 10
-117.532
 20
-148.706
 30
0.000000
  70
    32
  0
VERTEX
  8
0
  5
977
 10
-117.404
 20
-151.169
 30
0.000000
  70
    32
  0
VERTEX
  8
0
  5
978
 10
-117.275
 20
-153.632
 30
0.000000
  70
    32
  0
VERTEX
  8
0
  5
979
 10
-117.145
 20
-156.096
 30
0.000000
  70
    32
  0
VERTEX
  8
0
  5
97A
 10
-117.016
 20
-158.560
 30
0.000000
  70
    32
  0
VERTEX
  8
0
  5
97B
 10
-116.887
 20
-161.025
 30
0.000000
  70
    32
  0
VERTEX
  8
0
  5
97C
 10
-116.757
 20
-163.490
 30
0.000000
  70
    32
  0
VERTEX
  8
0
  5
97D
 10
-116.627
 20
-165.956
 30
0.000000
  70
    32
  0
VERTEX
  8
0
  5
97E
 10
-116.497
 20
-168.422
 30
0.000000
  70
    32
  0
VERTEX
  8
0
  5
97F
 10
-116.368
 20
-170.889
 30
0.000000
  70
    32
  0
VERTEX
  8
0
  5
980
 10
-116.238
 20
-173.357
 30
0.000000
  70
    32
  0
VERTEX
  8
0
  5
981
 10
-116.108
 20
-175.825
 30
0.000000
  70
    32
  0
VERTEX
  8
0
  5
982
 10
-115.978
 20
-178.294
 30
0.000000
  70
    32
  0
VERTEX
  8
0
  5
983
 10
-115.849
 20
-180.763
 30
0.000000
  70
    32
  0
VERTEX
  8
0
  5
984
 10
-115.719
 20
-183.233
 30
0.000000
  70
    32
  0
VERTEX
  8
0
  5
985
 10
-115.589
 20
-185.704
 30
0.000000
  70
    32
  0
VERTEX
  8
0
  5
986
 10
-115.460
 20
-188.175
 30
0.000000
  70
    32
  0
VERTEX
  8
0
  5
987
 10
-115.331
 20
-190.647
 30
0.000000
  70
    32
  0
VERTEX
  8
0
  5
988
 10
-115.202
 20
-193.119
 30
0.000000
  70
    32
  0
VERTEX
  8
0
  5
989
 10
-115.073
 20
-195.593
 30
0.000000
  70
    32
  0
VERTEX
  8
0
  5
98A
 10
-114.944
 20
-198.066
 30
0.000000
  70
    32
  0
VERTEX
  8
0
  5
98B
 10
-114.816
 20
-200.541
 30
0.000000
  70
    32
  0
VERTEX
  8
0
  5
98C
 10
-114.687
 20
-203.015
 30
0.000000
  70
    32
  0
VERTEX
  8
0
  5
98D
 10
-114.558
 20
-205.491
 30
0.000000
  70
    32
  0
VERTEX
  8
0
  5
98E
 10
-114.429
 20
-207.966
 30
0.000000
  70
    32
  0
VERTEX
  8
0
  5
98F
 10
-114.299
 20
-210.442
 30
0.000000
  70
    32
  0
VERTEX
  8
0
  5
990
 10
-114.169
 20
-212.917
 30
0.000000
  70
    32
  0
VERTEX
  8
0
  5
991
 10
-114.038
 20
-215.393
 30
0.000000
  70
    32
  0
VERTEX
  8
0
  5
992
 10
-113.907
 20
-217.869
 30
0.000000
  70
    32
  0
VERTEX
  8
0
  5
993
 10
-113.774
 20
-220.344
 30
0.000000
  70
    32
  0
VERTEX
  8
0
  5
994
 10
-113.640
 20
-222.819
 30
0.000000
  70
    32
  0
VERTEX
  8
0
  5
995
 10
-113.505
 20
-225.294
 30
0.000000
  70
    32
  0
VERTEX
  8
0
  5
996
 10
-113.369
 20
-227.768
 30
0.000000
  70
    32
  0
VERTEX
  8
0
  5
997
 10
-113.231
 20
-230.242
 30
0.000000
  70
    32
  0
VERTEX
  8
0
  5
998
 10
-113.092
 20
-232.715
 30
0.000000
  70
    32
  0
VERTEX
  8
0
  5
999
 10
-112.951
 20
-235.188
 30
0.000000
  70
    32
  0
VERTEX
  8
0
  5
99A
 10
-112.808
 20
-237.660
 30
0.000000
  70
    32
  0
VERTEX
  8
0
  5
99B
 10
-112.663
 20
-240.130
 30
0.000000
  70
    32
  0
VERTEX
  8
0
  5
99C
 10
-112.516
 20
-242.600
 30
0.000000
  70
    32
  0
VERTEX
  8
0
  5
99D
 10
-112.366
 20
-245.069
 30
0.000000
  70
    32
  0
VERTEX
  8
0
  5
99E
 10
-112.215
 20
-247.537
 30
0.000000
  70
    32
  0
VERTEX
  8
0
  5
99F
 10
-112.061
 20
-250.003
 30
0.000000
  70
    32
  0
VERTEX
  8
0
  5
9A0
 10
-111.904
 20
-252.468
 30
0.000000
  70
    32
  0
VERTEX
  8
0
  5
9A1
 10
-111.744
 20
-254.932
 30
0.000000
  70
    32
  0
VERTEX
  8
0
  5
9A2
 10
-111.582
 20
-257.394
 30
0.000000
  70
    32
  0
VERTEX
  8
0
  5
9A3
 10
-111.417
 20
-259.854
 30
0.000000
  70
    32
  0
VERTEX
  8
0
  5
9A4
 10
-111.248
 20
-262.313
 30
0.000000
  70
    32
  0
VERTEX
  8
0
  5
9A5
 10
-111.076
 20
-264.770
 30
0.000000
  70
    32
  0
VERTEX
  8
0
  5
9A6
 10
-110.901
 20
-267.225
 30
0.000000
  70
    32
  0
VERTEX
  8
0
  5
9A7
 10
-110.723
 20
-269.678
 30
0.000000
  70
    32
  0
VERTEX
  8
0
  5
9A8
 10
-110.541
 20
-272.129
 30
0.000000
  70
    32
  0
VERTEX
  8
0
  5
9A9
 10
-110.355
 20
-274.578
 30
0.000000
  70
    32
  0
VERTEX
  8
0
  5
9AA
 10
-110.165
 20
-277.025
 30
0.000000
  70
    32
  0
VERTEX
  8
0
  5
9AB
 10
-109.971
 20
-279.469
 30
0.000000
  70
    32
  0
VERTEX
  8
0
  5
9AC
 10
-109.773
 20
-281.911
 30
0.000000
  70
    32
  0
VERTEX
  8
0
  5
9AD
 10
-109.570
 20
-284.351
 30
0.000000
  70
    32
  0
VERTEX
  8
0
  5
9AE
 10
-109.364
 20
-286.788
 30
0.000000
  70
    32
  0
VERTEX
  8
0
  5
9AF
 10
-109.152
 20
-289.222
 30
0.000000
  70
    32
  0
VERTEX
  8
0
  5
9B0
 10
-108.936
 20
-291.653
 30
0.000000
  70
    32
  0
VERTEX
  8
0
  5
9B1
 10
-108.716
 20
-294.082
 30
0.000000
  70
    32
  0
VERTEX
  8
0
  5
9B2
 10
-108.490
 20
-296.507
 30
0.000000
  70
    32
  0
VERTEX
  8
0
  5
9B3
 10
-108.259
 20
-298.930
 30
0.000000
  70
    32
  0
VERTEX
  8
0
  5
9B4
 10
-108.024
 20
-301.349
 30
0.000000
  70
    32
  0
VERTEX
  8
0
  5
9B5
 10
-107.783
 20
-303.765
 30
0.000000
  70
    32
  0
VERTEX
  8
0
  5
9B6
 10
-107.536
 20
-306.178
 30
0.000000
  70
    32
  0
VERTEX
  8
0
  5
9B7
 10
-107.284
 20
-308.588
 30
0.000000
  70
    32
  0
VERTEX
  8
0
  5
9B8
 10
-107.026
 20
-310.994
 30
0.000000
  70
    32
  0
VERTEX
  8
0
  5
9B9
 10
-106.763
 20
-313.396
 30
0.000000
  70
    32
  0
VERTEX
  8
0
  5
9BA
 10
-106.493
 20
-315.795
 30
0.000000
  70
    32
  0
VERTEX
  8
0
  5
9BB
 10
-106.218
 20
-318.190
 30
0.000000
  70
    32
  0
VERTEX
  8
0
  5
9BC
 10
-105.936
 20
-320.581
 30
0.000000
  70
    32
  0
VERTEX
  8
0
  5
9BD
 10
-105.648
 20
-322.968
 30
0.000000
  70
    32
  0
VERTEX
  8
0
  5
9BE
 10
-105.353
 20
-325.351
 30
0.000000
  70
    32
  0
VERTEX
  8
0
  5
9BF
 10
-105.052
 20
-327.730
 30
0.000000
  70
    32
  0
VERTEX
  8
0
  5
9C0
 10
-104.745
 20
-330.105
 30
0.000000
  70
    32
  0
VERTEX
  8
0
  5
9C1
 10
-104.430
 20
-332.475
 30
0.000000
  70
    32
  0
VERTEX
  8
0
  5
9C2
 10
-104.108
 20
-334.841
 30
0.000000
  70
    32
  0
VERTEX
  8
0
  5
9C3
 10
-103.780
 20
-337.203
 30
0.000000
  70
    32
  0
VERTEX
  8
0
  5
9C4
 10
-103.444
 20
-339.560
 30
0.000000
  70
    32
  0
VERTEX
  8
0
  5
9C5
 10
-103.101
 20
-341.912
 30
0.000000
  70
    32
  0
VERTEX
  8
0
  5
9C6
 10
-102.750
 20
-344.260
 30
0.000000
  70
    32
  0
VERTEX
  8
0
  5
9C7
 10
-102.392
 20
-346.603
 30
0.000000
  70
    32
  0
VERTEX
  8
0
  5
9C8
 10
-102.027
 20
-348.941
 30
0.000000
  70
    32
  0
VERTEX
  8
0
  5
9C9
 10
-101.653
 20
-351.275
 30
0.000000
  70
    32
  0
VERTEX
  8
0
  5
9CA
 10
-101.273
 20
-353.604
 30
0.000000
  70
    32
  0
VERTEX
  8
0
  5
9CB
 10
-100.885
 20
-355.928
 30
0.000000
  70
    32
  0
VERTEX
  8
0
  5
9CC
 10
-100.489
 20
-358.247
 30
0.000000
  70
    32
  0
VERTEX
  8
0
  5
9CD
 10
-100.085
 20
-360.562
 30
0.000000
  70
    32
  0
VERTEX
  8
0
  5
9CE
 10
-99.6742
 20
-362.873
 30
0.000000
  70
    32
  0
VERTEX
  8
0
  5
9CF
 10
-99.2556
 20
-365.179
 30
0.000000
  70
    32
  0
VERTEX
  8
0
  5
9D0
 10
-98.8293
 20
-367.480
 30
0.000000
  70
    32
  0
VERTEX
  8
0
  5
9D1
 10
-98.3954
 20
-369.777
 30
0.000000
  70
    32
  0
VERTEX
  8
0
  5
9D2
 10
-97.9538
 20
-372.070
 30
0.000000
  70
    32
  0
VERTEX
  8
0
  5
9D3
 10
-97.5046
 20
-374.358
 30
0.000000
  70
    32
  0
VERTEX
  8
0
  5
9D4
 10
-97.0477
 20
-376.641
 30
0.000000
  70
    32
  0
VERTEX
  8
0
  5
9D5
 10
-96.5831
 20
-378.921
 30
0.000000
  70
    32
  0
VERTEX
  8
0
  5
9D6
 10
-96.1107
 20
-381.196
 30
0.000000
  70
    32
  0
VERTEX
  8
0
  5
9D7
 10
-95.6307
 20
-383.467
 30
0.000000
  70
    32
  0
VERTEX
  8
0
  5
9D8
 10
-95.1429
 20
-385.733
 30
0.000000
  70
    32
  0
VERTEX
  8
0
  5
9D9
 10
-94.6474
 20
-387.996
 30
0.000000
  70
    32
  0
VERTEX
  8
0
  5
9DA
 10
-94.1441
 20
-390.254
 30
0.000000
  70
    32
  0
VERTEX
  8
0
  5
9DB
 10
-93.6330
 20
-392.508
 30
0.000000
  70
    32
  0
VERTEX
  8
0
  5
9DC
 10
-93.1141
 20
-394.757
 30
0.000000
  70
    32
  0
VERTEX
  8
0
  5
9DD
 10
-92.5874
 20
-397.003
 30
0.000000
  70
    32
  0
VERTEX
  8
0
  5
9DE
 10
-92.0529
 20
-399.245
 30
0.000000
  70
    32
  0
VERTEX
  8
0
  5
9DF
 10
-91.5106
 20
-401.482
 30
0.000000
  70
    32
  0
VERTEX
  8
0
  5
9E0
 10
-90.9605
 20
-403.716
 30
0.000000
  70
    32
  0
VERTEX
  8
0
  5
9E1
 10
-90.4024
 20
-405.945
 30
0.000000
  70
    32
  0
VERTEX
  8
0
  5
9E2
 10
-89.8365
 20
-408.171
 30
0.000000
  70
    32
  0
VERTEX
  8
0
  5
9E3
 10
-89.2627
 20
-410.393
 30
0.000000
  70
    32
  0
VERTEX
  8
0
  5
9E4
 10
-88.6810
 20
-412.610
 30
0.000000
  70
    32
  0
VERTEX
  8
0
  5
9E5
 10
-88.0914
 20
-414.824
 30
0.000000
  70
    32
  0
VERTEX
  8
0
  5
9E6
 10
-87.4939
 20
-417.034
 30
0.000000
  70
    32
  0
VERTEX
  8
0
  5
9E7
 10
-86.8885
 20
-419.240
 30
0.000000
  70
    32
  0
VERTEX
  8
0
  5
9E8
 10
-86.2750
 20
-421.443
 30
0.000000
  70
    32
  0
VERTEX
  8
0
  5
9E9
 10
-85.6536
 20
-423.641
 30
0.000000
  70
    32
  0
VERTEX
  8
0
  5
9EA
 10
-85.0243
 20
-425.836
 30
0.000000
  70
    32
  0
VERTEX
  8
0
  5
9EB
 10
-84.3869
 20
-428.027
 30
0.000000
  70
    32
  0
VERTEX
  8
0
  5
9EC
 10
-83.7414
 20
-430.214
 30
0.000000
  70
    32
  0
VERTEX
  8
0
  5
9ED
 10
-83.0874
 20
-432.395
 30
0.000000
  70
    32
  0
VERTEX
  8
0
  5
9EE
 10
-82.4246
 20
-434.568
 30
0.000000
  70
    32
  0
VERTEX
  8
0
  5
9EF
 10
-81.7525
 20
-436.731
 30
0.000000
  70
    32
  0
VERTEX
  8
0
  5
9F0
 10
-81.0707
 20
-438.881
 30
0.000000
  70
    32
  0
VERTEX
  8
0
  5
9F1
 10
-80.3789
 20
-441.018
 30
0.000000
  70
    32
  0
VERTEX
  8
0
  5
9F2
 10
-79.6767
 20
-443.139
 30
0.000000
  70
    32
  0
VERTEX
  8
0
  5
9F3
 10
-78.9637
 20
-445.242
 30
0.000000
  70
    32
  0
VERTEX
  8
0
  5
9F4
 10
-78.2394
 20
-447.325
 30
0.000000
  70
    32
  0
VERTEX
  8
0
  5
9F5
 10
-77.5036
 20
-449.387
 30
0.000000
  70
    32
  0
VERTEX
  8
0
  5
9F6
 10
-76.7558
 20
-451.425
 30
0.000000
  70
    32
  0
VERTEX
  8
0
  5
9F7
 10
-75.9957
 20
-453.437
 30
0.000000
  70
    32
  0
VERTEX
  8
0
  5
9F8
 10
-75.2228
 20
-455.422
 30
0.000000
  70
    32
  0
VERTEX
  8
0
  5
9F9
 10
-74.4368
 20
-457.377
 30
0.000000
  70
    32
  0
VERTEX
  8
0
  5
9FA
 10
-73.6372
 20
-459.301
 30
0.000000
  70
    32
  0
VERTEX
  8
0
  5
9FB
 10
-72.8237
 20
-461.191
 30
0.000000
  70
    32
  0
VERTEX
  8
0
  5
9FC
 10
-71.9960
 20
-463.046
 30
0.000000
  70
    32
  0
VERTEX
  8
0
  5
9FD
 10
-71.1535
 20
-464.864
 30
0.000000
  70
    32
  0
VERTEX
  8
0
  5
9FE
 10
-70.2960
 20
-466.642
 30
0.000000
  70
    32
  0
VERTEX
  8
0
  5
9FF
 10
-69.4230
 20
-468.379
 30
0.000000
  70
    32
  0
VERTEX
  8
0
  5
A00
 10
-68.5342
 20
-470.073
 30
0.000000
  70
    32
  0
VERTEX
  8
0
  5
A01
 10
-67.6291
 20
-471.722
 30
0.000000
  70
    32
  0
VERTEX
  8
0
  5
A02
 10
-66.7074
 20
-473.324
 30
0.000000
  70
    32
  0
VERTEX
  8
0
  5
A03
 10
-65.7687
 20
-474.876
 30
0.000000
  70
    32
  0
VERTEX
  8
0
  5
A04
 10
-64.8126
 20
-476.378
 30
0.000000
  70
    32
  0
VERTEX
  8
0
  5
A05
 10
-63.8387
 20
-477.826
 30
0.000000
  70
    32
  0
VERTEX
  8
0
  5
A06
 10
-62.8466
 20
-479.220
 30
0.000000
  70
    32
  0
VERTEX
  8
0
  5
A07
 10
-61.8360
 20
-480.557
 30
0.000000
  70
    32
  0
VERTEX
  8
0
  5
A08
 10
-60.8065
 20
-481.835
 30
0.000000
  70
    32
  0
VERTEX
  8
0
  5
A09
 10
-59.7585
 20
-483.055
 30
0.000000
  70
    32
  0
VERTEX
  8
0
  5
A0A
 10
-58.6928
 20
-484.220
 30
0.000000
  70
    32
  0
VERTEX
  8
0
  5
A0B
 10
-57.6103
 20
-485.330
 30
0.000000
  70
    32
  0
VERTEX
  8
0
  5
A0C
 10
-56.5118
 20
-486.388
 30
0.000000
  70
    32
  0
VERTEX
  8
0
  5
A0D
 10
-55.3983
 20
-487.397
 30
0.000000
  70
    32
  0
VERTEX
  8
0
  5
A0E
 10
-54.2705
 20
-488.359
 30
0.000000
  70
    32
  0
VERTEX
  8
0
  5
A0F
 10
-53.1294
 20
-489.275
 30
0.000000
  70
    32
  0
VERTEX
  8
0
  5
A10
 10
-51.9758
 20
-490.147
 30
0.000000
  70
    32
  0
VERTEX
  8
0
  5
A11
 10
-50.8105
 20
-490.979
 30
0.000000
  70
    32
  0
VERTEX
  8
0
  5
A12
 10
-49.6345
 20
-491.771
 30
0.000000
  70
    32
  0
VERTEX
  8
0
  5
A13
 10
-48.4485
 20
-492.527
 30
0.000000
  70
    32
  0
VERTEX
  8
0
  5
A14
 10
-47.2535
 20
-493.248
 30
0.000000
  70
    32
  0
VERTEX
  8
0
  5
A15
 10
-46.0504
 20
-493.936
 30
0.000000
  70
    32
  0
VERTEX
  8
0
  5
A16
 10
-44.8398
 20
-494.593
 30
0.000000
  70
    32
  0
VERTEX
  8
0
  5
A17
 10
-43.6229
 20
-495.223
 30
0.000000
  70
    32
  0
VERTEX
  8
0
  5
A18
 10
-42.4003
 20
-495.825
 30
0.000000
  70
    32
  0
VERTEX
  8
0
  5
A19
 10
-41.1729
 20
-496.404
 30
0.000000
  70
    32
  0
VERTEX
  8
0
  5
A1A
 10
-39.9417
 20
-496.961
 30
0.000000
  70
    32
  0
VERTEX
  8
0
  5
A1B
 10
-38.7075
 20
-497.497
 30
0.000000
  70
    32
  0
VERTEX
  8
0
  5
A1C
 10
-37.4711
 20
-498.016
 30
0.000000
  70
    32
  0
VERTEX
  8
0
  5
A1D
 10
-36.2334
 20
-498.519
 30
0.000000
  70
    32
  0
VERTEX
  8
0
  5
A1E
 10
-34.9953
 20
-499.009
 30
0.000000
  70
    32
  0
VERTEX
  8
0
  5
A1F
 10
-33.7576
 20
-499.487
 30
0.000000
  70
    32
  0
VERTEX
  8
0
  5
A20
 10
-32.5210
 20
-499.955
 30
0.000000
  70
    32
  0
VERTEX
  8
0
  5
A21
 10
-31.2857
 20
-500.414
 30
0.000000
  70
    32
  0
VERTEX
  8
0
  5
A22
 10
-30.0515
 20
-500.862
 30
0.000000
  70
    32
  0
VERTEX
  8
0
  5
A23
 10
-28.8184
 20
-501.298
 30
0.000000
  70
    32
  0
VERTEX
  8
0
  5
A24
 10
-27.5863
 20
-501.723
 30
0.000000
  70
    32
  0
VERTEX
  8
0
  5
A25
 10
-26.3553
 20
-502.136
 30
0.000000
  70
    32
  0
VERTEX
  8
0
  5
A26
 10
-25.1251
 20
-502.535
 30
0.000000
  70
    32
  0
VERTEX
  8
0
  5
A27
 10
-23.8959
 20
-502.921
 30
0.000000
  70
    32
  0
VERTEX
  8
0
  5
A28
 10
-22.6675
 20
-503.293
 30
0.000000
  70
    32
  0
VERTEX
  8
0
  5
A29
 10
-21.4398
 20
-503.650
 30
0.000000
  70
    32
  0
VERTEX
  8
0
  5
A2A
 10
-20.2129
 20
-503.992
 30
0.000000
  70
    32
  0
VERTEX
  8
0
  5
A2B
 10
-18.9866
 20
-504.318
 30
0.000000
  70
    32
  0
VERTEX
  8
0
  5
A2C
 10
-17.7610
 20
-504.627
 30
0.000000
  70
    32
  0
VERTEX
  8
0
  5
A2D
 10
-16.5359
 20
-504.919
 30
0.000000
  70
    32
  0
VERTEX
  8
0
  5
A2E
 10
-15.3112
 20
-505.194
 30
0.000000
  70
    32
  0
VERTEX
  8
0
  5
A2F
 10
-14.0871
 20
-505.450
 30
0.000000
  70
    32
  0
VERTEX
  8
0
  5
A30
 10
-12.8633
 20
-505.687
 30
0.000000
  70
    32
  0
VERTEX
  8
0
  5
A31
 10
-11.6398
 20
-505.905
 30
0.000000
  70
    32
  0
VERTEX
  8
0
  5
A32
 10
-10.4166
 20
-506.103
 30
0.000000
  70
    32
  0
VERTEX
  8
0
  5
A33
 10
-9.19361
 20
-506.280
 30
0.000000
  70
    32
  0
VERTEX
  8
0
  5
A34
 10
-7.97080
 20
-506.436
 30
0.000000
  70
    32
  0
VERTEX
  8
0
  5
A35
 10
-6.74809
 20
-506.570
 30
0.000000
  70
    32
  0
VERTEX
  8
0
  5
A36
 10
-5.52544
 20
-506.681
 30
0.000000
  70
    32
  0
VERTEX
  8
0
  5
A37
 10
-4.30278
 20
-506.769
 30
0.000000
  70
    32
  0
VERTEX
  8
0
  5
A38
 10
-3.08007
 20
-506.834
 30
0.000000
  70
    32
  0
VERTEX
  8
0
  5
A39
 10
-1.85724
 20
-506.875
 30
0.000000
  70
    32
  0
VERTEX
  8
0
  5
A3A
 10
-0.634255
 20
-506.891
 30
0.000000
  70
    32
  0
VERTEX
  8
0
  5
A3B
 10
0.588913
 20
-506.883
 30
0.000000
  70
    32
  0
VERTEX
  8
0
  5
A3C
 10
1.81230
 20
-506.852
 30
0.000000
  70
    32
  0
VERTEX
  8
0
  5
A3D
 10
3.03592
 20
-506.798
 30
0.000000
  70
    32
  0
VERTEX
  8
0
  5
A3E
 10
4.25982
 20
-506.722
 30
0.000000
  70
    32
  0
VERTEX
  8
0
  5
A3F
 10
5.48402
 20
-506.624
 30
0.000000
  70
    32
  0
VERTEX
  8
0
  5
A40
 10
6.70854
 20
-506.505
 30
0.000000
  70
    32
  0
VERTEX
  8
0
  5
A41
 10
7.93343
 20
-506.364
 30
0.000000
  70
    32
  0
VERTEX
  8
0
  5
A42
 10
9.15870
 20
-506.204
 30
0.000000
  70
    32
  0
VERTEX
  8
0
  5
A43
 10
10.3844
 20
-506.023
 30
0.000000
  70
    32
  0
VERTEX
  8
0
  5
A44
 10
11.6105
 20
-505.823
 30
0.000000
  70
    32
  0
VERTEX
  8
0
  5
A45
 10
12.8371
 20
-505.604
 30
0.000000
  70
    32
  0
VERTEX
  8
0
  5
A46
 10
14.0642
 20
-505.367
 30
0.000000
  70
    32
  0
VERTEX
  8
0
  5
A47
 10
15.2919
 20
-505.112
 30
0.000000
  70
    32
  0
VERTEX
  8
0
  5
A48
 10
16.5201
 20
-504.839
 30
0.000000
  70
    32
  0
VERTEX
  8
0
  5
A49
 10
17.7488
 20
-504.550
 30
0.000000
  70
    32
  0
VERTEX
  8
0
  5
A4A
 10
18.9782
 20
-504.244
 30
0.000000
  70
    32
  0
VERTEX
  8
0
  5
A4B
 10
20.2083
 20
-503.922
 30
0.000000
  70
    32
  0
VERTEX
  8
0
  5
A4C
 10
21.4390
 20
-503.585
 30
0.000000
  70
    32
  0
VERTEX
  8
0
  5
A4D
 10
22.6704
 20
-503.233
 30
0.000000
  70
    32
  0
VERTEX
  8
0
  5
A4E
 10
23.9026
 20
-502.866
 30
0.000000
  70
    32
  0
VERTEX
  8
0
  5
A4F
 10
25.1355
 20
-502.486
 30
0.000000
  70
    32
  0
VERTEX
  8
0
  5
A50
 10
26.3692
 20
-502.092
 30
0.000000
  70
    32
  0
VERTEX
  8
0
  5
A51
 10
27.6037
 20
-501.685
 30
0.000000
  70
    32
  0
VERTEX
  8
0
  5
A52
 10
28.8391
 20
-501.266
 30
0.000000
  70
    32
  0
VERTEX
  8
0
  5
A53
 10
30.0753
 20
-500.835
 30
0.000000
  70
    32
  0
VERTEX
  8
0
  5
A54
 10
31.3125
 20
-500.392
 30
0.000000
  70
    32
  0
VERTEX
  8
0
  5
A55
 10
32.5506
 20
-499.939
 30
0.000000
  70
    32
  0
VERTEX
  8
0
  5
A56
 10
33.7896
 20
-499.475
 30
0.000000
  70
    32
  0
VERTEX
  8
0
  5
A57
 10
35.0295
 20
-499.001
 30
0.000000
  70
    32
  0
VERTEX
  8
0
  5
A58
 10
36.2695
 20
-498.514
 30
0.000000
  70
    32
  0
VERTEX
  8
0
  5
A59
 10
37.5088
 20
-498.014
 30
0.000000
  70
    32
  0
VERTEX
  8
0
  5
A5A
 10
38.7466
 20
-497.497
 30
0.000000
  70
    32
  0
VERTEX
  8
0
  5
A5B
 10
39.9819
 20
-496.962
 30
0.000000
  70
    32
  0
VERTEX
  8
0
  5
A5C
 10
41.2139
 20
-496.406
 30
0.000000
  70
    32
  0
VERTEX
  8
0
  5
A5D
 10
42.4419
 20
-495.828
 30
0.000000
  70
    32
  0
VERTEX
  8
0
  5
A5E
 10
43.6649
 20
-495.225
 30
0.000000
  70
    32
  0
VERTEX
  8
0
  5
A5F
 10
44.8820
 20
-494.596
 30
0.000000
  70
    32
  0
VERTEX
  8
0
  5
A60
 10
46.0925
 20
-493.937
 30
0.000000
  70
    32
  0
VERTEX
  8
0
  5
A61
 10
47.2954
 20
-493.248
 30
0.000000
  70
    32
  0
VERTEX
  8
0
  5
A62
 10
48.4900
 20
-492.526
 30
0.000000
  70
    32
  0
VERTEX
  8
0
  5
A63
 10
49.6753
 20
-491.769
 30
0.000000
  70
    32
  0
VERTEX
  8
0
  5
A64
 10
50.8506
 20
-490.974
 30
0.000000
  70
    32
  0
VERTEX
  8
0
  5
A65
 10
52.0150
 20
-490.141
 30
0.000000
  70
    32
  0
VERTEX
  8
0
  5
A66
 10
53.1675
 20
-489.265
 30
0.000000
  70
    32
  0
VERTEX
  8
0
  5
A67
 10
54.3075
 20
-488.347
 30
0.000000
  70
    32
  0
VERTEX
  8
0
  5
A68
 10
55.4339
 20
-487.382
 30
0.000000
  70
    32
  0
VERTEX
  8
0
  5
A69
 10
56.5460
 20
-486.371
 30
0.000000
  70
    32
  0
VERTEX
  8
0
  5
A6A
 10
57.6430
 20
-485.309
 30
0.000000
  70
    32
  0
VERTEX
  8
0
  5
A6B
 10
58.7239
 20
-484.195
 30
0.000000
  70
    32
  0
VERTEX
  8
0
  5
A6C
 10
59.7879
 20
-483.028
 30
0.000000
  70
    32
  0
VERTEX
  8
0
  5
A6D
 10
60.8342
 20
-481.804
 30
0.000000
  70
    32
  0
VERTEX
  8
0
  5
A6E
 10
61.8619
 20
-480.522
 30
0.000000
  70
    32
  0
VERTEX
  8
0
  5
A6F
 10
62.8707
 20
-479.182
 30
0.000000
  70
    32
  0
VERTEX
  8
0
  5
A70
 10
63.8609
 20
-477.785
 30
0.000000
  70
    32
  0
VERTEX
  8
0
  5
A71
 10
64.8330
 20
-476.333
 30
0.000000
  70
    32
  0
VERTEX
  8
0
  5
A72
 10
65.7873
 20
-474.829
 30
0.000000
  70
    32
  0
VERTEX
  8
0
  5
A73
 10
66.7242
 20
-473.273
 30
0.000000
  70
    32
  0
VERTEX
  8
0
  5
A74
 10
67.6442
 20
-471.669
 30
0.000000
  70
    32
  0
VERTEX
  8
0
  5
A75
 10
68.5477
 20
-470.018
 30
0.000000
  70
    32
  0
VERTEX
  8
0
  5
A76
 10
69.4349
 20
-468.322
 30
0.000000
  70
    32
  0
VERTEX
  8
0
  5
A77
 10
70.3064
 20
-466.582
 30
0.000000
  70
    32
  0
VERTEX
  8
0
  5
A78
 10
71.1626
 20
-464.802
 30
0.000000
  70
    32
  0
VERTEX
  8
0
  5
A79
 10
72.0038
 20
-462.983
 30
0.000000
  70
    32
  0
VERTEX
  8
0
  5
A7A
 10
72.8304
 20
-461.126
 30
0.000000
  70
    32
  0
VERTEX
  8
0
  5
A7B
 10
73.6429
 20
-459.234
 30
0.000000
  70
    32
  0
VERTEX
  8
0
  5
A7C
 10
74.4416
 20
-457.309
 30
0.000000
  70
    32
  0
VERTEX
  8
0
  5
A7D
 10
75.2269
 20
-455.353
 30
0.000000
  70
    32
  0
VERTEX
  8
0
  5
A7E
 10
75.9993
 20
-453.368
 30
0.000000
  70
    32
  0
VERTEX
  8
0
  5
A7F
 10
76.7591
 20
-451.355
 30
0.000000
  70
    32
  0
VERTEX
  8
0
  5
A80
 10
77.5068
 20
-449.317
 30
0.000000
  70
    32
  0
VERTEX
  8
0
  5
A81
 10
78.2427
 20
-447.255
 30
0.000000
  70
    32
  0
VERTEX
  8
0
  5
A82
 10
78.9673
 20
-445.172
 30
0.000000
  70
    32
  0
VERTEX
  8
0
  5
A83
 10
79.6809
 20
-443.069
 30
0.000000
  70
    32
  0
VERTEX
  8
0
  5
A84
 10
80.3839
 20
-440.949
 30
0.000000
  70
    32
  0
VERTEX
  8
0
  5
A85
 10
81.0768
 20
-438.814
 30
0.000000
  70
    32
  0
VERTEX
  8
0
  5
A86
 10
81.7599
 20
-436.664
 30
0.000000
  70
    32
  0
VERTEX
  8
0
  5
A87
 10
82.4337
 20
-434.503
 30
0.000000
  70
    32
  0
VERTEX
  8
0
  5
A88
 10
83.0985
 20
-432.333
 30
0.000000
  70
    32
  0
VERTEX
  8
0
  5
A89
 10
83.7547
 20
-430.154
 30
0.000000
  70
    32
  0
VERTEX
  8
0
  5
A8A
 10
84.4028
 20
-427.970
 30
0.000000
  70
    32
  0
VERTEX
  8
0
  5
A8B
 10
85.0431
 20
-425.782
 30
0.000000
  70
    32
  0
VERTEX
  8
0
  5
A8C
 10
85.6758
 20
-423.591
 30
0.000000
  70
    32
  0
VERTEX
  8
0
  5
A8D
 10
86.3006
 20
-421.395
 30
0.000000
  70
    32
  0
VERTEX
  8
0
  5
A8E
 10
86.9178
 20
-419.197
 30
0.000000
  70
    32
  0
VERTEX
  8
0
  5
A8F
 10
87.5272
 20
-416.995
 30
0.000000
  70
    32
  0
VERTEX
  8
0
  5
A90
 10
88.1288
 20
-414.789
 30
0.000000
  70
    32
  0
VERTEX
  8
0
  5
A91
 10
88.7225
 20
-412.579
 30
0.000000
  70
    32
  0
VERTEX
  8
0
  5
A92
 10
89.3085
 20
-410.365
 30
0.000000
  70
    32
  0
VERTEX
  8
0
  5
A93
 10
89.8865
 20
-408.148
 30
0.000000
  70
    32
  0
VERTEX
  8
0
  5
A94
 10
90.4566
 20
-405.927
 30
0.000000
  70
    32
  0
VERTEX
  8
0
  5
A95
 10
91.0188
 20
-403.701
 30
0.000000
  70
    32
  0
VERTEX
  8
0
  5
A96
 10
91.5731
 20
-401.472
 30
0.000000
  70
    32
  0
VERTEX
  8
0
  5
A97
 10
92.1194
 20
-399.238
 30
0.000000
  70
    32
  0
VERTEX
  8
0
  5
A98
 10
92.6577
 20
-397.000
 30
0.000000
  70
    32
  0
VERTEX
  8
0
  5
A99
 10
93.1879
 20
-394.758
 30
0.000000
  70
    32
  0
VERTEX
  8
0
  5
A9A
 10
93.7101
 20
-392.511
 30
0.000000
  70
    32
  0
VERTEX
  8
0
  5
A9B
 10
94.2242
 20
-390.260
 30
0.000000
  70
    32
  0
VERTEX
  8
0
  5
A9C
 10
94.7302
 20
-388.005
 30
0.000000
  70
    32
  0
VERTEX
  8
0
  5
A9D
 10
95.2280
 20
-385.745
 30
0.000000
  70
    32
  0
VERTEX
  8
0
  5
A9E
 10
95.7177
 20
-383.480
 30
0.000000
  70
    32
  0
VERTEX
  8
0
  5
A9F
 10
96.1992
 20
-381.210
 30
0.000000
  70
    32
  0
VERTEX
  8
0
  5
AA0
 10
96.6725
 20
-378.936
 30
0.000000
  70
    32
  0
VERTEX
  8
0
  5
AA1
 10
97.1375
 20
-376.657
 30
0.000000
  70
    32
  0
VERTEX
  8
0
  5
AA2
 10
97.5943
 20
-374.373
 30
0.000000
  70
    32
  0
VERTEX
  8
0
  5
AA3
 10
98.0427
 20
-372.085
 30
0.000000
  70
    32
  0
VERTEX
  8
0
  5
AA4
 10
98.4829
 20
-369.791
 30
0.000000
  70
    32
  0
VERTEX
  8
0
  5
AA5
 10
98.9147
 20
-367.492
 30
0.000000
  70
    32
  0
VERTEX
  8
0
  5
AA6
 10
99.3381
 20
-365.188
 30
0.000000
  70
    32
  0
VERTEX
  8
0
  5
AA7
 10
99.7531
 20
-362.878
 30
0.000000
  70
    32
  0
VERTEX
  8
0
  5
AA8
 10
100.160
 20
-360.564
 30
0.000000
  70
    32
  0
VERTEX
  8
0
  5
AA9
 10
100.558
 20
-358.244
 30
0.000000
  70
    32
  0
VERTEX
  8
0
  5
AAA
 10
100.948
 20
-355.918
 30
0.000000
  70
    32
  0
VERTEX
  8
0
  5
AAB
 10
101.329
 20
-353.587
 30
0.000000
  70
    32
  0
VERTEX
  8
0
  5
AAC
 10
101.701
 20
-351.251
 30
0.000000
  70
    32
  0
VERTEX
  8
0
  5
AAD
 10
102.065
 20
-348.909
 30
0.000000
  70
    32
  0
VERTEX
  8
0
  5
AAE
 10
102.421
 20
-346.561
 30
0.000000
  70
    32
  0
VERTEX
  8
0
  5
AAF
 10
102.768
 20
-344.207
 30
0.000000
  70
    32
  0
VERTEX
  8
0
  5
AB0
 10
103.106
 20
-341.848
 30
0.000000
  70
    32
  0
VERTEX
  8
0
  5
AB1
 10
103.436
 20
-339.483
 30
0.000000
  70
    32
  0
VERTEX
  8
0
  5
AB2
 10
103.757
 20
-337.112
 30
0.000000
  70
    32
  0
VERTEX
  8
0
  5
AB3
 10
104.070
 20
-334.736
 30
0.000000
  70
    32
  0
VERTEX
  8
0
  5
AB4
 10
104.375
 20
-332.354
 30
0.000000
  70
    32
  0
VERTEX
  8
0
  5
AB5
 10
104.673
 20
-329.967
 30
0.000000
  70
    32
  0
VERTEX
  8
0
  5
AB6
 10
104.963
 20
-327.576
 30
0.000000
  70
    32
  0
VERTEX
  8
0
  5
AB7
 10
105.246
 20
-325.180
 30
0.000000
  70
    32
  0
VERTEX
  8
0
  5
AB8
 10
105.521
 20
-322.779
 30
0.000000
  70
    32
  0
VERTEX
  8
0
  5
AB9
 10
105.790
 20
-320.373
 30
0.000000
  70
    32
  0
VERTEX
  8
0
  5
ABA
 10
106.052
 20
-317.964
 30
0.000000
  70
    32
  0
VERTEX
  8
0
  5
ABB
 10
106.308
 20
-315.550
 30
0.000000
  70
    32
  0
VERTEX
  8
0
  5
ABC
 10
106.558
 20
-313.132
 30
0.000000
  70
    32
  0
VERTEX
  8
0
  5
ABD
 10
106.802
 20
-310.711
 30
0.000000
  70
    32
  0
VERTEX
  8
0
  5
ABE
 10
107.040
 20
-308.286
 30
0.000000
  70
    32
  0
VERTEX
  8
0
  5
ABF
 10
107.273
 20
-305.858
 30
0.000000
  70
    32
  0
VERTEX
  8
0
  5
AC0
 10
107.500
 20
-303.427
 30
0.000000
  70
    32
  0
VERTEX
  8
0
  5
AC1
 10
107.722
 20
-300.992
 30
0.000000
  70
    32
  0
VERTEX
  8
0
  5
AC2
 10
107.940
 20
-298.555
 30
0.000000
  70
    32
  0
VERTEX
  8
0
  5
AC3
 10
108.153
 20
-296.115
 30
0.000000
  70
    32
  0
VERTEX
  8
0
  5
AC4
 10
108.361
 20
-293.673
 30
0.000000
  70
    32
  0
VERTEX
  8
0
  5
AC5
 10
108.565
 20
-291.228
 30
0.000000
  70
    32
  0
VERTEX
  8
0
  5
AC6
 10
108.766
 20
-288.782
 30
0.000000
  70
    32
  0
VERTEX
  8
0
  5
AC7
 10
108.962
 20
-286.333
 30
0.000000
  70
    32
  0
VERTEX
  8
0
  5
AC8
 10
109.155
 20
-283.882
 30
0.000000
  70
    32
  0
VERTEX
  8
0
  5
AC9
 10
109.345
 20
-281.430
 30
0.000000
  70
    32
  0
VERTEX
  8
0
  5
ACA
 10
109.532
 20
-278.977
 30
0.000000
  70
    32
  0
VERTEX
  8
0
  5
ACB
 10
109.716
 20
-276.522
 30
0.000000
  70
    32
  0
VERTEX
  8
0
  5
ACC
 10
109.897
 20
-274.066
 30
0.000000
  70
    32
  0
VERTEX
  8
0
  5
ACD
 10
110.076
 20
-271.609
 30
0.000000
  70
    32
  0
VERTEX
  8
0
  5
ACE
 10
110.252
 20
-269.152
 30
0.000000
  70
    32
  0
VERTEX
  8
0
  5
ACF
 10
110.427
 20
-266.693
 30
0.000000
  70
    32
  0
VERTEX
  8
0
  5
AD0
 10
110.600
 20
-264.235
 30
0.000000
  70
    32
  0
VERTEX
  8
0
  5
AD1
 10
110.772
 20
-261.776
 30
0.000000
  70
    32
  0
VERTEX
  8
0
  5
AD2
 10
110.942
 20
-259.318
 30
0.000000
  70
    32
  0
VERTEX
  8
0
  5
AD3
 10
111.111
 20
-256.859
 30
0.000000
  70
    32
  0
VERTEX
  8
0
  5
AD4
 10
111.279
 20
-254.401
 30
0.000000
  70
    32
  0
VERTEX
  8
0
  5
AD5
 10
111.446
 20
-251.943
 30
0.000000
  70
    32
  0
VERTEX
  8
0
  5
AD6
 10
111.613
 20
-249.486
 30
0.000000
  70
    32
  0
VERTEX
  8
0
  5
AD7
 10
111.780
 20
-247.029
 30
0.000000
  70
    32
  0
VERTEX
  8
0
  5
AD8
 10
111.945
 20
-244.573
 30
0.000000
  70
    32
  0
VERTEX
  8
0
  5
AD9
 10
112.110
 20
-242.117
 30
0.000000
  70
    32
  0
VERTEX
  8
0
  5
ADA
 10
112.275
 20
-239.661
 30
0.000000
  70
    32
  0
VERTEX
  8
0
  5
ADB
 10
112.439
 20
-237.207
 30
0.000000
  70
    32
  0
VERTEX
  8
0
  5
ADC
 10
112.602
 20
-234.752
 30
0.000000
  70
    32
  0
VERTEX
  8
0
  5
ADD
 10
112.765
 20
-232.298
 30
0.000000
  70
    32
  0
VERTEX
  8
0
  5
ADE
 10
112.927
 20
-229.844
 30
0.000000
  70
    32
  0
VERTEX
  8
0
  5
ADF
 10
113.088
 20
-227.391
 30
0.000000
  70
    32
  0
VERTEX
  8
0
  5
AE0
 10
113.249
 20
-224.937
 30
0.000000
  70
    32
  0
VERTEX
  8
0
  5
AE1
 10
113.410
 20
-222.485
 30
0.000000
  70
    32
  0
VERTEX
  8
0
  5
AE2
 10
113.569
 20
-220.032
 30
0.000000
  70
    32
  0
VERTEX
  8
0
  5
AE3
 10
113.728
 20
-217.580
 30
0.000000
  70
    32
  0
VERTEX
  8
0
  5
AE4
 10
113.887
 20
-215.128
 30
0.000000
  70
    32
  0
VERTEX
  8
0
  5
AE5
 10
114.045
 20
-212.677
 30
0.000000
  70
    32
  0
VERTEX
  8
0
  5
AE6
 10
114.202
 20
-210.225
 30
0.000000
  70
    32
  0
VERTEX
  8
0
  5
AE7
 10
114.359
 20
-207.774
 30
0.000000
  70
    32
  0
VERTEX
  8
0
  5
AE8
 10
114.515
 20
-205.323
 30
0.000000
  70
    32
  0
VERTEX
  8
0
  5
AE9
 10
114.670
 20
-202.872
 30
0.000000
  70
    32
  0
VERTEX
  8
0
  5
AEA
 10
114.825
 20
-200.422
 30
0.000000
  70
    32
  0
VERTEX
  8
0
  5
AEB
 10
114.979
 20
-197.971
 30
0.000000
  70
    32
  0
VERTEX
  8
0
  5
AEC
 10
115.133
 20
-195.521
 30
0.000000
  70
    32
  0
VERTEX
  8
0
  5
AED
 10
115.286
 20
-193.071
 30
0.000000
  70
    32
  0
VERTEX
  8
0
  5
AEE
 10
115.439
 20
-190.620
 30
0.000000
  70
    32
  0
VERTEX
  8
0
  5
AEF
 10
115.590
 20
-188.170
 30
0.000000
  70
    32
  0
VERTEX
  8
0
  5
AF0
 10
115.742
 20
-185.720
 30
0.000000
  70
    32
  0
VERTEX
  8
0
  5
AF1
 10
115.892
 20
-183.271
 30
0.000000
  70
    32
  0
VERTEX
  8
0
  5
AF2
 10
116.042
 20
-180.821
 30
0.000000
  70
    32
  0
VERTEX
  8
0
  5
AF3
 10
116.192
 20
-178.371
 30
0.000000
  70
    32
  0
VERTEX
  8
0
  5
AF4
 10
116.341
 20
-175.921
 30
0.000000
  70
    32
  0
VERTEX
  8
0
  5
AF5
 10
116.489
 20
-173.471
 30
0.000000
  70
    32
  0
VERTEX
  8
0
  5
AF6
 10
116.637
 20
-171.021
 30
0.000000
  70
    32
  0
VERTEX
  8
0
  5
AF7
 10
116.784
 20
-168.571
 30
0.000000
  70
    32
  0
VERTEX
  8
0
  5
AF8
 10
116.930
 20
-166.121
 30
0.000000
  70
    32
  0
VERTEX
  8
0
  5
AF9
 10
117.076
 20
-163.671
 30
0.000000
  70
    32
  0
VERTEX
  8
0
  5
AFA
 10
117.222
 20
-161.221
 30
0.000000
  70
    32
  0
VERTEX
  8
0
  5
AFB
 10
117.366
 20
-158.771
 30
0.000000
  70
    32
  0
VERTEX
  8
0
  5
AFC
 10
117.510
 20
-156.320
 30
0.000000
  70
    32
  0
VERTEX
  8
0
  5
AFD
 10
117.654
 20
-153.870
 30
0.000000
  70
    32
  0
VERTEX
  8
0
  5
AFE
 10
117.797
 20
-151.419
 30
0.000000
  70
    32
  0
VERTEX
  8
0
  5
AFF
 10
117.939
 20
-148.968
 30
0.000000
  70
    32
  0
VERTEX
  8
0
  5
B00
 10
118.081
 20
-146.517
 30
0.000000
  70
    32
  0
VERTEX
  8
0
  5
B01
 10
118.222
 20
-144.065
 30
0.000000
  70
    32
  0
VERTEX
  8
0
  5
B02
 10
118.363
 20
-141.614
 30
0.000000
  70
    32
  0
VERTEX
  8
0
  5
B03
 10
118.502
 20
-139.162
 30
0.000000
  70
    32
  0
VERTEX
  8
0
  5
B04
 10
118.642
 20
-136.710
 30
0.000000
  70
    32
  0
VERTEX
  8
0
  5
B05
 10
118.781
 20
-134.257
 30
0.000000
  70
    32
  0
VERTEX
  8
0
  5
B06
 10
118.919
 20
-131.805
 30
0.000000
  70
    32
  0
VERTEX
  8
0
  5
B07
 10
119.056
 20
-129.352
 30
0.000000
  70
    32
  0
VERTEX
  8
0
  5
B08
 10
119.193
 20
-126.898
 30
0.000000
  70
    32
  0
VERTEX
  8
0
  5
B09
 10
119.329
 20
-124.445
 30
0.000000
  70
    32
  0
VERTEX
  8
0
  5
B0A
 10
119.464
 20
-121.991
 30
0.000000
  70
    32
  0
VERTEX
  8
0
  5
B0B
 10
119.598
 20
-119.537
 30
0.000000
  70
    32
  0
VERTEX
  8
0
  5
B0C
 10
119.731
 20
-117.083
 30
0.000000
  70
    32
  0
VERTEX
  8
0
  5
B0D
 10
119.863
 20
-114.628
 30
0.000000
  70
    32
  0
VERTEX
  8
0
  5
B0E
 10
119.994
 20
-112.173
 30
0.000000
  70
    32
  0
VERTEX
  8
0
  5
B0F
 10
120.124
 20
-109.718
 30
0.000000
  70
    32
  0
VERTEX
  8
0
  5
B10
 10
120.253
 20
-107.263
 30
0.000000
  70
    32
  0
VERTEX
  8
0
  5
B11
 10
120.381
 20
-104.807
 30
0.000000
  70
    32
  0
VERTEX
  8
0
  5
B12
 10
120.507
 20
-102.351
 30
0.000000
  70
    32
  0
VERTEX
  8
0
  5
B13
 10
120.632
 20
-99.8955
 30
0.000000
  70
    32
  0
VERTEX
  8
0
  5
B14
 10
120.756
 20
-97.4393
 30
0.000000
  70
    32
  0
VERTEX
  8
0
  5
B15
 10
120.878
 20
-94.9829
 30
0.000000
  70
    32
  0
VERTEX
  8
0
  5
B16
 10
120.999
 20
-92.5263
 30
0.000000
  70
    32
  0
VERTEX
  8
0
  5
B17
 10
121.118
 20
-90.0695
 30
0.000000
  70
    32
  0
VERTEX
  8
0
  5
B18
 10
121.235
 20
-87.6125
 30
0.000000
  70
    32
  0
VERTEX
  8
0
  5
B19
 10
121.351
 20
-85.1553
 30
0.000000
  70
    32
  0
VERTEX
  8
0
  5
B1A
 10
121.465
 20
-82.6980
 30
0.000000
  70
    32
  0
VERTEX
  8
0
  5
B1B
 10
121.577
 20
-80.2404
 30
0.000000
  70
    32
  0
VERTEX
  8
0
  5
B1C
 10
121.688
 20
-77.7827
 30
0.000000
  70
    32
  0
VERTEX
  8
0
  5
B1D
 10
121.797
 20
-75.3249
 30
0.000000
  70
    32
  0
VERTEX
  8
0
  5
B1E
 10
121.903
 20
-72.8668
 30
0.000000
  70
    32
  0
VERTEX
  8
0
  5
B1F
 10
122.008
 20
-70.4087
 30
0.000000
  70
    32
  0
VERTEX
  8
0
  5
B20
 10
122.111
 20
-67.9503
 30
0.000000
  70
    32
  0
VERTEX
  8
0
  5
B21
 10
122.211
 20
-65.4919
 30
0.000000
  70
    32
  0
VERTEX
  8
0
  5
B22
 10
122.310
 20
-63.0333
 30
0.000000
  70
    32
  0
VERTEX
  8
0
  5
B23
 10
122.406
 20
-60.5745
 30
0.000000
  70
    32
  0
VERTEX
  8
0
  5
B24
 10
122.500
 20
-58.1157
 30
0.000000
  70
    32
  0
VERTEX
  8
0
  5
B25
 10
122.592
 20
-55.6567
 30
0.000000
  70
    32
  0
VERTEX
  8
0
  5
B26
 10
122.681
 20
-53.1976
 30
0.000000
  70
    32
  0
VERTEX
  8
0
  5
B27
 10
122.768
 20
-50.7384
 30
0.000000
  70
    32
  0
VERTEX
  8
0
  5
B28
 10
122.853
 20
-48.2791
 30
0.000000
  70
    32
  0
VERTEX
  8
0
  5
B29
 10
122.934
 20
-45.8197
 30
0.000000
  70
    32
  0
VERTEX
  8
0
  5
B2A
 10
123.014
 20
-43.3602
 30
0.000000
  70
    32
  0
VERTEX
  8
0
  5
B2B
 10
123.090
 20
-40.9006
 30
0.000000
  70
    32
  0
VERTEX
  8
0
  5
B2C
 10
123.164
 20
-38.4409
 30
0.000000
  70
    32
  0
VERTEX
  8
0
  5
B2D
 10
123.236
 20
-35.9812
 30
0.000000
  70
    32
  0
VERTEX
  8
0
  5
B2E
 10
123.304
 20
-33.5214
 30
0.000000
  70
    32
  0
VERTEX
  8
0
  5
B2F
 10
123.370
 20
-31.0615
 30
0.000000
  70
    32
  0
VERTEX
  8
0
  5
B30
 10
123.433
 20
-28.6015
 30
0.000000
  70
    32
  0
VERTEX
  8
0
  5
B31
 10
123.492
 20
-26.1415
 30
0.000000
  70
    32
  0
VERTEX
  8
0
  5
B32
 10
123.549
 20
-23.6815
 30
0.000000
  70
    32
  0
VERTEX
  8
0
  5
B33
 10
123.603
 20
-21.2214
 30
0.000000
  70
    32
  0
VERTEX
  8
0
  5
B34
 10
123.653
 20
-18.7613
 30
0.000000
  70
    32
  0
VERTEX
  8
0
  5
B35
 10
123.701
 20
-16.3011
 30
0.000000
  70
    32
  0
VERTEX
  8
0
  5
B36
 10
123.745
 20
-13.8409
 30
0.000000
  70
    32
  0
VERTEX
  8
0
  5
B37
 10
123.786
 20
-11.3807
 30
0.000000
  70
    32
  0
VERTEX
  8
0
  5
B38
 10
123.823
 20
-8.92048
 30
0.000000
  70
    32
  0
VERTEX
  8
0
  5
B39
 10
123.857
 20
-6.46024
 30
0.000000
  70
    32
  0
VERTEX
  8
0
  5
B3A
 10
123.888
 20
-4.00000
 30
0.000000
  70
    32
  0
SEQEND
  8
0
  5
B3B
  0
POLYLINE
  8
0
  5
B3C
  66
     1
 10
0.000000
 20
0.000000
 30
0.000000
  70
     8
  0
VERTEX
  8
0
  5
B3D
 10
-123.888
 20
-4.00000
 30
0.000000
  70
    32
  0
VERTEX
  8
0
  5
B3E
 10
-124.294
 20
-11.3106
 30
0.000000
  70
    32
  0
VERTEX
  8
0
  5
B3F
 10
-124.693
 20
-18.6212
 30
0.000000
  70
    32
  0
VERTEX
  8
0
  5
B40
 10
-125.087
 20
-25.9316
 30
0.000000
  70
    32
  0
VERTEX
  8
0
  5
B41
 10
-125.474
 20
-33.2419
 30
0.000000
  70
    32
  0
VERTEX
  8
0
  5
B42
 10
-125.857
 20
-40.5520
 30
0.000000
  70
    32
  0
VERTEX
  8
0
  5
B43
 10
-126.235
 20
-47.8619
 30
0.000000
  70
    32
  0
VERTEX
  8
0
  5
B44
 10
-126.609
 20
-55.1714
 30
0.000000
  70
    32
  0
VERTEX
  8
0
  5
B45
 10
-126.978
 20
-62.4806
 30
0.000000
  70
    32
  0
VERTEX
  8
0
  5
B46
 10
-127.344
 20
-69.7894
 30
0.000000
  70
    32
  0
VERTEX
  8
0
  5
B47
 10
-127.707
 20
-77.0977
 30
0.000000
  70
    32
  0
VERTEX
  8
0
  5
B48
 10
-128.067
 20
-84.4056
 30
0.000000
  70
    32
  0
VERTEX
  8
0
  5
B49
 10
-128.425
 20
-91.7128
 30
0.000000
  70
    32
  0
VERTEX
  8
0
  5
B4A
 10
-128.780
 20
-99.0195
 30
0.000000
  70
    32
  0
VERTEX
  8
0
  5
B4B
 10
-129.134
 20
-106.325
 30
0.000000
  70
    32
  0
VERTEX
  8
0
  5
B4C
 10
-129.487
 20
-113.631
 30
0.000000
  70
    32
  0
VERTEX
  8
0
  5
B4D
 10
-129.839
 20
-120.935
 30
0.000000
  70
    32
  0
VERTEX
  8
0
  5
B4E
 10
-130.191
 20
-128.239
 30
0.000000
  70
    32
  0
VERTEX
  8
0
  5
B4F
 10
-130.542
 20
-135.542
 30
0.000000
  70
    32
  0
VERTEX
  8
0
  5
B50
 10
-130.894
 20
-142.844
 30
0.000000
  70
    32
  0
VERTEX
  8
0
  5
B51
 10
-131.247
 20
-150.145
 30
0.000000
  70
    32
  0
VERTEX
  8
0
  5
B52
 10
-131.601
 20
-157.445
 30
0.000000
  70
    32
  0
VERTEX
  8
0
  5
B53
 10
-131.956
 20
-164.743
 30
0.000000
  70
    32
  0
VERTEX
  8
0
  5
B54
 10
-132.314
 20
-172.041
 30
0.000000
  70
    32
  0
VERTEX
  8
0
  5
B55
 10
-132.673
 20
-179.338
 30
0.000000
  70
    32
  0
VERTEX
  8
0
  5
B56
 10
-133.036
 20
-186.633
 30
0.000000
  70
    32
  0
VERTEX
  8
0
  5
B57
 10
-133.402
 20
-193.927
 30
0.000000
  70
    32
  0
VERTEX
  8
0
  5
B58
 10
-133.771
 20
-201.220
 30
0.000000
  70
    32
  0
VERTEX
  8
0
  5
B59
 10
-134.144
 20
-208.511
 30
0.000000
  70
    32
  0
VERTEX
  8
0
  5
B5A
 10
-134.522
 20
-215.801
 30
0.000000
  70
    32
  0
VERTEX
  8
0
  5
B5B
 10
-134.904
 20
-223.090
 30
0.000000
  70
    32
  0
VERTEX
  8
0
  5
B5C
 10
-135.292
 20
-230.377
 30
0.000000
  70
    32
  0
VERTEX
  8
0
  5
B5D
 10
-135.685
 20
-237.662
 30
0.000000
  70
    32
  0
VERTEX
  8
0
  5
B5E
 10
-136.084
 20
-244.946
 30
0.000000
  70
    32
  0
VERTEX
  8
0
  5
B5F
 10
-136.489
 20
-252.228
 30
0.000000
  70
    32
  0
VERTEX
  8
0
  5
B60
 10
-136.901
 20
-259.508
 30
0.000000
  70
    32
  0
VERTEX
  8
0
  5
B61
 10
-137.321
 20
-266.787
 30
0.000000
  70
    32
  0
VERTEX
  8
0
  5
B62
 10
-137.747
 20
-274.064
 30
0.000000
  70
    32
  0
VERTEX
  8
0
  5
B63
 10
-138.182
 20
-281.338
 30
0.000000
  70
    32
  0
VERTEX
  8
0
  5
B64
 10
-138.625
 20
-288.611
 30
0.000000
  70
    32
  0
VERTEX
  8
0
  5
B65
 10
-139.077
 20
-295.882
 30
0.000000
  70
    32
  0
VERTEX
  8
0
  5
B66
 10
-139.536
 20
-303.151
 30
0.000000
  70
    32
  0
VERTEX
  8
0
  5
B67
 10
-140.005
 20
-310.418
 30
0.000000
  70
    32
  0
VERTEX
  8
0
  5
B68
 10
-140.481
 20
-317.683
 30
0.000000
  70
    32
  0
VERTEX
  8
0
  5
B69
 10
-140.966
 20
-324.947
 30
0.000000
  70
    32
  0
VERTEX
  8
0
  5
B6A
 10
-141.458
 20
-332.208
 30
0.000000
  70
    32
  0
VERTEX
  8
0
  5
B6B
 10
-141.959
 20
-339.467
 30
0.000000
  70
    32
  0
VERTEX
  8
0
  5
B6C
 10
-142.467
 20
-346.724
 30
0.000000
  70
    32
  0
VERTEX
  8
0
  5
B6D
 10
-142.983
 20
-353.980
 30
0.000000
  70
    32
  0
VERTEX
  8
0
  5
B6E
 10
-143.506
 20
-361.233
 30
0.000000
  70
    32
  0
VERTEX
  8
0
  5
B6F
 10
-144.037
 20
-368.484
 30
0.000000
  70
    32
  0
VERTEX
  8
0
  5
B70
 10
-144.575
 20
-375.734
 30
0.000000
  70
    32
  0
VERTEX
  8
0
  5
B71
 10
-145.120
 20
-382.981
 30
0.000000
  70
    32
  0
VERTEX
  8
0
  5
B72
 10
-145.673
 20
-390.227
 30
0.000000
  70
    32
  0
VERTEX
  8
0
  5
B73
 10
-146.233
 20
-397.470
 30
0.000000
  70
    32
  0
VERTEX
  8
0
  5
B74
 10
-146.799
 20
-404.712
 30
0.000000
  70
    32
  0
VERTEX
  8
0
  5
B75
 10
-147.372
 20
-411.952
 30
0.000000
  70
    32
  0
VERTEX
  8
0
  5
B76
 10
-147.953
 20
-419.190
 30
0.000000
  70
    32
  0
VERTEX
  8
0
  5
B77
 10
-148.539
 20
-426.426
 30
0.000000
  70
    32
  0
VERTEX
  8
0
  5
B78
 10
-149.132
 20
-433.660
 30
0.000000
  70
    32
  0
VERTEX
  8
0
  5
B79
 10
-149.732
 20
-440.892
 30
0.000000
  70
    32
  0
VERTEX
  8
0
  5
B7A
 10
-150.337
 20
-448.122
 30
0.000000
  70
    32
  0
VERTEX
  8
0
  5
B7B
 10
-150.949
 20
-455.350
 30
0.000000
  70
    32
  0
VERTEX
  8
0
  5
B7C
 10
-151.567
 20
-462.576
 30
0.000000
  70
    32
  0
VERTEX
  8
0
  5
B7D
 10
-152.191
 20
-469.800
 30
0.000000
  70
    32
  0
VERTEX
  8
0
  5
B7E
 10
-152.821
 20
-477.023
 30
0.000000
  70
    32
  0
VERTEX
  8
0
  5
B7F
 10
-153.457
 20
-484.243
 30
0.000000
  70
    32
  0
VERTEX
  8
0
  5
B80
 10
-154.098
 20
-491.462
 30
0.000000
  70
    32
  0
VERTEX
  8
0
  5
B81
 10
-154.744
 20
-498.678
 30
0.000000
  70
    32
  0
VERTEX
  8
0
  5
B82
 10
-155.397
 20
-505.893
 30
0.000000
  70
    32
  0
VERTEX
  8
0
  5
B83
 10
-156.054
 20
-513.106
 30
0.000000
  70
    32
  0
VERTEX
  8
0
  5
B84
 10
-156.717
 20
-520.317
 30
0.000000
  70
    32
  0
VERTEX
  8
0
  5
B85
 10
-157.384
 20
-527.525
 30
0.000000
  70
    32
  0
VERTEX
  8
0
  5
B86
 10
-158.057
 20
-534.732
 30
0.000000
  70
    32
  0
VERTEX
  8
0
  5
B87
 10
-158.735
 20
-541.938
 30
0.000000
  70
    32
  0
VERTEX
  8
0
  5
B88
 10
-159.417
 20
-549.141
 30
0.000000
  70
    32
  0
VERTEX
  8
0
  5
B89
 10
-160.104
 20
-556.342
 30
0.000000
  70
    32
  0
VERTEX
  8
0
  5
B8A
 10
-160.795
 20
-563.541
 30
0.000000
  70
    32
  0
VERTEX
  8
0
  5
B8B
 10
-161.491
 20
-570.739
 30
0.000000
  70
    32
  0
VERTEX
  8
0
  5
B8C
 10
-162.192
 20
-577.935
 30
0.000000
  70
    32
  0
VERTEX
  8
0
  5
B8D
 10
-162.896
 20
-585.129
 30
0.000000
  70
    32
  0
VERTEX
  8
0
  5
B8E
 10
-163.604
 20
-592.321
 30
0.000000
  70
    32
  0
VERTEX
  8
0
  5
B8F
 10
-164.315
 20
-599.512
 30
0.000000
  70
    32
  0
VERTEX
  8
0
  5
B90
 10
-165.030
 20
-606.701
 30
0.000000
  70
    32
  0
VERTEX
  8
0
  5
B91
 10
-165.748
 20
-613.889
 30
0.000000
  70
    32
  0
VERTEX
  8
0
  5
B92
 10
-166.469
 20
-621.076
 30
0.000000
  70
    32
  0
VERTEX
  8
0
  5
B93
 10
-167.193
 20
-628.262
 30
0.000000
  70
    32
  0
VERTEX
  8
0
  5
B94
 10
-167.919
 20
-635.446
 30
0.000000
  70
    32
  0
VERTEX
  8
0
  5
B95
 10
-168.648
 20
-642.629
 30
0.000000
  70
    32
  0
VERTEX
  8
0
  5
B96
 10
-169.378
 20
-649.812
 30
0.000000
  70
    32
  0
VERTEX
  8
0
  5
B97
 10
-170.111
 20
-656.994
 30
0.000000
  70
    32
  0
VERTEX
  8
0
  5
B98
 10
-170.845
 20
-664.174
 30
0.000000
  70
    32
  0
VERTEX
  8
0
  5
B99
 10
-171.581
 20
-671.355
 30
0.000000
  70
    32
  0
VERTEX
  8
0
  5
B9A
 10
-172.318
 20
-678.534
 30
0.000000
  70
    32
  0
VERTEX
  8
0
  5
B9B
 10
-173.056
 20
-685.713
 30
0.000000
  70
    32
  0
VERTEX
  8
0
  5
B9C
 10
-173.795
 20
-692.892
 30
0.000000
  70
    32
  0
VERTEX
  8
0
  5
B9D
 10
-174.534
 20
-700.070
 30
0.000000
  70
    32
  0
VERTEX
  8
0
  5
B9E
 10
-175.274
 20
-707.248
 30
0.000000
  70
    32
  0
VERTEX
  8
0
  5
B9F
 10
-176.015
 20
-714.426
 30
0.000000
  70
    32
  0
VERTEX
  8
0
  5
BA0
 10
-176.755
 20
-721.603
 30
0.000000
  70
    32
  0
VERTEX
  8
0
  5
BA1
 10
-177.495
 20
-728.781
 30
0.000000
  70
    32
  0
VERTEX
  8
0
  5
BA2
 10
-178.234
 20
-735.959
 30
0.000000
  70
    32
  0
VERTEX
  8
0
  5
BA3
 10
-178.973
 20
-743.137
 30
0.000000
  70
    32
  0
VERTEX
  8
0
  5
BA4
 10
-179.711
 20
-750.315
 30
0.000000
  70
    32
  0
VERTEX
  8
0
  5
BA5
 10
-180.448
 20
-757.493
 30
0.000000
  70
    32
  0
VERTEX
  8
0
  5
BA6
 10
-181.184
 20
-764.672
 30
0.000000
  70
    32
  0
VERTEX
  8
0
  5
BA7
 10
-181.918
 20
-771.851
 30
0.000000
  70
    32
  0
VERTEX
  8
0
  5
BA8
 10
-182.651
 20
-779.031
 30
0.000000
  70
    32
  0
VERTEX
  8
0
  5
BA9
 10
-183.382
 20
-786.212
 30
0.000000
  70
    32
  0
VERTEX
  8
0
  5
BAA
 10
-184.111
 20
-793.393
 30
0.000000
  70
    32
  0
VERTEX
  8
0
  5
BAB
 10
-184.837
 20
-800.575
 30
0.000000
  70
    32
  0
VERTEX
  8
0
  5
BAC
 10
-185.561
 20
-807.758
 30
0.000000
  70
    32
  0
VERTEX
  8
0
  5
BAD
 10
-186.282
 20
-814.942
 30
0.000000
  70
    32
  0
VERTEX
  8
0
  5
BAE
 10
-187.000
 20
-822.128
 30
0.000000
  70
    32
  0
VERTEX
  8
0
  5
BAF
 10
-187.715
 20
-829.314
 30
0.000000
  70
    32
  0
VERTEX
  8
0
  5
BB0
 10
-188.427
 20
-836.502
 30
0.000000
  70
    32
  0
VERTEX
  8
0
  5
BB1
 10
-189.135
 20
-843.690
 30
0.000000
  70
    32
  0
VERTEX
  8
0
  5
BB2
 10
-189.840
 20
-850.881
 30
0.000000
  70
    32
  0
VERTEX
  8
0
  5
BB3
 10
-190.540
 20
-858.073
 30
0.000000
  70
    32
  0
VERTEX
  8
0
  5
BB4
 10
-191.236
 20
-865.266
 30
0.000000
  70
    32
  0
VERTEX
  8
0
  5
BB5
 10
-191.928
 20
-872.461
 30
0.000000
  70
    32
  0
VERTEX
  8
0
  5
BB6
 10
-192.615
 20
-879.658
 30
0.000000
  70
    32
  0
VERTEX
  8
0
  5
BB7
 10
-193.298
 20
-886.857
 30
0.000000
  70
    32
  0
VERTEX
  8
0
  5
BB8
 10
-193.975
 20
-894.057
 30
0.000000
  70
    32
  0
VERTEX
  8
0
  5
BB9
 10
-194.647
 20
-901.260
 30
0.000000
  70
    32
  0
VERTEX
  8
0
  5
BBA
 10
-195.314
 20
-908.465
 30
0.000000
  70
    32
  0
VERTEX
  8
0
  5
BBB
 10
-195.975
 20
-915.672
 30
0.000000
  70
    32
  0
VERTEX
  8
0
  5
BBC
 10
-196.630
 20
-922.881
 30
0.000000
  70
    32
  0
VERTEX
  8
0
  5
BBD
 10
-197.280
 20
-930.092
 30
0.000000
  70
    32
  0
VERTEX
  8
0
  5
BBE
 10
-197.924
 20
-937.305
 30
0.000000
  70
    32
  0
VERTEX
  8
0
  5
BBF
 10
-198.564
 20
-944.521
 30
0.000000
  70
    32
  0
VERTEX
  8
0
  5
BC0
 10
-199.198
 20
-951.738
 30
0.000000
  70
    32
  0
VERTEX
  8
0
  5
BC1
 10
-199.827
 20
-958.957
 30
0.000000
  70
    32
  0
VERTEX
  8
0
  5
BC2
 10
-200.451
 20
-966.178
 30
0.000000
  70
    32
  0
VERTEX
  8
0
  5
BC3
 10
-201.071
 20
-973.401
 30
0.000000
  70
    32
  0
VERTEX
  8
0
  5
BC4
 10
-201.686
 20
-980.625
 30
0.000000
  70
    32
  0
VERTEX
  8
0
  5
BC5
 10
-202.296
 20
-987.851
 30
0.000000
  70
    32
  0
VERTEX
  8
0
  5
BC6
 10
-202.902
 20
-995.079
 30
0.000000
  70
    32
  0
VERTEX
  8
0
  5
BC7
 10
-203.504
 20
-1002.31
 30
0.000000
  70
    32
  0
VERTEX
  8
0
  5
BC8
 10
-204.101
 20
-1009.54
 30
0.000000
  70
    32
  0
VERTEX
  8
0
  5
BC9
 10
-204.695
 20
-1016.77
 30
0.000000
  70
    32
  0
VERTEX
  8
0
  5
BCA
 10
-205.284
 20
-1024.00
 30
0.000000
  70
    32
  0
VERTEX
  8
0
  5
BCB
 10
-205.870
 20
-1031.24
 30
0.000000
  70
    32
  0
VERTEX
  8
0
  5
BCC
 10
-206.453
 20
-1038.48
 30
0.000000
  70
    32
  0
VERTEX
  8
0
  5
BCD
 10
-207.031
 20
-1045.71
 30
0.000000
  70
    32
  0
VERTEX
  8
0
  5
BCE
 10
-207.607
 20
-1052.95
 30
0.000000
  70
    32
  0
VERTEX
  8
0
  5
BCF
 10
-208.179
 20
-1060.19
 30
0.000000
  70
    32
  0
VERTEX
  8
0
  5
BD0
 10
-208.748
 20
-1067.43
 30
0.000000
  70
    32
  0
VERTEX
  8
0
  5
BD1
 10
-209.314
 20
-1074.67
 30
0.000000
  70
    32
  0
VERTEX
  8
0
  5
BD2
 10
-209.877
 20
-1081.92
 30
0.000000
  70
    32
  0
VERTEX
  8
0
  5
BD3
 10
-210.437
 20
-1089.16
 30
0.000000
  70
    32
  0
VERTEX
  8
0
  5
BD4
 10
-210.995
 20
-1096.40
 30
0.000000
  70
    32
  0
VERTEX
  8
0
  5
BD5
 10
-211.550
 20
-1103.65
 30
0.000000
  70
    32
  0
VERTEX
  8
0
  5
BD6
 10
-212.103
 20
-1110.89
 30
0.000000
  70
    32
  0
VERTEX
  8
0
  5
BD7
 10
-212.653
 20
-1118.14
 30
0.000000
  70
    32
  0
VERTEX
  8
0
  5
BD8
 10
-213.202
 20
-1125.39
 30
0.000000
  70
    32
  0
VERTEX
  8
0
  5
BD9
 10
-213.748
 20
-1132.63
 30
0.000000
  70
    32
  0
VERTEX
  8
0
  5
BDA
 10
-214.291
 20
-1139.88
 30
0.000000
  70
    32
  0
VERTEX
  8
0
  5
BDB
 10
-214.833
 20
-1147.13
 30
0.000000
  70
    32
  0
VERTEX
  8
0
  5
BDC
 10
-215.371
 20
-1154.38
 30
0.000000
  70
    32
  0
VERTEX
  8
0
  5
BDD
 10
-215.907
 20
-1161.63
 30
0.000000
  70
    32
  0
VERTEX
  8
0
  5
BDE
 10
-216.440
 20
-1168.88
 30
0.000000
  70
    32
  0
VERTEX
  8
0
  5
BDF
 10
-216.971
 20
-1176.13
 30
0.000000
  70
    32
  0
VERTEX
  8
0
  5
BE0
 10
-217.499
 20
-1183.39
 30
0.000000
  70
    32
  0
VERTEX
  8
0
  5
BE1
 10
-218.023
 20
-1190.64
 30
0.000000
  70
    32
  0
VERTEX
  8
0
  5
BE2
 10
-218.545
 20
-1197.90
 30
0.000000
  70
    32
  0
VERTEX
  8
0
  5
BE3
 10
-219.063
 20
-1205.15
 30
0.000000
  70
    32
  0
VERTEX
  8
0
  5
BE4
 10
-219.578
 20
-1212.41
 30
0.000000
  70
    32
  0
VERTEX
  8
0
  5
BE5
 10
-220.090
 20
-1219.66
 30
0.000000
  70
    32
  0
VERTEX
  8
0
  5
BE6
 10
-220.599
 20
-1226.92
 30
0.000000
  70
    32
  0
VERTEX
  8
0
  5
BE7
 10
-221.104
 20
-1234.18
 30
0.000000
  70
    32
  0
VERTEX
  8
0
  5
BE8
 10
-221.605
 20
-1241.44
 30
0.000000
  70
    32
  0
VERTEX
  8
0
  5
BE9
 10
-222.103
 20
-1248.70
 30
0.000000
  70
    32
  0
VERTEX
  8
0
  5
BEA
 10
-222.597
 20
-1255.96
 30
0.000000
  70
    32
  0
VERTEX
  8
0
  5
BEB
 10
-223.087
 20
-1263.22
 30
0.000000
  70
    32
  0
VERTEX
  8
0
  5
BEC
 10
-223.573
 20
-1270.49
 30
0.000000
  70
    32
  0
VERTEX
  8
0
  5
BED
 10
-224.055
 20
-1277.75
 30
0.000000
  70
    32
  0
VERTEX
  8
0
  5
BEE
 10
-224.533
 20
-1285.02
 30
0.000000
  70
    32
  0
VERTEX
  8
0
  5
BEF
 10
-225.007
 20
-1292.28
 30
0.000000
  70
    32
  0
VERTEX
  8
0
  5
BF0
 10
-225.477
 20
-1299.55
 30
0.000000
  70
    32
  0
VERTEX
  8
0
  5
BF1
 10
-225.942
 20
-1306.82
 30
0.000000
  70
    32
  0
VERTEX
  8
0
  5
BF2
 10
-226.403
 20
-1314.09
 30
0.000000
  70
    32
  0
VERTEX
  8
0
  5
BF3
 10
-226.859
 20
-1321.36
 30
0.000000
  70
    32
  0
VERTEX
  8
0
  5
BF4
 10
-227.310
 20
-1328.63
 30
0.000000
  70
    32
  0
VERTEX
  8
0
  5
BF5
 10
-227.758
 20
-1335.91
 30
0.000000
  70
    32
  0
VERTEX
  8
0
  5
BF6
 10
-228.200
 20
-1343.18
 30
0.000000
  70
    32
  0
VERTEX
  8
0
  5
BF7
 10
-228.638
 20
-1350.46
 30
0.000000
  70
    32
  0
VERTEX
  8
0
  5
BF8
 10
-229.071
 20
-1357.73
 30
0.000000
  70
    32
  0
VERTEX
  8
0
  5
BF9
 10
-229.500
 20
-1365.01
 30
0.000000
  70
    32
  0
VERTEX
  8
0
  5
BFA
 10
-229.924
 20
-1372.29
 30
0.000000
  70
    32
  0
VERTEX
  8
0
  5
BFB
 10
-230.343
 20
-1379.57
 30
0.000000
  70
    32
  0
VERTEX
  8
0
  5
BFC
 10
-230.758
 20
-1386.85
 30
0.000000
  70
    32
  0
VERTEX
  8
0
  5
BFD
 10
-231.169
 20
-1394.13
 30
0.000000
  70
    32
  0
VERTEX
  8
0
  5
BFE
 10
-231.575
 20
-1401.42
 30
0.000000
  70
    32
  0
VERTEX
  8
0
  5
BFF
 10
-231.977
 20
-1408.70
 30
0.000000
  70
    32
  0
VERTEX
  8
0
  5
C00
 10
-232.374
 20
-1415.99
 30
0.000000
  70
    32
  0
VERTEX
  8
0
  5
C01
 10
-232.766
 20
-1423.27
 30
0.000000
  70
    32
  0
VERTEX
  8
0
  5
C02
 10
-233.155
 20
-1430.56
 30
0.000000
  70
    32
  0
VERTEX
  8
0
  5
C03
 10
-233.538
 20
-1437.85
 30
0.000000
  70
    32
  0
VERTEX
  8
0
  5
C04
 10
-233.918
 20
-1445.14
 30
0.000000
  70
    32
  0
VERTEX
  8
0
  5
C05
 10
-234.293
 20
-1452.43
 30
0.000000
  70
    32
  0
VERTEX
  8
0
  5
C06
 10
-234.663
 20
-1459.72
 30
0.000000
  70
    32
  0
VERTEX
  8
0
  5
C07
 10
-235.030
 20
-1467.01
 30
0.000000
  70
    32
  0
VERTEX
  8
0
  5
C08
 10
-235.391
 20
-1474.31
 30
0.000000
  70
    32
  0
VERTEX
  8
0
  5
C09
 10
-235.749
 20
-1481.60
 30
0.000000
  70
    32
  0
VERTEX
  8
0
  5
C0A
 10
-236.102
 20
-1488.90
 30
0.000000
  70
    32
  0
VERTEX
  8
0
  5
C0B
 10
-236.451
 20
-1496.19
 30
0.000000
  70
    32
  0
VERTEX
  8
0
  5
C0C
 10
-236.796
 20
-1503.49
 30
0.000000
  70
    32
  0
VERTEX
  8
0
  5
C0D
 10
-237.136
 20
-1510.79
 30
0.000000
  70
    32
  0
VERTEX
  8
0
  5
C0E
 10
-237.472
 20
-1518.09
 30
0.000000
  70
    32
  0
VERTEX
  8
0
  5
C0F
 10
-237.804
 20
-1525.39
 30
0.000000
  70
    32
  0
VERTEX
  8
0
  5
C10
 10
-238.132
 20
-1532.69
 30
0.000000
  70
    32
  0
VERTEX
  8
0
  5
C11
 10
-238.456
 20
-1539.99
 30
0.000000
  70
    32
  0
VERTEX
  8
0
  5
C12
 10
-238.775
 20
-1547.29
 30
0.000000
  70
    32
  0
VERTEX
  8
0
  5
C13
 10
-239.091
 20
-1554.59
 30
0.000000
  70
    32
  0
VERTEX
  8
0
  5
C14
 10
-239.402
 20
-1561.90
 30
0.000000
  70
    32
  0
VERTEX
  8
0
  5
C15
 10
-239.709
 20
-1569.20
 30
0.000000
  70
    32
  0
VERTEX
  8
0
  5
C16
 10
-240.013
 20
-1576.51
 30
0.000000
  70
    32
  0
VERTEX
  8
0
  5
C17
 10
-240.312
 20
-1583.81
 30
0.000000
  70
    32
  0
VERTEX
  8
0
  5
C18
 10
-240.608
 20
-1591.12
 30
0.000000
  70
    32
  0
VERTEX
  8
0
  5
C19
 10
-240.899
 20
-1598.43
 30
0.000000
  70
    32
  0
VERTEX
  8
0
  5
C1A
 10
-241.187
 20
-1605.74
 30
0.000000
  70
    32
  0
VERTEX
  8
0
  5
C1B
 10
-241.471
 20
-1613.05
 30
0.000000
  70
    32
  0
VERTEX
  8
0
  5
C1C
 10
-241.751
 20
-1620.36
 30
0.000000
  70
    32
  0
VERTEX
  8
0
  5
C1D
 10
-242.027
 20
-1627.67
 30
0.000000
  70
    32
  0
VERTEX
  8
0
  5
C1E
 10
-242.300
 20
-1634.98
 30
0.000000
  70
    32
  0
VERTEX
  8
0
  5
C1F
 10
-242.568
 20
-1642.29
 30
0.000000
  70
    32
  0
VERTEX
  8
0
  5
C20
 10
-242.834
 20
-1649.60
 30
0.000000
  70
    32
  0
VERTEX
  8
0
  5
C21
 10
-243.095
 20
-1656.91
 30
0.000000
  70
    32
  0
VERTEX
  8
0
  5
C22
 10
-243.353
 20
-1664.23
 30
0.000000
  70
    32
  0
VERTEX
  8
0
  5
C23
 10
-243.607
 20
-1671.54
 30
0.000000
  70
    32
  0
VERTEX
  8
0
  5
C24
 10
-243.858
 20
-1678.85
 30
0.000000
  70
    32
  0
VERTEX
  8
0
  5
C25
 10
-244.105
 20
-1686.17
 30
0.000000
  70
    32
  0
VERTEX
  8
0
  5
C26
 10
-244.349
 20
-1693.48
 30
0.000000
  70
    32
  0
VERTEX
  8
0
  5
C27
 10
-244.590
 20
-1700.80
 30
0.000000
  70
    32
  0
VERTEX
  8
0
  5
C28
 10
-244.826
 20
-1708.11
 30
0.000000
  70
    32
  0
VERTEX
  8
0
  5
C29
 10
-245.060
 20
-1715.43
 30
0.000000
  70
    32
  0
VERTEX
  8
0
  5
C2A
 10
-245.290
 20
-1722.75
 30
0.000000
  70
    32
  0
VERTEX
  8
0
  5
C2B
 10
-245.517
 20
-1730.06
 30
0.000000
  70
    32
  0
VERTEX
  8
0
  5
C2C
 10
-245.740
 20
-1737.38
 30
0.000000
  70
    32
  0
VERTEX
  8
0
  5
C2D
 10
-245.961
 20
-1744.70
 30
0.000000
  70
    32
  0
VERTEX
  8
0
  5
C2E
 10
-246.178
 20
-1752.02
 30
0.000000
  70
    32
  0
VERTEX
  8
0
  5
C2F
 10
-246.391
 20
-1759.34
 30
0.000000
  70
    32
  0
VERTEX
  8
0
  5
C30
 10
-246.602
 20
-1766.66
 30
0.000000
  70
    32
  0
VERTEX
  8
0
  5
C31
 10
-246.809
 20
-1773.97
 30
0.000000
  70
    32
  0
VERTEX
  8
0
  5
C32
 10
-247.014
 20
-1781.29
 30
0.000000
  70
    32
  0
VERTEX
  8
0
  5
C33
 10
-247.215
 20
-1788.61
 30
0.000000
  70
    32
  0
VERTEX
  8
0
  5
C34
 10
-247.413
 20
-1795.93
 30
0.000000
  70
    32
  0
VERTEX
  8
0
  5
C35
 10
-247.608
 20
-1803.25
 30
0.000000
  70
    32
  0
VERTEX
  8
0
  5
C36
 10
-247.800
 20
-1810.57
 30
0.000000
  70
    32
  0
VERTEX
  8
0
  5
C37
 10
-247.990
 20
-1817.89
 30
0.000000
  70
    32
  0
VERTEX
  8
0
  5
C38
 10
-248.176
 20
-1825.21
 30
0.000000
  70
    32
  0
VERTEX
  8
0
  5
C39
 10
-248.359
 20
-1832.54
 30
0.000000
  70
    32
  0
VERTEX
  8
0
  5
C3A
 10
-248.540
 20
-1839.86
 30
0.000000
  70
    32
  0
VERTEX
  8
0
  5
C3B
 10
-248.717
 20
-1847.18
 30
0.000000
  70
    32
  0
VERTEX
  8
0
  5
C3C
 10
-248.892
 20
-1854.50
 30
0.000000
  70
    32
  0
VERTEX
  8
0
  5
C3D
 10
-249.064
 20
-1861.82
 30
0.000000
  70
    32
  0
VERTEX
  8
0
  5
C3E
 10
-249.234
 20
-1869.14
 30
0.000000
  70
    32
  0
VERTEX
  8
0
  5
C3F
 10
-249.401
 20
-1876.46
 30
0.000000
  70
    32
  0
VERTEX
  8
0
  5
C40
 10
-249.564
 20
-1883.78
 30
0.000000
  70
    32
  0
VERTEX
  8
0
  5
C41
 10
-249.726
 20
-1891.11
 30
0.000000
  70
    32
  0
VERTEX
  8
0
  5
C42
 10
-249.885
 20
-1898.43
 30
0.000000
  70
    32
  0
VERTEX
  8
0
  5
C43
 10
-250.041
 20
-1905.75
 30
0.000000
  70
    32
  0
VERTEX
  8
0
  5
C44
 10
-250.194
 20
-1913.07
 30
0.000000
  70
    32
  0
VERTEX
  8
0
  5
C45
 10
-250.345
 20
-1920.39
 30
0.000000
  70
    32
  0
VERTEX
  8
0
  5
C46
 10
-250.494
 20
-1927.71
 30
0.000000
  70
    32
  0
VERTEX
  8
0
  5
C47
 10
-250.640
 20
-1935.03
 30
0.000000
  70
    32
  0
VERTEX
  8
0
  5
C48
 10
-250.784
 20
-1942.35
 30
0.000000
  70
    32
  0
VERTEX
  8
0
  5
C49
 10
-250.925
 20
-1949.67
 30
0.000000
  70
    32
  0
VERTEX
  8
0
  5
C4A
 10
-251.064
 20
-1957.00
 30
0.000000
  70
    32
  0
VERTEX
  8
0
  5
C4B
 10
-251.200
 20
-1964.32
 30
0.000000
  70
    32
  0
VERTEX
  8
0
  5
C4C
 10
-251.335
 20
-1971.64
 30
0.000000
  70
    32
  0
VERTEX
  8
0
  5
C4D
 10
-251.467
 20
-1978.96
 30
0.000000
  70
    32
  0
VERTEX
  8
0
  5
C4E
 10
-251.596
 20
-1986.28
 30
0.000000
  70
    32
  0
VERTEX
  8
0
  5
C4F
 10
-251.724
 20
-1993.60
 30
0.000000
  70
    32
  0
VERTEX
  8
0
  5
C50
 10
-251.849
 20
-2000.92
 30
0.000000
  70
    32
  0
VERTEX
  8
0
  5
C51
 10
-251.973
 20
-2008.23
 30
0.000000
  70
    32
  0
VERTEX
  8
0
  5
C52
 10
-252.094
 20
-2015.55
 30
0.000000
  70
    32
  0
VERTEX
  8
0
  5
C53
 10
-252.212
 20
-2022.87
 30
0.000000
  70
    32
  0
VERTEX
  8
0
  5
C54
 10
-252.328
 20
-2030.19
 30
0.000000
  70
    32
  0
VERTEX
  8
0
  5
C55
 10
-252.441
 20
-2037.51
 30
0.000000
  70
    32
  0
VERTEX
  8
0
  5
C56
 10
-252.551
 20
-2044.83
 30
0.000000
  70
    32
  0
VERTEX
  8
0
  5
C57
 10
-252.657
 20
-2052.15
 30
0.000000
  70
    32
  0
VERTEX
  8
0
  5
C58
 10
-252.760
 20
-2059.46
 30
0.000000
  70
    32
  0
VERTEX
  8
0
  5
C59
 10
-252.860
 20
-2066.78
 30
0.000000
  70
    32
  0
VERTEX
  8
0
  5
C5A
 10
-252.956
 20
-2074.10
 30
0.000000
  70
    32
  0
VERTEX
  8
0
  5
C5B
 10
-253.048
 20
-2081.42
 30
0.000000
  70
    32
  0
VERTEX
  8
0
  5
C5C
 10
-253.136
 20
-2088.74
 30
0.000000
  70
    32
  0
VERTEX
  8
0
  5
C5D
 10
-253.219
 20
-2096.06
 30
0.000000
  70
    32
  0
VERTEX
  8
0
  5
C5E
 10
-253.298
 20
-2103.38
 30
0.000000
  70
    32
  0
VERTEX
  8
0
  5
C5F
 10
-253.372
 20
-2110.69
 30
0.000000
  70
    32
  0
VERTEX
  8
0
  5
C60
 10
-253.442
 20
-2118.01
 30
0.000000
  70
    32
  0
VERTEX
  8
0
  5
C61
 10
-253.506
 20
-2125.33
 30
0.000000
  70
    32
  0
VERTEX
  8
0
  5
C62
 10
-253.565
 20
-2132.65
 30
0.000000
  70
    32
  0
VERTEX
  8
0
  5
C63
 10
-253.618
 20
-2139.98
 30
0.000000
  70
    32
  0
VERTEX
  8
0
  5
C64
 10
-253.666
 20
-2147.30
 30
0.000000
  70
    32
  0
VERTEX
  8
0
  5
C65
 10
-253.708
 20
-2154.62
 30
0.000000
  70
    32
  0
VERTEX
  8
0
  5
C66
 10
-253.745
 20
-2161.94
 30
0.000000
  70
    32
  0
VERTEX
  8
0
  5
C67
 10
-253.774
 20
-2169.26
 30
0.000000
  70
    32
  0
VERTEX
  8
0
  5
C68
 10
-253.798
 20
-2176.59
 30
0.000000
  70
    32
  0
VERTEX
  8
0
  5
C69
 10
-253.815
 20
-2183.91
 30
0.000000
  70
    32
  0
VERTEX
  8
0
  5
C6A
 10
-253.825
 20
-2191.23
 30
0.000000
  70
    32
  0
VERTEX
  8
0
  5
C6B
 10
-253.829
 20
-2198.56
 30
0.000000
  70
    32
  0
VERTEX
  8
0
  5
C6C
 10
-253.825
 20
-2205.89
 30
0.000000
  70
    32
  0
VERTEX
  8
0
  5
C6D
 10
-253.814
 20
-2213.21
 30
0.000000
  70
    32
  0
VERTEX
  8
0
  5
C6E
 10
-253.795
 20
-2220.54
 30
0.000000
  70
    32
  0
VERTEX
  8
0
  5
C6F
 10
-253.769
 20
-2227.87
 30
0.000000
  70
    32
  0
VERTEX
  8
0
  5
C70
 10
-253.735
 20
-2235.20
 30
0.000000
  70
    32
  0
VERTEX
  8
0
  5
C71
 10
-253.693
 20
-2242.53
 30
0.000000
  70
    32
  0
VERTEX
  8
0
  5
C72
 10
-253.642
 20
-2249.86
 30
0.000000
  70
    32
  0
VERTEX
  8
0
  5
C73
 10
-253.583
 20
-2257.19
 30
0.000000
  70
    32
  0
VERTEX
  8
0
  5
C74
 10
-253.516
 20
-2264.52
 30
0.000000
  70
    32
  0
VERTEX
  8
0
  5
C75
 10
-253.440
 20
-2271.86
 30
0.000000
  70
    32
  0
VERTEX
  8
0
  5
C76
 10
-253.355
 20
-2279.19
 30
0.000000
  70
    32
  0
VERTEX
  8
0
  5
C77
 10
-253.261
 20
-2286.53
 30
0.000000
  70
    32
  0
VERTEX
  8
0
  5
C78
 10
-253.157
 20
-2293.87
 30
0.000000
  70
    32
  0
VERTEX
  8
0
  5
C79
 10
-253.044
 20
-2301.21
 30
0.000000
  70
    32
  0
VERTEX
  8
0
  5
C7A
 10
-252.921
 20
-2308.55
 30
0.000000
  70
    32
  0
VERTEX
  8
0
  5
C7B
 10
-252.788
 20
-2315.89
 30
0.000000
  70
    32
  0
VERTEX
  8
0
  5
C7C
 10
-252.645
 20
-2323.23
 30
0.000000
  70
    32
  0
VERTEX
  8
0
  5
C7D
 10
-252.492
 20
-2330.58
 30
0.000000
  70
    32
  0
VERTEX
  8
0
  5
C7E
 10
-252.329
 20
-2337.92
 30
0.000000
  70
    32
  0
VERTEX
  8
0
  5
C7F
 10
-252.155
 20
-2345.27
 30
0.000000
  70
    32
  0
VERTEX
  8
0
  5
C80
 10
-251.970
 20
-2352.62
 30
0.000000
  70
    32
  0
VERTEX
  8
0
  5
C81
 10
-251.774
 20
-2359.97
 30
0.000000
  70
    32
  0
VERTEX
  8
0
  5
C82
 10
-251.566
 20
-2367.32
 30
0.000000
  70
    32
  0
VERTEX
  8
0
  5
C83
 10
-251.348
 20
-2374.67
 30
0.000000
  70
    32
  0
VERTEX
  8
0
  5
C84
 10
-251.117
 20
-2382.03
 30
0.000000
  70
    32
  0
VERTEX
  8
0
  5
C85
 10
-250.873
 20
-2389.38
 30
0.000000
  70
    32
  0
VERTEX
  8
0
  5
C86
 10
-250.614
 20
-2396.73
 30
0.000000
  70
    32
  0
VERTEX
  8
0
  5
C87
 10
-250.338
 20
-2404.09
 30
0.000000
  70
    32
  0
VERTEX
  8
0
  5
C88
 10
-250.044
 20
-2411.43
 30
0.000000
  70
    32
  0
VERTEX
  8
0
  5
C89
 10
-249.731
 20
-2418.78
 30
0.000000
  70
    32
  0
VERTEX
  8
0
  5
C8A
 10
-249.397
 20
-2426.12
 30
0.000000
  70
    32
  0
VERTEX
  8
0
  5
C8B
 10
-249.040
 20
-2433.45
 30
0.000000
  70
    32
  0
VERTEX
  8
0
  5
C8C
 10
-248.660
 20
-2440.77
 30
0.000000
  70
    32
  0
VERTEX
  8
0
  5
C8D
 10
-248.254
 20
-2448.09
 30
0.000000
  70
    32
  0
VERTEX
  8
0
  5
C8E
 10
-247.821
 20
-2455.39
 30
0.000000
  70
    32
  0
VERTEX
  8
0
  5
C8F
 10
-247.360
 20
-2462.69
 30
0.000000
  70
    32
  0
VERTEX
  8
0
  5
C90
 10
-246.869
 20
-2469.97
 30
0.000000
  70
    32
  0
VERTEX
  8
0
  5
C91
 10
-246.347
 20
-2477.24
 30
0.000000
  70
    32
  0
VERTEX
  8
0
  5
C92
 10
-245.792
 20
-2484.49
 30
0.000000
  70
    32
  0
VERTEX
  8
0
  5
C93
 10
-245.202
 20
-2491.73
 30
0.000000
  70
    32
  0
VERTEX
  8
0
  5
C94
 10
-244.577
 20
-2498.96
 30
0.000000
  70
    32
  0
VERTEX
  8
0
  5
C95
 10
-243.915
 20
-2506.16
 30
0.000000
  70
    32
  0
VERTEX
  8
0
  5
C96
 10
-243.214
 20
-2513.35
 30
0.000000
  70
    32
  0
VERTEX
  8
0
  5
C97
 10
-242.472
 20
-2520.51
 30
0.000000
  70
    32
  0
VERTEX
  8
0
  5
C98
 10
-241.689
 20
-2527.66
 30
0.000000
  70
    32
  0
VERTEX
  8
0
  5
C99
 10
-240.863
 20
-2534.78
 30
0.000000
  70
    32
  0
VERTEX
  8
0
  5
C9A
 10
-239.992
 20
-2541.88
 30
0.000000
  70
    32
  0
VERTEX
  8
0
  5
C9B
 10
-239.075
 20
-2548.96
 30
0.000000
  70
    32
  0
VERTEX
  8
0
  5
C9C
 10
-238.111
 20
-2556.01
 30
0.000000
  70
    32
  0
VERTEX
  8
0
  5
C9D
 10
-237.097
 20
-2563.03
 30
0.000000
  70
    32
  0
VERTEX
  8
0
  5
C9E
 10
-236.034
 20
-2570.03
 30
0.000000
  70
    32
  0
VERTEX
  8
0
  5
C9F
 10
-234.923
 20
-2577.00
 30
0.000000
  70
    32
  0
VERTEX
  8
0
  5
CA0
 10
-233.765
 20
-2583.94
 30
0.000000
  70
    32
  0
VERTEX
  8
0
  5
CA1
 10
-232.561
 20
-2590.86
 30
0.000000
  70
    32
  0
VERTEX
  8
0
  5
CA2
 10
-231.313
 20
-2597.75
 30
0.000000
  70
    32
  0
VERTEX
  8
0
  5
CA3
 10
-230.023
 20
-2604.61
 30
0.000000
  70
    32
  0
VERTEX
  8
0
  5
CA4
 10
-228.691
 20
-2611.44
 30
0.000000
  70
    32
  0
VERTEX
  8
0
  5
CA5
 10
-227.319
 20
-2618.25
 30
0.000000
  70
    32
  0
VERTEX
  8
0
  5
CA6
 10
-225.908
 20
-2625.03
 30
0.000000
  70
    32
  0
VERTEX
  8
0
  5
CA7
 10
-224.460
 20
-2631.79
 30
0.000000
  70
    32
  0
VERTEX
  8
0
  5
CA8
 10
-222.976
 20
-2638.51
 30
0.000000
  70
    32
  0
VERTEX
  8
0
  5
CA9
 10
-221.457
 20
-2645.22
 30
0.000000
  70
    32
  0
VERTEX
  8
0
  5
CAA
 10
-219.906
 20
-2651.89
 30
0.000000
  70
    32
  0
VERTEX
  8
0
  5
CAB
 10
-218.322
 20
-2658.54
 30
0.000000
  70
    32
  0
VERTEX
  8
0
  5
CAC
 10
-216.708
 20
-2665.16
 30
0.000000
  70
    32
  0
VERTEX
  8
0
  5
CAD
 10
-215.065
 20
-2671.75
 30
0.000000
  70
    32
  0
VERTEX
  8
0
  5
CAE
 10
-213.394
 20
-2678.32
 30
0.000000
  70
    32
  0
VERTEX
  8
0
  5
CAF
 10
-211.697
 20
-2684.86
 30
0.000000
  70
    32
  0
VERTEX
  8
0
  5
CB0
 10
-209.974
 20
-2691.38
 30
0.000000
  70
    32
  0
VERTEX
  8
0
  5
CB1
 10
-208.228
 20
-2697.87
 30
0.000000
  70
    32
  0
VERTEX
  8
0
  5
CB2
 10
-206.460
 20
-2704.33
 30
0.000000
  70
    32
  0
VERTEX
  8
0
  5
CB3
 10
-204.671
 20
-2710.77
 30
0.000000
  70
    32
  0
VERTEX
  8
0
  5
CB4
 10
-202.863
 20
-2717.18
 30
0.000000
  70
    32
  0
VERTEX
  8
0
  5
CB5
 10
-201.036
 20
-2723.56
 30
0.000000
  70
    32
  0
VERTEX
  8
0
  5
CB6
 10
-199.192
 20
-2729.92
 30
0.000000
  70
    32
  0
VERTEX
  8
0
  5
CB7
 10
-197.333
 20
-2736.25
 30
0.000000
  70
    32
  0
VERTEX
  8
0
  5
CB8
 10
-195.460
 20
-2742.56
 30
0.000000
  70
    32
  0
VERTEX
  8
0
  5
CB9
 10
-193.574
 20
-2748.84
 30
0.000000
  70
    32
  0
VERTEX
  8
0
  5
CBA
 10
-191.674
 20
-2755.10
 30
0.000000
  70
    32
  0
VERTEX
  8
0
  5
CBB
 10
-189.759
 20
-2761.33
 30
0.000000
  70
    32
  0
VERTEX
  8
0
  5
CBC
 10
-187.829
 20
-2767.53
 30
0.000000
  70
    32
  0
VERTEX
  8
0
  5
CBD
 10
-185.883
 20
-2773.70
 30
0.000000
  70
    32
  0
VERTEX
  8
0
  5
CBE
 10
-183.919
 20
-2779.85
 30
0.000000
  70
    32
  0
VERTEX
  8
0
  5
CBF
 10
-181.937
 20
-2785.98
 30
0.000000
  70
    32
  0
VERTEX
  8
0
  5
CC0
 10
-179.936
 20
-2792.07
 30
0.000000
  70
    32
  0
VERTEX
  8
0
  5
CC1
 10
-177.914
 20
-2798.14
 30
0.000000
  70
    32
  0
VERTEX
  8
0
  5
CC2
 10
-175.871
 20
-2804.19
 30
0.000000
  70
    32
  0
VERTEX
  8
0
  5
CC3
 10
-173.807
 20
-2810.20
 30
0.000000
  70
    32
  0
VERTEX
  8
0
  5
CC4
 10
-171.719
 20
-2816.19
 30
0.000000
  70
    32
  0
VERTEX
  8
0
  5
CC5
 10
-169.608
 20
-2822.15
 30
0.000000
  70
    32
  0
VERTEX
  8
0
  5
CC6
 10
-167.472
 20
-2828.08
 30
0.000000
  70
    32
  0
VERTEX
  8
0
  5
CC7
 10
-165.310
 20
-2833.99
 30
0.000000
  70
    32
  0
VERTEX
  8
0
  5
CC8
 10
-163.121
 20
-2839.87
 30
0.000000
  70
    32
  0
VERTEX
  8
0
  5
CC9
 10
-160.905
 20
-2845.72
 30
0.000000
  70
    32
  0
VERTEX
  8
0
  5
CCA
 10
-158.660
 20
-2851.54
 30
0.000000
  70
    32
  0
VERTEX
  8
0
  5
CCB
 10
-156.386
 20
-2857.33
 30
0.000000
  70
    32
  0
VERTEX
  8
0
  5
CCC
 10
-154.082
 20
-2863.10
 30
0.000000
  70
    32
  0
VERTEX
  8
0
  5
CCD
 10
-151.746
 20
-2868.84
 30
0.000000
  70
    32
  0
VERTEX
  8
0
  5
CCE
 10
-149.379
 20
-2874.55
 30
0.000000
  70
    32
  0
VERTEX
  8
0
  5
CCF
 10
-146.978
 20
-2880.23
 30
0.000000
  70
    32
  0
VERTEX
  8
0
  5
CD0
 10
-144.543
 20
-2885.88
 30
0.000000
  70
    32
  0
VERTEX
  8
0
  5
CD1
 10
-142.073
 20
-2891.50
 30
0.000000
  70
    32
  0
VERTEX
  8
0
  5
CD2
 10
-139.567
 20
-2897.09
 30
0.000000
  70
    32
  0
VERTEX
  8
0
  5
CD3
 10
-137.026
 20
-2902.64
 30
0.000000
  70
    32
  0
VERTEX
  8
0
  5
CD4
 10
-134.448
 20
-2908.14
 30
0.000000
  70
    32
  0
VERTEX
  8
0
  5
CD5
 10
-131.833
 20
-2913.57
 30
0.000000
  70
    32
  0
VERTEX
  8
0
  5
CD6
 10
-129.181
 20
-2918.94
 30
0.000000
  70
    32
  0
VERTEX
  8
0
  5
CD7
 10
-126.492
 20
-2924.23
 30
0.000000
  70
    32
  0
VERTEX
  8
0
  5
CD8
 10
-123.765
 20
-2929.43
 30
0.000000
  70
    32
  0
VERTEX
  8
0
  5
CD9
 10
-120.999
 20
-2934.53
 30
0.000000
  70
    32
  0
VERTEX
  8
0
  5
CDA
 10
-118.196
 20
-2939.53
 30
0.000000
  70
    32
  0
VERTEX
  8
0
  5
CDB
 10
-115.353
 20
-2944.41
 30
0.000000
  70
    32
  0
VERTEX
  8
0
  5
CDC
 10
-112.471
 20
-2949.17
 30
0.000000
  70
    32
  0
VERTEX
  8
0
  5
CDD
 10
-109.549
 20
-2953.79
 30
0.000000
  70
    32
  0
VERTEX
  8
0
  5
CDE
 10
-106.588
 20
-2958.26
 30
0.000000
  70
    32
  0
VERTEX
  8
0
  5
CDF
 10
-103.586
 20
-2962.59
 30
0.000000
  70
    32
  0
VERTEX
  8
0
  5
CE0
 10
-100.543
 20
-2966.75
 30
0.000000
  70
    32
  0
VERTEX
  8
0
  5
CE1
 10
-97.4597
 20
-2970.74
 30
0.000000
  70
    32
  0
VERTEX
  8
0
  5
CE2
 10
-94.3347
 20
-2974.55
 30
0.000000
  70
    32
  0
VERTEX
  8
0
  5
CE3
 10
-91.1680
 20
-2978.17
 30
0.000000
  70
    32
  0
VERTEX
  8
0
  5
CE4
 10
-87.9592
 20
-2981.59
 30
0.000000
  70
    32
  0
VERTEX
  8
0
  5
CE5
 10
-84.7079
 20
-2984.80
 30
0.000000
  70
    32
  0
VERTEX
  8
0
  5
CE6
 10
-81.4137
 20
-2987.80
 30
0.000000
  70
    32
  0
VERTEX
  8
0
  5
CE7
 10
-78.0764
 20
-2990.57
 30
0.000000
  70
    32
  0
VERTEX
  8
0
  5
CE8
 10
-74.6955
 20
-2993.10
 30
0.000000
  70
    32
  0
VERTEX
  8
0
  5
CE9
 10
-71.2709
 20
-2995.38
 30
0.000000
  70
    32
  0
VERTEX
  8
0
  5
CEA
 10
-67.8039
 20
-2997.43
 30
0.000000
  70
    32
  0
VERTEX
  8
0
  5
CEB
 10
-64.2980
 20
-2999.24
 30
0.000000
  70
    32
  0
VERTEX
  8
0
  5
CEC
 10
-60.7562
 20
-3000.84
 30
0.000000
  70
    32
  0
VERTEX
  8
0
  5
CED
 10
-57.1819
 20
-3002.24
 30
0.000000
  70
    32
  0
VERTEX
  8
0
  5
CEE
 10
-53.5783
 20
-3003.45
 30
0.000000
  70
    32
  0
VERTEX
  8
0
  5
CEF
 10
-49.9487
 20
-3004.48
 30
0.000000
  70
    32
  0
VERTEX
  8
0
  5
CF0
 10
-46.2962
 20
-3005.35
 30
0.000000
  70
    32
  0
VERTEX
  8
0
  5
CF1
 10
-42.6243
 20
-3006.08
 30
0.000000
  70
    32
  0
VERTEX
  8
0
  5
CF2
 10
-38.9361
 20
-3006.67
 30
0.000000
  70
    32
  0
VERTEX
  8
0
  5
CF3
 10
-35.2348
 20
-3007.14
 30
0.000000
  70
    32
  0
VERTEX
  8
0
  5
CF4
 10
-31.5238
 20
-3007.50
 30
0.000000
  70
    32
  0
VERTEX
  8
0
  5
CF5
 10
-27.8063
 20
-3007.77
 30
0.000000
  70
    32
  0
VERTEX
  8
0
  5
CF6
 10
-24.0856
 20
-3007.96
 30
0.000000
  70
    32
  0
VERTEX
  8
0
  5
CF7
 10
-20.3648
 20
-3008.08
 30
0.000000
  70
    32
  0
VERTEX
  8
0
  5
CF8
 10
-16.6473
 20
-3008.15
 30
0.000000
  70
    32
  0
VERTEX
  8
0
  5
CF9
 10
-12.9363
 20
-3008.18
 30
0.000000
  70
    32
  0
VERTEX
  8
0
  5
CFA
 10
-9.23510
 20
-3008.18
 30
0.000000
  70
    32
  0
VERTEX
  8
0
  5
CFB
 10
-5.54689
 20
-3008.17
 30
0.000000
  70
    32
  0
VERTEX
  8
0
  5
CFC
 10
-1.87477
 20
-3008.16
 30
0.000000
  70
    32
  0
VERTEX
  8
0
  5
CFD
 10
1.78765
 20
-3008.16
 30
0.000000
  70
    32
  0
VERTEX
  8
0
  5
CFE
 10
5.45940
 20
-3008.17
 30
0.000000
  70
    32
  0
VERTEX
  8
0
  5
CFF
 10
9.14726
 20
-3008.18
 30
0.000000
  70
    32
  0
VERTEX
  8
0
  5
D00
 10
12.8482
 20
-3008.18
 30
0.000000
  70
    32
  0
VERTEX
  8
0
  5
D01
 10
16.5590
 20
-3008.15
 30
0.000000
  70
    32
  0
VERTEX
  8
0
  5
D02
 10
20.2764
 20
-3008.08
 30
0.000000
  70
    32
  0
VERTEX
  8
0
  5
D03
 10
23.9971
 20
-3007.96
 30
0.000000
  70
    32
  0
VERTEX
  8
0
  5
D04
 10
27.7179
 20
-3007.78
 30
0.000000
  70
    32
  0
VERTEX
  8
0
  5
D05
 10
31.4355
 20
-3007.51
 30
0.000000
  70
    32
  0
VERTEX
  8
0
  5
D06
 10
35.1467
 20
-3007.15
 30
0.000000
  70
    32
  0
VERTEX
  8
0
  5
D07
 10
38.8482
 20
-3006.68
 30
0.000000
  70
    32
  0
VERTEX
  8
0
  5
D08
 10
42.5368
 20
-3006.09
 30
0.000000
  70
    32
  0
VERTEX
  8
0
  5
D09
 10
46.2092
 20
-3005.37
 30
0.000000
  70
    32
  0
VERTEX
  8
0
  5
D0A
 10
49.8621
 20
-3004.50
 30
0.000000
  70
    32
  0
VERTEX
  8
0
  5
D0B
 10
53.4923
 20
-3003.47
 30
0.000000
  70
    32
  0
VERTEX
  8
0
  5
D0C
 10
57.0966
 20
-3002.27
 30
0.000000
  70
    32
  0
VERTEX
  8
0
  5
D0D
 10
60.6716
 20
-3000.88
 30
0.000000
  70
    32
  0
VERTEX
  8
0
  5
D0E
 10
64.2142
 20
-2999.28
 30
0.000000
  70
    32
  0
VERTEX
  8
0
  5
D0F
 10
67.7210
 20
-2997.47
 30
0.000000
  70
    32
  0
VERTEX
  8
0
  5
D10
 10
71.1889
 20
-2995.43
 30
0.000000
  70
    32
  0
VERTEX
  8
0
  5
D11
 10
74.6146
 20
-2993.15
 30
0.000000
  70
    32
  0
VERTEX
  8
0
  5
D12
 10
77.9965
 20
-2990.63
 30
0.000000
  70
    32
  0
VERTEX
  8
0
  5
D13
 10
81.3349
 20
-2987.87
 30
0.000000
  70
    32
  0
VERTEX
  8
0
  5
D14
 10
84.6300
 20
-2984.88
 30
0.000000
  70
    32
  0
VERTEX
  8
0
  5
D15
 10
87.8823
 20
-2981.67
 30
0.000000
  70
    32
  0
VERTEX
  8
0
  5
D16
 10
91.0922
 20
-2978.25
 30
0.000000
  70
    32
  0
VERTEX
  8
0
  5
D17
 10
94.2599
 20
-2974.64
 30
0.000000
  70
    32
  0
VERTEX
  8
0
  5
D18
 10
97.3858
 20
-2970.83
 30
0.000000
  70
    32
  0
VERTEX
  8
0
  5
D19
 10
100.470
 20
-2966.85
 30
0.000000
  70
    32
  0
VERTEX
  8
0
  5
D1A
 10
103.514
 20
-2962.69
 30
0.000000
  70
    32
  0
VERTEX
  8
0
  5
D1B
 10
106.517
 20
-2958.37
 30
0.000000
  70
    32
  0
VERTEX
  8
0
  5
D1C
 10
109.479
 20
-2953.90
 30
0.000000
  70
    32
  0
VERTEX
  8
0
  5
D1D
 10
112.402
 20
-2949.28
 30
0.000000
  70
    32
  0
VERTEX
  8
0
  5
D1E
 10
115.285
 20
-2944.53
 30
0.000000
  70
    32
  0
VERTEX
  8
0
  5
D1F
 10
118.128
 20
-2939.65
 30
0.000000
  70
    32
  0
VERTEX
  8
0
  5
D20
 10
120.933
 20
-2934.65
 30
0.000000
  70
    32
  0
VERTEX
  8
0
  5
D21
 10
123.699
 20
-2929.55
 30
0.000000
  70
    32
  0
VERTEX
  8
0
  5
D22
 10
126.427
 20
-2924.36
 30
0.000000
  70
    32
  0
VERTEX
  8
0
  5
D23
 10
129.117
 20
-2919.07
 30
0.000000
  70
    32
  0
VERTEX
  8
0
  5
D24
 10
131.770
 20
-2913.70
 30
0.000000
  70
    32
  0
VERTEX
  8
0
  5
D25
 10
134.386
 20
-2908.27
 30
0.000000
  70
    32
  0
VERTEX
  8
0
  5
D26
 10
136.965
 20
-2902.77
 30
0.000000
  70
    32
  0
VERTEX
  8
0
  5
D27
 10
139.507
 20
-2897.22
 30
0.000000
  70
    32
  0
VERTEX
  8
0
  5
D28
 10
142.014
 20
-2891.64
 30
0.000000
  70
    32
  0
VERTEX
  8
0
  5
D29
 10
144.485
 20
-2886.01
 30
0.000000
  70
    32
  0
VERTEX
  8
0
  5
D2A
 10
146.920
 20
-2880.36
 30
0.000000
  70
    32
  0
VERTEX
  8
0
  5
D2B
 10
149.322
 20
-2874.68
 30
0.000000
  70
    32
  0
VERTEX
  8
0
  5
D2C
 10
151.691
 20
-2868.97
 30
0.000000
  70
    32
  0
VERTEX
  8
0
  5
D2D
 10
154.027
 20
-2863.24
 30
0.000000
  70
    32
  0
VERTEX
  8
0
  5
D2E
 10
156.332
 20
-2857.47
 30
0.000000
  70
    32
  0
VERTEX
  8
0
  5
D2F
 10
158.607
 20
-2851.68
 30
0.000000
  70
    32
  0
VERTEX
  8
0
  5
D30
 10
160.852
 20
-2845.86
 30
0.000000
  70
    32
  0
VERTEX
  8
0
  5
D31
 10
163.069
 20
-2840.01
 30
0.000000
  70
    32
  0
VERTEX
  8
0
  5
D32
 10
165.258
 20
-2834.13
 30
0.000000
  70
    32
  0
VERTEX
  8
0
  5
D33
 10
167.421
 20
-2828.22
 30
0.000000
  70
    32
  0
VERTEX
  8
0
  5
D34
 10
169.558
 20
-2822.29
 30
0.000000
  70
    32
  0
VERTEX
  8
0
  5
D35
 10
171.670
 20
-2816.33
 30
0.000000
  70
    32
  0
VERTEX
  8
0
  5
D36
 10
173.758
 20
-2810.34
 30
0.000000
  70
    32
  0
VERTEX
  8
0
  5
D37
 10
175.823
 20
-2804.33
 30
0.000000
  70
    32
  0
VERTEX
  8
0
  5
D38
 10
177.866
 20
-2798.29
 30
0.000000
  70
    32
  0
VERTEX
  8
0
  5
D39
 10
179.888
 20
-2792.22
 30
0.000000
  70
    32
  0
VERTEX
  8
0
  5
D3A
 10
181.890
 20
-2786.12
 30
0.000000
  70
    32
  0
VERTEX
  8
0
  5
D3B
 10
183.873
 20
-2780.00
 30
0.000000
  70
    32
  0
VERTEX
  8
0
  5
D3C
 10
185.837
 20
-2773.85
 30
0.000000
  70
    32
  0
VERTEX
  8
0
  5
D3D
 10
187.784
 20
-2767.67
 30
0.000000
  70
    32
  0
VERTEX
  8
0
  5
D3E
 10
189.714
 20
-2761.47
 30
0.000000
  70
    32
  0
VERTEX
  8
0
  5
D3F
 10
191.629
 20
-2755.24
 30
0.000000
  70
    32
  0
VERTEX
  8
0
  5
D40
 10
193.529
 20
-2748.99
 30
0.000000
  70
    32
  0
VERTEX
  8
0
  5
D41
 10
195.415
 20
-2742.71
 30
0.000000
  70
    32
  0
VERTEX
  8
0
  5
D42
 10
197.289
 20
-2736.40
 30
0.000000
  70
    32
  0
VERTEX
  8
0
  5
D43
 10
199.148
 20
-2730.07
 30
0.000000
  70
    32
  0
VERTEX
  8
0
  5
D44
 10
200.992
 20
-2723.71
 30
0.000000
  70
    32
  0
VERTEX
  8
0
  5
D45
 10
202.819
 20
-2717.33
 30
0.000000
  70
    32
  0
VERTEX
  8
0
  5
D46
 10
204.628
 20
-2710.92
 30
0.000000
  70
    32
  0
VERTEX
  8
0
  5
D47
 10
206.417
 20
-2704.48
 30
0.000000
  70
    32
  0
VERTEX
  8
0
  5
D48
 10
208.185
 20
-2698.02
 30
0.000000
  70
    32
  0
VERTEX
  8
0
  5
D49
 10
209.932
 20
-2691.53
 30
0.000000
  70
    32
  0
VERTEX
  8
0
  5
D4A
 10
211.654
 20
-2685.02
 30
0.000000
  70
    32
  0
VERTEX
  8
0
  5
D4B
 10
213.352
 20
-2678.48
 30
0.000000
  70
    32
  0
VERTEX
  8
0
  5
D4C
 10
215.024
 20
-2671.91
 30
0.000000
  70
    32
  0
VERTEX
  8
0
  5
D4D
 10
216.667
 20
-2665.32
 30
0.000000
  70
    32
  0
VERTEX
  8
0
  5
D4E
 10
218.282
 20
-2658.69
 30
0.000000
  70
    32
  0
VERTEX
  8
0
  5
D4F
 10
219.866
 20
-2652.05
 30
0.000000
  70
    32
  0
VERTEX
  8
0
  5
D50
 10
221.418
 20
-2645.37
 30
0.000000
  70
    32
  0
VERTEX
  8
0
  5
D51
 10
222.938
 20
-2638.67
 30
0.000000
  70
    32
  0
VERTEX
  8
0
  5
D52
 10
224.423
 20
-2631.95
 30
0.000000
  70
    32
  0
VERTEX
  8
0
  5
D53
 10
225.871
 20
-2625.19
 30
0.000000
  70
    32
  0
VERTEX
  8
0
  5
D54
 10
227.283
 20
-2618.41
 30
0.000000
  70
    32
  0
VERTEX
  8
0
  5
D55
 10
228.656
 20
-2611.61
 30
0.000000
  70
    32
  0
VERTEX
  8
0
  5
D56
 10
229.989
 20
-2604.77
 30
0.000000
  70
    32
  0
VERTEX
  8
0
  5
D57
 10
231.281
 20
-2597.91
 30
0.000000
  70
    32
  0
VERTEX
  8
0
  5
D58
 10
232.530
 20
-2591.02
 30
0.000000
  70
    32
  0
VERTEX
  8
0
  5
D59
 10
233.735
 20
-2584.11
 30
0.000000
  70
    32
  0
VERTEX
  8
0
  5
D5A
 10
234.895
 20
-2577.17
 30
0.000000
  70
    32
  0
VERTEX
  8
0
  5
D5B
 10
236.008
 20
-2570.20
 30
0.000000
  70
    32
  0
VERTEX
  8
0
  5
D5C
 10
237.072
 20
-2563.20
 30
0.000000
  70
    32
  0
VERTEX
  8
0
  5
D5D
 10
238.088
 20
-2556.18
 30
0.000000
  70
    32
  0
VERTEX
  8
0
  5
D5E
 10
239.054
 20
-2549.13
 30
0.000000
  70
    32
  0
VERTEX
  8
0
  5
D5F
 10
239.973
 20
-2542.05
 30
0.000000
  70
    32
  0
VERTEX
  8
0
  5
D60
 10
240.845
 20
-2534.95
 30
0.000000
  70
    32
  0
VERTEX
  8
0
  5
D61
 10
241.673
 20
-2527.83
 30
0.000000
  70
    32
  0
VERTEX
  8
0
  5
D62
 10
242.458
 20
-2520.68
 30
0.000000
  70
    32
  0
VERTEX
  8
0
  5
D63
 10
243.201
 20
-2513.52
 30
0.000000
  70
    32
  0
VERTEX
  8
0
  5
D64
 10
243.903
 20
-2506.33
 30
0.000000
  70
    32
  0
VERTEX
  8
0
  5
D65
 10
244.567
 20
-2499.13
 30
0.000000
  70
    32
  0
VERTEX
  8
0
  5
D66
 10
245.194
 20
-2491.90
 30
0.000000
  70
    32
  0
VERTEX
  8
0
  5
D67
 10
245.785
 20
-2484.67
 30
0.000000
  70
    32
  0
VERTEX
  8
0
  5
D68
 10
246.341
 20
-2477.41
 30
0.000000
  70
    32
  0
VERTEX
  8
0
  5
D69
 10
246.864
 20
-2470.14
 30
0.000000
  70
    32
  0
VERTEX
  8
0
  5
D6A
 10
247.356
 20
-2462.86
 30
0.000000
  70
    32
  0
VERTEX
  8
0
  5
D6B
 10
247.819
 20
-2455.57
 30
0.000000
  70
    32
  0
VERTEX
  8
0
  5
D6C
 10
248.252
 20
-2448.26
 30
0.000000
  70
    32
  0
VERTEX
  8
0
  5
D6D
 10
248.659
 20
-2440.95
 30
0.000000
  70
    32
  0
VERTEX
  8
0
  5
D6E
 10
249.040
 20
-2433.62
 30
0.000000
  70
    32
  0
VERTEX
  8
0
  5
D6F
 10
249.396
 20
-2426.29
 30
0.000000
  70
    32
  0
VERTEX
  8
0
  5
D70
 10
249.731
 20
-2418.95
 30
0.000000
  70
    32
  0
VERTEX
  8
0
  5
D71
 10
250.044
 20
-2411.61
 30
0.000000
  70
    32
  0
VERTEX
  8
0
  5
D72
 10
250.337
 20
-2404.26
 30
0.000000
  70
    32
  0
VERTEX
  8
0
  5
D73
 10
250.612
 20
-2396.91
 30
0.000000
  70
    32
  0
VERTEX
  8
0
  5
D74
 10
250.871
 20
-2389.56
 30
0.000000
  70
    32
  0
VERTEX
  8
0
  5
D75
 10
251.114
 20
-2382.20
 30
0.000000
  70
    32
  0
VERTEX
  8
0
  5
D76
 10
251.343
 20
-2374.85
 30
0.000000
  70
    32
  0
VERTEX
  8
0
  5
D77
 10
251.560
 20
-2367.49
 30
0.000000
  70
    32
  0
VERTEX
  8
0
  5
D78
 10
251.766
 20
-2360.14
 30
0.000000
  70
    32
  0
VERTEX
  8
0
  5
D79
 10
251.959
 20
-2352.79
 30
0.000000
  70
    32
  0
VERTEX
  8
0
  5
D7A
 10
252.142
 20
-2345.44
 30
0.000000
  70
    32
  0
VERTEX
  8
0
  5
D7B
 10
252.314
 20
-2338.10
 30
0.000000
  70
    32
  0
VERTEX
  8
0
  5
D7C
 10
252.475
 20
-2330.75
 30
0.000000
  70
    32
  0
VERTEX
  8
0
  5
D7D
 10
252.625
 20
-2323.41
 30
0.000000
  70
    32
  0
VERTEX
  8
0
  5
D7E
 10
252.765
 20
-2316.06
 30
0.000000
  70
    32
  0
VERTEX
  8
0
  5
D7F
 10
252.895
 20
-2308.72
 30
0.000000
  70
    32
  0
VERTEX
  8
0
  5
D80
 10
253.014
 20
-2301.38
 30
0.000000
  70
    32
  0
VERTEX
  8
0
  5
D81
 10
253.124
 20
-2294.05
 30
0.000000
  70
    32
  0
VERTEX
  8
0
  5
D82
 10
253.225
 20
-2286.71
 30
0.000000
  70
    32
  0
VERTEX
  8
0
  5
D83
 10
253.316
 20
-2279.37
 30
0.000000
  70
    32
  0
VERTEX
  8
0
  5
D84
 10
253.398
 20
-2272.04
 30
0.000000
  70
    32
  0
VERTEX
  8
0
  5
D85
 10
253.470
 20
-2264.70
 30
0.000000
  70
    32
  0
VERTEX
  8
0
  5
D86
 10
253.535
 20
-2257.37
 30
0.000000
  70
    32
  0
VERTEX
  8
0
  5
D87
 10
253.590
 20
-2250.04
 30
0.000000
  70
    32
  0
VERTEX
  8
0
  5
D88
 10
253.637
 20
-2242.71
 30
0.000000
  70
    32
  0
VERTEX
  8
0
  5
D89
 10
253.677
 20
-2235.38
 30
0.000000
  70
    32
  0
VERTEX
  8
0
  5
D8A
 10
253.708
 20
-2228.05
 30
0.000000
  70
    32
  0
VERTEX
  8
0
  5
D8B
 10
253.731
 20
-2220.72
 30
0.000000
  70
    32
  0
VERTEX
  8
0
  5
D8C
 10
253.747
 20
-2213.39
 30
0.000000
  70
    32
  0
VERTEX
  8
0
  5
D8D
 10
253.756
 20
-2206.07
 30
0.000000
  70
    32
  0
VERTEX
  8
0
  5
D8E
 10
253.757
 20
-2198.74
 30
0.000000
  70
    32
  0
VERTEX
  8
0
  5
D8F
 10
253.752
 20
-2191.42
 30
0.000000
  70
    32
  0
VERTEX
  8
0
  5
D90
 10
253.739
 20
-2184.09
 30
0.000000
  70
    32
  0
VERTEX
  8
0
  5
D91
 10
253.721
 20
-2176.77
 30
0.000000
  70
    32
  0
VERTEX
  8
0
  5
D92
 10
253.696
 20
-2169.44
 30
0.000000
  70
    32
  0
VERTEX
  8
0
  5
D93
 10
253.665
 20
-2162.12
 30
0.000000
  70
    32
  0
VERTEX
  8
0
  5
D94
 10
253.628
 20
-2154.80
 30
0.000000
  70
    32
  0
VERTEX
  8
0
  5
D95
 10
253.585
 20
-2147.48
 30
0.000000
  70
    32
  0
VERTEX
  8
0
  5
D96
 10
253.537
 20
-2140.16
 30
0.000000
  70
    32
  0
VERTEX
  8
0
  5
D97
 10
253.484
 20
-2132.84
 30
0.000000
  70
    32
  0
VERTEX
  8
0
  5
D98
 10
253.425
 20
-2125.52
 30
0.000000
  70
    32
  0
VERTEX
  8
0
  5
D99
 10
253.362
 20
-2118.20
 30
0.000000
  70
    32
  0
VERTEX
  8
0
  5
D9A
 10
253.294
 20
-2110.88
 30
0.000000
  70
    32
  0
VERTEX
  8
0
  5
D9B
 10
253.222
 20
-2103.56
 30
0.000000
  70
    32
  0
VERTEX
  8
0
  5
D9C
 10
253.145
 20
-2096.24
 30
0.000000
  70
    32
  0
VERTEX
  8
0
  5
D9D
 10
253.064
 20
-2088.92
 30
0.000000
  70
    32
  0
VERTEX
  8
0
  5
D9E
 10
252.980
 20
-2081.60
 30
0.000000
  70
    32
  0
VERTEX
  8
0
  5
D9F
 10
252.891
 20
-2074.28
 30
0.000000
  70
    32
  0
VERTEX
  8
0
  5
DA0
 10
252.800
 20
-2066.96
 30
0.000000
  70
    32
  0
VERTEX
  8
0
  5
DA1
 10
252.705
 20
-2059.64
 30
0.000000
  70
    32
  0
VERTEX
  8
0
  5
DA2
 10
252.607
 20
-2052.32
 30
0.000000
  70
    32
  0
VERTEX
  8
0
  5
DA3
 10
252.506
 20
-2045.01
 30
0.000000
  70
    32
  0
VERTEX
  8
0
  5
DA4
 10
252.403
 20
-2037.69
 30
0.000000
  70
    32
  0
VERTEX
  8
0
  5
DA5
 10
252.297
 20
-2030.37
 30
0.000000
  70
    32
  0
VERTEX
  8
0
  5
DA6
 10
252.189
 20
-2023.05
 30
0.000000
  70
    32
  0
VERTEX
  8
0
  5
DA7
 10
252.079
 20
-2015.73
 30
0.000000
  70
    32
  0
VERTEX
  8
0
  5
DA8
 10
251.967
 20
-2008.41
 30
0.000000
  70
    32
  0
VERTEX
  8
0
  5
DA9
 10
251.854
 20
-2001.09
 30
0.000000
  70
    32
  0
VERTEX
  8
0
  5
DAA
 10
251.739
 20
-1993.77
 30
0.000000
  70
    32
  0
VERTEX
  8
0
  5
DAB
 10
251.623
 20
-1986.45
 30
0.000000
  70
    32
  0
VERTEX
  8
0
  5
DAC
 10
251.505
 20
-1979.13
 30
0.000000
  70
    32
  0
VERTEX
  8
0
  5
DAD
 10
251.385
 20
-1971.81
 30
0.000000
  70
    32
  0
VERTEX
  8
0
  5
DAE
 10
251.264
 20
-1964.48
 30
0.000000
  70
    32
  0
VERTEX
  8
0
  5
DAF
 10
251.141
 20
-1957.16
 30
0.000000
  70
    32
  0
VERTEX
  8
0
  5
DB0
 10
251.016
 20
-1949.84
 30
0.000000
  70
    32
  0
VERTEX
  8
0
  5
DB1
 10
250.889
 20
-1942.52
 30
0.000000
  70
    32
  0
VERTEX
  8
0
  5
DB2
 10
250.760
 20
-1935.20
 30
0.000000
  70
    32
  0
VERTEX
  8
0
  5
DB3
 10
250.629
 20
-1927.87
 30
0.000000
  70
    32
  0
VERTEX
  8
0
  5
DB4
 10
250.496
 20
-1920.55
 30
0.000000
  70
    32
  0
VERTEX
  8
0
  5
DB5
 10
250.361
 20
-1913.23
 30
0.000000
  70
    32
  0
VERTEX
  8
0
  5
DB6
 10
250.223
 20
-1905.91
 30
0.000000
  70
    32
  0
VERTEX
  8
0
  5
DB7
 10
250.083
 20
-1898.58
 30
0.000000
  70
    32
  0
VERTEX
  8
0
  5
DB8
 10
249.941
 20
-1891.26
 30
0.000000
  70
    32
  0
VERTEX
  8
0
  5
DB9
 10
249.796
 20
-1883.94
 30
0.000000
  70
    32
  0
VERTEX
  8
0
  5
DBA
 10
249.648
 20
-1876.61
 30
0.000000
  70
    32
  0
VERTEX
  8
0
  5
DBB
 10
249.498
 20
-1869.29
 30
0.000000
  70
    32
  0
VERTEX
  8
0
  5
DBC
 10
249.345
 20
-1861.97
 30
0.000000
  70
    32
  0
VERTEX
  8
0
  5
DBD
 10
249.189
 20
-1854.65
 30
0.000000
  70
    32
  0
VERTEX
  8
0
  5
DBE
 10
249.031
 20
-1847.32
 30
0.000000
  70
    32
  0
VERTEX
  8
0
  5
DBF
 10
248.869
 20
-1840.00
 30
0.000000
  70
    32
  0
VERTEX
  8
0
  5
DC0
 10
248.704
 20
-1832.68
 30
0.000000
  70
    32
  0
VERTEX
  8
0
  5
DC1
 10
248.537
 20
-1825.36
 30
0.000000
  70
    32
  0
VERTEX
  8
0
  5
DC2
 10
248.366
 20
-1818.03
 30
0.000000
  70
    32
  0
VERTEX
  8
0
  5
DC3
 10
248.192
 20
-1810.71
 30
0.000000
  70
    32
  0
VERTEX
  8
0
  5
DC4
 10
248.014
 20
-1803.39
 30
0.000000
  70
    32
  0
VERTEX
  8
0
  5
DC5
 10
247.833
 20
-1796.07
 30
0.000000
  70
    32
  0
VERTEX
  8
0
  5
DC6
 10
247.649
 20
-1788.75
 30
0.000000
  70
    32
  0
VERTEX
  8
0
  5
DC7
 10
247.461
 20
-1781.43
 30
0.000000
  70
    32
  0
VERTEX
  8
0
  5
DC8
 10
247.270
 20
-1774.11
 30
0.000000
  70
    32
  0
VERTEX
  8
0
  5
DC9
 10
247.074
 20
-1766.79
 30
0.000000
  70
    32
  0
VERTEX
  8
0
  5
DCA
 10
246.876
 20
-1759.47
 30
0.000000
  70
    32
  0
VERTEX
  8
0
  5
DCB
 10
246.673
 20
-1752.15
 30
0.000000
  70
    32
  0
VERTEX
  8
0
  5
DCC
 10
246.466
 20
-1744.83
 30
0.000000
  70
    32
  0
VERTEX
  8
0
  5
DCD
 10
246.256
 20
-1737.51
 30
0.000000
  70
    32
  0
VERTEX
  8
0
  5
DCE
 10
246.041
 20
-1730.19
 30
0.000000
  70
    32
  0
VERTEX
  8
0
  5
DCF
 10
245.823
 20
-1722.88
 30
0.000000
  70
    32
  0
VERTEX
  8
0
  5
DD0
 10
245.600
 20
-1715.56
 30
0.000000
  70
    32
  0
VERTEX
  8
0
  5
DD1
 10
245.373
 20
-1708.24
 30
0.000000
  70
    32
  0
VERTEX
  8
0
  5
DD2
 10
245.141
 20
-1700.93
 30
0.000000
  70
    32
  0
VERTEX
  8
0
  5
DD3
 10
244.905
 20
-1693.61
 30
0.000000
  70
    32
  0
VERTEX
  8
0
  5
DD4
 10
244.665
 20
-1686.29
 30
0.000000
  70
    32
  0
VERTEX
  8
0
  5
DD5
 10
244.420
 20
-1678.98
 30
0.000000
  70
    32
  0
VERTEX
  8
0
  5
DD6
 10
244.171
 20
-1671.67
 30
0.000000
  70
    32
  0
VERTEX
  8
0
  5
DD7
 10
243.916
 20
-1664.35
 30
0.000000
  70
    32
  0
VERTEX
  8
0
  5
DD8
 10
243.658
 20
-1657.04
 30
0.000000
  70
    32
  0
VERTEX
  8
0
  5
DD9
 10
243.395
 20
-1649.73
 30
0.000000
  70
    32
  0
VERTEX
  8
0
  5
DDA
 10
243.127
 20
-1642.42
 30
0.000000
  70
    32
  0
VERTEX
  8
0
  5
DDB
 10
242.855
 20
-1635.11
 30
0.000000
  70
    32
  0
VERTEX
  8
0
  5
DDC
 10
242.578
 20
-1627.80
 30
0.000000
  70
    32
  0
VERTEX
  8
0
  5
DDD
 10
242.296
 20
-1620.49
 30
0.000000
  70
    32
  0
VERTEX
  8
0
  5
DDE
 10
242.010
 20
-1613.18
 30
0.000000
  70
    32
  0
VERTEX
  8
0
  5
DDF
 10
241.720
 20
-1605.87
 30
0.000000
  70
    32
  0
VERTEX
  8
0
  5
DE0
 10
241.425
 20
-1598.56
 30
0.000000
  70
    32
  0
VERTEX
  8
0
  5
DE1
 10
241.126
 20
-1591.26
 30
0.000000
  70
    32
  0
VERTEX
  8
0
  5
DE2
 10
240.822
 20
-1583.95
 30
0.000000
  70
    32
  0
VERTEX
  8
0
  5
DE3
 10
240.514
 20
-1576.64
 30
0.000000
  70
    32
  0
VERTEX
  8
0
  5
DE4
 10
240.201
 20
-1569.34
 30
0.000000
  70
    32
  0
VERTEX
  8
0
  5
DE5
 10
239.884
 20
-1562.04
 30
0.000000
  70
    32
  0
VERTEX
  8
0
  5
DE6
 10
239.562
 20
-1554.73
 30
0.000000
  70
    32
  0
VERTEX
  8
0
  5
DE7
 10
239.236
 20
-1547.43
 30
0.000000
  70
    32
  0
VERTEX
  8
0
  5
DE8
 10
238.906
 20
-1540.13
 30
0.000000
  70
    32
  0
VERTEX
  8
0
  5
DE9
 10
238.571
 20
-1532.83
 30
0.000000
  70
    32
  0
VERTEX
  8
0
  5
DEA
 10
238.232
 20
-1525.53
 30
0.000000
  70
    32
  0
VERTEX
  8
0
  5
DEB
 10
237.889
 20
-1518.23
 30
0.000000
  70
    32
  0
VERTEX
  8
0
  5
DEC
 10
237.541
 20
-1510.93
 30
0.000000
  70
    32
  0
VERTEX
  8
0
  5
DED
 10
237.189
 20
-1503.63
 30
0.000000
  70
    32
  0
VERTEX
  8
0
  5
DEE
 10
236.833
 20
-1496.34
 30
0.000000
  70
    32
  0
VERTEX
  8
0
  5
DEF
 10
236.472
 20
-1489.04
 30
0.000000
  70
    32
  0
VERTEX
  8
0
  5
DF0
 10
236.107
 20
-1481.75
 30
0.000000
  70
    32
  0
VERTEX
  8
0
  5
DF1
 10
235.738
 20
-1474.45
 30
0.000000
  70
    32
  0
VERTEX
  8
0
  5
DF2
 10
235.364
 20
-1467.16
 30
0.000000
  70
    32
  0
VERTEX
  8
0
  5
DF3
 10
234.987
 20
-1459.87
 30
0.000000
  70
    32
  0
VERTEX
  8
0
  5
DF4
 10
234.605
 20
-1452.57
 30
0.000000
  70
    32
  0
VERTEX
  8
0
  5
DF5
 10
234.218
 20
-1445.28
 30
0.000000
  70
    32
  0
VERTEX
  8
0
  5
DF6
 10
233.828
 20
-1437.99
 30
0.000000
  70
    32
  0
VERTEX
  8
0
  5
DF7
 10
233.433
 20
-1430.71
 30
0.000000
  70
    32
  0
VERTEX
  8
0
  5
DF8
 10
233.035
 20
-1423.42
 30
0.000000
  70
    32
  0
VERTEX
  8
0
  5
DF9
 10
232.632
 20
-1416.13
 30
0.000000
  70
    32
  0
VERTEX
  8
0
  5
DFA
 10
232.224
 20
-1408.84
 30
0.000000
  70
    32
  0
VERTEX
  8
0
  5
DFB
 10
231.813
 20
-1401.56
 30
0.000000
  70
    32
  0
VERTEX
  8
0
  5
DFC
 10
231.398
 20
-1394.28
 30
0.000000
  70
    32
  0
VERTEX
  8
0
  5
DFD
 10
230.978
 20
-1386.99
 30
0.000000
  70
    32
  0
VERTEX
  8
0
  5
DFE
 10
230.554
 20
-1379.71
 30
0.000000
  70
    32
  0
VERTEX
  8
0
  5
DFF
 10
230.127
 20
-1372.43
 30
0.000000
  70
    32
  0
VERTEX
  8
0
  5
E00
 10
229.695
 20
-1365.15
 30
0.000000
  70
    32
  0
VERTEX
  8
0
  5
E01
 10
229.259
 20
-1357.87
 30
0.000000
  70
    32
  0
VERTEX
  8
0
  5
E02
 10
228.819
 20
-1350.59
 30
0.000000
  70
    32
  0
VERTEX
  8
0
  5
E03
 10
228.375
 20
-1343.31
 30
0.000000
  70
    32
  0
VERTEX
  8
0
  5
E04
 10
227.927
 20
-1336.04
 30
0.000000
  70
    32
  0
VERTEX
  8
0
  5
E05
 10
227.475
 20
-1328.76
 30
0.000000
  70
    32
  0
VERTEX
  8
0
  5
E06
 10
227.019
 20
-1321.49
 30
0.000000
  70
    32
  0
VERTEX
  8
0
  5
E07
 10
226.558
 20
-1314.21
 30
0.000000
  70
    32
  0
VERTEX
  8
0
  5
E08
 10
226.094
 20
-1306.94
 30
0.000000
  70
    32
  0
VERTEX
  8
0
  5
E09
 10
225.626
 20
-1299.67
 30
0.000000
  70
    32
  0
VERTEX
  8
0
  5
E0A
 10
225.154
 20
-1292.40
 30
0.000000
  70
    32
  0
VERTEX
  8
0
  5
E0B
 10
224.678
 20
-1285.13
 30
0.000000
  70
    32
  0
VERTEX
  8
0
  5
E0C
 10
224.198
 20
-1277.87
 30
0.000000
  70
    32
  0
VERTEX
  8
0
  5
E0D
 10
223.714
 20
-1270.60
 30
0.000000
  70
    32
  0
VERTEX
  8
0
  5
E0E
 10
223.227
 20
-1263.33
 30
0.000000
  70
    32
  0
VERTEX
  8
0
  5
E0F
 10
222.735
 20
-1256.07
 30
0.000000
  70
    32
  0
VERTEX
  8
0
  5
E10
 10
222.239
 20
-1248.81
 30
0.000000
  70
    32
  0
VERTEX
  8
0
  5
E11
 10
221.740
 20
-1241.54
 30
0.000000
  70
    32
  0
VERTEX
  8
0
  5
E12
 10
221.237
 20
-1234.28
 30
0.000000
  70
    32
  0
VERTEX
  8
0
  5
E13
 10
220.729
 20
-1227.02
 30
0.000000
  70
    32
  0
VERTEX
  8
0
  5
E14
 10
220.218
 20
-1219.76
 30
0.000000
  70
    32
  0
VERTEX
  8
0
  5
E15
 10
219.703
 20
-1212.51
 30
0.000000
  70
    32
  0
VERTEX
  8
0
  5
E16
 10
219.185
 20
-1205.25
 30
0.000000
  70
    32
  0
VERTEX
  8
0
  5
E17
 10
218.662
 20
-1198.00
 30
0.000000
  70
    32
  0
VERTEX
  8
0
  5
E18
 10
218.136
 20
-1190.74
 30
0.000000
  70
    32
  0
VERTEX
  8
0
  5
E19
 10
217.606
 20
-1183.49
 30
0.000000
  70
    32
  0
VERTEX
  8
0
  5
E1A
 10
217.072
 20
-1176.24
 30
0.000000
  70
    32
  0
VERTEX
  8
0
  5
E1B
 10
216.535
 20
-1168.99
 30
0.000000
  70
    32
  0
VERTEX
  8
0
  5
E1C
 10
215.994
 20
-1161.74
 30
0.000000
  70
    32
  0
VERTEX
  8
0
  5
E1D
 10
215.449
 20
-1154.49
 30
0.000000
  70
    32
  0
VERTEX
  8
0
  5
E1E
 10
214.900
 20
-1147.25
 30
0.000000
  70
    32
  0
VERTEX
  8
0
  5
E1F
 10
214.347
 20
-1140.00
 30
0.000000
  70
    32
  0
VERTEX
  8
0
  5
E20
 10
213.791
 20
-1132.76
 30
0.000000
  70
    32
  0
VERTEX
  8
0
  5
E21
 10
213.231
 20
-1125.51
 30
0.000000
  70
    32
  0
VERTEX
  8
0
  5
E22
 10
212.668
 20
-1118.27
 30
0.000000
  70
    32
  0
VERTEX
  8
0
  5
E23
 10
212.101
 20
-1111.03
 30
0.000000
  70
    32
  0
VERTEX
  8
0
  5
E24
 10
211.530
 20
-1103.79
 30
0.000000
  70
    32
  0
VERTEX
  8
0
  5
E25
 10
210.956
 20
-1096.56
 30
0.000000
  70
    32
  0
VERTEX
  8
0
  5
E26
 10
210.378
 20
-1089.32
 30
0.000000
  70
    32
  0
VERTEX
  8
0
  5
E27
 10
209.797
 20
-1082.09
 30
0.000000
  70
    32
  0
VERTEX
  8
0
  5
E28
 10
209.212
 20
-1074.85
 30
0.000000
  70
    32
  0
VERTEX
  8
0
  5
E29
 10
208.623
 20
-1067.62
 30
0.000000
  70
    32
  0
VERTEX
  8
0
  5
E2A
 10
208.032
 20
-1060.39
 30
0.000000
  70
    32
  0
VERTEX
  8
0
  5
E2B
 10
207.437
 20
-1053.16
 30
0.000000
  70
    32
  0
VERTEX
  8
0
  5
E2C
 10
206.838
 20
-1045.93
 30
0.000000
  70
    32
  0
VERTEX
  8
0
  5
E2D
 10
206.237
 20
-1038.70
 30
0.000000
  70
    32
  0
VERTEX
  8
0
  5
E2E
 10
205.632
 20
-1031.48
 30
0.000000
  70
    32
  0
VERTEX
  8
0
  5
E2F
 10
205.024
 20
-1024.25
 30
0.000000
  70
    32
  0
VERTEX
  8
0
  5
E30
 10
204.412
 20
-1017.03
 30
0.000000
  70
    32
  0
VERTEX
  8
0
  5
E31
 10
203.798
 20
-1009.80
 30
0.000000
  70
    32
  0
VERTEX
  8
0
  5
E32
 10
203.180
 20
-1002.58
 30
0.000000
  70
    32
  0
VERTEX
  8
0
  5
E33
 10
202.560
 20
-995.360
 30
0.000000
  70
    32
  0
VERTEX
  8
0
  5
E34
 10
201.936
 20
-988.140
 30
0.000000
  70
    32
  0
VERTEX
  8
0
  5
E35
 10
201.309
 20
-980.920
 30
0.000000
  70
    32
  0
VERTEX
  8
0
  5
E36
 10
200.680
 20
-973.702
 30
0.000000
  70
    32
  0
VERTEX
  8
0
  5
E37
 10
200.047
 20
-966.485
 30
0.000000
  70
    32
  0
VERTEX
  8
0
  5
E38
 10
199.412
 20
-959.269
 30
0.000000
  70
    32
  0
VERTEX
  8
0
  5
E39
 10
198.774
 20
-952.053
 30
0.000000
  70
    32
  0
VERTEX
  8
0
  5
E3A
 10
198.133
 20
-944.839
 30
0.000000
  70
    32
  0
VERTEX
  8
0
  5
E3B
 10
197.489
 20
-937.625
 30
0.000000
  70
    32
  0
VERTEX
  8
0
  5
E3C
 10
196.842
 20
-930.412
 30
0.000000
  70
    32
  0
VERTEX
  8
0
  5
E3D
 10
196.193
 20
-923.200
 30
0.000000
  70
    32
  0
VERTEX
  8
0
  5
E3E
 10
195.541
 20
-915.989
 30
0.000000
  70
    32
  0
VERTEX
  8
0
  5
E3F
 10
194.887
 20
-908.779
 30
0.000000
  70
    32
  0
VERTEX
  8
0
  5
E40
 10
194.230
 20
-901.569
 30
0.000000
  70
    32
  0
VERTEX
  8
0
  5
E41
 10
193.570
 20
-894.361
 30
0.000000
  70
    32
  0
VERTEX
  8
0
  5
E42
 10
192.908
 20
-887.153
 30
0.000000
  70
    32
  0
VERTEX
  8
0
  5
E43
 10
192.243
 20
-879.946
 30
0.000000
  70
    32
  0
VERTEX
  8
0
  5
E44
 10
191.576
 20
-872.739
 30
0.000000
  70
    32
  0
VERTEX
  8
0
  5
E45
 10
190.907
 20
-865.533
 30
0.000000
  70
    32
  0
VERTEX
  8
0
  5
E46
 10
190.235
 20
-858.328
 30
0.000000
  70
    32
  0
VERTEX
  8
0
  5
E47
 10
189.561
 20
-851.124
 30
0.000000
  70
    32
  0
VERTEX
  8
0
  5
E48
 10
188.885
 20
-843.920
 30
0.000000
  70
    32
  0
VERTEX
  8
0
  5
E49
 10
188.206
 20
-836.717
 30
0.000000
  70
    32
  0
VERTEX
  8
0
  5
E4A
 10
187.525
 20
-829.514
 30
0.000000
  70
    32
  0
VERTEX
  8
0
  5
E4B
 10
186.842
 20
-822.312
 30
0.000000
  70
    32
  0
VERTEX
  8
0
  5
E4C
 10
186.157
 20
-815.111
 30
0.000000
  70
    32
  0
VERTEX
  8
0
  5
E4D
 10
185.470
 20
-807.910
 30
0.000000
  70
    32
  0
VERTEX
  8
0
  5
E4E
 10
184.781
 20
-800.710
 30
0.000000
  70
    32
  0
VERTEX
  8
0
  5
E4F
 10
184.089
 20
-793.510
 30
0.000000
  70
    32
  0
VERTEX
  8
0
  5
E50
 10
183.396
 20
-786.311
 30
0.000000
  70
    32
  0
VERTEX
  8
0
  5
E51
 10
182.701
 20
-779.112
 30
0.000000
  70
    32
  0
VERTEX
  8
0
  5
E52
 10
182.004
 20
-771.914
 30
0.000000
  70
    32
  0
VERTEX
  8
0
  5
E53
 10
181.304
 20
-764.716
 30
0.000000
  70
    32
  0
VERTEX
  8
0
  5
E54
 10
180.604
 20
-757.519
 30
0.000000
  70
    32
  0
VERTEX
  8
0
  5
E55
 10
179.901
 20
-750.322
 30
0.000000
  70
    32
  0
VERTEX
  8
0
  5
E56
 10
179.196
 20
-743.125
 30
0.000000
  70
    32
  0
VERTEX
  8
0
  5
E57
 10
178.490
 20
-735.929
 30
0.000000
  70
    32
  0
VERTEX
  8
0
  5
E58
 10
177.782
 20
-728.733
 30
0.000000
  70
    32
  0
VERTEX
  8
0
  5
E59
 10
177.073
 20
-721.538
 30
0.000000
  70
    32
  0
VERTEX
  8
0
  5
E5A
 10
176.362
 20
-714.343
 30
0.000000
  70
    32
  0
VERTEX
  8
0
  5
E5B
 10
175.650
 20
-707.148
 30
0.000000
  70
    32
  0
VERTEX
  8
0
  5
E5C
 10
174.938
 20
-699.953
 30
0.000000
  70
    32
  0
VERTEX
  8
0
  5
E5D
 10
174.224
 20
-692.758
 30
0.000000
  70
    32
  0
VERTEX
  8
0
  5
E5E
 10
173.510
 20
-685.564
 30
0.000000
  70
    32
  0
VERTEX
  8
0
  5
E5F
 10
172.795
 20
-678.369
 30
0.000000
  70
    32
  0
VERTEX
  8
0
  5
E60
 10
172.080
 20
-671.174
 30
0.000000
  70
    32
  0
VERTEX
  8
0
  5
E61
 10
171.365
 20
-663.980
 30
0.000000
  70
    32
  0
VERTEX
  8
0
  5
E62
 10
170.651
 20
-656.785
 30
0.000000
  70
    32
  0
VERTEX
  8
0
  5
E63
 10
169.936
 20
-649.590
 30
0.000000
  70
    32
  0
VERTEX
  8
0
  5
E64
 10
169.222
 20
-642.395
 30
0.000000
  70
    32
  0
VERTEX
  8
0
  5
E65
 10
168.509
 20
-635.200
 30
0.000000
  70
    32
  0
VERTEX
  8
0
  5
E66
 10
167.796
 20
-628.004
 30
0.000000
  70
    32
  0
VERTEX
  8
0
  5
E67
 10
167.085
 20
-620.808
 30
0.000000
  70
    32
  0
VERTEX
  8
0
  5
E68
 10
166.375
 20
-613.611
 30
0.000000
  70
    32
  0
VERTEX
  8
0
  5
E69
 10
165.666
 20
-606.415
 30
0.000000
  70
    32
  0
VERTEX
  8
0
  5
E6A
 10
164.958
 20
-599.217
 30
0.000000
  70
    32
  0
VERTEX
  8
0
  5
E6B
 10
164.253
 20
-592.020
 30
0.000000
  70
    32
  0
VERTEX
  8
0
  5
E6C
 10
163.549
 20
-584.821
 30
0.000000
  70
    32
  0
VERTEX
  8
0
  5
E6D
 10
162.848
 20
-577.622
 30
0.000000
  70
    32
  0
VERTEX
  8
0
  5
E6E
 10
162.149
 20
-570.422
 30
0.000000
  70
    32
  0
VERTEX
  8
0
  5
E6F
 10
161.452
 20
-563.222
 30
0.000000
  70
    32
  0
VERTEX
  8
0
  5
E70
 10
160.758
 20
-556.021
 30
0.000000
  70
    32
  0
VERTEX
  8
0
  5
E71
 10
160.067
 20
-548.819
 30
0.000000
  70
    32
  0
VERTEX
  8
0
  5
E72
 10
159.379
 20
-541.616
 30
0.000000
  70
    32
  0
VERTEX
  8
0
  5
E73
 10
158.694
 20
-534.412
 30
0.000000
  70
    32
  0
VERTEX
  8
0
  5
E74
 10
158.013
 20
-527.207
 30
0.000000
  70
    32
  0
VERTEX
  8
0
  5
E75
 10
157.335
 20
-520.002
 30
0.000000
  70
    32
  0
VERTEX
  8
0
  5
E76
 10
156.661
 20
-512.795
 30
0.000000
  70
    32
  0
VERTEX
  8
0
  5
E77
 10
155.991
 20
-505.587
 30
0.000000
  70
    32
  0
VERTEX
  8
0
  5
E78
 10
155.325
 20
-498.378
 30
0.000000
  70
    32
  0
VERTEX
  8
0
  5
E79
 10
154.664
 20
-491.168
 30
0.000000
  70
    32
  0
VERTEX
  8
0
  5
E7A
 10
154.006
 20
-483.956
 30
0.000000
  70
    32
  0
VERTEX
  8
0
  5
E7B
 10
153.354
 20
-476.744
 30
0.000000
  70
    32
  0
VERTEX
  8
0
  5
E7C
 10
152.706
 20
-469.530
 30
0.000000
  70
    32
  0
VERTEX
  8
0
  5
E7D
 10
152.064
 20
-462.314
 30
0.000000
  70
    32
  0
VERTEX
  8
0
  5
E7E
 10
151.426
 20
-455.097
 30
0.000000
  70
    32
  0
VERTEX
  8
0
  5
E7F
 10
150.795
 20
-447.879
 30
0.000000
  70
    32
  0
VERTEX
  8
0
  5
E80
 10
150.168
 20
-440.659
 30
0.000000
  70
    32
  0
VERTEX
  8
0
  5
E81
 10
149.548
 20
-433.438
 30
0.000000
  70
    32
  0
VERTEX
  8
0
  5
E82
 10
148.933
 20
-426.215
 30
0.000000
  70
    32
  0
VERTEX
  8
0
  5
E83
 10
148.325
 20
-418.990
 30
0.000000
  70
    32
  0
VERTEX
  8
0
  5
E84
 10
147.723
 20
-411.764
 30
0.000000
  70
    32
  0
VERTEX
  8
0
  5
E85
 10
147.127
 20
-404.535
 30
0.000000
  70
    32
  0
VERTEX
  8
0
  5
E86
 10
146.538
 20
-397.306
 30
0.000000
  70
    32
  0
VERTEX
  8
0
  5
E87
 10
145.956
 20
-390.074
 30
0.000000
  70
    32
  0
VERTEX
  8
0
  5
E88
 10
145.381
 20
-382.840
 30
0.000000
  70
    32
  0
VERTEX
  8
0
  5
E89
 10
144.813
 20
-375.604
 30
0.000000
  70
    32
  0
VERTEX
  8
0
  5
E8A
 10
144.253
 20
-368.367
 30
0.000000
  70
    32
  0
VERTEX
  8
0
  5
E8B
 10
143.700
 20
-361.127
 30
0.000000
  70
    32
  0
VERTEX
  8
0
  5
E8C
 10
143.155
 20
-353.885
 30
0.000000
  70
    32
  0
VERTEX
  8
0
  5
E8D
 10
142.618
 20
-346.642
 30
0.000000
  70
    32
  0
VERTEX
  8
0
  5
E8E
 10
142.089
 20
-339.395
 30
0.000000
  70
    32
  0
VERTEX
  8
0
  5
E8F
 10
141.569
 20
-332.147
 30
0.000000
  70
    32
  0
VERTEX
  8
0
  5
E90
 10
141.057
 20
-324.897
 30
0.000000
  70
    32
  0
VERTEX
  8
0
  5
E91
 10
140.553
 20
-317.644
 30
0.000000
  70
    32
  0
VERTEX
  8
0
  5
E92
 10
140.059
 20
-310.389
 30
0.000000
  70
    32
  0
VERTEX
  8
0
  5
E93
 10
139.574
 20
-303.131
 30
0.000000
  70
    32
  0
VERTEX
  8
0
  5
E94
 10
139.097
 20
-295.871
 30
0.000000
  70
    32
  0
VERTEX
  8
0
  5
E95
 10
138.631
 20
-288.608
 30
0.000000
  70
    32
  0
VERTEX
  8
0
  5
E96
 10
138.174
 20
-281.343
 30
0.000000
  70
    32
  0
VERTEX
  8
0
  5
E97
 10
137.726
 20
-274.075
 30
0.000000
  70
    32
  0
VERTEX
  8
0
  5
E98
 10
137.287
 20
-266.805
 30
0.000000
  70
    32
  0
VERTEX
  8
0
  5
E99
 10
136.857
 20
-259.533
 30
0.000000
  70
    32
  0
VERTEX
  8
0
  5
E9A
 10
136.435
 20
-252.258
 30
0.000000
  70
    32
  0
VERTEX
  8
0
  5
E9B
 10
136.021
 20
-244.981
 30
0.000000
  70
    32
  0
VERTEX
  8
0
  5
E9C
 10
135.613
 20
-237.701
 30
0.000000
  70
    32
  0
VERTEX
  8
0
  5
E9D
 10
135.213
 20
-230.420
 30
0.000000
  70
    32
  0
VERTEX
  8
0
  5
E9E
 10
134.820
 20
-223.136
 30
0.000000
  70
    32
  0
VERTEX
  8
0
  5
E9F
 10
134.432
 20
-215.851
 30
0.000000
  70
    32
  0
VERTEX
  8
0
  5
EA0
 10
134.050
 20
-208.563
 30
0.000000
  70
    32
  0
VERTEX
  8
0
  5
EA1
 10
133.673
 20
-201.274
 30
0.000000
  70
    32
  0
VERTEX
  8
0
  5
EA2
 10
133.300
 20
-193.983
 30
0.000000
  70
    32
  0
VERTEX
  8
0
  5
EA3
 10
132.932
 20
-186.690
 30
0.000000
  70
    32
  0
VERTEX
  8
0
  5
EA4
 10
132.568
 20
-179.395
 30
0.000000
  70
    32
  0
VERTEX
  8
0
  5
EA5
 10
132.208
 20
-172.099
 30
0.000000
  70
    32
  0
VERTEX
  8
0
  5
EA6
 10
131.850
 20
-164.802
 30
0.000000
  70
    32
  0
VERTEX
  8
0
  5
EA7
 10
131.495
 20
-157.502
 30
0.000000
  70
    32
  0
VERTEX
  8
0
  5
EA8
 10
131.142
 20
-150.202
 30
0.000000
  70
    32
  0
VERTEX
  8
0
  5
EA9
 10
130.791
 20
-142.900
 30
0.000000
  70
    32
  0
VERTEX
  8
0
  5
EAA
 10
130.442
 20
-135.597
 30
0.000000
  70
    32
  0
VERTEX
  8
0
  5
EAB
 10
130.093
 20
-128.293
 30
0.000000
  70
    32
  0
VERTEX
  8
0
  5
EAC
 10
129.744
 20
-120.987
 30
0.000000
  70
    32
  0
VERTEX
  8
0
  5
EAD
 10
129.396
 20
-113.681
 30
0.000000
  70
    32
  0
VERTEX
  8
0
  5
EAE
 10
129.047
 20
-106.373
 30
0.000000
  70
    32
  0
VERTEX
  8
0
  5
EAF
 10
128.698
 20
-99.0646
 30
0.000000
  70
    32
  0
VERTEX
  8
0
  5
EB0
 10
128.347
 20
-91.7553
 30
0.000000
  70
    32
  0
VERTEX
  8
0
  5
EB1
 10
127.995
 20
-84.4451
 30
0.000000
  70
    32
  0
VERTEX
  8
0
  5
EB2
 10
127.640
 20
-77.1343
 30
0.000000
  70
    32
  0
VERTEX
  8
0
  5
EB3
 10
127.283
 20
-69.8227
 30
0.000000
  70
    32
  0
VERTEX
  8
0
  5
EB4
 10
126.924
 20
-62.5106
 30
0.000000
  70
    32
  0
VERTEX
  8
0
  5
EB5
 10
126.560
 20
-55.1980
 30
0.000000
  70
    32
  0
VERTEX
  8
0
  5
EB6
 10
126.193
 20
-47.8848
 30
0.000000
  70
    32
  0
VERTEX
  8
0
  5
EB7
 10
125.822
 20
-40.5713
 30
0.000000
  70
    32
  0
VERTEX
  8
0
  5
EB8
 10
125.446
 20
-33.2574
 30
0.000000
  70
    32
  0
VERTEX
  8
0
  5
EB9
 10
125.065
 20
-25.9433
 30
0.000000
  70
    32
  0
VERTEX
  8
0
  5
EBA
 10
124.679
 20
-18.6290
 30
0.000000
  70
    32
  0
VERTEX
  8
0
  5
EBB
 10
124.286
 20
-11.3145
 30
0.000000
  70
    32
  0
VERTEX
  8
0
  5
EBC
 10
123.888
 20
-4.00000
 30
0.000000
  70
    32
  0
SEQEND
  8
0
  5
EBD
  0
POLYLINE
  8
0
  5
EBE
  66
     1
 10
0.000000
 20
0.000000
 30
0.000000
  70
     8
  0
VERTEX
  8
0
  5
EBF
 10
-123.888
 20
-4.00000
 30
0.000000
  70
    32
  0
VERTEX
  8
0
  5
EC0
 10
-125.189
 20
-12.8479
 30
0.000000
  70
    32
  0
VERTEX
  8
0
  5
EC1
 10
-126.478
 20
-21.6958
 30
0.000000
  70
    32
  0
VERTEX
  8
0
  5
EC2
 10
-127.753
 20
-30.5440
 30
0.000000
  70
    32
  0
VERTEX
  8
0
  5
EC3
 10
-129.016
 20
-39.3923
 30
0.000000
  70
    32
  0
VERTEX
  8
0
  5
EC4
 10
-130.267
 20
-48.2411
 30
0.000000
  70
    32
  0
VERTEX
  8
0
  5
EC5
 10
-131.505
 20
-57.0902
 30
0.000000
  70
    32
  0
VERTEX
  8
0
  5
EC6
 10
-132.733
 20
-65.9399
 30
0.000000
  70
    32
  0
VERTEX
  8
0
  5
EC7
 10
-133.948
 20
-74.7902
 30
0.000000
  70
    32
  0
VERTEX
  8
0
  5
EC8
 10
-135.153
 20
-83.6412
 30
0.000000
  70
    32
  0
VERTEX
  8
0
  5
EC9
 10
-136.347
 20
-92.4929
 30
0.000000
  70
    32
  0
VERTEX
  8
0
  5
ECA
 10
-137.531
 20
-101.346
 30
0.000000
  70
    32
  0
VERTEX
  8
0
  5
ECB
 10
-138.705
 20
-110.199
 30
0.000000
  70
    32
  0
VERTEX
  8
0
  5
ECC
 10
-139.869
 20
-119.054
 30
0.000000
  70
    32
  0
VERTEX
  8
0
  5
ECD
 10
-141.024
 20
-127.909
 30
0.000000
  70
    32
  0
VERTEX
  8
0
  5
ECE
 10
-142.169
 20
-136.766
 30
0.000000
  70
    32
  0
VERTEX
  8
0
  5
ECF
 10
-143.306
 20
-145.625
 30
0.000000
  70
    32
  0
VERTEX
  8
0
  5
ED0
 10
-144.434
 20
-154.484
 30
0.000000
  70
    32
  0
VERTEX
  8
0
  5
ED1
 10
-145.554
 20
-163.345
 30
0.000000
  70
    32
  0
VERTEX
  8
0
  5
ED2
 10
-146.667
 20
-172.208
 30
0.000000
  70
    32
  0
VERTEX
  8
0
  5
ED3
 10
-147.772
 20
-181.072
 30
0.000000
  70
    32
  0
VERTEX
  8
0
  5
ED4
 10
-148.869
 20
-189.938
 30
0.000000
  70
    32
  0
VERTEX
  8
0
  5
ED5
 10
-149.960
 20
-198.806
 30
0.000000
  70
    32
  0
VERTEX
  8
0
  5
ED6
 10
-151.044
 20
-207.676
 30
0.000000
  70
    32
  0
VERTEX
  8
0
  5
ED7
 10
-152.122
 20
-216.547
 30
0.000000
  70
    32
  0
VERTEX
  8
0
  5
ED8
 10
-153.194
 20
-225.421
 30
0.000000
  70
    32
  0
VERTEX
  8
0
  5
ED9
 10
-154.260
 20
-234.297
 30
0.000000
  70
    32
  0
VERTEX
  8
0
  5
EDA
 10
-155.321
 20
-243.175
 30
0.000000
  70
    32
  0
VERTEX
  8
0
  5
EDB
 10
-156.377
 20
-252.056
 30
0.000000
  70
    32
  0
VERTEX
  8
0
  5
EDC
 10
-157.428
 20
-260.939
 30
0.000000
  70
    32
  0
VERTEX
  8
0
  5
EDD
 10
-158.474
 20
-269.824
 30
0.000000
  70
    32
  0
VERTEX
  8
0
  5
EDE
 10
-159.516
 20
-278.711
 30
0.000000
  70
    32
  0
VERTEX
  8
0
  5
EDF
 10
-160.553
 20
-287.600
 30
0.000000
  70
    32
  0
VERTEX
  8
0
  5
EE0
 10
-161.586
 20
-296.492
 30
0.000000
  70
    32
  0
VERTEX
  8
0
  5
EE1
 10
-162.615
 20
-305.385
 30
0.000000
  70
    32
  0
VERTEX
  8
0
  5
EE2
 10
-163.640
 20
-314.281
 30
0.000000
  70
    32
  0
VERTEX
  8
0
  5
EE3
 10
-164.660
 20
-323.178
 30
0.000000
  70
    32
  0
VERTEX
  8
0
  5
EE4
 10
-165.677
 20
-332.077
 30
0.000000
  70
    32
  0
VERTEX
  8
0
  5
EE5
 10
-166.689
 20
-340.978
 30
0.000000
  70
    32
  0
VERTEX
  8
0
  5
EE6
 10
-167.699
 20
-349.881
 30
0.000000
  70
    32
  0
VERTEX
  8
0
  5
EE7
 10
-168.704
 20
-358.785
 30
0.000000
  70
    32
  0
VERTEX
  8
0
  5
EE8
 10
-169.706
 20
-367.691
 30
0.000000
  70
    32
  0
VERTEX
  8
0
  5
EE9
 10
-170.705
 20
-376.599
 30
0.000000
  70
    32
  0
VERTEX
  8
0
  5
EEA
 10
-171.700
 20
-385.508
 30
0.000000
  70
    32
  0
VERTEX
  8
0
  5
EEB
 10
-172.693
 20
-394.418
 30
0.000000
  70
    32
  0
VERTEX
  8
0
  5
EEC
 10
-173.682
 20
-403.330
 30
0.000000
  70
    32
  0
VERTEX
  8
0
  5
EED
 10
-174.668
 20
-412.243
 30
0.000000
  70
    32
  0
VERTEX
  8
0
  5
EEE
 10
-175.652
 20
-421.157
 30
0.000000
  70
    32
  0
VERTEX
  8
0
  5
EEF
 10
-176.633
 20
-430.072
 30
0.000000
  70
    32
  0
VERTEX
  8
0
  5
EF0
 10
-177.612
 20
-438.989
 30
0.000000
  70
    32
  0
VERTEX
  8
0
  5
EF1
 10
-178.588
 20
-447.907
 30
0.000000
  70
    32
  0
VERTEX
  8
0
  5
EF2
 10
-179.561
 20
-456.825
 30
0.000000
  70
    32
  0
VERTEX
  8
0
  5
EF3
 10
-180.533
 20
-465.745
 30
0.000000
  70
    32
  0
VERTEX
  8
0
  5
EF4
 10
-181.502
 20
-474.665
 30
0.000000
  70
    32
  0
VERTEX
  8
0
  5
EF5
 10
-182.470
 20
-483.586
 30
0.000000
  70
    32
  0
VERTEX
  8
0
  5
EF6
 10
-183.435
 20
-492.508
 30
0.000000
  70
    32
  0
VERTEX
  8
0
  5
EF7
 10
-184.399
 20
-501.431
 30
0.000000
  70
    32
  0
VERTEX
  8
0
  5
EF8
 10
-185.361
 20
-510.354
 30
0.000000
  70
    32
  0
VERTEX
  8
0
  5
EF9
 10
-186.321
 20
-519.278
 30
0.000000
  70
    32
  0
VERTEX
  8
0
  5
EFA
 10
-187.280
 20
-528.203
 30
0.000000
  70
    32
  0
VERTEX
  8
0
  5
EFB
 10
-188.238
 20
-537.128
 30
0.000000
  70
    32
  0
VERTEX
  8
0
  5
EFC
 10
-189.193
 20
-546.054
 30
0.000000
  70
    32
  0
VERTEX
  8
0
  5
EFD
 10
-190.148
 20
-554.980
 30
0.000000
  70
    32
  0
VERTEX
  8
0
  5
EFE
 10
-191.100
 20
-563.907
 30
0.000000
  70
    32
  0
VERTEX
  8
0
  5
EFF
 10
-192.051
 20
-572.834
 30
0.000000
  70
    32
  0
VERTEX
  8
0
  5
F00
 10
-193.001
 20
-581.763
 30
0.000000
  70
    32
  0
VERTEX
  8
0
  5
F01
 10
-193.949
 20
-590.691
 30
0.000000
  70
    32
  0
VERTEX
  8
0
  5
F02
 10
-194.896
 20
-599.621
 30
0.000000
  70
    32
  0
VERTEX
  8
0
  5
F03
 10
-195.841
 20
-608.551
 30
0.000000
  70
    32
  0
VERTEX
  8
0
  5
F04
 10
-196.785
 20
-617.481
 30
0.000000
  70
    32
  0
VERTEX
  8
0
  5
F05
 10
-197.728
 20
-626.412
 30
0.000000
  70
    32
  0
VERTEX
  8
0
  5
F06
 10
-198.669
 20
-635.344
 30
0.000000
  70
    32
  0
VERTEX
  8
0
  5
F07
 10
-199.609
 20
-644.276
 30
0.000000
  70
    32
  0
VERTEX
  8
0
  5
F08
 10
-200.547
 20
-653.209
 30
0.000000
  70
    32
  0
VERTEX
  8
0
  5
F09
 10
-201.484
 20
-662.142
 30
0.000000
  70
    32
  0
VERTEX
  8
0
  5
F0A
 10
-202.420
 20
-671.076
 30
0.000000
  70
    32
  0
VERTEX
  8
0
  5
F0B
 10
-203.355
 20
-680.010
 30
0.000000
  70
    32
  0
VERTEX
  8
0
  5
F0C
 10
-204.288
 20
-688.945
 30
0.000000
  70
    32
  0
VERTEX
  8
0
  5
F0D
 10
-205.220
 20
-697.880
 30
0.000000
  70
    32
  0
VERTEX
  8
0
  5
F0E
 10
-206.151
 20
-706.816
 30
0.000000
  70
    32
  0
VERTEX
  8
0
  5
F0F
 10
-207.080
 20
-715.753
 30
0.000000
  70
    32
  0
VERTEX
  8
0
  5
F10
 10
-208.009
 20
-724.690
 30
0.000000
  70
    32
  0
VERTEX
  8
0
  5
F11
 10
-208.936
 20
-733.628
 30
0.000000
  70
    32
  0
VERTEX
  8
0
  5
F12
 10
-209.862
 20
-742.566
 30
0.000000
  70
    32
  0
VERTEX
  8
0
  5
F13
 10
-210.787
 20
-751.504
 30
0.000000
  70
    32
  0
VERTEX
  8
0
  5
F14
 10
-211.710
 20
-760.443
 30
0.000000
  70
    32
  0
VERTEX
  8
0
  5
F15
 10
-212.633
 20
-769.383
 30
0.000000
  70
    32
  0
VERTEX
  8
0
  5
F16
 10
-213.555
 20
-778.323
 30
0.000000
  70
    32
  0
VERTEX
  8
0
  5
F17
 10
-214.475
 20
-787.263
 30
0.000000
  70
    32
  0
VERTEX
  8
0
  5
F18
 10
-215.395
 20
-796.205
 30
0.000000
  70
    32
  0
VERTEX
  8
0
  5
F19
 10
-216.313
 20
-805.146
 30
0.000000
  70
    32
  0
VERTEX
  8
0
  5
F1A
 10
-217.230
 20
-814.088
 30
0.000000
  70
    32
  0
VERTEX
  8
0
  5
F1B
 10
-218.147
 20
-823.031
 30
0.000000
  70
    32
  0
VERTEX
  8
0
  5
F1C
 10
-219.062
 20
-831.973
 30
0.000000
  70
    32
  0
VERTEX
  8
0
  5
F1D
 10
-219.976
 20
-840.917
 30
0.000000
  70
    32
  0
VERTEX
  8
0
  5
F1E
 10
-220.890
 20
-849.861
 30
0.000000
  70
    32
  0
VERTEX
  8
0
  5
F1F
 10
-221.802
 20
-858.805
 30
0.000000
  70
    32
  0
VERTEX
  8
0
  5
F20
 10
-222.714
 20
-867.750
 30
0.000000
  70
    32
  0
VERTEX
  8
0
  5
F21
 10
-223.625
 20
-876.695
 30
0.000000
  70
    32
  0
VERTEX
  8
0
  5
F22
 10
-224.534
 20
-885.641
 30
0.000000
  70
    32
  0
VERTEX
  8
0
  5
F23
 10
-225.443
 20
-894.587
 30
0.000000
  70
    32
  0
VERTEX
  8
0
  5
F24
 10
-226.352
 20
-903.534
 30
0.000000
  70
    32
  0
VERTEX
  8
0
  5
F25
 10
-227.259
 20
-912.481
 30
0.000000
  70
    32
  0
VERTEX
  8
0
  5
F26
 10
-228.165
 20
-921.428
 30
0.000000
  70
    32
  0
VERTEX
  8
0
  5
F27
 10
-229.071
 20
-930.376
 30
0.000000
  70
    32
  0
VERTEX
  8
0
  5
F28
 10
-229.976
 20
-939.324
 30
0.000000
  70
    32
  0
VERTEX
  8
0
  5
F29
 10
-230.880
 20
-948.273
 30
0.000000
  70
    32
  0
VERTEX
  8
0
  5
F2A
 10
-231.784
 20
-957.222
 30
0.000000
  70
    32
  0
VERTEX
  8
0
  5
F2B
 10
-232.687
 20
-966.171
 30
0.000000
  70
    32
  0
VERTEX
  8
0
  5
F2C
 10
-233.589
 20
-975.121
 30
0.000000
  70
    32
  0
VERTEX
  8
0
  5
F2D
 10
-234.490
 20
-984.072
 30
0.000000
  70
    32
  0
VERTEX
  8
0
  5
F2E
 10
-235.391
 20
-993.022
 30
0.000000
  70
    32
  0
VERTEX
  8
0
  5
F2F
 10
-236.291
 20
-1001.97
 30
0.000000
  70
    32
  0
VERTEX
  8
0
  5
F30
 10
-237.191
 20
-1010.92
 30
0.000000
  70
    32
  0
VERTEX
  8
0
  5
F31
 10
-238.089
 20
-1019.88
 30
0.000000
  70
    32
  0
VERTEX
  8
0
  5
F32
 10
-238.987
 20
-1028.83
 30
0.000000
  70
    32
  0
VERTEX
  8
0
  5
F33
 10
-239.884
 20
-1037.78
 30
0.000000
  70
    32
  0
VERTEX
  8
0
  5
F34
 10
-240.780
 20
-1046.74
 30
0.000000
  70
    32
  0
VERTEX
  8
0
  5
F35
 10
-241.674
 20
-1055.69
 30
0.000000
  70
    32
  0
VERTEX
  8
0
  5
F36
 10
-242.567
 20
-1064.64
 30
0.000000
  70
    32
  0
VERTEX
  8
0
  5
F37
 10
-243.458
 20
-1073.60
 30
0.000000
  70
    32
  0
VERTEX
  8
0
  5
F38
 10
-244.348
 20
-1082.55
 30
0.000000
  70
    32
  0
VERTEX
  8
0
  5
F39
 10
-245.236
 20
-1091.51
 30
0.000000
  70
    32
  0
VERTEX
  8
0
  5
F3A
 10
-246.121
 20
-1100.47
 30
0.000000
  70
    32
  0
VERTEX
  8
0
  5
F3B
 10
-247.005
 20
-1109.43
 30
0.000000
  70
    32
  0
VERTEX
  8
0
  5
F3C
 10
-247.886
 20
-1118.39
 30
0.000000
  70
    32
  0
VERTEX
  8
0
  5
F3D
 10
-248.765
 20
-1127.35
 30
0.000000
  70
    32
  0
VERTEX
  8
0
  5
F3E
 10
-249.642
 20
-1136.31
 30
0.000000
  70
    32
  0
VERTEX
  8
0
  5
F3F
 10
-250.515
 20
-1145.27
 30
0.000000
  70
    32
  0
VERTEX
  8
0
  5
F40
 10
-251.386
 20
-1154.23
 30
0.000000
  70
    32
  0
VERTEX
  8
0
  5
F41
 10
-252.254
 20
-1163.20
 30
0.000000
  70
    32
  0
VERTEX
  8
0
  5
F42
 10
-253.119
 20
-1172.16
 30
0.000000
  70
    32
  0
VERTEX
  8
0
  5
F43
 10
-253.980
 20
-1181.13
 30
0.000000
  70
    32
  0
VERTEX
  8
0
  5
F44
 10
-254.838
 20
-1190.09
 30
0.000000
  70
    32
  0
VERTEX
  8
0
  5
F45
 10
-255.693
 20
-1199.06
 30
0.000000
  70
    32
  0
VERTEX
  8
0
  5
F46
 10
-256.544
 20
-1208.03
 30
0.000000
  70
    32
  0
VERTEX
  8
0
  5
F47
 10
-257.391
 20
-1217.00
 30
0.000000
  70
    32
  0
VERTEX
  8
0
  5
F48
 10
-258.234
 20
-1225.98
 30
0.000000
  70
    32
  0
VERTEX
  8
0
  5
F49
 10
-259.073
 20
-1234.95
 30
0.000000
  70
    32
  0
VERTEX
  8
0
  5
F4A
 10
-259.907
 20
-1243.93
 30
0.000000
  70
    32
  0
VERTEX
  8
0
  5
F4B
 10
-260.738
 20
-1252.90
 30
0.000000
  70
    32
  0
VERTEX
  8
0
  5
F4C
 10
-261.564
 20
-1261.88
 30
0.000000
  70
    32
  0
VERTEX
  8
0
  5
F4D
 10
-262.385
 20
-1270.86
 30
0.000000
  70
    32
  0
VERTEX
  8
0
  5
F4E
 10
-263.201
 20
-1279.84
 30
0.000000
  70
    32
  0
VERTEX
  8
0
  5
F4F
 10
-264.013
 20
-1288.82
 30
0.000000
  70
    32
  0
VERTEX
  8
0
  5
F50
 10
-264.819
 20
-1297.81
 30
0.000000
  70
    32
  0
VERTEX
  8
0
  5
F51
 10
-265.620
 20
-1306.80
 30
0.000000
  70
    32
  0
VERTEX
  8
0
  5
F52
 10
-266.416
 20
-1315.78
 30
0.000000
  70
    32
  0
VERTEX
  8
0
  5
F53
 10
-267.207
 20
-1324.77
 30
0.000000
  70
    32
  0
VERTEX
  8
0
  5
F54
 10
-267.991
 20
-1333.76
 30
0.000000
  70
    32
  0
VERTEX
  8
0
  5
F55
 10
-268.770
 20
-1342.76
 30
0.000000
  70
    32
  0
VERTEX
  8
0
  5
F56
 10
-269.543
 20
-1351.75
 30
0.000000
  70
    32
  0
VERTEX
  8
0
  5
F57
 10
-270.310
 20
-1360.75
 30
0.000000
  70
    32
  0
VERTEX
  8
0
  5
F58
 10
-271.071
 20
-1369.75
 30
0.000000
  70
    32
  0
VERTEX
  8
0
  5
F59
 10
-271.825
 20
-1378.75
 30
0.000000
  70
    32
  0
VERTEX
  8
0
  5
F5A
 10
-272.573
 20
-1387.75
 30
0.000000
  70
    32
  0
VERTEX
  8
0
  5
F5B
 10
-273.315
 20
-1396.76
 30
0.000000
  70
    32
  0
VERTEX
  8
0
  5
F5C
 10
-274.049
 20
-1405.77
 30
0.000000
  70
    32
  0
VERTEX
  8
0
  5
F5D
 10
-274.777
 20
-1414.78
 30
0.000000
  70
    32
  0
VERTEX
  8
0
  5
F5E
 10
-275.498
 20
-1423.79
 30
0.000000
  70
    32
  0
VERTEX
  8
0
  5
F5F
 10
-276.211
 20
-1432.80
 30
0.000000
  70
    32
  0
VERTEX
  8
0
  5
F60
 10
-276.917
 20
-1441.82
 30
0.000000
  70
    32
  0
VERTEX
  8
0
  5
F61
 10
-277.616
 20
-1450.84
 30
0.000000
  70
    32
  0
VERTEX
  8
0
  5
F62
 10
-278.308
 20
-1459.86
 30
0.000000
  70
    32
  0
VERTEX
  8
0
  5
F63
 10
-278.993
 20
-1468.88
 30
0.000000
  70
    32
  0
VERTEX
  8
0
  5
F64
 10
-279.671
 20
-1477.90
 30
0.000000
  70
    32
  0
VERTEX
  8
0
  5
F65
 10
-280.342
 20
-1486.93
 30
0.000000
  70
    32
  0
VERTEX
  8
0
  5
F66
 10
-281.006
 20
-1495.96
 30
0.000000
  70
    32
  0
VERTEX
  8
0
  5
F67
 10
-281.664
 20
-1504.99
 30
0.000000
  70
    32
  0
VERTEX
  8
0
  5
F68
 10
-282.316
 20
-1514.03
 30
0.000000
  70
    32
  0
VERTEX
  8
0
  5
F69
 10
-282.960
 20
-1523.06
 30
0.000000
  70
    32
  0
VERTEX
  8
0
  5
F6A
 10
-283.599
 20
-1532.10
 30
0.000000
  70
    32
  0
VERTEX
  8
0
  5
F6B
 10
-284.231
 20
-1541.14
 30
0.000000
  70
    32
  0
VERTEX
  8
0
  5
F6C
 10
-284.858
 20
-1550.18
 30
0.000000
  70
    32
  0
VERTEX
  8
0
  5
F6D
 10
-285.478
 20
-1559.22
 30
0.000000
  70
    32
  0
VERTEX
  8
0
  5
F6E
 10
-286.093
 20
-1568.26
 30
0.000000
  70
    32
  0
VERTEX
  8
0
  5
F6F
 10
-286.702
 20
-1577.31
 30
0.000000
  70
    32
  0
VERTEX
  8
0
  5
F70
 10
-287.305
 20
-1586.36
 30
0.000000
  70
    32
  0
VERTEX
  8
0
  5
F71
 10
-287.902
 20
-1595.41
 30
0.000000
  70
    32
  0
VERTEX
  8
0
  5
F72
 10
-288.495
 20
-1604.46
 30
0.000000
  70
    32
  0
VERTEX
  8
0
  5
F73
 10
-289.082
 20
-1613.51
 30
0.000000
  70
    32
  0
VERTEX
  8
0
  5
F74
 10
-289.663
 20
-1622.56
 30
0.000000
  70
    32
  0
VERTEX
  8
0
  5
F75
 10
-290.240
 20
-1631.62
 30
0.000000
  70
    32
  0
VERTEX
  8
0
  5
F76
 10
-290.812
 20
-1640.68
 30
0.000000
  70
    32
  0
VERTEX
  8
0
  5
F77
 10
-291.378
 20
-1649.74
 30
0.000000
  70
    32
  0
VERTEX
  8
0
  5
F78
 10
-291.940
 20
-1658.80
 30
0.000000
  70
    32
  0
VERTEX
  8
0
  5
F79
 10
-292.497
 20
-1667.86
 30
0.000000
  70
    32
  0
VERTEX
  8
0
  5
F7A
 10
-293.050
 20
-1676.92
 30
0.000000
  70
    32
  0
VERTEX
  8
0
  5
F7B
 10
-293.598
 20
-1685.98
 30
0.000000
  70
    32
  0
VERTEX
  8
0
  5
F7C
 10
-294.142
 20
-1695.05
 30
0.000000
  70
    32
  0
VERTEX
  8
0
  5
F7D
 10
-294.682
 20
-1704.11
 30
0.000000
  70
    32
  0
VERTEX
  8
0
  5
F7E
 10
-295.217
 20
-1713.18
 30
0.000000
  70
    32
  0
VERTEX
  8
0
  5
F7F
 10
-295.749
 20
-1722.25
 30
0.000000
  70
    32
  0
VERTEX
  8
0
  5
F80
 10
-296.277
 20
-1731.32
 30
0.000000
  70
    32
  0
VERTEX
  8
0
  5
F81
 10
-296.800
 20
-1740.39
 30
0.000000
  70
    32
  0
VERTEX
  8
0
  5
F82
 10
-297.320
 20
-1749.46
 30
0.000000
  70
    32
  0
VERTEX
  8
0
  5
F83
 10
-297.837
 20
-1758.53
 30
0.000000
  70
    32
  0
VERTEX
  8
0
  5
F84
 10
-298.350
 20
-1767.61
 30
0.000000
  70
    32
  0
VERTEX
  8
0
  5
F85
 10
-298.859
 20
-1776.68
 30
0.000000
  70
    32
  0
VERTEX
  8
0
  5
F86
 10
-299.366
 20
-1785.76
 30
0.000000
  70
    32
  0
VERTEX
  8
0
  5
F87
 10
-299.869
 20
-1794.83
 30
0.000000
  70
    32
  0
VERTEX
  8
0
  5
F88
 10
-300.369
 20
-1803.91
 30
0.000000
  70
    32
  0
VERTEX
  8
0
  5
F89
 10
-300.866
 20
-1812.99
 30
0.000000
  70
    32
  0
VERTEX
  8
0
  5
F8A
 10
-301.360
 20
-1822.06
 30
0.000000
  70
    32
  0
VERTEX
  8
0
  5
F8B
 10
-301.851
 20
-1831.14
 30
0.000000
  70
    32
  0
VERTEX
  8
0
  5
F8C
 10
-302.340
 20
-1840.22
 30
0.000000
  70
    32
  0
VERTEX
  8
0
  5
F8D
 10
-302.827
 20
-1849.30
 30
0.000000
  70
    32
  0
VERTEX
  8
0
  5
F8E
 10
-303.310
 20
-1858.38
 30
0.000000
  70
    32
  0
VERTEX
  8
0
  5
F8F
 10
-303.792
 20
-1867.46
 30
0.000000
  70
    32
  0
VERTEX
  8
0
  5
F90
 10
-304.271
 20
-1876.54
 30
0.000000
  70
    32
  0
VERTEX
  8
0
  5
F91
 10
-304.749
 20
-1885.63
 30
0.000000
  70
    32
  0
VERTEX
  8
0
  5
F92
 10
-305.224
 20
-1894.71
 30
0.000000
  70
    32
  0
VERTEX
  8
0
  5
F93
 10
-305.697
 20
-1903.79
 30
0.000000
  70
    32
  0
VERTEX
  8
0
  5
F94
 10
-306.169
 20
-1912.87
 30
0.000000
  70
    32
  0
VERTEX
  8
0
  5
F95
 10
-306.639
 20
-1921.96
 30
0.000000
  70
    32
  0
VERTEX
  8
0
  5
F96
 10
-307.107
 20
-1931.04
 30
0.000000
  70
    32
  0
VERTEX
  8
0
  5
F97
 10
-307.574
 20
-1940.12
 30
0.000000
  70
    32
  0
VERTEX
  8
0
  5
F98
 10
-308.040
 20
-1949.21
 30
0.000000
  70
    32
  0
VERTEX
  8
0
  5
F99
 10
-308.504
 20
-1958.29
 30
0.000000
  70
    32
  0
VERTEX
  8
0
  5
F9A
 10
-308.967
 20
-1967.37
 30
0.000000
  70
    32
  0
VERTEX
  8
0
  5
F9B
 10
-309.429
 20
-1976.46
 30
0.000000
  70
    32
  0
VERTEX
  8
0
  5
F9C
 10
-309.891
 20
-1985.54
 30
0.000000
  70
    32
  0
VERTEX
  8
0
  5
F9D
 10
-310.351
 20
-1994.63
 30
0.000000
  70
    32
  0
VERTEX
  8
0
  5
F9E
 10
-310.811
 20
-2003.71
 30
0.000000
  70
    32
  0
VERTEX
  8
0
  5
F9F
 10
-311.270
 20
-2012.79
 30
0.000000
  70
    32
  0
VERTEX
  8
0
  5
FA0
 10
-311.728
 20
-2021.88
 30
0.000000
  70
    32
  0
VERTEX
  8
0
  5
FA1
 10
-312.186
 20
-2030.96
 30
0.000000
  70
    32
  0
VERTEX
  8
0
  5
FA2
 10
-312.643
 20
-2040.04
 30
0.000000
  70
    32
  0
VERTEX
  8
0
  5
FA3
 10
-313.099
 20
-2049.13
 30
0.000000
  70
    32
  0
VERTEX
  8
0
  5
FA4
 10
-313.555
 20
-2058.21
 30
0.000000
  70
    32
  0
VERTEX
  8
0
  5
FA5
 10
-314.009
 20
-2067.29
 30
0.000000
  70
    32
  0
VERTEX
  8
0
  5
FA6
 10
-314.463
 20
-2076.38
 30
0.000000
  70
    32
  0
VERTEX
  8
0
  5
FA7
 10
-314.916
 20
-2085.46
 30
0.000000
  70
    32
  0
VERTEX
  8
0
  5
FA8
 10
-315.368
 20
-2094.54
 30
0.000000
  70
    32
  0
VERTEX
  8
0
  5
FA9
 10
-315.820
 20
-2103.63
 30
0.000000
  70
    32
  0
VERTEX
  8
0
  5
FAA
 10
-316.270
 20
-2112.71
 30
0.000000
  70
    32
  0
VERTEX
  8
0
  5
FAB
 10
-316.719
 20
-2121.79
 30
0.000000
  70
    32
  0
VERTEX
  8
0
  5
FAC
 10
-317.167
 20
-2130.88
 30
0.000000
  70
    32
  0
VERTEX
  8
0
  5
FAD
 10
-317.615
 20
-2139.96
 30
0.000000
  70
    32
  0
VERTEX
  8
0
  5
FAE
 10
-318.061
 20
-2149.04
 30
0.000000
  70
    32
  0
VERTEX
  8
0
  5
FAF
 10
-318.506
 20
-2158.13
 30
0.000000
  70
    32
  0
VERTEX
  8
0
  5
FB0
 10
-318.950
 20
-2167.21
 30
0.000000
  70
    32
  0
VERTEX
  8
0
  5
FB1
 10
-319.393
 20
-2176.29
 30
0.000000
  70
    32
  0
VERTEX
  8
0
  5
FB2
 10
-319.834
 20
-2185.38
 30
0.000000
  70
    32
  0
VERTEX
  8
0
  5
FB3
 10
-320.275
 20
-2194.46
 30
0.000000
  70
    32
  0
VERTEX
  8
0
  5
FB4
 10
-320.714
 20
-2203.55
 30
0.000000
  70
    32
  0
VERTEX
  8
0
  5
FB5
 10
-321.152
 20
-2212.63
 30
0.000000
  70
    32
  0
VERTEX
  8
0
  5
FB6
 10
-321.588
 20
-2221.72
 30
0.000000
  70
    32
  0
VERTEX
  8
0
  5
FB7
 10
-322.024
 20
-2230.80
 30
0.000000
  70
    32
  0
VERTEX
  8
0
  5
FB8
 10
-322.457
 20
-2239.89
 30
0.000000
  70
    32
  0
VERTEX
  8
0
  5
FB9
 10
-322.890
 20
-2248.97
 30
0.000000
  70
    32
  0
VERTEX
  8
0
  5
FBA
 10
-323.321
 20
-2258.06
 30
0.000000
  70
    32
  0
VERTEX
  8
0
  5
FBB
 10
-323.751
 20
-2267.14
 30
0.000000
  70
    32
  0
VERTEX
  8
0
  5
FBC
 10
-324.179
 20
-2276.23
 30
0.000000
  70
    32
  0
VERTEX
  8
0
  5
FBD
 10
-324.606
 20
-2285.32
 30
0.000000
  70
    32
  0
VERTEX
  8
0
  5
FBE
 10
-325.031
 20
-2294.40
 30
0.000000
  70
    32
  0
VERTEX
  8
0
  5
FBF
 10
-325.454
 20
-2303.49
 30
0.000000
  70
    32
  0
VERTEX
  8
0
  5
FC0
 10
-325.876
 20
-2312.58
 30
0.000000
  70
    32
  0
VERTEX
  8
0
  5
FC1
 10
-326.296
 20
-2321.67
 30
0.000000
  70
    32
  0
VERTEX
  8
0
  5
FC2
 10
-326.715
 20
-2330.75
 30
0.000000
  70
    32
  0
VERTEX
  8
0
  5
FC3
 10
-327.132
 20
-2339.84
 30
0.000000
  70
    32
  0
VERTEX
  8
0
  5
FC4
 10
-327.547
 20
-2348.93
 30
0.000000
  70
    32
  0
VERTEX
  8
0
  5
FC5
 10
-327.961
 20
-2358.02
 30
0.000000
  70
    32
  0
VERTEX
  8
0
  5
FC6
 10
-328.373
 20
-2367.11
 30
0.000000
  70
    32
  0
VERTEX
  8
0
  5
FC7
 10
-328.783
 20
-2376.20
 30
0.000000
  70
    32
  0
VERTEX
  8
0
  5
FC8
 10
-329.191
 20
-2385.29
 30
0.000000
  70
    32
  0
VERTEX
  8
0
  5
FC9
 10
-329.597
 20
-2394.38
 30
0.000000
  70
    32
  0
VERTEX
  8
0
  5
FCA
 10
-330.001
 20
-2403.48
 30
0.000000
  70
    32
  0
VERTEX
  8
0
  5
FCB
 10
-330.404
 20
-2412.57
 30
0.000000
  70
    32
  0
VERTEX
  8
0
  5
FCC
 10
-330.804
 20
-2421.66
 30
0.000000
  70
    32
  0
VERTEX
  8
0
  5
FCD
 10
-331.203
 20
-2430.75
 30
0.000000
  70
    32
  0
VERTEX
  8
0
  5
FCE
 10
-331.599
 20
-2439.85
 30
0.000000
  70
    32
  0
VERTEX
  8
0
  5
FCF
 10
-331.994
 20
-2448.94
 30
0.000000
  70
    32
  0
VERTEX
  8
0
  5
FD0
 10
-332.386
 20
-2458.04
 30
0.000000
  70
    32
  0
VERTEX
  8
0
  5
FD1
 10
-332.776
 20
-2467.13
 30
0.000000
  70
    32
  0
VERTEX
  8
0
  5
FD2
 10
-333.164
 20
-2476.23
 30
0.000000
  70
    32
  0
VERTEX
  8
0
  5
FD3
 10
-333.550
 20
-2485.32
 30
0.000000
  70
    32
  0
VERTEX
  8
0
  5
FD4
 10
-333.934
 20
-2494.42
 30
0.000000
  70
    32
  0
VERTEX
  8
0
  5
FD5
 10
-334.316
 20
-2503.52
 30
0.000000
  70
    32
  0
VERTEX
  8
0
  5
FD6
 10
-334.695
 20
-2512.62
 30
0.000000
  70
    32
  0
VERTEX
  8
0
  5
FD7
 10
-335.072
 20
-2521.72
 30
0.000000
  70
    32
  0
VERTEX
  8
0
  5
FD8
 10
-335.447
 20
-2530.82
 30
0.000000
  70
    32
  0
VERTEX
  8
0
  5
FD9
 10
-335.819
 20
-2539.92
 30
0.000000
  70
    32
  0
VERTEX
  8
0
  5
FDA
 10
-336.190
 20
-2549.02
 30
0.000000
  70
    32
  0
VERTEX
  8
0
  5
FDB
 10
-336.557
 20
-2558.12
 30
0.000000
  70
    32
  0
VERTEX
  8
0
  5
FDC
 10
-336.923
 20
-2567.22
 30
0.000000
  70
    32
  0
VERTEX
  8
0
  5
FDD
 10
-337.285
 20
-2576.32
 30
0.000000
  70
    32
  0
VERTEX
  8
0
  5
FDE
 10
-337.646
 20
-2585.43
 30
0.000000
  70
    32
  0
VERTEX
  8
0
  5
FDF
 10
-338.003
 20
-2594.53
 30
0.000000
  70
    32
  0
VERTEX
  8
0
  5
FE0
 10
-338.359
 20
-2603.64
 30
0.000000
  70
    32
  0
VERTEX
  8
0
  5
FE1
 10
-338.711
 20
-2612.75
 30
0.000000
  70
    32
  0
VERTEX
  8
0
  5
FE2
 10
-339.062
 20
-2621.85
 30
0.000000
  70
    32
  0
VERTEX
  8
0
  5
FE3
 10
-339.409
 20
-2630.96
 30
0.000000
  70
    32
  0
VERTEX
  8
0
  5
FE4
 10
-339.754
 20
-2640.07
 30
0.000000
  70
    32
  0
VERTEX
  8
0
  5
FE5
 10
-340.096
 20
-2649.18
 30
0.000000
  70
    32
  0
VERTEX
  8
0
  5
FE6
 10
-340.435
 20
-2658.29
 30
0.000000
  70
    32
  0
VERTEX
  8
0
  5
FE7
 10
-340.772
 20
-2667.40
 30
0.000000
  70
    32
  0
VERTEX
  8
0
  5
FE8
 10
-341.105
 20
-2676.51
 30
0.000000
  70
    32
  0
VERTEX
  8
0
  5
FE9
 10
-341.436
 20
-2685.62
 30
0.000000
  70
    32
  0
VERTEX
  8
0
  5
FEA
 10
-341.763
 20
-2694.74
 30
0.000000
  70
    32
  0
VERTEX
  8
0
  5
FEB
 10
-342.088
 20
-2703.85
 30
0.000000
  70
    32
  0
VERTEX
  8
0
  5
FEC
 10
-342.409
 20
-2712.96
 30
0.000000
  70
    32
  0
VERTEX
  8
0
  5
FED
 10
-342.726
 20
-2722.08
 30
0.000000
  70
    32
  0
VERTEX
  8
0
  5
FEE
 10
-343.041
 20
-2731.19
 30
0.000000
  70
    32
  0
VERTEX
  8
0
  5
FEF
 10
-343.352
 20
-2740.31
 30
0.000000
  70
    32
  0
VERTEX
  8
0
  5
FF0
 10
-343.659
 20
-2749.42
 30
0.000000
  70
    32
  0
VERTEX
  8
0
  5
FF1
 10
-343.963
 20
-2758.54
 30
0.000000
  70
    32
  0
VERTEX
  8
0
  5
FF2
 10
-344.262
 20
-2767.65
 30
0.000000
  70
    32
  0
VERTEX
  8
0
  5
FF3
 10
-344.559
 20
-2776.77
 30
0.000000
  70
    32
  0
VERTEX
  8
0
  5
FF4
 10
-344.851
 20
-2785.88
 30
0.000000
  70
    32
  0
VERTEX
  8
0
  5
FF5
 10
-345.139
 20
-2795.00
 30
0.000000
  70
    32
  0
VERTEX
  8
0
  5
FF6
 10
-345.424
 20
-2804.12
 30
0.000000
  70
    32
  0
VERTEX
  8
0
  5
FF7
 10
-345.704
 20
-2813.23
 30
0.000000
  70
    32
  0
VERTEX
  8
0
  5
FF8
 10
-345.980
 20
-2822.35
 30
0.000000
  70
    32
  0
VERTEX
  8
0
  5
FF9
 10
-346.251
 20
-2831.46
 30
0.000000
  70
    32
  0
VERTEX
  8
0
  5
FFA
 10
-346.519
 20
-2840.58
 30
0.000000
  70
    32
  0
VERTEX
  8
0
  5
FFB
 10
-346.782
 20
-2849.69
 30
0.000000
  70
    32
  0
VERTEX
  8
0
  5
FFC
 10
-347.040
 20
-2858.81
 30
0.000000
  70
    32
  0
VERTEX
  8
0
  5
FFD
 10
-347.294
 20
-2867.92
 30
0.000000
  70
    32
  0
VERTEX
  8
0
  5
FFE
 10
-347.544
 20
-2877.04
 30
0.000000
  70
    32
  0
VERTEX
  8
0
  5
FFF
 10
-347.788
 20
-2886.15
 30
0.000000
  70
    32
  0
VERTEX
  8
0
  5
1000
 10
-348.028
 20
-2895.26
 30
0.000000
  70
    32
  0
VERTEX
  8
0
  5
1001
 10
-348.263
 20
-2904.38
 30
0.000000
  70
    32
  0
VERTEX
  8
0
  5
1002
 10
-348.493
 20
-2913.49
 30
0.000000
  70
    32
  0
VERTEX
  8
0
  5
1003
 10
-348.717
 20
-2922.60
 30
0.000000
  70
    32
  0
VERTEX
  8
0
  5
1004
 10
-348.937
 20
-2931.71
 30
0.000000
  70
    32
  0
VERTEX
  8
0
  5
1005
 10
-349.152
 20
-2940.82
 30
0.000000
  70
    32
  0
VERTEX
  8
0
  5
1006
 10
-349.361
 20
-2949.93
 30
0.000000
  70
    32
  0
VERTEX
  8
0
  5
1007
 10
-349.565
 20
-2959.04
 30
0.000000
  70
    32
  0
VERTEX
  8
0
  5
1008
 10
-349.763
 20
-2968.14
 30
0.000000
  70
    32
  0
VERTEX
  8
0
  5
1009
 10
-349.956
 20
-2977.25
 30
0.000000
  70
    32
  0
VERTEX
  8
0
  5
100A
 10
-350.143
 20
-2986.36
 30
0.000000
  70
    32
  0
VERTEX
  8
0
  5
100B
 10
-350.325
 20
-2995.46
 30
0.000000
  70
    32
  0
VERTEX
  8
0
  5
100C
 10
-350.501
 20
-3004.56
 30
0.000000
  70
    32
  0
VERTEX
  8
0
  5
100D
 10
-350.671
 20
-3013.66
 30
0.000000
  70
    32
  0
VERTEX
  8
0
  5
100E
 10
-350.835
 20
-3022.77
 30
0.000000
  70
    32
  0
VERTEX
  8
0
  5
100F
 10
-350.994
 20
-3031.87
 30
0.000000
  70
    32
  0
VERTEX
  8
0
  5
1010
 10
-351.147
 20
-3040.97
 30
0.000000
  70
    32
  0
VERTEX
  8
0
  5
1011
 10
-351.294
 20
-3050.06
 30
0.000000
  70
    32
  0
VERTEX
  8
0
  5
1012
 10
-351.436
 20
-3059.16
 30
0.000000
  70
    32
  0
VERTEX
  8
0
  5
1013
 10
-351.572
 20
-3068.26
 30
0.000000
  70
    32
  0
VERTEX
  8
0
  5
1014
 10
-351.703
 20
-3077.36
 30
0.000000
  70
    32
  0
VERTEX
  8
0
  5
1015
 10
-351.828
 20
-3086.46
 30
0.000000
  70
    32
  0
VERTEX
  8
0
  5
1016
 10
-351.948
 20
-3095.56
 30
0.000000
  70
    32
  0
VERTEX
  8
0
  5
1017
 10
-352.063
 20
-3104.66
 30
0.000000
  70
    32
  0
VERTEX
  8
0
  5
1018
 10
-352.172
 20
-3113.76
 30
0.000000
  70
    32
  0
VERTEX
  8
0
  5
1019
 10
-352.276
 20
-3122.86
 30
0.000000
  70
    32
  0
VERTEX
  8
0
  5
101A
 10
-352.375
 20
-3131.96
 30
0.000000
  70
    32
  0
VERTEX
  8
0
  5
101B
 10
-352.468
 20
-3141.06
 30
0.000000
  70
    32
  0
VERTEX
  8
0
  5
101C
 10
-352.557
 20
-3150.17
 30
0.000000
  70
    32
  0
VERTEX
  8
0
  5
101D
 10
-352.640
 20
-3159.27
 30
0.000000
  70
    32
  0
VERTEX
  8
0
  5
101E
 10
-352.718
 20
-3168.38
 30
0.000000
  70
    32
  0
VERTEX
  8
0
  5
101F
 10
-352.791
 20
-3177.49
 30
0.000000
  70
    32
  0
VERTEX
  8
0
  5
1020
 10
-352.859
 20
-3186.60
 30
0.000000
  70
    32
  0
VERTEX
  8
0
  5
1021
 10
-352.922
 20
-3195.71
 30
0.000000
  70
    32
  0
VERTEX
  8
0
  5
1022
 10
-352.981
 20
-3204.83
 30
0.000000
  70
    32
  0
VERTEX
  8
0
  5
1023
 10
-353.034
 20
-3213.94
 30
0.000000
  70
    32
  0
VERTEX
  8
0
  5
1024
 10
-353.083
 20
-3223.06
 30
0.000000
  70
    32
  0
VERTEX
  8
0
  5
1025
 10
-353.126
 20
-3232.19
 30
0.000000
  70
    32
  0
VERTEX
  8
0
  5
1026
 10
-353.165
 20
-3241.31
 30
0.000000
  70
    32
  0
VERTEX
  8
0
  5
1027
 10
-353.200
 20
-3250.44
 30
0.000000
  70
    32
  0
VERTEX
  8
0
  5
1028
 10
-353.229
 20
-3259.57
 30
0.000000
  70
    32
  0
VERTEX
  8
0
  5
1029
 10
-353.255
 20
-3268.70
 30
0.000000
  70
    32
  0
VERTEX
  8
0
  5
102A
 10
-353.275
 20
-3277.84
 30
0.000000
  70
    32
  0
VERTEX
  8
0
  5
102B
 10
-353.291
 20
-3286.98
 30
0.000000
  70
    32
  0
VERTEX
  8
0
  5
102C
 10
-353.303
 20
-3296.13
 30
0.000000
  70
    32
  0
VERTEX
  8
0
  5
102D
 10
-353.310
 20
-3305.27
 30
0.000000
  70
    32
  0
VERTEX
  8
0
  5
102E
 10
-353.312
 20
-3314.43
 30
0.000000
  70
    32
  0
VERTEX
  8
0
  5
102F
 10
-353.311
 20
-3323.58
 30
0.000000
  70
    32
  0
VERTEX
  8
0
  5
1030
 10
-353.305
 20
-3332.74
 30
0.000000
  70
    32
  0
VERTEX
  8
0
  5
1031
 10
-353.294
 20
-3341.91
 30
0.000000
  70
    32
  0
VERTEX
  8
0
  5
1032
 10
-353.280
 20
-3351.08
 30
0.000000
  70
    32
  0
VERTEX
  8
0
  5
1033
 10
-353.261
 20
-3360.25
 30
0.000000
  70
    32
  0
VERTEX
  8
0
  5
1034
 10
-353.238
 20
-3369.43
 30
0.000000
  70
    32
  0
VERTEX
  8
0
  5
1035
 10
-353.211
 20
-3378.62
 30
0.000000
  70
    32
  0
VERTEX
  8
0
  5
1036
 10
-353.180
 20
-3387.81
 30
0.000000
  70
    32
  0
VERTEX
  8
0
  5
1037
 10
-353.145
 20
-3397.00
 30
0.000000
  70
    32
  0
VERTEX
  8
0
  5
1038
 10
-353.106
 20
-3406.20
 30
0.000000
  70
    32
  0
VERTEX
  8
0
  5
1039
 10
-353.062
 20
-3415.41
 30
0.000000
  70
    32
  0
VERTEX
  8
0
  5
103A
 10
-353.014
 20
-3424.62
 30
0.000000
  70
    32
  0
VERTEX
  8
0
  5
103B
 10
-352.960
 20
-3433.84
 30
0.000000
  70
    32
  0
VERTEX
  8
0
  5
103C
 10
-352.900
 20
-3443.05
 30
0.000000
  70
    32
  0
VERTEX
  8
0
  5
103D
 10
-352.832
 20
-3452.28
 30
0.000000
  70
    32
  0
VERTEX
  8
0
  5
103E
 10
-352.756
 20
-3461.50
 30
0.000000
  70
    32
  0
VERTEX
  8
0
  5
103F
 10
-352.671
 20
-3470.73
 30
0.000000
  70
    32
  0
VERTEX
  8
0
  5
1040
 10
-352.577
 20
-3479.96
 30
0.000000
  70
    32
  0
VERTEX
  8
0
  5
1041
 10
-352.472
 20
-3489.18
 30
0.000000
  70
    32
  0
VERTEX
  8
0
  5
1042
 10
-352.356
 20
-3498.41
 30
0.000000
  70
    32
  0
VERTEX
  8
0
  5
1043
 10
-352.227
 20
-3507.64
 30
0.000000
  70
    32
  0
VERTEX
  8
0
  5
1044
 10
-352.086
 20
-3516.87
 30
0.000000
  70
    32
  0
VERTEX
  8
0
  5
1045
 10
-351.932
 20
-3526.10
 30
0.000000
  70
    32
  0
VERTEX
  8
0
  5
1046
 10
-351.763
 20
-3535.32
 30
0.000000
  70
    32
  0
VERTEX
  8
0
  5
1047
 10
-351.578
 20
-3544.54
 30
0.000000
  70
    32
  0
VERTEX
  8
0
  5
1048
 10
-351.378
 20
-3553.76
 30
0.000000
  70
    32
  0
VERTEX
  8
0
  5
1049
 10
-351.161
 20
-3562.97
 30
0.000000
  70
    32
  0
VERTEX
  8
0
  5
104A
 10
-350.926
 20
-3572.18
 30
0.000000
  70
    32
  0
VERTEX
  8
0
  5
104B
 10
-350.673
 20
-3581.39
 30
0.000000
  70
    32
  0
VERTEX
  8
0
  5
104C
 10
-350.401
 20
-3590.58
 30
0.000000
  70
    32
  0
VERTEX
  8
0
  5
104D
 10
-350.109
 20
-3599.78
 30
0.000000
  70
    32
  0
VERTEX
  8
0
  5
104E
 10
-349.796
 20
-3608.96
 30
0.000000
  70
    32
  0
VERTEX
  8
0
  5
104F
 10
-349.462
 20
-3618.14
 30
0.000000
  70
    32
  0
VERTEX
  8
0
  5
1050
 10
-349.105
 20
-3627.31
 30
0.000000
  70
    32
  0
VERTEX
  8
0
  5
1051
 10
-348.726
 20
-3636.47
 30
0.000000
  70
    32
  0
VERTEX
  8
0
  5
1052
 10
-348.322
 20
-3645.63
 30
0.000000
  70
    32
  0
VERTEX
  8
0
  5
1053
 10
-347.894
 20
-3654.77
 30
0.000000
  70
    32
  0
VERTEX
  8
0
  5
1054
 10
-347.440
 20
-3663.90
 30
0.000000
  70
    32
  0
VERTEX
  8
0
  5
1055
 10
-346.960
 20
-3673.02
 30
0.000000
  70
    32
  0
VERTEX
  8
0
  5
1056
 10
-346.454
 20
-3682.13
 30
0.000000
  70
    32
  0
VERTEX
  8
0
  5
1057
 10
-345.919
 20
-3691.23
 30
0.000000
  70
    32
  0
VERTEX
  8
0
  5
1058
 10
-345.355
 20
-3700.31
 30
0.000000
  70
    32
  0
VERTEX
  8
0
  5
1059
 10
-344.763
 20
-3709.39
 30
0.000000
  70
    32
  0
VERTEX
  8
0
  5
105A
 10
-344.140
 20
-3718.44
 30
0.000000
  70
    32
  0
VERTEX
  8
0
  5
105B
 10
-343.486
 20
-3727.49
 30
0.000000
  70
    32
  0
VERTEX
  8
0
  5
105C
 10
-342.800
 20
-3736.52
 30
0.000000
  70
    32
  0
VERTEX
  8
0
  5
105D
 10
-342.082
 20
-3745.53
 30
0.000000
  70
    32
  0
VERTEX
  8
0
  5
105E
 10
-341.330
 20
-3754.53
 30
0.000000
  70
    32
  0
VERTEX
  8
0
  5
105F
 10
-340.545
 20
-3763.51
 30
0.000000
  70
    32
  0
VERTEX
  8
0
  5
1060
 10
-339.724
 20
-3772.47
 30
0.000000
  70
    32
  0
VERTEX
  8
0
  5
1061
 10
-338.868
 20
-3781.41
 30
0.000000
  70
    32
  0
VERTEX
  8
0
  5
1062
 10
-337.975
 20
-3790.34
 30
0.000000
  70
    32
  0
VERTEX
  8
0
  5
1063
 10
-337.045
 20
-3799.25
 30
0.000000
  70
    32
  0
VERTEX
  8
0
  5
1064
 10
-336.077
 20
-3808.13
 30
0.000000
  70
    32
  0
VERTEX
  8
0
  5
1065
 10
-335.070
 20
-3817.00
 30
0.000000
  70
    32
  0
VERTEX
  8
0
  5
1066
 10
-334.023
 20
-3825.84
 30
0.000000
  70
    32
  0
VERTEX
  8
0
  5
1067
 10
-332.936
 20
-3834.67
 30
0.000000
  70
    32
  0
VERTEX
  8
0
  5
1068
 10
-331.808
 20
-3843.47
 30
0.000000
  70
    32
  0
VERTEX
  8
0
  5
1069
 10
-330.637
 20
-3852.25
 30
0.000000
  70
    32
  0
VERTEX
  8
0
  5
106A
 10
-329.424
 20
-3861.01
 30
0.000000
  70
    32
  0
VERTEX
  8
0
  5
106B
 10
-328.168
 20
-3869.74
 30
0.000000
  70
    32
  0
VERTEX
  8
0
  5
106C
 10
-326.866
 20
-3878.45
 30
0.000000
  70
    32
  0
VERTEX
  8
0
  5
106D
 10
-325.520
 20
-3887.13
 30
0.000000
  70
    32
  0
VERTEX
  8
0
  5
106E
 10
-324.128
 20
-3895.79
 30
0.000000
  70
    32
  0
VERTEX
  8
0
  5
106F
 10
-322.689
 20
-3904.42
 30
0.000000
  70
    32
  0
VERTEX
  8
0
  5
1070
 10
-321.204
 20
-3913.03
 30
0.000000
  70
    32
  0
VERTEX
  8
0
  5
1071
 10
-319.675
 20
-3921.60
 30
0.000000
  70
    32
  0
VERTEX
  8
0
  5
1072
 10
-318.104
 20
-3930.16
 30
0.000000
  70
    32
  0
VERTEX
  8
0
  5
1073
 10
-316.492
 20
-3938.69
 30
0.000000
  70
    32
  0
VERTEX
  8
0
  5
1074
 10
-314.840
 20
-3947.19
 30
0.000000
  70
    32
  0
VERTEX
  8
0
  5
1075
 10
-313.152
 20
-3955.67
 30
0.000000
  70
    32
  0
VERTEX
  8
0
  5
1076
 10
-311.427
 20
-3964.13
 30
0.000000
  70
    32
  0
VERTEX
  8
0
  5
1077
 10
-309.669
 20
-3972.57
 30
0.000000
  70
    32
  0
VERTEX
  8
0
  5
1078
 10
-307.879
 20
-3980.98
 30
0.000000
  70
    32
  0
VERTEX
  8
0
  5
1079
 10
-306.058
 20
-3989.37
 30
0.000000
  70
    32
  0
VERTEX
  8
0
  5
107A
 10
-304.208
 20
-3997.73
 30
0.000000
  70
    32
  0
VERTEX
  8
0
  5
107B
 10
-302.332
 20
-4006.08
 30
0.000000
  70
    32
  0
VERTEX
  8
0
  5
107C
 10
-300.430
 20
-4014.40
 30
0.000000
  70
    32
  0
VERTEX
  8
0
  5
107D
 10
-298.504
 20
-4022.71
 30
0.000000
  70
    32
  0
VERTEX
  8
0
  5
107E
 10
-296.557
 20
-4030.99
 30
0.000000
  70
    32
  0
VERTEX
  8
0
  5
107F
 10
-294.589
 20
-4039.26
 30
0.000000
  70
    32
  0
VERTEX
  8
0
  5
1080
 10
-292.603
 20
-4047.50
 30
0.000000
  70
    32
  0
VERTEX
  8
0
  5
1081
 10
-290.600
 20
-4055.73
 30
0.000000
  70
    32
  0
VERTEX
  8
0
  5
1082
 10
-288.575
 20
-4063.93
 30
0.000000
  70
    32
  0
VERTEX
  8
0
  5
1083
 10
-286.528
 20
-4072.10
 30
0.000000
  70
    32
  0
VERTEX
  8
0
  5
1084
 10
-284.456
 20
-4080.25
 30
0.000000
  70
    32
  0
VERTEX
  8
0
  5
1085
 10
-282.355
 20
-4088.36
 30
0.000000
  70
    32
  0
VERTEX
  8
0
  5
1086
 10
-280.223
 20
-4096.44
 30
0.000000
  70
    32
  0
VERTEX
  8
0
  5
1087
 10
-278.057
 20
-4104.48
 30
0.000000
  70
    32
  0
VERTEX
  8
0
  5
1088
 10
-275.855
 20
-4112.48
 30
0.000000
  70
    32
  0
VERTEX
  8
0
  5
1089
 10
-273.615
 20
-4120.44
 30
0.000000
  70
    32
  0
VERTEX
  8
0
  5
108A
 10
-271.332
 20
-4128.34
 30
0.000000
  70
    32
  0
VERTEX
  8
0
  5
108B
 10
-269.006
 20
-4136.20
 30
0.000000
  70
    32
  0
VERTEX
  8
0
  5
108C
 10
-266.632
 20
-4144.00
 30
0.000000
  70
    32
  0
VERTEX
  8
0
  5
108D
 10
-264.209
 20
-4151.74
 30
0.000000
  70
    32
  0
VERTEX
  8
0
  5
108E
 10
-261.733
 20
-4159.42
 30
0.000000
  70
    32
  0
VERTEX
  8
0
  5
108F
 10
-259.203
 20
-4167.04
 30
0.000000
  70
    32
  0
VERTEX
  8
0
  5
1090
 10
-256.614
 20
-4174.59
 30
0.000000
  70
    32
  0
VERTEX
  8
0
  5
1091
 10
-253.966
 20
-4182.07
 30
0.000000
  70
    32
  0
VERTEX
  8
0
  5
1092
 10
-251.254
 20
-4189.48
 30
0.000000
  70
    32
  0
VERTEX
  8
0
  5
1093
 10
-248.477
 20
-4196.81
 30
0.000000
  70
    32
  0
VERTEX
  8
0
  5
1094
 10
-245.632
 20
-4204.06
 30
0.000000
  70
    32
  0
VERTEX
  8
0
  5
1095
 10
-242.716
 20
-4211.20
 30
0.000000
  70
    32
  0
VERTEX
  8
0
  5
1096
 10
-239.728
 20
-4218.21
 30
0.000000
  70
    32
  0
VERTEX
  8
0
  5
1097
 10
-236.665
 20
-4225.08
 30
0.000000
  70
    32
  0
VERTEX
  8
0
  5
1098
 10
-233.525
 20
-4231.79
 30
0.000000
  70
    32
  0
VERTEX
  8
0
  5
1099
 10
-230.306
 20
-4238.32
 30
0.000000
  70
    32
  0
VERTEX
  8
0
  5
109A
 10
-227.006
 20
-4244.65
 30
0.000000
  70
    32
  0
VERTEX
  8
0
  5
109B
 10
-223.622
 20
-4250.76
 30
0.000000
  70
    32
  0
VERTEX
  8
0
  5
109C
 10
-220.152
 20
-4256.64
 30
0.000000
  70
    32
  0
VERTEX
  8
0
  5
109D
 10
-216.594
 20
-4262.26
 30
0.000000
  70
    32
  0
VERTEX
  8
0
  5
109E
 10
-212.945
 20
-4267.60
 30
0.000000
  70
    32
  0
VERTEX
  8
0
  5
109F
 10
-209.209
 20
-4272.67
 30
0.000000
  70
    32
  0
VERTEX
  8
0
  5
10A0
 10
-205.388
 20
-4277.48
 30
0.000000
  70
    32
  0
VERTEX
  8
0
  5
10A1
 10
-201.489
 20
-4282.04
 30
0.000000
  70
    32
  0
VERTEX
  8
0
  5
10A2
 10
-197.516
 20
-4286.36
 30
0.000000
  70
    32
  0
VERTEX
  8
0
  5
10A3
 10
-193.474
 20
-4290.47
 30
0.000000
  70
    32
  0
VERTEX
  8
0
  5
10A4
 10
-189.369
 20
-4294.36
 30
0.000000
  70
    32
  0
VERTEX
  8
0
  5
10A5
 10
-185.205
 20
-4298.07
 30
0.000000
  70
    32
  0
VERTEX
  8
0
  5
10A6
 10
-180.987
 20
-4301.60
 30
0.000000
  70
    32
  0
VERTEX
  8
0
  5
10A7
 10
-176.722
 20
-4304.97
 30
0.000000
  70
    32
  0
VERTEX
  8
0
  5
10A8
 10
-172.412
 20
-4308.19
 30
0.000000
  70
    32
  0
VERTEX
  8
0
  5
10A9
 10
-168.065
 20
-4311.27
 30
0.000000
  70
    32
  0
VERTEX
  8
0
  5
10AA
 10
-163.684
 20
-4314.24
 30
0.000000
  70
    32
  0
VERTEX
  8
0
  5
10AB
 10
-159.275
 20
-4317.10
 30
0.000000
  70
    32
  0
VERTEX
  8
0
  5
10AC
 10
-154.842
 20
-4319.86
 30
0.000000
  70
    32
  0
VERTEX
  8
0
  5
10AD
 10
-150.391
 20
-4322.55
 30
0.000000
  70
    32
  0
VERTEX
  8
0
  5
10AE
 10
-145.927
 20
-4325.17
 30
0.000000
  70
    32
  0
VERTEX
  8
0
  5
10AF
 10
-141.455
 20
-4327.75
 30
0.000000
  70
    32
  0
VERTEX
  8
0
  5
10B0
 10
-136.980
 20
-4330.29
 30
0.000000
  70
    32
  0
VERTEX
  8
0
  5
10B1
 10
-132.507
 20
-4332.80
 30
0.000000
  70
    32
  0
VERTEX
  8
0
  5
10B2
 10
-128.040
 20
-4335.31
 30
0.000000
  70
    32
  0
VERTEX
  8
0
  5
10B3
 10
-123.581
 20
-4337.81
 30
0.000000
  70
    32
  0
VERTEX
  8
0
  5
10B4
 10
-119.128
 20
-4340.29
 30
0.000000
  70
    32
  0
VERTEX
  8
0
  5
10B5
 10
-114.680
 20
-4342.74
 30
0.000000
  70
    32
  0
VERTEX
  8
0
  5
10B6
 10
-110.236
 20
-4345.16
 30
0.000000
  70
    32
  0
VERTEX
  8
0
  5
10B7
 10
-105.794
 20
-4347.52
 30
0.000000
  70
    32
  0
VERTEX
  8
0
  5
10B8
 10
-101.354
 20
-4349.83
 30
0.000000
  70
    32
  0
VERTEX
  8
0
  5
10B9
 10
-96.9145
 20
-4352.07
 30
0.000000
  70
    32
  0
VERTEX
  8
0
  5
10BA
 10
-92.4743
 20
-4354.25
 30
0.000000
  70
    32
  0
VERTEX
  8
0
  5
10BB
 10
-88.0321
 20
-4356.33
 30
0.000000
  70
    32
  0
VERTEX
  8
0
  5
10BC
 10
-83.5870
 20
-4358.33
 30
0.000000
  70
    32
  0
VERTEX
  8
0
  5
10BD
 10
-79.1377
 20
-4360.22
 30
0.000000
  70
    32
  0
VERTEX
  8
0
  5
10BE
 10
-74.6830
 20
-4362.00
 30
0.000000
  70
    32
  0
VERTEX
  8
0
  5
10BF
 10
-70.2219
 20
-4363.66
 30
0.000000
  70
    32
  0
VERTEX
  8
0
  5
10C0
 10
-65.7533
 20
-4365.19
 30
0.000000
  70
    32
  0
VERTEX
  8
0
  5
10C1
 10
-61.2758
 20
-4366.59
 30
0.000000
  70
    32
  0
VERTEX
  8
0
  5
10C2
 10
-56.7885
 20
-4367.84
 30
0.000000
  70
    32
  0
VERTEX
  8
0
  5
10C3
 10
-52.2901
 20
-4368.93
 30
0.000000
  70
    32
  0
VERTEX
  8
0
  5
10C4
 10
-47.7795
 20
-4369.85
 30
0.000000
  70
    32
  0
VERTEX
  8
0
  5
10C5
 10
-43.2561
 20
-4370.61
 30
0.000000
  70
    32
  0
VERTEX
  8
0
  5
10C6
 10
-38.7209
 20
-4371.21
 30
0.000000
  70
    32
  0
VERTEX
  8
0
  5
10C7
 10
-34.1751
 20
-4371.68
 30
0.000000
  70
    32
  0
VERTEX
  8
0
  5
10C8
 10
-29.6200
 20
-4372.03
 30
0.000000
  70
    32
  0
VERTEX
  8
0
  5
10C9
 10
-25.0568
 20
-4372.27
 30
0.000000
  70
    32
  0
VERTEX
  8
0
  5
10CA
 10
-20.4867
 20
-4372.44
 30
0.000000
  70
    32
  0
VERTEX
  8
0
  5
10CB
 10
-15.9110
 20
-4372.53
 30
0.000000
  70
    32
  0
VERTEX
  8
0
  5
10CC
 10
-11.3310
 20
-4372.58
 30
0.000000
  70
    32
  0
VERTEX
  8
0
  5
10CD
 10
-6.74781
 20
-4372.59
 30
0.000000
  70
    32
  0
VERTEX
  8
0
  5
10CE
 10
-2.16276
 20
-4372.59
 30
0.000000
  70
    32
  0
VERTEX
  8
0
  5
10CF
 10
2.42294
 20
-4372.59
 30
0.000000
  70
    32
  0
VERTEX
  8
0
  5
10D0
 10
7.00801
 20
-4372.59
 30
0.000000
  70
    32
  0
VERTEX
  8
0
  5
10D1
 10
11.5912
 20
-4372.58
 30
0.000000
  70
    32
  0
VERTEX
  8
0
  5
10D2
 10
16.1712
 20
-4372.53
 30
0.000000
  70
    32
  0
VERTEX
  8
0
  5
10D3
 10
20.7468
 20
-4372.43
 30
0.000000
  70
    32
  0
VERTEX
  8
0
  5
10D4
 10
25.3166
 20
-4372.27
 30
0.000000
  70
    32
  0
VERTEX
  8
0
  5
10D5
 10
29.8795
 20
-4372.01
 30
0.000000
  70
    32
  0
VERTEX
  8
0
  5
10D6
 10
34.4340
 20
-4371.66
 30
0.000000
  70
    32
  0
VERTEX
  8
0
  5
10D7
 10
38.9791
 20
-4371.19
 30
0.000000
  70
    32
  0
VERTEX
  8
0
  5
10D8
 10
43.5133
 20
-4370.57
 30
0.000000
  70
    32
  0
VERTEX
  8
0
  5
10D9
 10
48.0354
 20
-4369.81
 30
0.000000
  70
    32
  0
VERTEX
  8
0
  5
10DA
 10
52.5445
 20
-4368.87
 30
0.000000
  70
    32
  0
VERTEX
  8
0
  5
10DB
 10
57.0413
 20
-4367.77
 30
0.000000
  70
    32
  0
VERTEX
  8
0
  5
10DC
 10
61.5269
 20
-4366.51
 30
0.000000
  70
    32
  0
VERTEX
  8
0
  5
10DD
 10
66.0026
 20
-4365.11
 30
0.000000
  70
    32
  0
VERTEX
  8
0
  5
10DE
 10
70.4696
 20
-4363.57
 30
0.000000
  70
    32
  0
VERTEX
  8
0
  5
10DF
 10
74.9291
 20
-4361.90
 30
0.000000
  70
    32
  0
VERTEX
  8
0
  5
10E0
 10
79.3822
 20
-4360.11
 30
0.000000
  70
    32
  0
VERTEX
  8
0
  5
10E1
 10
83.8302
 20
-4358.21
 30
0.000000
  70
    32
  0
VERTEX
  8
0
  5
10E2
 10
88.2743
 20
-4356.21
 30
0.000000
  70
    32
  0
VERTEX
  8
0
  5
10E3
 10
92.7156
 20
-4354.12
 30
0.000000
  70
    32
  0
VERTEX
  8
0
  5
10E4
 10
97.1553
 20
-4351.95
 30
0.000000
  70
    32
  0
VERTEX
  8
0
  5
10E5
 10
101.595
 20
-4349.70
 30
0.000000
  70
    32
  0
VERTEX
  8
0
  5
10E6
 10
106.035
 20
-4347.38
 30
0.000000
  70
    32
  0
VERTEX
  8
0
  5
10E7
 10
110.477
 20
-4345.02
 30
0.000000
  70
    32
  0
VERTEX
  8
0
  5
10E8
 10
114.923
 20
-4342.60
 30
0.000000
  70
    32
  0
VERTEX
  8
0
  5
10E9
 10
119.373
 20
-4340.15
 30
0.000000
  70
    32
  0
VERTEX
  8
0
  5
10EA
 10
123.828
 20
-4337.67
 30
0.000000
  70
    32
  0
VERTEX
  8
0
  5
10EB
 10
128.291
 20
-4335.17
 30
0.000000
  70
    32
  0
VERTEX
  8
0
  5
10EC
 10
132.761
 20
-4332.66
 30
0.000000
  70
    32
  0
VERTEX
  8
0
  5
10ED
 10
137.239
 20
-4330.14
 30
0.000000
  70
    32
  0
VERTEX
  8
0
  5
10EE
 10
141.718
 20
-4327.61
 30
0.000000
  70
    32
  0
VERTEX
  8
0
  5
10EF
 10
146.195
 20
-4325.03
 30
0.000000
  70
    32
  0
VERTEX
  8
0
  5
10F0
 10
150.663
 20
-4322.40
 30
0.000000
  70
    32
  0
VERTEX
  8
0
  5
10F1
 10
155.118
 20
-4319.71
 30
0.000000
  70
    32
  0
VERTEX
  8
0
  5
10F2
 10
159.554
 20
-4316.95
 30
0.000000
  70
    32
  0
VERTEX
  8
0
  5
10F3
 10
163.967
 20
-4314.08
 30
0.000000
  70
    32
  0
VERTEX
  8
0
  5
10F4
 10
168.350
 20
-4311.11
 30
0.000000
  70
    32
  0
VERTEX
  8
0
  5
10F5
 10
172.699
 20
-4308.02
 30
0.000000
  70
    32
  0
VERTEX
  8
0
  5
10F6
 10
177.009
 20
-4304.80
 30
0.000000
  70
    32
  0
VERTEX
  8
0
  5
10F7
 10
181.274
 20
-4301.42
 30
0.000000
  70
    32
  0
VERTEX
  8
0
  5
10F8
 10
185.489
 20
-4297.88
 30
0.000000
  70
    32
  0
VERTEX
  8
0
  5
10F9
 10
189.649
 20
-4294.16
 30
0.000000
  70
    32
  0
VERTEX
  8
0
  5
10FA
 10
193.748
 20
-4290.25
 30
0.000000
  70
    32
  0
VERTEX
  8
0
  5
10FB
 10
197.782
 20
-4286.13
 30
0.000000
  70
    32
  0
VERTEX
  8
0
  5
10FC
 10
201.746
 20
-4281.79
 30
0.000000
  70
    32
  0
VERTEX
  8
0
  5
10FD
 10
205.634
 20
-4277.22
 30
0.000000
  70
    32
  0
VERTEX
  8
0
  5
10FE
 10
209.440
 20
-4272.40
 30
0.000000
  70
    32
  0
VERTEX
  8
0
  5
10FF
 10
213.161
 20
-4267.31
 30
0.000000
  70
    32
  0
VERTEX
  8
0
  5
1100
 10
216.790
 20
-4261.94
 30
0.000000
  70
    32
  0
VERTEX
  8
0
  5
1101
 10
220.327
 20
-4256.30
 30
0.000000
  70
    32
  0
VERTEX
  8
0
  5
1102
 10
223.774
 20
-4250.41
 30
0.000000
  70
    32
  0
VERTEX
  8
0
  5
1103
 10
227.136
 20
-4244.27
 30
0.000000
  70
    32
  0
VERTEX
  8
0
  5
1104
 10
230.415
 20
-4237.92
 30
0.000000
  70
    32
  0
VERTEX
  8
0
  5
1105
 10
233.613
 20
-4231.37
 30
0.000000
  70
    32
  0
VERTEX
  8
0
  5
1106
 10
236.734
 20
-4224.63
 30
0.000000
  70
    32
  0
VERTEX
  8
0
  5
1107
 10
239.781
 20
-4217.73
 30
0.000000
  70
    32
  0
VERTEX
  8
0
  5
1108
 10
242.757
 20
-4210.68
 30
0.000000
  70
    32
  0
VERTEX
  8
0
  5
1109
 10
245.665
 20
-4203.51
 30
0.000000
  70
    32
  0
VERTEX
  8
0
  5
110A
 10
248.507
 20
-4196.22
 30
0.000000
  70
    32
  0
VERTEX
  8
0
  5
110B
 10
251.288
 20
-4188.85
 30
0.000000
  70
    32
  0
VERTEX
  8
0
  5
110C
 10
254.009
 20
-4181.40
 30
0.000000
  70
    32
  0
VERTEX
  8
0
  5
110D
 10
256.674
 20
-4173.89
 30
0.000000
  70
    32
  0
VERTEX
  8
0
  5
110E
 10
259.284
 20
-4166.32
 30
0.000000
  70
    32
  0
VERTEX
  8
0
  5
110F
 10
261.841
 20
-4158.70
 30
0.000000
  70
    32
  0
VERTEX
  8
0
  5
1110
 10
264.347
 20
-4151.02
 30
0.000000
  70
    32
  0
VERTEX
  8
0
  5
1111
 10
266.802
 20
-4143.29
 30
0.000000
  70
    32
  0
VERTEX
  8
0
  5
1112
 10
269.210
 20
-4135.51
 30
0.000000
  70
    32
  0
VERTEX
  8
0
  5
1113
 10
271.571
 20
-4127.68
 30
0.000000
  70
    32
  0
VERTEX
  8
0
  5
1114
 10
273.888
 20
-4119.80
 30
0.000000
  70
    32
  0
VERTEX
  8
0
  5
1115
 10
276.162
 20
-4111.88
 30
0.000000
  70
    32
  0
VERTEX
  8
0
  5
1116
 10
278.394
 20
-4103.91
 30
0.000000
  70
    32
  0
VERTEX
  8
0
  5
1117
 10
280.587
 20
-4095.91
 30
0.000000
  70
    32
  0
VERTEX
  8
0
  5
1118
 10
282.742
 20
-4087.86
 30
0.000000
  70
    32
  0
VERTEX
  8
0
  5
1119
 10
284.861
 20
-4079.78
 30
0.000000
  70
    32
  0
VERTEX
  8
0
  5
111A
 10
286.945
 20
-4071.66
 30
0.000000
  70
    32
  0
VERTEX
  8
0
  5
111B
 10
288.996
 20
-4063.50
 30
0.000000
  70
    32
  0
VERTEX
  8
0
  5
111C
 10
291.017
 20
-4055.32
 30
0.000000
  70
    32
  0
VERTEX
  8
0
  5
111D
 10
293.008
 20
-4047.10
 30
0.000000
  70
    32
  0
VERTEX
  8
0
  5
111E
 10
294.971
 20
-4038.86
 30
0.000000
  70
    32
  0
VERTEX
  8
0
  5
111F
 10
296.908
 20
-4030.58
 30
0.000000
  70
    32
  0
VERTEX
  8
0
  5
1120
 10
298.821
 20
-4022.29
 30
0.000000
  70
    32
  0
VERTEX
  8
0
  5
1121
 10
300.711
 20
-4013.97
 30
0.000000
  70
    32
  0
VERTEX
  8
0
  5
1122
 10
302.580
 20
-4005.62
 30
0.000000
  70
    32
  0
VERTEX
  8
0
  5
1123
 10
304.430
 20
-3997.26
 30
0.000000
  70
    32
  0
VERTEX
  8
0
  5
1124
 10
306.260
 20
-3988.88
 30
0.000000
  70
    32
  0
VERTEX
  8
0
  5
1125
 10
308.068
 20
-3980.48
 30
0.000000
  70
    32
  0
VERTEX
  8
0
  5
1126
 10
309.850
 20
-3972.06
 30
0.000000
  70
    32
  0
VERTEX
  8
0
  5
1127
 10
311.603
 20
-3963.62
 30
0.000000
  70
    32
  0
VERTEX
  8
0
  5
1128
 10
313.324
 20
-3955.16
 30
0.000000
  70
    32
  0
VERTEX
  8
0
  5
1129
 10
315.011
 20
-3946.66
 30
0.000000
  70
    32
  0
VERTEX
  8
0
  5
112A
 10
316.659
 20
-3938.15
 30
0.000000
  70
    32
  0
VERTEX
  8
0
  5
112B
 10
318.266
 20
-3929.61
 30
0.000000
  70
    32
  0
VERTEX
  8
0
  5
112C
 10
319.829
 20
-3921.03
 30
0.000000
  70
    32
  0
VERTEX
  8
0
  5
112D
 10
321.344
 20
-3912.43
 30
0.000000
  70
    32
  0
VERTEX
  8
0
  5
112E
 10
322.809
 20
-3903.80
 30
0.000000
  70
    32
  0
VERTEX
  8
0
  5
112F
 10
324.220
 20
-3895.14
 30
0.000000
  70
    32
  0
VERTEX
  8
0
  5
1130
 10
325.576
 20
-3886.45
 30
0.000000
  70
    32
  0
VERTEX
  8
0
  5
1131
 10
326.879
 20
-3877.73
 30
0.000000
  70
    32
  0
VERTEX
  8
0
  5
1132
 10
328.130
 20
-3868.98
 30
0.000000
  70
    32
  0
VERTEX
  8
0
  5
1133
 10
329.331
 20
-3860.19
 30
0.000000
  70
    32
  0
VERTEX
  8
0
  5
1134
 10
330.482
 20
-3851.39
 30
0.000000
  70
    32
  0
VERTEX
  8
0
  5
1135
 10
331.585
 20
-3842.55
 30
0.000000
  70
    32
  0
VERTEX
  8
0
  5
1136
 10
332.641
 20
-3833.69
 30
0.000000
  70
    32
  0
VERTEX
  8
0
  5
1137
 10
333.652
 20
-3824.81
 30
0.000000
  70
    32
  0
VERTEX
  8
0
  5
1138
 10
334.620
 20
-3815.90
 30
0.000000
  70
    32
  0
VERTEX
  8
0
  5
1139
 10
335.545
 20
-3806.97
 30
0.000000
  70
    32
  0
VERTEX
  8
0
  5
113A
 10
336.429
 20
-3798.02
 30
0.000000
  70
    32
  0
VERTEX
  8
0
  5
113B
 10
337.274
 20
-3789.05
 30
0.000000
  70
    32
  0
VERTEX
  8
0
  5
113C
 10
338.080
 20
-3780.05
 30
0.000000
  70
    32
  0
VERTEX
  8
0
  5
113D
 10
338.849
 20
-3771.04
 30
0.000000
  70
    32
  0
VERTEX
  8
0
  5
113E
 10
339.583
 20
-3762.02
 30
0.000000
  70
    32
  0
VERTEX
  8
0
  5
113F
 10
340.282
 20
-3752.97
 30
0.000000
  70
    32
  0
VERTEX
  8
0
  5
1140
 10
340.949
 20
-3743.92
 30
0.000000
  70
    32
  0
VERTEX
  8
0
  5
1141
 10
341.585
 20
-3734.84
 30
0.000000
  70
    32
  0
VERTEX
  8
0
  5
1142
 10
342.190
 20
-3725.76
 30
0.000000
  70
    32
  0
VERTEX
  8
0
  5
1143
 10
342.767
 20
-3716.66
 30
0.000000
  70
    32
  0
VERTEX
  8
0
  5
1144
 10
343.316
 20
-3707.55
 30
0.000000
  70
    32
  0
VERTEX
  8
0
  5
1145
 10
343.840
 20
-3698.43
 30
0.000000
  70
    32
  0
VERTEX
  8
0
  5
1146
 10
344.339
 20
-3689.30
 30
0.000000
  70
    32
  0
VERTEX
  8
0
  5
1147
 10
344.815
 20
-3680.17
 30
0.000000
  70
    32
  0
VERTEX
  8
0
  5
1148
 10
345.270
 20
-3671.03
 30
0.000000
  70
    32
  0
VERTEX
  8
0
  5
1149
 10
345.704
 20
-3661.88
 30
0.000000
  70
    32
  0
VERTEX
  8
0
  5
114A
 10
346.119
 20
-3652.72
 30
0.000000
  70
    32
  0
VERTEX
  8
0
  5
114B
 10
346.516
 20
-3643.56
 30
0.000000
  70
    32
  0
VERTEX
  8
0
  5
114C
 10
346.898
 20
-3634.40
 30
0.000000
  70
    32
  0
VERTEX
  8
0
  5
114D
 10
347.264
 20
-3625.24
 30
0.000000
  70
    32
  0
VERTEX
  8
0
  5
114E
 10
347.617
 20
-3616.07
 30
0.000000
  70
    32
  0
VERTEX
  8
0
  5
114F
 10
347.958
 20
-3606.91
 30
0.000000
  70
    32
  0
VERTEX
  8
0
  5
1150
 10
348.288
 20
-3597.74
 30
0.000000
  70
    32
  0
VERTEX
  8
0
  5
1151
 10
348.609
 20
-3588.58
 30
0.000000
  70
    32
  0
VERTEX
  8
0
  5
1152
 10
348.922
 20
-3579.42
 30
0.000000
  70
    32
  0
VERTEX
  8
0
  5
1153
 10
349.227
 20
-3570.27
 30
0.000000
  70
    32
  0
VERTEX
  8
0
  5
1154
 10
349.524
 20
-3561.12
 30
0.000000
  70
    32
  0
VERTEX
  8
0
  5
1155
 10
349.813
 20
-3551.97
 30
0.000000
  70
    32
  0
VERTEX
  8
0
  5
1156
 10
350.094
 20
-3542.82
 30
0.000000
  70
    32
  0
VERTEX
  8
0
  5
1157
 10
350.367
 20
-3533.68
 30
0.000000
  70
    32
  0
VERTEX
  8
0
  5
1158
 10
350.632
 20
-3524.53
 30
0.000000
  70
    32
  0
VERTEX
  8
0
  5
1159
 10
350.888
 20
-3515.40
 30
0.000000
  70
    32
  0
VERTEX
  8
0
  5
115A
 10
351.136
 20
-3506.26
 30
0.000000
  70
    32
  0
VERTEX
  8
0
  5
115B
 10
351.376
 20
-3497.12
 30
0.000000
  70
    32
  0
VERTEX
  8
0
  5
115C
 10
351.607
 20
-3487.99
 30
0.000000
  70
    32
  0
VERTEX
  8
0
  5
115D
 10
351.829
 20
-3478.86
 30
0.000000
  70
    32
  0
VERTEX
  8
0
  5
115E
 10
352.043
 20
-3469.73
 30
0.000000
  70
    32
  0
VERTEX
  8
0
  5
115F
 10
352.248
 20
-3460.61
 30
0.000000
  70
    32
  0
VERTEX
  8
0
  5
1160
 10
352.444
 20
-3451.48
 30
0.000000
  70
    32
  0
VERTEX
  8
0
  5
1161
 10
352.631
 20
-3442.36
 30
0.000000
  70
    32
  0
VERTEX
  8
0
  5
1162
 10
352.809
 20
-3433.24
 30
0.000000
  70
    32
  0
VERTEX
  8
0
  5
1163
 10
352.978
 20
-3424.12
 30
0.000000
  70
    32
  0
VERTEX
  8
0
  5
1164
 10
353.138
 20
-3415.00
 30
0.000000
  70
    32
  0
VERTEX
  8
0
  5
1165
 10
353.289
 20
-3405.88
 30
0.000000
  70
    32
  0
VERTEX
  8
0
  5
1166
 10
353.430
 20
-3396.76
 30
0.000000
  70
    32
  0
VERTEX
  8
0
  5
1167
 10
353.562
 20
-3387.65
 30
0.000000
  70
    32
  0
VERTEX
  8
0
  5
1168
 10
353.685
 20
-3378.53
 30
0.000000
  70
    32
  0
VERTEX
  8
0
  5
1169
 10
353.798
 20
-3369.42
 30
0.000000
  70
    32
  0
VERTEX
  8
0
  5
116A
 10
353.901
 20
-3360.31
 30
0.000000
  70
    32
  0
VERTEX
  8
0
  5
116B
 10
353.994
 20
-3351.19
 30
0.000000
  70
    32
  0
VERTEX
  8
0
  5
116C
 10
354.078
 20
-3342.08
 30
0.000000
  70
    32
  0
VERTEX
  8
0
  5
116D
 10
354.152
 20
-3332.97
 30
0.000000
  70
    32
  0
VERTEX
  8
0
  5
116E
 10
354.216
 20
-3323.86
 30
0.000000
  70
    32
  0
VERTEX
  8
0
  5
116F
 10
354.269
 20
-3314.74
 30
0.000000
  70
    32
  0
VERTEX
  8
0
  5
1170
 10
354.313
 20
-3305.63
 30
0.000000
  70
    32
  0
VERTEX
  8
0
  5
1171
 10
354.347
 20
-3296.52
 30
0.000000
  70
    32
  0
VERTEX
  8
0
  5
1172
 10
354.370
 20
-3287.41
 30
0.000000
  70
    32
  0
VERTEX
  8
0
  5
1173
 10
354.383
 20
-3278.30
 30
0.000000
  70
    32
  0
VERTEX
  8
0
  5
1174
 10
354.385
 20
-3269.18
 30
0.000000
  70
    32
  0
VERTEX
  8
0
  5
1175
 10
354.377
 20
-3260.07
 30
0.000000
  70
    32
  0
VERTEX
  8
0
  5
1176
 10
354.358
 20
-3250.96
 30
0.000000
  70
    32
  0
VERTEX
  8
0
  5
1177
 10
354.329
 20
-3241.84
 30
0.000000
  70
    32
  0
VERTEX
  8
0
  5
1178
 10
354.289
 20
-3232.72
 30
0.000000
  70
    32
  0
VERTEX
  8
0
  5
1179
 10
354.238
 20
-3223.61
 30
0.000000
  70
    32
  0
VERTEX
  8
0
  5
117A
 10
354.176
 20
-3214.49
 30
0.000000
  70
    32
  0
VERTEX
  8
0
  5
117B
 10
354.103
 20
-3205.37
 30
0.000000
  70
    32
  0
VERTEX
  8
0
  5
117C
 10
354.021
 20
-3196.25
 30
0.000000
  70
    32
  0
VERTEX
  8
0
  5
117D
 10
353.928
 20
-3187.13
 30
0.000000
  70
    32
  0
VERTEX
  8
0
  5
117E
 10
353.825
 20
-3178.01
 30
0.000000
  70
    32
  0
VERTEX
  8
0
  5
117F
 10
353.714
 20
-3168.89
 30
0.000000
  70
    32
  0
VERTEX
  8
0
  5
1180
 10
353.594
 20
-3159.76
 30
0.000000
  70
    32
  0
VERTEX
  8
0
  5
1181
 10
353.465
 20
-3150.64
 30
0.000000
  70
    32
  0
VERTEX
  8
0
  5
1182
 10
353.329
 20
-3141.52
 30
0.000000
  70
    32
  0
VERTEX
  8
0
  5
1183
 10
353.185
 20
-3132.39
 30
0.000000
  70
    32
  0
VERTEX
  8
0
  5
1184
 10
353.033
 20
-3123.27
 30
0.000000
  70
    32
  0
VERTEX
  8
0
  5
1185
 10
352.875
 20
-3114.14
 30
0.000000
  70
    32
  0
VERTEX
  8
0
  5
1186
 10
352.711
 20
-3105.02
 30
0.000000
  70
    32
  0
VERTEX
  8
0
  5
1187
 10
352.540
 20
-3095.89
 30
0.000000
  70
    32
  0
VERTEX
  8
0
  5
1188
 10
352.364
 20
-3086.76
 30
0.000000
  70
    32
  0
VERTEX
  8
0
  5
1189
 10
352.183
 20
-3077.64
 30
0.000000
  70
    32
  0
VERTEX
  8
0
  5
118A
 10
351.996
 20
-3068.51
 30
0.000000
  70
    32
  0
VERTEX
  8
0
  5
118B
 10
351.806
 20
-3059.39
 30
0.000000
  70
    32
  0
VERTEX
  8
0
  5
118C
 10
351.611
 20
-3050.26
 30
0.000000
  70
    32
  0
VERTEX
  8
0
  5
118D
 10
351.412
 20
-3041.14
 30
0.000000
  70
    32
  0
VERTEX
  8
0
  5
118E
 10
351.211
 20
-3032.01
 30
0.000000
  70
    32
  0
VERTEX
  8
0
  5
118F
 10
351.006
 20
-3022.89
 30
0.000000
  70
    32
  0
VERTEX
  8
0
  5
1190
 10
350.799
 20
-3013.77
 30
0.000000
  70
    32
  0
VERTEX
  8
0
  5
1191
 10
350.588
 20
-3004.64
 30
0.000000
  70
    32
  0
VERTEX
  8
0
  5
1192
 10
350.375
 20
-2995.52
 30
0.000000
  70
    32
  0
VERTEX
  8
0
  5
1193
 10
350.159
 20
-2986.40
 30
0.000000
  70
    32
  0
VERTEX
  8
0
  5
1194
 10
349.940
 20
-2977.28
 30
0.000000
  70
    32
  0
VERTEX
  8
0
  5
1195
 10
349.719
 20
-2968.15
 30
0.000000
  70
    32
  0
VERTEX
  8
0
  5
1196
 10
349.494
 20
-2959.03
 30
0.000000
  70
    32
  0
VERTEX
  8
0
  5
1197
 10
349.267
 20
-2949.91
 30
0.000000
  70
    32
  0
VERTEX
  8
0
  5
1198
 10
349.037
 20
-2940.79
 30
0.000000
  70
    32
  0
VERTEX
  8
0
  5
1199
 10
348.804
 20
-2931.67
 30
0.000000
  70
    32
  0
VERTEX
  8
0
  5
119A
 10
348.568
 20
-2922.55
 30
0.000000
  70
    32
  0
VERTEX
  8
0
  5
119B
 10
348.330
 20
-2913.44
 30
0.000000
  70
    32
  0
VERTEX
  8
0
  5
119C
 10
348.088
 20
-2904.32
 30
0.000000
  70
    32
  0
VERTEX
  8
0
  5
119D
 10
347.844
 20
-2895.20
 30
0.000000
  70
    32
  0
VERTEX
  8
0
  5
119E
 10
347.597
 20
-2886.08
 30
0.000000
  70
    32
  0
VERTEX
  8
0
  5
119F
 10
347.348
 20
-2876.97
 30
0.000000
  70
    32
  0
VERTEX
  8
0
  5
11A0
 10
347.095
 20
-2867.85
 30
0.000000
  70
    32
  0
VERTEX
  8
0
  5
11A1
 10
346.840
 20
-2858.73
 30
0.000000
  70
    32
  0
VERTEX
  8
0
  5
11A2
 10
346.582
 20
-2849.62
 30
0.000000
  70
    32
  0
VERTEX
  8
0
  5
11A3
 10
346.321
 20
-2840.50
 30
0.000000
  70
    32
  0
VERTEX
  8
0
  5
11A4
 10
346.057
 20
-2831.39
 30
0.000000
  70
    32
  0
VERTEX
  8
0
  5
11A5
 10
345.791
 20
-2822.28
 30
0.000000
  70
    32
  0
VERTEX
  8
0
  5
11A6
 10
345.522
 20
-2813.16
 30
0.000000
  70
    32
  0
VERTEX
  8
0
  5
11A7
 10
345.250
 20
-2804.05
 30
0.000000
  70
    32
  0
VERTEX
  8
0
  5
11A8
 10
344.975
 20
-2794.94
 30
0.000000
  70
    32
  0
VERTEX
  8
0
  5
11A9
 10
344.698
 20
-2785.82
 30
0.000000
  70
    32
  0
VERTEX
  8
0
  5
11AA
 10
344.417
 20
-2776.71
 30
0.000000
  70
    32
  0
VERTEX
  8
0
  5
11AB
 10
344.134
 20
-2767.60
 30
0.000000
  70
    32
  0
VERTEX
  8
0
  5
11AC
 10
343.849
 20
-2758.49
 30
0.000000
  70
    32
  0
VERTEX
  8
0
  5
11AD
 10
343.560
 20
-2749.38
 30
0.000000
  70
    32
  0
VERTEX
  8
0
  5
11AE
 10
343.269
 20
-2740.27
 30
0.000000
  70
    32
  0
VERTEX
  8
0
  5
11AF
 10
342.975
 20
-2731.16
 30
0.000000
  70
    32
  0
VERTEX
  8
0
  5
11B0
 10
342.678
 20
-2722.05
 30
0.000000
  70
    32
  0
VERTEX
  8
0
  5
11B1
 10
342.379
 20
-2712.94
 30
0.000000
  70
    32
  0
VERTEX
  8
0
  5
11B2
 10
342.077
 20
-2703.83
 30
0.000000
  70
    32
  0
VERTEX
  8
0
  5
11B3
 10
341.772
 20
-2694.73
 30
0.000000
  70
    32
  0
VERTEX
  8
0
  5
11B4
 10
341.464
 20
-2685.62
 30
0.000000
  70
    32
  0
VERTEX
  8
0
  5
11B5
 10
341.154
 20
-2676.51
 30
0.000000
  70
    32
  0
VERTEX
  8
0
  5
11B6
 10
340.841
 20
-2667.41
 30
0.000000
  70
    32
  0
VERTEX
  8
0
  5
11B7
 10
340.525
 20
-2658.30
 30
0.000000
  70
    32
  0
VERTEX
  8
0
  5
11B8
 10
340.206
 20
-2649.20
 30
0.000000
  70
    32
  0
VERTEX
  8
0
  5
11B9
 10
339.885
 20
-2640.09
 30
0.000000
  70
    32
  0
VERTEX
  8
0
  5
11BA
 10
339.561
 20
-2630.99
 30
0.000000
  70
    32
  0
VERTEX
  8
0
  5
11BB
 10
339.234
 20
-2621.88
 30
0.000000
  70
    32
  0
VERTEX
  8
0
  5
11BC
 10
338.905
 20
-2612.78
 30
0.000000
  70
    32
  0
VERTEX
  8
0
  5
11BD
 10
338.573
 20
-2603.68
 30
0.000000
  70
    32
  0
VERTEX
  8
0
  5
11BE
 10
338.238
 20
-2594.57
 30
0.000000
  70
    32
  0
VERTEX
  8
0
  5
11BF
 10
337.901
 20
-2585.47
 30
0.000000
  70
    32
  0
VERTEX
  8
0
  5
11C0
 10
337.561
 20
-2576.37
 30
0.000000
  70
    32
  0
VERTEX
  8
0
  5
11C1
 10
337.218
 20
-2567.27
 30
0.000000
  70
    32
  0
VERTEX
  8
0
  5
11C2
 10
336.872
 20
-2558.17
 30
0.000000
  70
    32
  0
VERTEX
  8
0
  5
11C3
 10
336.524
 20
-2549.07
 30
0.000000
  70
    32
  0
VERTEX
  8
0
  5
11C4
 10
336.173
 20
-2539.97
 30
0.000000
  70
    32
  0
VERTEX
  8
0
  5
11C5
 10
335.820
 20
-2530.87
 30
0.000000
  70
    32
  0
VERTEX
  8
0
  5
11C6
 10
335.464
 20
-2521.77
 30
0.000000
  70
    32
  0
VERTEX
  8
0
  5
11C7
 10
335.105
 20
-2512.67
 30
0.000000
  70
    32
  0
VERTEX
  8
0
  5
11C8
 10
334.743
 20
-2503.57
 30
0.000000
  70
    32
  0
VERTEX
  8
0
  5
11C9
 10
334.379
 20
-2494.47
 30
0.000000
  70
    32
  0
VERTEX
  8
0
  5
11CA
 10
334.012
 20
-2485.37
 30
0.000000
  70
    32
  0
VERTEX
  8
0
  5
11CB
 10
333.643
 20
-2476.28
 30
0.000000
  70
    32
  0
VERTEX
  8
0
  5
11CC
 10
333.270
 20
-2467.18
 30
0.000000
  70
    32
  0
VERTEX
  8
0
  5
11CD
 10
332.896
 20
-2458.08
 30
0.000000
  70
    32
  0
VERTEX
  8
0
  5
11CE
 10
332.518
 20
-2448.99
 30
0.000000
  70
    32
  0
VERTEX
  8
0
  5
11CF
 10
332.138
 20
-2439.89
 30
0.000000
  70
    32
  0
VERTEX
  8
0
  5
11D0
 10
331.755
 20
-2430.80
 30
0.000000
  70
    32
  0
VERTEX
  8
0
  5
11D1
 10
331.370
 20
-2421.70
 30
0.000000
  70
    32
  0
VERTEX
  8
0
  5
11D2
 10
330.982
 20
-2412.61
 30
0.000000
  70
    32
  0
VERTEX
  8
0
  5
11D3
 10
330.591
 20
-2403.52
 30
0.000000
  70
    32
  0
VERTEX
  8
0
  5
11D4
 10
330.198
 20
-2394.42
 30
0.000000
  70
    32
  0
VERTEX
  8
0
  5
11D5
 10
329.802
 20
-2385.33
 30
0.000000
  70
    32
  0
VERTEX
  8
0
  5
11D6
 10
329.404
 20
-2376.24
 30
0.000000
  70
    32
  0
VERTEX
  8
0
  5
11D7
 10
329.003
 20
-2367.15
 30
0.000000
  70
    32
  0
VERTEX
  8
0
  5
11D8
 10
328.600
 20
-2358.06
 30
0.000000
  70
    32
  0
VERTEX
  8
0
  5
11D9
 10
328.194
 20
-2348.97
 30
0.000000
  70
    32
  0
VERTEX
  8
0
  5
11DA
 10
327.786
 20
-2339.87
 30
0.000000
  70
    32
  0
VERTEX
  8
0
  5
11DB
 10
327.375
 20
-2330.78
 30
0.000000
  70
    32
  0
VERTEX
  8
0
  5
11DC
 10
326.962
 20
-2321.69
 30
0.000000
  70
    32
  0
VERTEX
  8
0
  5
11DD
 10
326.546
 20
-2312.61
 30
0.000000
  70
    32
  0
VERTEX
  8
0
  5
11DE
 10
326.128
 20
-2303.52
 30
0.000000
  70
    32
  0
VERTEX
  8
0
  5
11DF
 10
325.707
 20
-2294.43
 30
0.000000
  70
    32
  0
VERTEX
  8
0
  5
11E0
 10
325.284
 20
-2285.34
 30
0.000000
  70
    32
  0
VERTEX
  8
0
  5
11E1
 10
324.858
 20
-2276.25
 30
0.000000
  70
    32
  0
VERTEX
  8
0
  5
11E2
 10
324.431
 20
-2267.16
 30
0.000000
  70
    32
  0
VERTEX
  8
0
  5
11E3
 10
324.001
 20
-2258.08
 30
0.000000
  70
    32
  0
VERTEX
  8
0
  5
11E4
 10
323.568
 20
-2248.99
 30
0.000000
  70
    32
  0
VERTEX
  8
0
  5
11E5
 10
323.133
 20
-2239.91
 30
0.000000
  70
    32
  0
VERTEX
  8
0
  5
11E6
 10
322.696
 20
-2230.82
 30
0.000000
  70
    32
  0
VERTEX
  8
0
  5
11E7
 10
322.257
 20
-2221.73
 30
0.000000
  70
    32
  0
VERTEX
  8
0
  5
11E8
 10
321.815
 20
-2212.65
 30
0.000000
  70
    32
  0
VERTEX
  8
0
  5
11E9
 10
321.371
 20
-2203.56
 30
0.000000
  70
    32
  0
VERTEX
  8
0
  5
11EA
 10
320.924
 20
-2194.48
 30
0.000000
  70
    32
  0
VERTEX
  8
0
  5
11EB
 10
320.476
 20
-2185.40
 30
0.000000
  70
    32
  0
VERTEX
  8
0
  5
11EC
 10
320.025
 20
-2176.31
 30
0.000000
  70
    32
  0
VERTEX
  8
0
  5
11ED
 10
319.572
 20
-2167.23
 30
0.000000
  70
    32
  0
VERTEX
  8
0
  5
11EE
 10
319.117
 20
-2158.15
 30
0.000000
  70
    32
  0
VERTEX
  8
0
  5
11EF
 10
318.660
 20
-2149.06
 30
0.000000
  70
    32
  0
VERTEX
  8
0
  5
11F0
 10
318.200
 20
-2139.98
 30
0.000000
  70
    32
  0
VERTEX
  8
0
  5
11F1
 10
317.738
 20
-2130.90
 30
0.000000
  70
    32
  0
VERTEX
  8
0
  5
11F2
 10
317.274
 20
-2121.82
 30
0.000000
  70
    32
  0
VERTEX
  8
0
  5
11F3
 10
316.809
 20
-2112.74
 30
0.000000
  70
    32
  0
VERTEX
  8
0
  5
11F4
 10
316.340
 20
-2103.66
 30
0.000000
  70
    32
  0
VERTEX
  8
0
  5
11F5
 10
315.870
 20
-2094.58
 30
0.000000
  70
    32
  0
VERTEX
  8
0
  5
11F6
 10
315.398
 20
-2085.50
 30
0.000000
  70
    32
  0
VERTEX
  8
0
  5
11F7
 10
314.924
 20
-2076.42
 30
0.000000
  70
    32
  0
VERTEX
  8
0
  5
11F8
 10
314.447
 20
-2067.34
 30
0.000000
  70
    32
  0
VERTEX
  8
0
  5
11F9
 10
313.969
 20
-2058.26
 30
0.000000
  70
    32
  0
VERTEX
  8
0
  5
11FA
 10
313.489
 20
-2049.18
 30
0.000000
  70
    32
  0
VERTEX
  8
0
  5
11FB
 10
313.006
 20
-2040.10
 30
0.000000
  70
    32
  0
VERTEX
  8
0
  5
11FC
 10
312.522
 20
-2031.02
 30
0.000000
  70
    32
  0
VERTEX
  8
0
  5
11FD
 10
312.035
 20
-2021.94
 30
0.000000
  70
    32
  0
VERTEX
  8
0
  5
11FE
 10
311.547
 20
-2012.87
 30
0.000000
  70
    32
  0
VERTEX
  8
0
  5
11FF
 10
311.057
 20
-2003.79
 30
0.000000
  70
    32
  0
VERTEX
  8
0
  5
1200
 10
310.564
 20
-1994.71
 30
0.000000
  70
    32
  0
VERTEX
  8
0
  5
1201
 10
310.070
 20
-1985.64
 30
0.000000
  70
    32
  0
VERTEX
  8
0
  5
1202
 10
309.574
 20
-1976.56
 30
0.000000
  70
    32
  0
VERTEX
  8
0
  5
1203
 10
309.076
 20
-1967.48
 30
0.000000
  70
    32
  0
VERTEX
  8
0
  5
1204
 10
308.576
 20
-1958.41
 30
0.000000
  70
    32
  0
VERTEX
  8
0
  5
1205
 10
308.075
 20
-1949.33
 30
0.000000
  70
    32
  0
VERTEX
  8
0
  5
1206
 10
307.571
 20
-1940.26
 30
0.000000
  70
    32
  0
VERTEX
  8
0
  5
1207
 10
307.066
 20
-1931.18
 30
0.000000
  70
    32
  0
VERTEX
  8
0
  5
1208
 10
306.558
 20
-1922.11
 30
0.000000
  70
    32
  0
VERTEX
  8
0
  5
1209
 10
306.049
 20
-1913.03
 30
0.000000
  70
    32
  0
VERTEX
  8
0
  5
120A
 10
305.539
 20
-1903.96
 30
0.000000
  70
    32
  0
VERTEX
  8
0
  5
120B
 10
305.026
 20
-1894.89
 30
0.000000
  70
    32
  0
VERTEX
  8
0
  5
120C
 10
304.512
 20
-1885.81
 30
0.000000
  70
    32
  0
VERTEX
  8
0
  5
120D
 10
303.996
 20
-1876.74
 30
0.000000
  70
    32
  0
VERTEX
  8
0
  5
120E
 10
303.478
 20
-1867.67
 30
0.000000
  70
    32
  0
VERTEX
  8
0
  5
120F
 10
302.958
 20
-1858.60
 30
0.000000
  70
    32
  0
VERTEX
  8
0
  5
1210
 10
302.437
 20
-1849.52
 30
0.000000
  70
    32
  0
VERTEX
  8
0
  5
1211
 10
301.913
 20
-1840.45
 30
0.000000
  70
    32
  0
VERTEX
  8
0
  5
1212
 10
301.388
 20
-1831.38
 30
0.000000
  70
    32
  0
VERTEX
  8
0
  5
1213
 10
300.861
 20
-1822.31
 30
0.000000
  70
    32
  0
VERTEX
  8
0
  5
1214
 10
300.331
 20
-1813.24
 30
0.000000
  70
    32
  0
VERTEX
  8
0
  5
1215
 10
299.799
 20
-1804.17
 30
0.000000
  70
    32
  0
VERTEX
  8
0
  5
1216
 10
299.265
 20
-1795.10
 30
0.000000
  70
    32
  0
VERTEX
  8
0
  5
1217
 10
298.729
 20
-1786.03
 30
0.000000
  70
    32
  0
VERTEX
  8
0
  5
1218
 10
298.190
 20
-1776.96
 30
0.000000
  70
    32
  0
VERTEX
  8
0
  5
1219
 10
297.649
 20
-1767.89
 30
0.000000
  70
    32
  0
VERTEX
  8
0
  5
121A
 10
297.105
 20
-1758.83
 30
0.000000
  70
    32
  0
VERTEX
  8
0
  5
121B
 10
296.559
 20
-1749.76
 30
0.000000
  70
    32
  0
VERTEX
  8
0
  5
121C
 10
296.011
 20
-1740.69
 30
0.000000
  70
    32
  0
VERTEX
  8
0
  5
121D
 10
295.459
 20
-1731.63
 30
0.000000
  70
    32
  0
VERTEX
  8
0
  5
121E
 10
294.905
 20
-1722.57
 30
0.000000
  70
    32
  0
VERTEX
  8
0
  5
121F
 10
294.348
 20
-1713.50
 30
0.000000
  70
    32
  0
VERTEX
  8
0
  5
1220
 10
293.788
 20
-1704.44
 30
0.000000
  70
    32
  0
VERTEX
  8
0
  5
1221
 10
293.225
 20
-1695.38
 30
0.000000
  70
    32
  0
VERTEX
  8
0
  5
1222
 10
292.659
 20
-1686.31
 30
0.000000
  70
    32
  0
VERTEX
  8
0
  5
1223
 10
292.091
 20
-1677.25
 30
0.000000
  70
    32
  0
VERTEX
  8
0
  5
1224
 10
291.519
 20
-1668.19
 30
0.000000
  70
    32
  0
VERTEX
  8
0
  5
1225
 10
290.943
 20
-1659.14
 30
0.000000
  70
    32
  0
VERTEX
  8
0
  5
1226
 10
290.365
 20
-1650.08
 30
0.000000
  70
    32
  0
VERTEX
  8
0
  5
1227
 10
289.783
 20
-1641.02
 30
0.000000
  70
    32
  0
VERTEX
  8
0
  5
1228
 10
289.198
 20
-1631.96
 30
0.000000
  70
    32
  0
VERTEX
  8
0
  5
1229
 10
288.610
 20
-1622.91
 30
0.000000
  70
    32
  0
VERTEX
  8
0
  5
122A
 10
288.018
 20
-1613.86
 30
0.000000
  70
    32
  0
VERTEX
  8
0
  5
122B
 10
287.422
 20
-1604.80
 30
0.000000
  70
    32
  0
VERTEX
  8
0
  5
122C
 10
286.823
 20
-1595.75
 30
0.000000
  70
    32
  0
VERTEX
  8
0
  5
122D
 10
286.221
 20
-1586.70
 30
0.000000
  70
    32
  0
VERTEX
  8
0
  5
122E
 10
285.614
 20
-1577.65
 30
0.000000
  70
    32
  0
VERTEX
  8
0
  5
122F
 10
285.004
 20
-1568.60
 30
0.000000
  70
    32
  0
VERTEX
  8
0
  5
1230
 10
284.390
 20
-1559.55
 30
0.000000
  70
    32
  0
VERTEX
  8
0
  5
1231
 10
283.772
 20
-1550.51
 30
0.000000
  70
    32
  0
VERTEX
  8
0
  5
1232
 10
283.149
 20
-1541.46
 30
0.000000
  70
    32
  0
VERTEX
  8
0
  5
1233
 10
282.523
 20
-1532.42
 30
0.000000
  70
    32
  0
VERTEX
  8
0
  5
1234
 10
281.893
 20
-1523.38
 30
0.000000
  70
    32
  0
VERTEX
  8
0
  5
1235
 10
281.259
 20
-1514.34
 30
0.000000
  70
    32
  0
VERTEX
  8
0
  5
1236
 10
280.620
 20
-1505.30
 30
0.000000
  70
    32
  0
VERTEX
  8
0
  5
1237
 10
279.977
 20
-1496.26
 30
0.000000
  70
    32
  0
VERTEX
  8
0
  5
1238
 10
279.330
 20
-1487.22
 30
0.000000
  70
    32
  0
VERTEX
  8
0
  5
1239
 10
278.678
 20
-1478.19
 30
0.000000
  70
    32
  0
VERTEX
  8
0
  5
123A
 10
278.022
 20
-1469.15
 30
0.000000
  70
    32
  0
VERTEX
  8
0
  5
123B
 10
277.361
 20
-1460.12
 30
0.000000
  70
    32
  0
VERTEX
  8
0
  5
123C
 10
276.696
 20
-1451.09
 30
0.000000
  70
    32
  0
VERTEX
  8
0
  5
123D
 10
276.026
 20
-1442.06
 30
0.000000
  70
    32
  0
VERTEX
  8
0
  5
123E
 10
275.351
 20
-1433.03
 30
0.000000
  70
    32
  0
VERTEX
  8
0
  5
123F
 10
274.672
 20
-1424.01
 30
0.000000
  70
    32
  0
VERTEX
  8
0
  5
1240
 10
273.988
 20
-1414.98
 30
0.000000
  70
    32
  0
VERTEX
  8
0
  5
1241
 10
273.298
 20
-1405.96
 30
0.000000
  70
    32
  0
VERTEX
  8
0
  5
1242
 10
272.604
 20
-1396.94
 30
0.000000
  70
    32
  0
VERTEX
  8
0
  5
1243
 10
271.905
 20
-1387.92
 30
0.000000
  70
    32
  0
VERTEX
  8
0
  5
1244
 10
271.200
 20
-1378.90
 30
0.000000
  70
    32
  0
VERTEX
  8
0
  5
1245
 10
270.491
 20
-1369.88
 30
0.000000
  70
    32
  0
VERTEX
  8
0
  5
1246
 10
269.776
 20
-1360.87
 30
0.000000
  70
    32
  0
VERTEX
  8
0
  5
1247
 10
269.056
 20
-1351.86
 30
0.000000
  70
    32
  0
VERTEX
  8
0
  5
1248
 10
268.331
 20
-1342.85
 30
0.000000
  70
    32
  0
VERTEX
  8
0
  5
1249
 10
267.600
 20
-1333.84
 30
0.000000
  70
    32
  0
VERTEX
  8
0
  5
124A
 10
266.864
 20
-1324.83
 30
0.000000
  70
    32
  0
VERTEX
  8
0
  5
124B
 10
266.122
 20
-1315.82
 30
0.000000
  70
    32
  0
VERTEX
  8
0
  5
124C
 10
265.375
 20
-1306.82
 30
0.000000
  70
    32
  0
VERTEX
  8
0
  5
124D
 10
264.621
 20
-1297.82
 30
0.000000
  70
    32
  0
VERTEX
  8
0
  5
124E
 10
263.863
 20
-1288.82
 30
0.000000
  70
    32
  0
VERTEX
  8
0
  5
124F
 10
263.098
 20
-1279.82
 30
0.000000
  70
    32
  0
VERTEX
  8
0
  5
1250
 10
262.328
 20
-1270.83
 30
0.000000
  70
    32
  0
VERTEX
  8
0
  5
1251
 10
261.551
 20
-1261.83
 30
0.000000
  70
    32
  0
VERTEX
  8
0
  5
1252
 10
260.769
 20
-1252.84
 30
0.000000
  70
    32
  0
VERTEX
  8
0
  5
1253
 10
259.981
 20
-1243.85
 30
0.000000
  70
    32
  0
VERTEX
  8
0
  5
1254
 10
259.187
 20
-1234.87
 30
0.000000
  70
    32
  0
VERTEX
  8
0
  5
1255
 10
258.387
 20
-1225.88
 30
0.000000
  70
    32
  0
VERTEX
  8
0
  5
1256
 10
257.581
 20
-1216.90
 30
0.000000
  70
    32
  0
VERTEX
  8
0
  5
1257
 10
256.770
 20
-1207.92
 30
0.000000
  70
    32
  0
VERTEX
  8
0
  5
1258
 10
255.953
 20
-1198.94
 30
0.000000
  70
    32
  0
VERTEX
  8
0
  5
1259
 10
255.131
 20
-1189.96
 30
0.000000
  70
    32
  0
VERTEX
  8
0
  5
125A
 10
254.304
 20
-1180.99
 30
0.000000
  70
    32
  0
VERTEX
  8
0
  5
125B
 10
253.471
 20
-1172.01
 30
0.000000
  70
    32
  0
VERTEX
  8
0
  5
125C
 10
252.634
 20
-1163.04
 30
0.000000
  70
    32
  0
VERTEX
  8
0
  5
125D
 10
251.792
 20
-1154.07
 30
0.000000
  70
    32
  0
VERTEX
  8
0
  5
125E
 10
250.945
 20
-1145.10
 30
0.000000
  70
    32
  0
VERTEX
  8
0
  5
125F
 10
250.094
 20
-1136.14
 30
0.000000
  70
    32
  0
VERTEX
  8
0
  5
1260
 10
249.238
 20
-1127.17
 30
0.000000
  70
    32
  0
VERTEX
  8
0
  5
1261
 10
248.378
 20
-1118.21
 30
0.000000
  70
    32
  0
VERTEX
  8
0
  5
1262
 10
247.514
 20
-1109.24
 30
0.000000
  70
    32
  0
VERTEX
  8
0
  5
1263
 10
246.645
 20
-1100.28
 30
0.000000
  70
    32
  0
VERTEX
  8
0
  5
1264
 10
245.773
 20
-1091.32
 30
0.000000
  70
    32
  0
VERTEX
  8
0
  5
1265
 10
244.897
 20
-1082.37
 30
0.000000
  70
    32
  0
VERTEX
  8
0
  5
1266
 10
244.017
 20
-1073.41
 30
0.000000
  70
    32
  0
VERTEX
  8
0
  5
1267
 10
243.133
 20
-1064.45
 30
0.000000
  70
    32
  0
VERTEX
  8
0
  5
1268
 10
242.246
 20
-1055.50
 30
0.000000
  70
    32
  0
VERTEX
  8
0
  5
1269
 10
241.356
 20
-1046.55
 30
0.000000
  70
    32
  0
VERTEX
  8
0
  5
126A
 10
240.462
 20
-1037.59
 30
0.000000
  70
    32
  0
VERTEX
  8
0
  5
126B
 10
239.566
 20
-1028.64
 30
0.000000
  70
    32
  0
VERTEX
  8
0
  5
126C
 10
238.666
 20
-1019.69
 30
0.000000
  70
    32
  0
VERTEX
  8
0
  5
126D
 10
237.763
 20
-1010.74
 30
0.000000
  70
    32
  0
VERTEX
  8
0
  5
126E
 10
236.858
 20
-1001.80
 30
0.000000
  70
    32
  0
VERTEX
  8
0
  5
126F
 10
235.950
 20
-992.849
 30
0.000000
  70
    32
  0
VERTEX
  8
0
  5
1270
 10
235.040
 20
-983.903
 30
0.000000
  70
    32
  0
VERTEX
  8
0
  5
1271
 10
234.127
 20
-974.958
 30
0.000000
  70
    32
  0
VERTEX
  8
0
  5
1272
 10
233.213
 20
-966.013
 30
0.000000
  70
    32
  0
VERTEX
  8
0
  5
1273
 10
232.295
 20
-957.070
 30
0.000000
  70
    32
  0
VERTEX
  8
0
  5
1274
 10
231.376
 20
-948.127
 30
0.000000
  70
    32
  0
VERTEX
  8
0
  5
1275
 10
230.456
 20
-939.184
 30
0.000000
  70
    32
  0
VERTEX
  8
0
  5
1276
 10
229.533
 20
-930.242
 30
0.000000
  70
    32
  0
VERTEX
  8
0
  5
1277
 10
228.609
 20
-921.301
 30
0.000000
  70
    32
  0
VERTEX
  8
0
  5
1278
 10
227.683
 20
-912.361
 30
0.000000
  70
    32
  0
VERTEX
  8
0
  5
1279
 10
226.756
 20
-903.420
 30
0.000000
  70
    32
  0
VERTEX
  8
0
  5
127A
 10
225.828
 20
-894.481
 30
0.000000
  70
    32
  0
VERTEX
  8
0
  5
127B
 10
224.898
 20
-885.541
 30
0.000000
  70
    32
  0
VERTEX
  8
0
  5
127C
 10
223.968
 20
-876.602
 30
0.000000
  70
    32
  0
VERTEX
  8
0
  5
127D
 10
223.036
 20
-867.664
 30
0.000000
  70
    32
  0
VERTEX
  8
0
  5
127E
 10
222.104
 20
-858.725
 30
0.000000
  70
    32
  0
VERTEX
  8
0
  5
127F
 10
221.171
 20
-849.787
 30
0.000000
  70
    32
  0
VERTEX
  8
0
  5
1280
 10
220.238
 20
-840.849
 30
0.000000
  70
    32
  0
VERTEX
  8
0
  5
1281
 10
219.304
 20
-831.911
 30
0.000000
  70
    32
  0
VERTEX
  8
0
  5
1282
 10
218.370
 20
-822.974
 30
0.000000
  70
    32
  0
VERTEX
  8
0
  5
1283
 10
217.436
 20
-814.036
 30
0.000000
  70
    32
  0
VERTEX
  8
0
  5
1284
 10
216.502
 20
-805.098
 30
0.000000
  70
    32
  0
VERTEX
  8
0
  5
1285
 10
215.568
 20
-796.161
 30
0.000000
  70
    32
  0
VERTEX
  8
0
  5
1286
 10
214.634
 20
-787.223
 30
0.000000
  70
    32
  0
VERTEX
  8
0
  5
1287
 10
213.701
 20
-778.285
 30
0.000000
  70
    32
  0
VERTEX
  8
0
  5
1288
 10
212.768
 20
-769.347
 30
0.000000
  70
    32
  0
VERTEX
  8
0
  5
1289
 10
211.835
 20
-760.409
 30
0.000000
  70
    32
  0
VERTEX
  8
0
  5
128A
 10
210.902
 20
-751.471
 30
0.000000
  70
    32
  0
VERTEX
  8
0
  5
128B
 10
209.969
 20
-742.533
 30
0.000000
  70
    32
  0
VERTEX
  8
0
  5
128C
 10
209.037
 20
-733.595
 30
0.000000
  70
    32
  0
VERTEX
  8
0
  5
128D
 10
208.104
 20
-724.658
 30
0.000000
  70
    32
  0
VERTEX
  8
0
  5
128E
 10
207.171
 20
-715.720
 30
0.000000
  70
    32
  0
VERTEX
  8
0
  5
128F
 10
206.238
 20
-706.782
 30
0.000000
  70
    32
  0
VERTEX
  8
0
  5
1290
 10
205.304
 20
-697.845
 30
0.000000
  70
    32
  0
VERTEX
  8
0
  5
1291
 10
204.370
 20
-688.908
 30
0.000000
  70
    32
  0
VERTEX
  8
0
  5
1292
 10
203.435
 20
-679.971
 30
0.000000
  70
    32
  0
VERTEX
  8
0
  5
1293
 10
202.500
 20
-671.035
 30
0.000000
  70
    32
  0
VERTEX
  8
0
  5
1294
 10
201.564
 20
-662.099
 30
0.000000
  70
    32
  0
VERTEX
  8
0
  5
1295
 10
200.627
 20
-653.163
 30
0.000000
  70
    32
  0
VERTEX
  8
0
  5
1296
 10
199.690
 20
-644.228
 30
0.000000
  70
    32
  0
VERTEX
  8
0
  5
1297
 10
198.752
 20
-635.293
 30
0.000000
  70
    32
  0
VERTEX
  8
0
  5
1298
 10
197.812
 20
-626.358
 30
0.000000
  70
    32
  0
VERTEX
  8
0
  5
1299
 10
196.872
 20
-617.425
 30
0.000000
  70
    32
  0
VERTEX
  8
0
  5
129A
 10
195.930
 20
-608.491
 30
0.000000
  70
    32
  0
VERTEX
  8
0
  5
129B
 10
194.987
 20
-599.559
 30
0.000000
  70
    32
  0
VERTEX
  8
0
  5
129C
 10
194.043
 20
-590.627
 30
0.000000
  70
    32
  0
VERTEX
  8
0
  5
129D
 10
193.097
 20
-581.696
 30
0.000000
  70
    32
  0
VERTEX
  8
0
  5
129E
 10
192.150
 20
-572.765
 30
0.000000
  70
    32
  0
VERTEX
  8
0
  5
129F
 10
191.202
 20
-563.835
 30
0.000000
  70
    32
  0
VERTEX
  8
0
  5
12A0
 10
190.251
 20
-554.906
 30
0.000000
  70
    32
  0
VERTEX
  8
0
  5
12A1
 10
189.299
 20
-545.978
 30
0.000000
  70
    32
  0
VERTEX
  8
0
  5
12A2
 10
188.345
 20
-537.051
 30
0.000000
  70
    32
  0
VERTEX
  8
0
  5
12A3
 10
187.390
 20
-528.124
 30
0.000000
  70
    32
  0
VERTEX
  8
0
  5
12A4
 10
186.432
 20
-519.199
 30
0.000000
  70
    32
  0
VERTEX
  8
0
  5
12A5
 10
185.472
 20
-510.274
 30
0.000000
  70
    32
  0
VERTEX
  8
0
  5
12A6
 10
184.510
 20
-501.351
 30
0.000000
  70
    32
  0
VERTEX
  8
0
  5
12A7
 10
183.546
 20
-492.428
 30
0.000000
  70
    32
  0
VERTEX
  8
0
  5
12A8
 10
182.580
 20
-483.507
 30
0.000000
  70
    32
  0
VERTEX
  8
0
  5
12A9
 10
181.611
 20
-474.587
 30
0.000000
  70
    32
  0
VERTEX
  8
0
  5
12AA
 10
180.639
 20
-465.668
 30
0.000000
  70
    32
  0
VERTEX
  8
0
  5
12AB
 10
179.666
 20
-456.750
 30
0.000000
  70
    32
  0
VERTEX
  8
0
  5
12AC
 10
178.689
 20
-447.833
 30
0.000000
  70
    32
  0
VERTEX
  8
0
  5
12AD
 10
177.710
 20
-438.918
 30
0.000000
  70
    32
  0
VERTEX
  8
0
  5
12AE
 10
176.728
 20
-430.004
 30
0.000000
  70
    32
  0
VERTEX
  8
0
  5
12AF
 10
175.743
 20
-421.091
 30
0.000000
  70
    32
  0
VERTEX
  8
0
  5
12B0
 10
174.756
 20
-412.180
 30
0.000000
  70
    32
  0
VERTEX
  8
0
  5
12B1
 10
173.765
 20
-403.270
 30
0.000000
  70
    32
  0
VERTEX
  8
0
  5
12B2
 10
172.771
 20
-394.362
 30
0.000000
  70
    32
  0
VERTEX
  8
0
  5
12B3
 10
171.774
 20
-385.455
 30
0.000000
  70
    32
  0
VERTEX
  8
0
  5
12B4
 10
170.773
 20
-376.549
 30
0.000000
  70
    32
  0
VERTEX
  8
0
  5
12B5
 10
169.770
 20
-367.645
 30
0.000000
  70
    32
  0
VERTEX
  8
0
  5
12B6
 10
168.763
 20
-358.743
 30
0.000000
  70
    32
  0
VERTEX
  8
0
  5
12B7
 10
167.752
 20
-349.842
 30
0.000000
  70
    32
  0
VERTEX
  8
0
  5
12B8
 10
166.738
 20
-340.944
 30
0.000000
  70
    32
  0
VERTEX
  8
0
  5
12B9
 10
165.720
 20
-332.046
 30
0.000000
  70
    32
  0
VERTEX
  8
0
  5
12BA
 10
164.698
 20
-323.151
 30
0.000000
  70
    32
  0
VERTEX
  8
0
  5
12BB
 10
163.672
 20
-314.257
 30
0.000000
  70
    32
  0
VERTEX
  8
0
  5
12BC
 10
162.643
 20
-305.365
 30
0.000000
  70
    32
  0
VERTEX
  8
0
  5
12BD
 10
161.609
 20
-296.475
 30
0.000000
  70
    32
  0
VERTEX
  8
0
  5
12BE
 10
160.572
 20
-287.587
 30
0.000000
  70
    32
  0
VERTEX
  8
0
  5
12BF
 10
159.530
 20
-278.701
 30
0.000000
  70
    32
  0
VERTEX
  8
0
  5
12C0
 10
158.484
 20
-269.817
 30
0.000000
  70
    32
  0
VERTEX
  8
0
  5
12C1
 10
157.434
 20
-260.934
 30
0.000000
  70
    32
  0
VERTEX
  8
0
  5
12C2
 10
156.379
 20
-252.054
 30
0.000000
  70
    32
  0
VERTEX
  8
0
  5
12C3
 10
155.320
 20
-243.176
 30
0.000000
  70
    32
  0
VERTEX
  8
0
  5
12C4
 10
154.256
 20
-234.300
 30
0.000000
  70
    32
  0
VERTEX
  8
0
  5
12C5
 10
153.187
 20
-225.426
 30
0.000000
  70
    32
  0
VERTEX
  8
0
  5
12C6
 10
152.113
 20
-216.554
 30
0.000000
  70
    32
  0
VERTEX
  8
0
  5
12C7
 10
151.033
 20
-207.684
 30
0.000000
  70
    32
  0
VERTEX
  8
0
  5
12C8
 10
149.947
 20
-198.815
 30
0.000000
  70
    32
  0
VERTEX
  8
0
  5
12C9
 10
148.855
 20
-189.948
 30
0.000000
  70
    32
  0
VERTEX
  8
0
  5
12CA
 10
147.757
 20
-181.083
 30
0.000000
  70
    32
  0
VERTEX
  8
0
  5
12CB
 10
146.651
 20
-172.219
 30
0.000000
  70
    32
  0
VERTEX
  8
0
  5
12CC
 10
145.538
 20
-163.357
 30
0.000000
  70
    32
  0
VERTEX
  8
0
  5
12CD
 10
144.417
 20
-154.496
 30
0.000000
  70
    32
  0
VERTEX
  8
0
  5
12CE
 10
143.289
 20
-145.637
 30
0.000000
  70
    32
  0
VERTEX
  8
0
  5
12CF
 10
142.152
 20
-136.779
 30
0.000000
  70
    32
  0
VERTEX
  8
0
  5
12D0
 10
141.007
 20
-127.921
 30
0.000000
  70
    32
  0
VERTEX
  8
0
  5
12D1
 10
139.853
 20
-119.065
 30
0.000000
  70
    32
  0
VERTEX
  8
0
  5
12D2
 10
138.689
 20
-110.210
 30
0.000000
  70
    32
  0
VERTEX
  8
0
  5
12D3
 10
137.516
 20
-101.356
 30
0.000000
  70
    32
  0
VERTEX
  8
0
  5
12D4
 10
136.333
 20
-92.5030
 30
0.000000
  70
    32
  0
VERTEX
  8
0
  5
12D5
 10
135.140
 20
-83.6505
 30
0.000000
  70
    32
  0
VERTEX
  8
0
  5
12D6
 10
133.937
 20
-74.7987
 30
0.000000
  70
    32
  0
VERTEX
  8
0
  5
12D7
 10
132.722
 20
-65.9475
 30
0.000000
  70
    32
  0
VERTEX
  8
0
  5
12D8
 10
131.496
 20
-57.0969
 30
0.000000
  70
    32
  0
VERTEX
  8
0
  5
12D9
 10
130.259
 20
-48.2467
 30
0.000000
  70
    32
  0
VERTEX
  8
0
  5
12DA
 10
129.010
 20
-39.3969
 30
0.000000
  70
    32
  0
VERTEX
  8
0
  5
12DB
 10
127.748
 20
-30.5474
 30
0.000000
  70
    32
  0
VERTEX
  8
0
  5
12DC
 10
126.474
 20
-21.6981
 30
0.000000
  70
    32
  0
VERTEX
  8
0
  5
12DD
 10
125.188
 20
-12.8490
 30
0.000000
  70
    32
  0
VERTEX
  8
0
  5
12DE
 10
123.888
 20
-4.00000
 30
0.000000
  70
    32
  0
SEQEND
  8
0
  5
12DF
  0
LINE
  5
8A4
  8
0
  6
CONTINUOUS
 10
38.701409773858821
 20
-377.15606459712501
 30
0.0
 11
805.95833956865067
 21
-352.9375419309938
 31
0.0
  0
LINE
  5
8A5
  8
0
  6
CONTINUOUS
 10
95.2360919576181
 20
-1838.3403020943649
 30
0.0
 11
757.49997646557438
 21
-1596.155075433096
 31
0.0
  0
LINE
  5
8A6
  8
0
  6
CONTINUOUS
 10
188.58764321098829
 20
-3805.6623102600129
 30
0.0
 11
780.25028558325823
 21
-3701.7672300495678
 31
0.0
  0
ENDSEC
  0
EOF
