  0
SECTION
  2
HEADER
  9
$ACADVER
  1
AC1009
  9
$INSBASE
 10
0.0
 20
0.0
 30
0.0
  9
$EXTMIN
 10
-860.90515315549226
 20
-4510.4129812399306
 30
-0.0015258207003583
  9
$EXTMAX
 10
858.92334451623719
 20
193.1435433440019
 30
0.0000000349246037
  9
$LIMMIN
 10
0.0
 20
0.0
  9
$LIMMAX
 10
12.0
 20
9.0
  9
$ORTHOMODE
 70
     0
  9
$REGENMODE
 70
     1
  9
$FILLMODE
 70
     1
  9
$QTEXTMODE
 70
     0
  9
$MIRRTEXT
 70
     0
  9
$DRAGMODE
 70
     2
  9
$LTSCALE
 40
1.0
  9
$OSMODE
 70
  3071
  9
$ATTMODE
 70
     1
  9
$TEXTSIZE
 40
3.200000047683714
  9
$TRACEWID
 40
0.05
  9
$TEXTSTYLE
  7
STANDARD1
  9
$CLAYER
  8
0
  9
$CELTYPE
  6
CONTINUOUS
  9
$CECOLOR
 62
   256
  9
$DIMSCALE
 40
1.0
  9
$DIMASZ
 40
1.931851648807023
  9
$DIMEXO
 40
1.0
  9
$DIMDLI
 40
0.38
  9
$DIMRND
 40
0.0
  9
$DIMDLE
 40
0.0
  9
$DIMEXE
 40
2.0
  9
$DIMTP
 40
0.0
  9
$DIMTM
 40
0.0
  9
$DIMTXT
 40
2.0
  9
$DIMCEN
 40
0.09
  9
$DIMTSZ
 40
0.0
  9
$DIMTOL
 70
     0
  9
$DIMLIM
 70
     0
  9
$DIMTIH
 70
     1
  9
$DIMTOH
 70
     1
  9
$DIMSE1
 70
     0
  9
$DIMSE2
 70
     0
  9
$DIMTAD
 70
     1
  9
$DIMZIN
 70
     0
  9
$DIMBLK
  1

  9
$DIMASO
 70
     1
  9
$DIMSHO
 70
     1
  9
$DIMPOST
  1

  9
$DIMAPOST
  1

  9
$DIMALT
 70
     0
  9
$DIMALTD
 70
     2
  9
$DIMALTF
 40
25.399999999999999
  9
$DIMLFAC
 40
1.0
  9
$DIMTOFL
 70
     0
  9
$DIMTVP
 40
0.0
  9
$DIMTIX
 70
     0
  9
$DIMSOXD
 70
     0
  9
$DIMSAH
 70
     0
  9
$DIMBLK1
  1

  9
$DIMBLK2
  1

  9
$DIMSTYLE
  2
STANDARD
  9
$DIMCLRD
 70
     0
  9
$DIMCLRE
 70
     0
  9
$DIMCLRT
 70
     0
  9
$DIMTFAC
 40
0.625
  9
$DIMGAP
 40
0.09
  9
$LUNITS
 70
     2
  9
$LUPREC
 70
     3
  9
$SKETCHINC
 40
0.1
  9
$FILLETRAD
 40
0.0
  9
$AUNITS
 70
     0
  9
$AUPREC
 70
     0
  9
$MENU
  1
.
  9
$ELEVATION
 40
0.0
  9
$PELEVATION
 40
0.0
  9
$THICKNESS
 40
0.0
  9
$LIMCHECK
 70
     0
  9
$BLIPMODE
 70
     0
  9
$CHAMFERA
 40
0.0
  9
$CHAMFERB
 40
0.0
  9
$SKPOLY
 70
     0
  9
$TDCREATE
 40
2453297.5458544912
  9
$TDUPDATE
 40
2454284.5491773961
  9
$TDINDWG
 40
0.0231684144
  9
$TDUSRTIMER
 40
0.0231481597
  9
$USRTIMER
 70
     1
  9
$ANGBASE
 50
0.0
  9
$ANGDIR
 70
     0
  9
$PDMODE
 70
     0
  9
$PDSIZE
 40
0.0
  9
$PLINEWID
 40
0.0
  9
$COORDS
 70
     1
  9
$SPLFRAME
 70
     0
  9
$SPLINETYPE
 70
     6
  9
$SPLINESEGS
 70
     8
  9
$ATTDIA
 70
     0
  9
$ATTREQ
 70
     1
  9
$HANDLING
 70
     1
  9
$HANDSEED
  5
A35
  9
$SURFTAB1
 70
     6
  9
$SURFTAB2
 70
     6
  9
$SURFTYPE
 70
     6
  9
$SURFU
 70
     6
  9
$SURFV
 70
     6
  9
$UCSNAME
  2

  9
$UCSORG
 10
0.0
 20
0.0
 30
0.0
  9
$UCSXDIR
 10
1.0
 20
0.0
 30
0.0
  9
$UCSYDIR
 10
0.0
 20
1.0
 30
0.0
  9
$PUCSNAME
  2

  9
$PUCSORG
 10
0.0
 20
0.0
 30
0.0
  9
$PUCSXDIR
 10
1.0
 20
0.0
 30
0.0
  9
$PUCSYDIR
 10
0.0
 20
1.0
 30
0.0
  9
$USERI1
 70
     0
  9
$USERI2
 70
     0
  9
$USERI3
 70
     0
  9
$USERI4
 70
     0
  9
$USERI5
 70
     0
  9
$USERR1
 40
0.0
  9
$USERR2
 40
0.0
  9
$USERR3
 40
0.0
  9
$USERR4
 40
0.0
  9
$USERR5
 40
0.0
  9
$WORLDVIEW
 70
     1
  9
$SHADEDGE
 70
     3
  9
$SHADEDIF
 70
    70
  9
$TILEMODE
 70
     1
  9
$MAXACTVP
 70
    64
  9
$PLIMCHECK
 70
     0
  9
$PEXTMIN
 10
1.0000000000000000E+020
 20
1.0000000000000000E+020
 30
1.0000000000000000E+020
  9
$PEXTMAX
 10
-1.0000000000000000E+020
 20
-1.0000000000000000E+020
 30
-1.0000000000000000E+020
  9
$PLIMMIN
 10
0.0
 20
0.0
  9
$PLIMMAX
 10
12.0
 20
9.0
  9
$UNITMODE
 70
     0
  9
$VISRETAIN
 70
     1
  9
$PLINEGEN
 70
     0
  9
$PSLTSCALE
 70
     1
  0
ENDSEC
  0
SECTION
  2
TABLES
  0
TABLE
  2
VPORT
 70
     1
  0
VPORT
  2
*ACTIVE
 70
     0
 10
0.0
 20
0.0
 11
1.0
 21
1.0
 12
-0.9909043196275889
 22
-2158.6347189479652
 13
0.0
 23
0.0
 14
1.0
 24
1.0
 15
0.0
 25
0.0
 16
0.0
 26
0.0
 36
1.0
 17
0.0
 27
0.0
 37
0.0
 40
4743.9304003314346
 41
1.6704871060171911
 42
50.0
 43
0.0
 44
0.0
 50
0.0
 51
0.0
 71
     0
 72
   100
 73
     1
 74
     1
 75
     0
 76
     0
 77
     0
 78
     0
  0
ENDTAB
  0
TABLE
  2
LTYPE
 70
     4
  0
LTYPE
  2
CONTINUOUS
 70
     0
  3
Solid line
 72
    65
 73
     0
 40
0.0
  0
LTYPE
  2
DASHED
 70
     0
  3
-- -- -- -- -- -- -- -- -- -- -- -- -- -- --
 72
    65
 73
     2
 40
0.75
 49
0.5
 49
-0.25
  0
LTYPE
  2
DASHDOT
 70
     0
  3
__ . __ . __ . __ . __ . __ . __ . __ . __ . __
 72
    65
 73
     4
 40
1.0
 49
0.5
 49
-0.25
 49
0.0
 49
-0.25
  0
LTYPE
  2
DIVIDE
 70
     0
  3
__ . . __ . . __ . . __ . . __ . . __ . . __
 72
    65
 73
     6
 40
1.25
 49
0.5
 49
-0.25
 49
0.0
 49
-0.25
 49
0.0
 49
-0.25
  0
ENDTAB
  0
TABLE
  2
LAYER
 70
     2
  0
LAYER
  2
0
 70
     0
 62
     7
  6
CONTINUOUS
  0
LAYER
  2
DEFPOINTS
 70
     0
 62
     7
  6
CONTINUOUS
  0
ENDTAB
  0
TABLE
  2
STYLE
 70
     5
  0
STYLE
  2
STANDARD
 70
     0
 40
0.0
 41
1.0
 50
0.0
 71
     0
 42
0.2
  3
txt
  4

  0
STYLE
  2
STANDARD1
 70
     0
 40
0.0
 41
1.0
 50
0.0
 71
     0
 42
3.200000047683714
  3
MONOTXT
  4
BIGFONT
  0
STYLE
  2
STANDARD2
 70
     4
 40
0.0
 41
1.0
 50
0.0
 71
     0
 42
3.200000047683714
  3
MONOTXT
  4
BIGFONT
  0
STYLE
  2
STANDARD3
 70
     0
 40
0.0
 41
1.0
 50
0.0
 71
     0
 42
3.200000047683714
  3
MONOTXT
  4

  0
STYLE
  2
STANDARD4
 70
     4
 40
0.0
 41
1.0
 50
0.0
 71
     0
 42
3.200000047683714
  3
MONOTXT
  4

  0
ENDTAB
  0
TABLE
  2
VIEW
 70
     0
  0
ENDTAB
  0
TABLE
  2
UCS
 70
     0
  0
ENDTAB
  0
TABLE
  2
APPID
 70
     1
  0
APPID
  2
ACAD
 70
     0
  0
ENDTAB
  0
TABLE
  2
DIMSTYLE
 70
     1
  0
DIMSTYLE
  2
STANDARD
 70
     0
  3

  4

  5

  6

  7

 40
1.0
 41
0.18
 42
0.0625
 43
0.38
 44
0.18
 45
0.0
 46
0.0
 47
0.0
 48
0.0
140
0.18
141
0.09
142
0.0
143
25.399999999999999
144
1.0
145
0.0
146
1.0
147
0.09
 71
     0
 72
     0
 73
     1
 74
     1
 75
     0
 76
     0
 77
     0
 78
     0
170
     0
171
     2
172
     0
173
     0
174
     0
175
     0
176
     0
177
     0
178
     0
  0
ENDTAB
  0
ENDSEC
  0
SECTION
  2
BLOCKS
  0
BLOCK
  8
0
  2
$MODEL_SPACE
 70
     0
 10
0.0
 20
0.0
 30
0.0
  3
$MODEL_SPACE
  1

  0
ENDBLK
  5
727
  8
0
  0
BLOCK
 67
     1
  8
0
  2
$PAPER_SPACE
 70
     0
 10
0.0
 20
0.0
 30
0.0
  3
$PAPER_SPACE
  1

  0
ENDBLK
  5
723
 67
     1
  8
0
  0
BLOCK
  8
0
  2
*D2
 70
     1
 10
0.0
 20
0.0
 30
0.0
  3
*D2
  1

  0
LINE
  5
73E
  8
0
  6
CONTINUOUS
 62
     0
 10
2329.1771656855421
 20
2297.581134850926
 30
0.0
 11
2329.1771656855421
 21
2451.5363998018602
 31
0.0
  0
LINE
  5
73F
  8
0
  6
CONTINUOUS
 62
     0
 10
2079.1771656855421
 20
2297.581134850926
 30
0.0
 11
2079.1771656855421
 21
2451.5363998018602
 31
0.0
  0
LINE
  5
740
  8
0
  6
CONTINUOUS
 62
     0
 10
2327.2453140367329
 20
2449.536399801857
 30
0.0
 11
2081.1090173343482
 21
2449.536399801857
 31
0.0
  0
SOLID
  5
741
  8
0
  6
CONTINUOUS
 62
     0
 10
2327.2453140367329
 20
2449.8583750766602
 30
0.0
 11
2327.2453140367329
 21
2449.214424527057
 31
0.0
 12
2329.1771656855421
 22
2449.536399801857
 32
0.0
 13
2329.1771656855421
 23
2449.536399801857
 33
0.0
  0
SOLID
  5
742
  8
0
  6
CONTINUOUS
 62
     0
 10
2081.1090173343482
 20
2449.8583750766602
 30
0.0
 11
2081.1090173343482
 21
2449.214424527057
 31
0.0
 12
2079.1771656855421
 22
2449.536399801857
 32
0.0
 13
2079.1771656855421
 23
2449.536399801857
 33
0.0
  0
INSERT
  5
744
  8
0
  6
CONTINUOUS
  2
*U3
 10
0.0
 20
0.0
 30
0.0
  0
POINT
  5
745
  8
DEFPOINTS
  6
CONTINUOUS
 62
     0
 10
2329.1771656855421
 20
2296.5811348509269
 30
0.0
  0
POINT
  5
746
  8
DEFPOINTS
  6
CONTINUOUS
 62
     0
 10
2079.1771656855421
 20
2296.5811348509269
 30
0.0
  0
POINT
  5
747
  8
DEFPOINTS
  6
CONTINUOUS
 62
     0
 10
2079.1771656855421
 20
2449.536399801857
 30
0.0
  0
ENDBLK
  5
748
  8
0
  0
BLOCK
  8
0
  2
*U3
 70
     1
 10
0.0
 20
0.0
 30
0.0
  3
*U3
  1

  0
TEXT
  5
7B6
  8
0
  6
CONTINUOUS
 62
     0
 10
2198.0104990188761
 20
2449.626399801858
 30
0.0
 40
2.0
  1
250.0000
  0
ENDBLK
  5
7B7
  8
0
  0
BLOCK
  8
0
  2
*D4
 70
     1
 10
0.0
 20
0.0
 30
0.0
  3
*D4
  1

  0
LINE
  5
74B
  8
0
  6
CONTINUOUS
 62
     0
 10
6636.1074256030852
 20
-3614.8037890943242
 30
0.0
 11
8006.7563343625488
 21
-3614.8037890943242
 31
0.0
  0
LINE
  5
74C
  8
0
  6
CONTINUOUS
 62
     0
 10
6636.1074256029679
 20
-7508.8660935798871
 30
0.0
 11
8006.7563343625488
 21
-7508.8660935798871
 31
0.0
  0
LINE
  5
74D
  8
0
  6
CONTINUOUS
 62
     0
 10
8004.7563343625498
 20
-3616.7356407431321
 30
0.0
 11
8004.7563343625498
 21
-5560.7449413371032
 31
0.0
  0
LINE
  5
74E
  8
0
  6
CONTINUOUS
 62
     0
 10
8004.7563343625498
 20
-7506.934241931076
 30
0.0
 11
8004.7563343625498
 21
-5562.9249413371044
 31
0.0
  0
SOLID
  5
74F
  8
0
  6
CONTINUOUS
 62
     0
 10
8004.4343590877506
 20
-3616.7356407431321
 30
0.0
 11
8005.0783096373534
 21
-3616.7356407431321
 31
0.0
 12
8004.7563343625498
 22
-3614.8037890943242
 32
0.0
 13
8004.7563343625498
 23
-3614.8037890943242
 33
0.0
  0
SOLID
  5
750
  8
0
  6
CONTINUOUS
 62
     0
 10
8004.4343590877506
 20
-7506.934241931076
 30
0.0
 11
8005.0783096373534
 21
-7506.934241931076
 31
0.0
 12
8004.7563343625498
 22
-7508.8660935798871
 32
0.0
 13
8004.7563343625498
 23
-7508.8660935798871
 33
0.0
  0
INSERT
  5
752
  8
0
  6
CONTINUOUS
  2
*U5
 10
0.0
 20
0.0
 30
0.0
  0
POINT
  5
753
  8
DEFPOINTS
  6
CONTINUOUS
 62
     0
 10
6635.1074256030843
 20
-3614.8037890943242
 30
0.0
  0
POINT
  5
754
  8
DEFPOINTS
  6
CONTINUOUS
 62
     0
 10
6635.1074256029669
 20
-7508.8660935798871
 30
0.0
  0
POINT
  5
755
  8
DEFPOINTS
  6
CONTINUOUS
 62
     0
 10
8004.7563343625498
 20
-7508.8660935798871
 30
0.0
  0
ENDBLK
  5
756
  8
0
  0
BLOCK
  8
0
  2
*U5
 70
     1
 10
0.0
 20
0.0
 30
0.0
  3
*U5
  1

  0
TEXT
  5
7B9
  8
0
  6
CONTINUOUS
 62
     0
 10
7996.9230010292204
 20
-5562.8349413371043
 30
0.0
 40
2.0
  1
3894.0623
  0
ENDBLK
  5
7BA
  8
0
  0
BLOCK
  8
0
  2
*D6
 70
     1
 10
0.0
 20
0.0
 30
0.0
  3
*D6
  1

  0
LINE
  5
759
  8
0
  6
CONTINUOUS
 62
     0
 10
7030.107425603107
 20
-3413.6700150742399
 30
0.0
 11
7030.107425603107
 21
-3224.3866560524898
 31
0.0
  0
LINE
  5
75A
  8
0
  6
CONTINUOUS
 62
     0
 10
6240.1074256031079
 20
-3413.6700150742399
 30
0.0
 11
6240.1074256031079
 21
-3224.3866560524898
 31
0.0
  0
LINE
  5
75B
  8
0
  6
CONTINUOUS
 62
     0
 10
7028.1755739542996
 20
-3226.3866560524912
 30
0.0
 11
6242.0392772519153
 21
-3226.3866560524912
 31
0.0
  0
SOLID
  5
75C
  8
0
  6
CONTINUOUS
 62
     0
 10
7028.1755739542996
 20
-3226.0646807776889
 30
0.0
 11
7028.1755739542996
 21
-3226.708631327293
 31
0.0
 12
7030.107425603107
 22
-3226.3866560524912
 32
0.0
 13
7030.107425603107
 23
-3226.3866560524912
 33
0.0
  0
SOLID
  5
75D
  8
0
  6
CONTINUOUS
 62
     0
 10
6242.0392772519153
 20
-3226.0646807776889
 30
0.0
 11
6242.0392772519153
 21
-3226.708631327293
 31
0.0
 12
6240.1074256031079
 22
-3226.3866560524912
 32
0.0
 13
6240.1074256031079
 23
-3226.3866560524912
 33
0.0
  0
INSERT
  5
75F
  8
0
  6
CONTINUOUS
  2
*U7
 10
0.0
 20
0.0
 30
0.0
  0
POINT
  5
760
  8
DEFPOINTS
  6
CONTINUOUS
 62
     0
 10
7030.107425603107
 20
-3414.670015074239
 30
0.0
  0
POINT
  5
761
  8
DEFPOINTS
  6
CONTINUOUS
 62
     0
 10
6240.1074256031079
 20
-3414.670015074239
 30
0.0
  0
POINT
  5
762
  8
DEFPOINTS
  6
CONTINUOUS
 62
     0
 10
6240.1074256031079
 20
-3226.3866560524912
 30
0.0
  0
ENDBLK
  5
763
  8
0
  0
BLOCK
  8
0
  2
*U7
 70
     1
 10
0.0
 20
0.0
 30
0.0
  3
*U7
  1

  0
TEXT
  5
7BC
  8
0
  6
CONTINUOUS
 62
     0
 10
6628.94075893644
 20
-3226.296656052491
 30
0.0
 40
2.0
  1
790.0000
  0
ENDBLK
  5
7BD
  8
0
  0
BLOCK
  8
0
  2
*D8
 70
     1
 10
0.0
 20
0.0
 30
0.0
  3
*D8
  1

  0
LINE
  5
766
  8
0
  6
CONTINUOUS
 62
     0
 10
1603.6798301461381
 20
-882.50141534387501
 30
0.0
 11
3388.454995993367
 21
-882.50141534387535
 31
0.0
  0
LINE
  5
767
  8
0
  6
CONTINUOUS
 62
     0
 10
1603.6798301461381
 20
-5385.7708751411119
 30
0.0
 11
3388.4549959933652
 21
-5385.7708751411137
 31
0.0
  0
LINE
  5
768
  8
0
  6
CONTINUOUS
 62
     0
 10
3386.4549959933661
 20
-884.43326699268255
 30
0.0
 11
3386.4549959933661
 21
-3133.0461452424938
 31
0.0
  0
LINE
  5
769
  8
0
  6
CONTINUOUS
 62
     0
 10
3386.4549959933638
 20
-5383.8390234923063
 30
0.0
 11
3386.4549959933661
 21
-3135.2261452424941
 31
0.0
  0
SOLID
  5
76A
  8
0
  6
CONTINUOUS
 62
     0
 10
3386.1330207185661
 20
-884.43326699268255
 30
0.0
 11
3386.776971268167
 21
-884.43326699268255
 31
0.0
 12
3386.4549959933661
 22
-882.50141534387535
 32
0.0
 13
3386.4549959933661
 23
-882.50141534387535
 33
0.0
  0
SOLID
  5
76B
  8
0
  6
CONTINUOUS
 62
     0
 10
3386.1330207185629
 20
-5383.8390234923063
 30
0.0
 11
3386.776971268167
 21
-5383.8390234923063
 31
0.0
 12
3386.4549959933638
 22
-5385.7708751411137
 32
0.0
 13
3386.4549959933638
 23
-5385.7708751411137
 33
0.0
  0
INSERT
  5
76D
  8
0
  6
CONTINUOUS
  2
*U9
 10
0.0
 20
0.0
 30
0.0
  0
POINT
  5
76E
  8
DEFPOINTS
  6
CONTINUOUS
 62
     0
 10
1602.679830146137
 20
-882.50141534387501
 30
0.0
  0
POINT
  5
76F
  8
DEFPOINTS
  6
CONTINUOUS
 62
     0
 10
1602.679830146137
 20
-5385.7708751411119
 30
0.0
  0
POINT
  5
770
  8
DEFPOINTS
  6
CONTINUOUS
 62
     0
 10
3386.4549959933638
 20
-5385.7708751411137
 30
0.0
  0
ENDBLK
  5
771
  8
0
  0
BLOCK
  8
0
  2
*U9
 70
     1
 10
0.0
 20
0.0
 30
0.0
  3
*U9
  1

  0
TEXT
  5
7BF
  8
0
  6
CONTINUOUS
 62
     0
 10
3378.6216626600321
 20
-3135.136145242494
 30
0.0
 40
2.0
  1
4503.2695
  0
ENDBLK
  5
7C0
  8
0
  0
BLOCK
  8
0
  2
*D10
 70
     1
 10
0.0
 20
0.0
 30
0.0
  3
*D10
  1

  0
LINE
  5
774
  8
0
  6
CONTINUOUS
 62
     0
 10
-395.0
 20
194.0
 30
0.0
 11
-395.0
 21
255.54432664760679
 31
0.0
  0
LINE
  5
775
  8
0
  6
CONTINUOUS
 62
     0
 10
395.0
 20
194.0
 30
0.0
 11
395.0
 21
255.54432664760679
 31
0.0
  0
LINE
  5
776
  8
0
  6
CONTINUOUS
 62
     0
 10
-393.06814835119292
 20
253.54432664760679
 30
0.0
 11
393.06814835119292
 21
253.54432664760679
 31
0.0
  0
SOLID
  5
777
  8
0
  6
CONTINUOUS
 62
     0
 10
-393.06814835119292
 20
253.8663019224079
 30
0.0
 11
-393.06814835119292
 21
253.2223513728056
 31
0.0
 12
-395.0
 22
253.54432664760679
 32
0.0
 13
-395.0
 23
253.54432664760679
 33
0.0
  0
SOLID
  5
778
  8
0
  6
CONTINUOUS
 62
     0
 10
393.06814835119292
 20
253.8663019224079
 30
0.0
 11
393.06814835119292
 21
253.2223513728056
 31
0.0
 12
395.0
 22
253.54432664760679
 32
0.0
 13
395.0
 23
253.54432664760679
 33
0.0
  0
INSERT
  5
77A
  8
0
  6
CONTINUOUS
  2
*U11
 10
0.0
 20
0.0
 30
0.0
  0
POINT
  5
77B
  8
DEFPOINTS
  6
CONTINUOUS
 62
     0
 10
-395.0
 20
193.0
 30
0.0
  0
POINT
  5
77C
  8
DEFPOINTS
  6
CONTINUOUS
 62
     0
 10
395.0
 20
193.0
 30
0.0
  0
POINT
  5
77D
  8
DEFPOINTS
  6
CONTINUOUS
 62
     0
 10
395.0
 20
253.54432664760679
 30
0.0
  0
ENDBLK
  5
77E
  8
0
  0
BLOCK
  8
0
  2
*U11
 70
     1
 10
0.0
 20
0.0
 30
0.0
  3
*U11
  1

  0
TEXT
  5
7C2
  8
0
  6
CONTINUOUS
 62
     0
 10
-6.166666666666667
 20
253.63432664760671
 30
0.0
 40
2.0
  1
790.0000
  0
ENDBLK
  5
7C3
  8
0
  0
BLOCK
  8
0
  2
*D12
 70
     1
 10
0.0
 20
0.0
 30
0.0
  3
*D12
  1

  0
LINE
  5
781
  8
0
  6
CONTINUOUS
 62
     0
 10
396.0
 20
193.0
 30
0.0
 11
439.63123930917197
 21
193.0
 31
0.0
  0
LINE
  5
782
  8
0
  6
CONTINUOUS
 62
     0
 10
396.0
 20
-7.0
 30
0.0
 11
439.63123930917197
 21
-7.0000000000000133
 31
0.0
  0
LINE
  5
783
  8
0
  6
CONTINUOUS
 62
     0
 10
437.63123930917192
 20
191.06814835119289
 30
0.0
 11
437.63123930917192
 21
94.089999999999975
 31
0.0
  0
LINE
  5
784
  8
0
  6
CONTINUOUS
 62
     0
 10
437.63123930917192
 20
-5.0681483511929883
 30
0.0
 11
437.63123930917192
 21
91.909999999999982
 31
0.0
  0
SOLID
  5
785
  8
0
  6
CONTINUOUS
 62
     0
 10
437.30926403437098
 20
191.06814835119289
 30
0.0
 11
437.95321458397308
 21
191.06814835119289
 31
0.0
 12
437.63123930917192
 22
193.0
 32
0.0
 13
437.63123930917192
 23
193.0
 33
0.0
  0
SOLID
  5
786
  8
0
  6
CONTINUOUS
 62
     0
 10
437.30926403437081
 20
-5.0681483511929883
 30
0.0
 11
437.95321458397302
 21
-5.0681483511929883
 31
0.0
 12
437.63123930917192
 22
-7.0000000000000089
 32
0.0
 13
437.63123930917192
 23
-7.0000000000000089
 33
0.0
  0
INSERT
  5
788
  8
0
  6
CONTINUOUS
  2
*U13
 10
0.0
 20
0.0
 30
0.0
  0
POINT
  5
789
  8
DEFPOINTS
  6
CONTINUOUS
 62
     0
 10
395.0
 20
193.0
 30
0.0
  0
POINT
  5
78A
  8
DEFPOINTS
  6
CONTINUOUS
 62
     0
 10
395.0
 20
-7.0
 30
0.0
  0
POINT
  5
78B
  8
DEFPOINTS
  6
CONTINUOUS
 62
     0
 10
437.63123930917192
 20
-7.0000000000000089
 30
0.0
  0
ENDBLK
  5
78C
  8
0
  0
BLOCK
  8
0
  2
*U13
 70
     1
 10
0.0
 20
0.0
 30
0.0
  3
*U13
  1

  0
TEXT
  5
7C5
  8
0
  6
CONTINUOUS
 62
     0
 10
431.63123930917192
 20
92.000000000000043
 30
0.0
 40
2.0
  1
200.0000
  0
ENDBLK
  5
7C6
  8
0
  0
BLOCK
  8
0
  2
*D14
 70
     1
 10
0.0
 20
0.0
 30
0.0
  3
*D14
  1

  0
LINE
  5
78F
  8
0
  6
CONTINUOUS
 62
     0
 10
1.0
 20
-0.0000000000000003
 30
0.0
 11
1188.528234311696
 21
-0.0000000000003367
 31
0.0
  0
LINE
  5
790
  8
0
  6
CONTINUOUS
 62
     0
 10
0.0000000000000001
 20
-4510.269459797235
 30
0.0
 11
1188.528234311696
 21
-4510.269459797235
 31
0.0
  0
LINE
  5
791
  8
0
  6
CONTINUOUS
 62
     0
 10
1186.528234311696
 20
-1.931851648807358
 30
0.0
 11
1186.528234311696
 21
-2254.0447298986169
 31
0.0
  0
LINE
  5
792
  8
0
  6
CONTINUOUS
 62
     0
 10
1186.528234311696
 20
-4508.3376081484248
 30
0.0
 11
1186.528234311696
 21
-2256.2247298986181
 31
0.0
  0
SOLID
  5
793
  8
0
  6
CONTINUOUS
 62
     0
 10
1186.206259036896
 20
-1.931851648807358
 30
0.0
 11
1186.8502095864981
 21
-1.931851648807358
 31
0.0
 12
1186.528234311696
 22
-0.0000000000003361
 32
0.0
 13
1186.528234311696
 23
-0.0000000000003361
 33
0.0
  0
SOLID
  5
794
  8
0
  6
CONTINUOUS
 62
     0
 10
1186.2062590368951
 20
-4508.3376081484248
 30
0.0
 11
1186.850209586496
 21
-4508.3376081484248
 31
0.0
 12
1186.528234311696
 22
-4510.269459797235
 32
0.0
 13
1186.528234311696
 23
-4510.269459797235
 33
0.0
  0
INSERT
  5
796
  8
0
  6
CONTINUOUS
  2
*U15
 10
0.0
 20
0.0
 30
0.0
  0
POINT
  5
797
  8
DEFPOINTS
  6
CONTINUOUS
 62
     0
 10
0.0
 20
0.0
 30
0.0
  0
POINT
  5
798
  8
DEFPOINTS
  6
CONTINUOUS
 62
     0
 10
-1.0
 20
-4510.269459797235
 30
0.0
  0
POINT
  5
799
  8
DEFPOINTS
  6
CONTINUOUS
 62
     0
 10
1186.528234311696
 20
-4510.269459797235
 30
0.0
  0
ENDBLK
  5
79A
  8
0
  0
BLOCK
  8
0
  2
*U15
 70
     1
 10
0.0
 20
0.0
 30
0.0
  3
*U15
  1

  0
TEXT
  5
7C8
  8
0
  6
CONTINUOUS
 62
     0
 10
1179.028234311696
 20
-2256.1347298986161
 30
0.0
 40
2.0
  1
4510.2695
  0
ENDBLK
  5
7C9
  8
0
  0
BLOCK
  8
0
  2
*D16
 70
     1
 10
0.0
 20
0.0
 30
0.0
  3
*D16
  1

  0
LINE
  5
79D
  8
0
  6
CONTINUOUS
 62
     0
 10
0.0000000000000001
 20
51.86358264264527
 30
0.0
 11
0.0000000000000459
 21
800.78683998981433
 31
0.0
  0
LINE
  5
79E
  8
0
  6
CONTINUOUS
 62
     0
 10
858.15051317535824
 20
-3075.9117298712122
 30
0.0
 11
858.15051317535847
 21
800.78683998981433
 31
0.0
  0
LINE
  5
79F
  8
0
  6
CONTINUOUS
 62
     0
 10
1.9318516488070681
 20
798.78683998981433
 30
0.0
 11
856.2186615265515
 21
798.78683998981433
 31
0.0
  0
SOLID
  5
7A0
  8
0
  6
CONTINUOUS
 62
     0
 10
1.9318516488070681
 20
799.10881526461526
 30
0.0
 11
1.9318516488070681
 21
798.46486471501282
 31
0.0
 12
0.0000000000000458
 22
798.78683998981433
 32
0.0
 13
0.0000000000000458
 23
798.78683998981433
 33
0.0
  0
SOLID
  5
7A1
  8
0
  6
CONTINUOUS
 62
     0
 10
856.2186615265515
 20
799.10881526461526
 30
0.0
 11
856.2186615265515
 21
798.46486471501282
 31
0.0
 12
858.15051317535847
 22
798.78683998981433
 32
0.0
 13
858.15051317535847
 23
798.78683998981433
 33
0.0
  0
INSERT
  5
7A3
  8
0
  6
CONTINUOUS
  2
*U17
 10
0.0
 20
0.0
 30
0.0
  0
POINT
  5
7A4
  8
DEFPOINTS
  6
CONTINUOUS
 62
     0
 10
0.0
 20
50.863582642645291
 30
0.0
  0
POINT
  5
7A5
  8
DEFPOINTS
  6
CONTINUOUS
 62
     0
 10
858.15051317535824
 20
-3076.9117298712122
 30
0.0
  0
POINT
  5
7A6
  8
DEFPOINTS
  6
CONTINUOUS
 62
     0
 10
858.15051317535847
 20
798.78683998981433
 30
0.0
  0
ENDBLK
  5
7A7
  8
0
  0
BLOCK
  8
0
  2
*U17
 70
     1
 10
0.0
 20
0.0
 30
0.0
  3
*U17
  1

  0
TEXT
  5
7CB
  8
0
  6
CONTINUOUS
 62
     0
 10
422.57525658767918
 20
798.87683998981424
 30
0.0
 40
2.0
  1
858.1505
  0
ENDBLK
  5
7CC
  8
0
  0
BLOCK
  8
0
  2
*D18
 70
     1
 10
0.0
 20
0.0
 30
0.0
  3
*D18
  1

  0
LINE
  5
7AA
  8
0
  6
CONTINUOUS
 62
     0
 10
0.0000000000000001
 20
51.86358264264527
 30
0.0
 11
0.0000000000000362
 21
641.83595304564335
 31
0.0
  0
LINE
  5
7AB
  8
0
  6
CONTINUOUS
 62
     0
 10
-860.85267536216975
 20
-3200.8148281941681
 30
0.0
 11
-860.85267536216963
 21
641.83595304564335
 31
0.0
  0
LINE
  5
7AC
  8
0
  6
CONTINUOUS
 62
     0
 10
-1.931851648806985
 20
639.83595304564381
 30
0.0
 11
-858.92082371336244
 21
639.83595304564381
 31
0.0
  0
SOLID
  5
7AD
  8
0
  6
CONTINUOUS
 62
     0
 10
-1.931851648806985
 20
640.15792832044474
 30
0.0
 11
-1.931851648806985
 21
639.51397777084253
 31
0.0
 12
0.0000000000000361
 22
639.83595304564381
 32
0.0
 13
0.0000000000000361
 23
639.83595304564381
 33
0.0
  0
SOLID
  5
7AE
  8
0
  6
CONTINUOUS
 62
     0
 10
-858.92082371336244
 20
640.15792832044474
 30
0.0
 11
-858.92082371336244
 21
639.51397777084253
 31
0.0
 12
-860.85267536216963
 22
639.83595304564381
 32
0.0
 13
-860.85267536216963
 23
639.83595304564381
 33
0.0
  0
INSERT
  5
7B0
  8
0
  6
CONTINUOUS
  2
*U19
 10
0.0
 20
0.0
 30
0.0
  0
POINT
  5
7B1
  8
DEFPOINTS
  6
CONTINUOUS
 62
     0
 10
0.0
 20
50.863582642645291
 30
0.0
  0
POINT
  5
7B2
  8
DEFPOINTS
  6
CONTINUOUS
 62
     0
 10
-860.85267536216975
 20
-3201.8148281941681
 30
0.0
  0
POINT
  5
7B3
  8
DEFPOINTS
  6
CONTINUOUS
 62
     0
 10
-860.85267536216963
 20
639.83595304564381
 30
0.0
  0
ENDBLK
  5
7B4
  8
0
  0
BLOCK
  8
0
  2
*U19
 70
     1
 10
0.0
 20
0.0
 30
0.0
  3
*U19
  1

  0
TEXT
  5
7CE
  8
0
  6
CONTINUOUS
 62
     0
 10
-437.25967101441802
 20
639.9259530456435
 30
0.0
 40
2.0
  1
860.8527
  0
ENDBLK
  5
7CF
  8
0
  0
ENDSEC
  0
SECTION
  2
ENTITIES
  0
LINE
  5
7D0
  8
0
  6
CONTINUOUS
 10
0.0
 20
50.863582642645291
 30
0.0
 11
0.0
 21
-50.863582642645291
 31
0.0
  0
LINE
  5
7D1
  8
0
  6
CONTINUOUS
 10
402.0
 20
-7.0
 30
0.0
 11
-402.0
 21
-7.0
 31
0.0
  0
LINE
  5
7D2
  8
0
  6
CONTINUOUS
 10
395.0
 20
193.0
 30
0.0
 11
395.0
 21
0.0
 31
0.0
  0
LINE
  5
7D3
  8
0
  6
CONTINUOUS
 10
402.0
 20
0.0
 30
0.0
 11
402.0
 21
-7.0
 31
0.0
  0
LINE
  5
7D4
  8
0
  6
CONTINUOUS
 10
402.0
 20
0.0
 30
0.0
 11
-402.0
 21
0.0
 31
0.0
  0
LINE
  5
7D5
  8
0
  6
CONTINUOUS
 10
395.0
 20
193.0
 30
0.0
 11
-395.0
 21
193.0
 31
0.0
  0
LINE
  5
7D6
  8
0
  6
CONTINUOUS
 10
-395.0
 20
193.0
 30
0.0
 11
-395.0
 21
0.0
 31
0.0
  0
LINE
  5
7D7
  8
0
  6
CONTINUOUS
 10
-402.0
 20
0.0
 30
0.0
 11
-402.0
 21
-7.0
 31
0.0
  0
TEXT
  5
7D8
  8
0
  6
CONTINUOUS
 10
-169.03509054728849
 20
-340.26926737464782
 30
0.0
 40
144.0
  1
2m/s
 50
0.0000025044687019
 41
0.687499990065893
  7
STANDARD1
  0
TEXT
  5
7D9
  8
0
  6
CONTINUOUS
 10
-184.3984319152996
 20
-1552.6150345846861
 30
0.0
 40
144.0
  1
1m/s
 50
0.0000025044687019
 41
0.687499990065893
  7
STANDARD1
  0
TEXT
  5
7DA
  8
0
  6
CONTINUOUS
 10
-250.2337399677553
 20
-3039.4578279493662
 30
0.0
 40
144.0
  1
0.5m/s
 50
0.0000025044687019
 41
0.687499990065893
  7
STANDARD1
  0
TEXT
  5
7DB
  8
0
  6
CONTINUOUS
 10
-199.45926456705999
 20
-4019.6635534939078
 30
0.0
 40
144.0
  1
0.3m/s
 50
0.0000025044687019
 41
0.687499990065893
  7
STANDARD1
  0
POLYLINE
  5
7DC
  8
0
  6
CONTINUOUS
 66
     1
 10
0.0
 20
0.0
 30
0.0
  0
VERTEX
  5
92C
  8
0
  6
CONTINUOUS
 10
240.73353625863081
 20
-7.0
 30
0.0
  0
VERTEX
  5
92D
  8
0
  6
CONTINUOUS
 10
278.40830079153233
 20
-243.44342136062181
 30
0.0
  0
VERTEX
  5
92E
  8
0
  6
CONTINUOUS
 10
327.97354752663517
 20
-491.2123889679786
 30
0.0
  0
VERTEX
  5
92F
  8
0
  6
CONTINUOUS
 10
327.97354752663517
 20
-491.2123889679786
 30
0.0
  0
VERTEX
  5
930
  8
0
  6
CONTINUOUS
 10
395.44582896519557
 20
-752.95415546411823
 30
0.0
  0
VERTEX
  5
931
  8
0
  6
CONTINUOUS
 10
463.34597880457289
 20
-996.60279907225026
 30
0.0
  0
VERTEX
  5
932
  8
0
  6
CONTINUOUS
 10
463.34597880457289
 20
-996.60279907225026
 30
0.0
  0
VERTEX
  5
933
  8
0
  6
CONTINUOUS
 10
531.51179328071885
 20
-1268.7945661681081
 30
0.0
  0
VERTEX
  5
934
  8
0
  6
CONTINUOUS
 10
576.11950695057749
 20
-1481.074932691123
 30
0.0
  0
VERTEX
  5
935
  8
0
  6
CONTINUOUS
 10
623.00882049540814
 20
-1700.311398860438
 30
0.0
  0
VERTEX
  5
936
  8
0
  6
CONTINUOUS
 10
698.01943459641143
 20
-1993.3714648951941
 30
0.0
  0
VERTEX
  5
937
  8
0
  6
CONTINUOUS
 10
698.01943459641143
 20
-1993.3714648951941
 30
0.0
  0
VERTEX
  5
938
  8
0
  6
CONTINUOUS
 10
745.37488051022228
 20
-2161.9179250277439
 30
0.0
  0
VERTEX
  5
939
  8
0
  6
CONTINUOUS
 10
789.73313085932728
 20
-2328.367416631198
 30
0.0
  0
VERTEX
  5
93A
  8
0
  6
CONTINUOUS
 10
789.73313085932728
 20
-2328.367416631198
 30
0.0
  0
VERTEX
  5
93B
  8
0
  6
CONTINUOUS
 10
820.28023869766901
 20
-2471.0938379157092
 30
0.0
  0
VERTEX
  5
93C
  8
0
  6
CONTINUOUS
 10
839.07889605377534
 20
-2605.449117974415
 30
0.0
  0
VERTEX
  5
93D
  8
0
  6
CONTINUOUS
 10
839.07889605377534
 20
-2605.449117974415
 30
0.0
  0
VERTEX
  5
93E
  8
0
  6
CONTINUOUS
 10
850.76994235330505
 20
-2756.5984886594229
 30
0.0
  0
VERTEX
  5
93F
  8
0
  6
CONTINUOUS
 10
857.4301676358881
 20
-2951.982361975693
 30
0.0
  0
VERTEX
  5
940
  8
0
  6
CONTINUOUS
 10
857.4301676358881
 20
-2951.982361975693
 30
0.0
  0
VERTEX
  5
941
  8
0
  6
CONTINUOUS
 10
858.87085871482861
 20
-3201.8410977667299
 30
0.0
  0
VERTEX
  5
942
  8
0
  6
CONTINUOUS
 10
848.40533888401092
 20
-3445.3396670775128
 30
0.0
  0
VERTEX
  5
943
  8
0
  6
CONTINUOUS
 10
848.40533888401092
 20
-3445.3396670775128
 30
0.0
  0
VERTEX
  5
944
  8
0
  6
CONTINUOUS
 10
820.98628962124349
 20
-3627.2675664485578
 30
0.0
  0
VERTEX
  5
945
  8
0
  6
CONTINUOUS
 10
784.62178865967132
 20
-3785.9877832012212
 30
0.0
  0
VERTEX
  5
946
  8
0
  6
CONTINUOUS
 10
784.62178865967132
 20
-3785.9877832012212
 30
0.0
  0
VERTEX
  5
947
  8
0
  6
CONTINUOUS
 10
764.47133370127995
 20
-3874.6515817660111
 30
0.0
  0
VERTEX
  5
948
  8
0
  6
CONTINUOUS
 10
733.49466507934255
 20
-3972.9183466734889
 30
0.0
  0
VERTEX
  5
949
  8
0
  6
CONTINUOUS
 10
680.28395035570406
 20
-4080.7538749167988
 30
0.0
  0
VERTEX
  5
94A
  8
0
  6
CONTINUOUS
 10
593.43135709228238
 20
-4198.1239634890944
 30
0.0
  0
VERTEX
  5
94B
  8
0
  6
CONTINUOUS
 10
593.43135709228238
 20
-4198.1239634890944
 30
0.0
  0
VERTEX
  5
94C
  8
0
  6
CONTINUOUS
 10
501.24158477014862
 20
-4291.0870889862699
 30
0.0
  0
VERTEX
  5
94D
  8
0
  6
CONTINUOUS
 10
400.17217754153529
 20
-4371.8887522686691
 30
0.0
  0
VERTEX
  5
94E
  8
0
  6
CONTINUOUS
 10
400.17217754153529
 20
-4371.8887522686691
 30
0.0
  0
VERTEX
  5
94F
  8
0
  6
CONTINUOUS
 10
301.16172935788933
 20
-4427.3260208437987
 30
0.0
  0
VERTEX
  5
950
  8
0
  6
CONTINUOUS
 10
189.59283998145841
 20
-4462.1370397872888
 30
0.0
  0
VERTEX
  5
951
  8
0
  6
CONTINUOUS
 10
189.59283998145841
 20
-4462.1370397872888
 30
0.0
  0
VERTEX
  5
952
  8
0
  6
CONTINUOUS
 10
131.87482358865941
 20
-4474.7614296327638
 30
0.0
  0
VERTEX
  5
953
  8
0
  6
CONTINUOUS
 10
51.212132351589403
 20
-4498.2363547947371
 30
0.0
  0
VERTEX
  5
954
  8
0
  6
CONTINUOUS
 10
51.212132351589403
 20
-4498.2363547947371
 30
0.0
  0
VERTEX
  5
955
  8
0
  6
CONTINUOUS
 10
25.731127717794141
 20
-4506.3244824981521
 30
0.0
  0
VERTEX
  5
956
  8
0
  6
CONTINUOUS
 10
-1.0
 20
-4510.269459797235
 30
0.0
  0
VERTEX
  5
957
  8
0
  6
CONTINUOUS
 10
-1.0
 20
-4510.269459797235
 30
0.0
  0
VERTEX
  5
958
  8
0
  6
CONTINUOUS
 10
-27.73112769397267
 20
-4506.3244824330113
 30
0.0
  0
VERTEX
  5
959
  8
0
  6
CONTINUOUS
 10
-53.21213235157483
 20
-4498.2363547947371
 30
0.0
  0
VERTEX
  5
95A
  8
0
  6
CONTINUOUS
 10
-53.21213235157483
 20
-4498.2363547947371
 30
0.0
  0
VERTEX
  5
95B
  8
0
  6
CONTINUOUS
 10
-133.87482463831839
 20
-4474.7614311986317
 30
0.0
  0
VERTEX
  5
95C
  8
0
  6
CONTINUOUS
 10
-191.5928399814438
 20
-4462.1370397872888
 30
0.0
  0
VERTEX
  5
95D
  8
0
  6
CONTINUOUS
 10
-191.5928399814438
 20
-4462.1370397872888
 30
0.0
  0
VERTEX
  5
95E
  8
0
  6
CONTINUOUS
 10
-303.16171200791712
 20
-4427.3259957375121
 30
0.0
  0
VERTEX
  5
95F
  8
0
  6
CONTINUOUS
 10
-402.17217754152068
 20
-4371.8887522686691
 30
0.0
  0
VERTEX
  5
960
  8
0
  6
CONTINUOUS
 10
-402.17217754152068
 20
-4371.8887522686691
 30
0.0
  0
VERTEX
  5
961
  8
0
  6
CONTINUOUS
 10
-503.24165776073642
 20
-4291.0871944482351
 30
0.0
  0
VERTEX
  5
962
  8
0
  6
CONTINUOUS
 10
-595.4313570922676
 20
-4198.1239634890944
 30
0.0
  0
VERTEX
  5
963
  8
0
  6
CONTINUOUS
 10
-595.4313570922676
 20
-4198.1239634890944
 30
0.0
  0
VERTEX
  5
964
  8
0
  6
CONTINUOUS
 10
-682.28340557900083
 20
-4080.7530878648031
 30
0.0
  0
VERTEX
  5
965
  8
0
  6
CONTINUOUS
 10
-735.49351616943022
 20
-3972.9166868271418
 30
0.0
  0
VERTEX
  5
966
  8
0
  6
CONTINUOUS
 10
-766.47015511311474
 20
-3874.649879048498
 30
0.0
  0
VERTEX
  5
967
  8
0
  6
CONTINUOUS
 10
-786.62178865967132
 20
-3785.9877832012212
 30
0.0
  0
VERTEX
  5
968
  8
0
  6
CONTINUOUS
 10
-786.62178865967132
 20
-3785.9877832012212
 30
0.0
  0
VERTEX
  5
969
  8
0
  6
CONTINUOUS
 10
-822.99112268685712
 20
-3627.274548803281
 30
0.0
  0
VERTEX
  5
96A
  8
0
  6
CONTINUOUS
 10
-850.40533888399648
 20
-3445.3396670775128
 30
0.0
  0
VERTEX
  5
96B
  8
0
  6
CONTINUOUS
 10
-850.40533888399648
 20
-3445.3396670775128
 30
0.0
  0
VERTEX
  5
96C
  8
0
  6
CONTINUOUS
 10
-860.85267536216975
 20
-3201.8148281941681
 30
0.0
  0
VERTEX
  5
96D
  8
0
  6
CONTINUOUS
 10
-859.43016763587354
 20
-2951.982361975693
 30
0.0
  0
VERTEX
  5
96E
  8
0
  6
CONTINUOUS
 10
-859.43016763587354
 20
-2951.982361975693
 30
0.0
  0
VERTEX
  5
96F
  8
0
  6
CONTINUOUS
 10
-852.83784269823809
 20
-2756.696584594938
 30
0.0
  0
VERTEX
  5
970
  8
0
  6
CONTINUOUS
 10
-841.07889605376124
 20
-2605.449117974415
 30
0.0
  0
VERTEX
  5
971
  8
0
  6
CONTINUOUS
 10
-841.07889605376124
 20
-2605.449117974415
 30
0.0
  0
VERTEX
  5
972
  8
0
  6
CONTINUOUS
 10
-822.02682067052217
 20
-2470.727723746189
 30
0.0
  0
VERTEX
  5
973
  8
0
  6
CONTINUOUS
 10
-791.73313085931295
 20
-2328.367416631198
 30
0.0
  0
VERTEX
  5
974
  8
0
  6
CONTINUOUS
 10
-791.73313085931295
 20
-2328.367416631198
 30
0.0
  0
VERTEX
  5
975
  8
0
  6
CONTINUOUS
 10
-748.32065227383259
 20
-2163.2842857702858
 30
0.0
  0
VERTEX
  5
976
  8
0
  6
CONTINUOUS
 10
-700.01943459639722
 20
-1993.3714648951941
 30
0.0
  0
VERTEX
  5
977
  8
0
  6
CONTINUOUS
 10
-700.01943459639722
 20
-1993.3714648951941
 30
0.0
  0
VERTEX
  5
978
  8
0
  6
CONTINUOUS
 10
-571.09586988826027
 20
-1546.6488194829351
 30
0.0
  0
VERTEX
  5
979
  8
0
  6
CONTINUOUS
 10
-482.93289032853482
 20
-1223.518645678937
 30
0.0
  0
VERTEX
  5
97A
  8
0
  6
CONTINUOUS
 10
-410.8017111352965
 20
-909.77511250125781
 30
0.0
  0
VERTEX
  5
97B
  8
0
  6
CONTINUOUS
 10
-329.97354752663517
 20
-491.2123889679786
 30
0.0
  0
VERTEX
  5
97C
  8
0
  6
CONTINUOUS
 10
-329.97354752663517
 20
-491.2123889679786
 30
0.0
  0
VERTEX
  5
97D
  8
0
  6
CONTINUOUS
 10
-287.85608212008071
 20
-258.95170928540762
 30
0.0
  0
VERTEX
  5
97E
  8
0
  6
CONTINUOUS
 10
-242.7335362586164
 20
-7.0
 30
0.0
  0
SEQEND
  5
97F
  8
0
  6
CONTINUOUS
  0
POLYLINE
  5
831
  8
0
  6
CONTINUOUS
 66
     1
 10
0.0
 20
0.0
 30
0.0
  0
VERTEX
  5
980
  8
0
  6
CONTINUOUS
 10
240.73353625863081
 20
-7.0
 30
0.0
  0
VERTEX
  5
981
  8
0
  6
CONTINUOUS
 10
264.46163230594522
 20
-277.00700843771477
 30
0.0
  0
VERTEX
  5
982
  8
0
  6
CONTINUOUS
 10
288.86595626856439
 20
-539.34480897789763
 30
0.0
  0
VERTEX
  5
983
  8
0
  6
CONTINUOUS
 10
288.86595626856439
 20
-539.34480897789763
 30
0.0
  0
VERTEX
  5
984
  8
0
  6
CONTINUOUS
 10
314.48226988021622
 20
-786.73055141018983
 30
0.0
  0
VERTEX
  5
985
  8
0
  6
CONTINUOUS
 10
341.28447014831181
 20
-1013.426816272884
 30
0.0
  0
VERTEX
  5
986
  8
0
  6
CONTINUOUS
 10
341.28447014831181
 20
-1013.426816272884
 30
0.0
  0
VERTEX
  5
987
  8
0
  6
CONTINUOUS
 10
414.36270741716709
 20
-1496.252424267673
 30
0.0
  0
VERTEX
  5
988
  8
0
  6
CONTINUOUS
 10
478.81159323859902
 20
-1841.2419236103519
 30
0.0
  0
VERTEX
  5
989
  8
0
  6
CONTINUOUS
 10
478.81159323859902
 20
-1841.2419236103519
 30
0.0
  0
VERTEX
  5
98A
  8
0
  6
CONTINUOUS
 10
502.86283615797572
 20
-1978.5376413578849
 30
0.0
  0
VERTEX
  5
98B
  8
0
  6
CONTINUOUS
 10
518.72614503829379
 20
-2115.0270305084782
 30
0.0
  0
VERTEX
  5
98C
  8
0
  6
CONTINUOUS
 10
524.30301753806998
 20
-2273.4820639018199
 30
0.0
  0
VERTEX
  5
98D
  8
0
  6
CONTINUOUS
 10
517.49495131573349
 20
-2476.674714377622
 30
0.0
  0
VERTEX
  5
98E
  8
0
  6
CONTINUOUS
 10
517.49495131573349
 20
-2476.674714377622
 30
0.0
  0
VERTEX
  5
98F
  8
0
  6
CONTINUOUS
 10
506.1615186433479
 20
-2631.652999729245
 30
0.0
  0
VERTEX
  5
990
  8
0
  6
CONTINUOUS
 10
490.42046506014572
 20
-2777.5023394397072
 30
0.0
  0
VERTEX
  5
991
  8
0
  6
CONTINUOUS
 10
490.42046506014572
 20
-2777.5023394397072
 30
0.0
  0
VERTEX
  5
992
  8
0
  6
CONTINUOUS
 10
467.52936681405089
 20
-2892.441502225091
 30
0.0
  0
VERTEX
  5
993
  8
0
  6
CONTINUOUS
 10
418.22183504526032
 20
-3012.1478869881239
 30
0.0
  0
VERTEX
  5
994
  8
0
  6
CONTINUOUS
 10
418.22183504526032
 20
-3012.1478869881239
 30
0.0
  0
VERTEX
  5
995
  8
0
  6
CONTINUOUS
 10
382.4913359160272
 20
-3074.2604477495552
 30
0.0
  0
VERTEX
  5
996
  8
0
  6
CONTINUOUS
 10
327.97354752663517
 20
-3138.4954895141932
 30
0.0
  0
VERTEX
  5
997
  8
0
  6
CONTINUOUS
 10
327.97354752663517
 20
-3138.4954895141932
 30
0.0
  0
VERTEX
  5
998
  8
0
  6
CONTINUOUS
 10
251.19963926747721
 20
-3197.7248692339049
 30
0.0
  0
VERTEX
  5
999
  8
0
  6
CONTINUOUS
 10
174.55145875117151
 20
-3246.7934345365502
 30
0.0
  0
VERTEX
  5
99A
  8
0
  6
CONTINUOUS
 10
174.55145875117151
 20
-3246.7934345365502
 30
0.0
  0
VERTEX
  5
99B
  8
0
  6
CONTINUOUS
 10
114.2685733463295
 20
-3280.9299496525341
 30
0.0
  0
VERTEX
  5
99C
  8
0
  6
CONTINUOUS
 10
80.370603226459949
 20
-3290.7778465711249
 30
0.0
  0
VERTEX
  5
99D
  8
0
  6
CONTINUOUS
 10
36.170751223427942
 20
-3294.92585454647
 30
0.0
  0
VERTEX
  5
99E
  8
0
  6
CONTINUOUS
 10
36.170751223427942
 20
-3294.92585454647
 30
0.0
  0
VERTEX
  5
99F
  8
0
  6
CONTINUOUS
 10
18.047377090755621
 20
-3295.0168904885568
 30
0.0
  0
VERTEX
  5
9A0
  8
0
  6
CONTINUOUS
 10
-1.0
 20
-3294.92585454647
 30
0.0
  0
VERTEX
  5
9A1
  8
0
  6
CONTINUOUS
 10
-1.0
 20
-3294.92585454647
 30
0.0
  0
VERTEX
  5
9A2
  8
0
  6
CONTINUOUS
 10
-20.047377090755621
 20
-3295.0168904885568
 30
0.0
  0
VERTEX
  5
9A3
  8
0
  6
CONTINUOUS
 10
-38.17075122341339
 20
-3294.92585454647
 30
0.0
  0
VERTEX
  5
9A4
  8
0
  6
CONTINUOUS
 10
-38.17075122341339
 20
-3294.92585454647
 30
0.0
  0
VERTEX
  5
9A5
  8
0
  6
CONTINUOUS
 10
-82.370603226445382
 20
-3290.7778465711249
 30
0.0
  0
VERTEX
  5
9A6
  8
0
  6
CONTINUOUS
 10
-116.2685733463148
 20
-3280.9299496525341
 30
0.0
  0
VERTEX
  5
9A7
  8
0
  6
CONTINUOUS
 10
-176.5514587511569
 20
-3246.7934345365502
 30
0.0
  0
VERTEX
  5
9A8
  8
0
  6
CONTINUOUS
 10
-176.5514587511569
 20
-3246.7934345365502
 30
0.0
  0
VERTEX
  5
9A9
  8
0
  6
CONTINUOUS
 10
-253.19963926747721
 20
-3197.7248692339049
 30
0.0
  0
VERTEX
  5
9AA
  8
0
  6
CONTINUOUS
 10
-329.97354752663517
 20
-3138.4954895141932
 30
0.0
  0
VERTEX
  5
9AB
  8
0
  6
CONTINUOUS
 10
-329.97354752663517
 20
-3138.4954895141932
 30
0.0
  0
VERTEX
  5
9AC
  8
0
  6
CONTINUOUS
 10
-384.49133591601282
 20
-3074.2604477495552
 30
0.0
  0
VERTEX
  5
9AD
  8
0
  6
CONTINUOUS
 10
-420.2218350452456
 20
-3012.1478869881239
 30
0.0
  0
VERTEX
  5
9AE
  8
0
  6
CONTINUOUS
 10
-420.2218350452456
 20
-3012.1478869881239
 30
0.0
  0
VERTEX
  5
9AF
  8
0
  6
CONTINUOUS
 10
-469.52936681403662
 20
-2892.441502225091
 30
0.0
  0
VERTEX
  5
9B0
  8
0
  6
CONTINUOUS
 10
-492.42046506014572
 20
-2777.5023394397072
 30
0.0
  0
VERTEX
  5
9B1
  8
0
  6
CONTINUOUS
 10
-492.42046506014572
 20
-2777.5023394397072
 30
0.0
  0
VERTEX
  5
9B2
  8
0
  6
CONTINUOUS
 10
-508.16151864333352
 20
-2631.652999729245
 30
0.0
  0
VERTEX
  5
9B3
  8
0
  6
CONTINUOUS
 10
-519.49495131571882
 20
-2476.674714377622
 30
0.0
  0
VERTEX
  5
9B4
  8
0
  6
CONTINUOUS
 10
-519.49495131571882
 20
-2476.674714377622
 30
0.0
  0
VERTEX
  5
9B5
  8
0
  6
CONTINUOUS
 10
-526.30301753805531
 20
-2273.4820639018199
 30
0.0
  0
VERTEX
  5
9B6
  8
0
  6
CONTINUOUS
 10
-520.72614503829368
 20
-2115.0270305084782
 30
0.0
  0
VERTEX
  5
9B7
  8
0
  6
CONTINUOUS
 10
-504.86283615796128
 20
-1978.5376413578849
 30
0.0
  0
VERTEX
  5
9B8
  8
0
  6
CONTINUOUS
 10
-480.81159323858441
 20
-1841.2419236103519
 30
0.0
  0
VERTEX
  5
9B9
  8
0
  6
CONTINUOUS
 10
-480.81159323858441
 20
-1841.2419236103519
 30
0.0
  0
VERTEX
  5
9BA
  8
0
  6
CONTINUOUS
 10
-416.36270741715271
 20
-1496.252424267673
 30
0.0
  0
VERTEX
  5
9BB
  8
0
  6
CONTINUOUS
 10
-343.2844701482972
 20
-1013.426816272884
 30
0.0
  0
VERTEX
  5
9BC
  8
0
  6
CONTINUOUS
 10
-343.2844701482972
 20
-1013.426816272884
 30
0.0
  0
VERTEX
  5
9BD
  8
0
  6
CONTINUOUS
 10
-316.48226988020178
 20
-786.73055141018983
 30
0.0
  0
VERTEX
  5
9BE
  8
0
  6
CONTINUOUS
 10
-290.86595626854961
 20
-539.34480897789763
 30
0.0
  0
VERTEX
  5
9BF
  8
0
  6
CONTINUOUS
 10
-290.86595626854961
 20
-539.34480897789763
 30
0.0
  0
VERTEX
  5
9C0
  8
0
  6
CONTINUOUS
 10
-266.46163230593078
 20
-277.00700843771477
 30
0.0
  0
VERTEX
  5
9C1
  8
0
  6
CONTINUOUS
 10
-242.7335362586164
 20
-7.0
 30
0.0
  0
SEQEND
  5
9C2
  8
0
  6
CONTINUOUS
  0
POLYLINE
  5
875
  8
0
  6
CONTINUOUS
 66
     1
 10
0.0
 20
0.0
 30
0.0
  0
VERTEX
  5
9C3
  8
0
  6
CONTINUOUS
 10
240.73353625863081
 20
-7.0
 30
0.0
  0
VERTEX
  5
9C4
  8
0
  6
CONTINUOUS
 10
245.05236925381169
 20
-176.65135540576739
 30
0.0
  0
VERTEX
  5
9C5
  8
0
  6
CONTINUOUS
 10
249.75836501050799
 20
-346.8151289381712
 30
0.0
  0
VERTEX
  5
9C6
  8
0
  6
CONTINUOUS
 10
249.75836501050799
 20
-346.8151289381712
 30
0.0
  0
VERTEX
  5
9C7
  8
0
  6
CONTINUOUS
 10
254.8515235286759
 20
-516.37822792596126
 30
0.0
  0
VERTEX
  5
9C8
  8
0
  6
CONTINUOUS
 10
258.78319376235601
 20
-677.72551650644891
 30
0.0
  0
VERTEX
  5
9C9
  8
0
  6
CONTINUOUS
 10
258.78319376235601
 20
-677.72551650644891
 30
0.0
  0
VERTEX
  5
9CA
  8
0
  6
CONTINUOUS
 10
260.79017841872701
 20
-827.33630030239135
 30
0.0
  0
VERTEX
  5
9CB
  8
0
  6
CONTINUOUS
 10
264.79974626361218
 20
-984.56969406975963
 30
0.0
  0
VERTEX
  5
9CC
  8
0
  6
CONTINUOUS
 10
264.79974626361218
 20
-984.56969406975963
 30
0.0
  0
VERTEX
  5
9CD
  8
0
  6
CONTINUOUS
 10
271.60847928028647
 20
-1174.699445720893
 30
0.0
  0
VERTEX
  5
9CE
  8
0
  6
CONTINUOUS
 10
264.79974626361218
 20
-1423.778026660372
 30
0.0
  0
VERTEX
  5
9CF
  8
0
  6
CONTINUOUS
 10
264.79974626361218
 20
-1423.778026660372
 30
0.0
  0
VERTEX
  5
9D0
  8
0
  6
CONTINUOUS
 10
253.99937374514391
 20
-1544.5159043493391
 30
0.0
  0
VERTEX
  5
9D1
  8
0
  6
CONTINUOUS
 10
237.72526000801011
 20
-1682.48978421378
 30
0.0
  0
VERTEX
  5
9D2
  8
0
  6
CONTINUOUS
 10
237.72526000801011
 20
-1682.48978421378
 30
0.0
  0
VERTEX
  5
9D3
  8
0
  6
CONTINUOUS
 10
224.22700602946861
 20
-1750.3586118322639
 30
0.0
  0
VERTEX
  5
9D4
  8
0
  6
CONTINUOUS
 10
207.9889457551181
 20
-1791.0007850013119
 30
0.0
  0
VERTEX
  5
9D5
  8
0
  6
CONTINUOUS
 10
180.56801124622851
 20
-1838.920149246049
 30
0.0
  0
VERTEX
  5
9D6
  8
0
  6
CONTINUOUS
 10
180.56801124622851
 20
-1838.920149246049
 30
0.0
  0
VERTEX
  5
9D7
  8
0
  6
CONTINUOUS
 10
148.40881600034481
 20
-1882.892062127909
 30
0.0
  0
VERTEX
  5
9D8
  8
0
  6
CONTINUOUS
 10
113.8084095101802
 20
-1918.007799756989
 30
0.0
  0
VERTEX
  5
9D9
  8
0
  6
CONTINUOUS
 10
113.8084095101802
 20
-1918.007799756989
 30
0.0
  0
VERTEX
  5
9DA
  8
0
  6
CONTINUOUS
 10
80.496254503741497
 20
-1935.564444745082
 30
0.0
  0
VERTEX
  5
9DB
  8
0
  6
CONTINUOUS
 10
36.170751216428471
 20
-1953.234646769625
 30
0.0
  0
VERTEX
  5
9DC
  8
0
  6
CONTINUOUS
 10
36.170751216428471
 20
-1953.234646769625
 30
0.0
  0
VERTEX
  5
9DD
  8
0
  6
CONTINUOUS
 10
18.2229338481993
 20
-1961.2229593708471
 30
0.0
  0
VERTEX
  5
9DE
  8
0
  6
CONTINUOUS
 10
-1.0
 20
-1965.267751772109
 30
0.0
  0
VERTEX
  5
9DF
  8
0
  6
CONTINUOUS
 10
-1.0
 20
-1965.267751772109
 30
0.0
  0
VERTEX
  5
9E0
  8
0
  6
CONTINUOUS
 10
-20.222933848199311
 20
-1961.2229593708471
 30
0.0
  0
VERTEX
  5
9E1
  8
0
  6
CONTINUOUS
 10
-38.170751216413919
 20
-1953.234646769625
 30
0.0
  0
VERTEX
  5
9E2
  8
0
  6
CONTINUOUS
 10
-38.170751216413919
 20
-1953.234646769625
 30
0.0
  0
VERTEX
  5
9E3
  8
0
  6
CONTINUOUS
 10
-82.496254503741525
 20
-1935.564444745082
 30
0.0
  0
VERTEX
  5
9E4
  8
0
  6
CONTINUOUS
 10
-115.8084095101657
 20
-1918.007799756989
 30
0.0
  0
VERTEX
  5
9E5
  8
0
  6
CONTINUOUS
 10
-115.8084095101657
 20
-1918.007799756989
 30
0.0
  0
VERTEX
  5
9E6
  8
0
  6
CONTINUOUS
 10
-150.40881600033001
 20
-1882.892062127909
 30
0.0
  0
VERTEX
  5
9E7
  8
0
  6
CONTINUOUS
 10
-182.5680112462141
 20
-1838.920149246049
 30
0.0
  0
VERTEX
  5
9E8
  8
0
  6
CONTINUOUS
 10
-182.5680112462141
 20
-1838.920149246049
 30
0.0
  0
VERTEX
  5
9E9
  8
0
  6
CONTINUOUS
 10
-209.9889457551034
 20
-1791.0007850013119
 30
0.0
  0
VERTEX
  5
9EA
  8
0
  6
CONTINUOUS
 10
-226.227006029454
 20
-1750.3586118322639
 30
0.0
  0
VERTEX
  5
9EB
  8
0
  6
CONTINUOUS
 10
-239.72526000799539
 20
-1682.48978421378
 30
0.0
  0
VERTEX
  5
9EC
  8
0
  6
CONTINUOUS
 10
-239.72526000799539
 20
-1682.48978421378
 30
0.0
  0
VERTEX
  5
9ED
  8
0
  6
CONTINUOUS
 10
-255.9993737451295
 20
-1544.5159043493391
 30
0.0
  0
VERTEX
  5
9EE
  8
0
  6
CONTINUOUS
 10
-266.79974626359763
 20
-1423.778026660372
 30
0.0
  0
VERTEX
  5
9EF
  8
0
  6
CONTINUOUS
 10
-266.79974626359763
 20
-1423.778026660372
 30
0.0
  0
VERTEX
  5
9F0
  8
0
  6
CONTINUOUS
 10
-273.60847928028647
 20
-1174.699445720893
 30
0.0
  0
VERTEX
  5
9F1
  8
0
  6
CONTINUOUS
 10
-266.79974626359763
 20
-984.56969406975963
 30
0.0
  0
VERTEX
  5
9F2
  8
0
  6
CONTINUOUS
 10
-266.79974626359763
 20
-984.56969406975963
 30
0.0
  0
VERTEX
  5
9F3
  8
0
  6
CONTINUOUS
 10
-262.79017841872701
 20
-827.33630030239135
 30
0.0
  0
VERTEX
  5
9F4
  8
0
  6
CONTINUOUS
 10
-260.7831937623414
 20
-677.72551650644891
 30
0.0
  0
VERTEX
  5
9F5
  8
0
  6
CONTINUOUS
 10
-260.7831937623414
 20
-677.72551650644891
 30
0.0
  0
VERTEX
  5
9F6
  8
0
  6
CONTINUOUS
 10
-256.85152352866112
 20
-516.37822792596126
 30
0.0
  0
VERTEX
  5
9F7
  8
0
  6
CONTINUOUS
 10
-251.75836501049341
 20
-346.8151289381712
 30
0.0
  0
VERTEX
  5
9F8
  8
0
  6
CONTINUOUS
 10
-251.75836501049341
 20
-346.8151289381712
 30
0.0
  0
VERTEX
  5
9F9
  8
0
  6
CONTINUOUS
 10
-247.052369253797
 20
-176.65135540576739
 30
0.0
  0
VERTEX
  5
9FA
  8
0
  6
CONTINUOUS
 10
-242.7335362586164
 20
-7.0
 30
0.0
  0
SEQEND
  5
9FB
  8
0
  6
CONTINUOUS
  0
POLYLINE
  5
8AF
  8
0
  6
CONTINUOUS
 66
     1
 10
0.0
 20
0.0
 30
0.0
  0
VERTEX
  5
9FC
  8
0
  6
CONTINUOUS
 10
240.65771613223399
 20
-6.5241597309095161
 30
0.0
  0
VERTEX
  5
9FD
  8
0
  6
CONTINUOUS
 10
233.76839708173051
 20
-183.5685257510267
 30
0.0
  0
VERTEX
  5
9FE
  8
0
  6
CONTINUOUS
 10
228.70043125616209
 20
-352.83168143942009
 30
0.0
  0
VERTEX
  5
9FF
  8
0
  6
CONTINUOUS
 10
228.70043125616209
 20
-352.83168143942009
 30
0.0
  0
VERTEX
  5
A00
  8
0
  6
CONTINUOUS
 10
220.87992724055951
 20
-522.62451473795215
 30
0.0
  0
VERTEX
  5
A01
  8
0
  6
CONTINUOUS
 10
207.0289902389776
 20
-761.34374426098623
 30
0.0
  0
VERTEX
  5
A02
  8
0
  6
CONTINUOUS
 10
207.0289902389776
 20
-761.34374426098623
 30
0.0
  0
VERTEX
  5
A03
  8
0
  6
CONTINUOUS
 10
201.52428120146209
 20
-835.53246526137059
 30
0.0
  0
VERTEX
  5
A04
  8
0
  6
CONTINUOUS
 10
190.00063674492401
 20
-906.70928173716675
 30
0.0
  0
VERTEX
  5
A05
  8
0
  6
CONTINUOUS
 10
190.00063674492401
 20
-906.70928173716675
 30
0.0
  0
VERTEX
  5
A06
  8
0
  6
CONTINUOUS
 10
169.17189988429891
 20
-966.61171085748356
 30
0.0
  0
VERTEX
  5
A07
  8
0
  6
CONTINUOUS
 10
144.46869623877859
 20
-1020.6690090772011
 30
0.0
  0
VERTEX
  5
A08
  8
0
  6
CONTINUOUS
 10
144.46869623877859
 20
-1020.6690090772011
 30
0.0
  0
VERTEX
  5
A09
  8
0
  6
CONTINUOUS
 10
118.9738185460883
 20
-1073.563857874504
 30
0.0
  0
VERTEX
  5
A0A
  8
0
  6
CONTINUOUS
 10
101.5170282802281
 20
-1096.087408816448
 30
0.0
  0
VERTEX
  5
A0B
  8
0
  6
CONTINUOUS
 10
77.661945413856301
 20
-1113.300899535177
 30
0.0
  0
VERTEX
  5
A0C
  8
0
  6
CONTINUOUS
 10
77.661945413856301
 20
-1113.300899535177
 30
0.0
  0
VERTEX
  5
A0D
  8
0
  6
CONTINUOUS
 10
54.716158517941942
 20
-1122.456597183306
 30
0.0
  0
VERTEX
  5
A0E
  8
0
  6
CONTINUOUS
 10
21.12936996332428
 20
-1134.983506600802
 30
0.0
  0
VERTEX
  5
A0F
  8
0
  6
CONTINUOUS
 10
21.12936996332428
 20
-1134.983506600802
 30
0.0
  0
VERTEX
  5
A10
  8
0
  6
CONTINUOUS
 10
10.333481436246061
 20
-1139.036960672782
 30
0.0
  0
VERTEX
  5
A11
  8
0
  6
CONTINUOUS
 10
-1.0
 20
-1141.000059102035
 30
0.0
  0
VERTEX
  5
A12
  8
0
  6
CONTINUOUS
 10
-1.0
 20
-1141.000059102035
 30
0.0
  0
VERTEX
  5
A13
  8
0
  6
CONTINUOUS
 10
-12.333481436246061
 20
-1139.036960672782
 30
0.0
  0
VERTEX
  5
A14
  8
0
  6
CONTINUOUS
 10
-23.129369963309731
 20
-1134.983506600802
 30
0.0
  0
VERTEX
  5
A15
  8
0
  6
CONTINUOUS
 10
-23.129369963309731
 20
-1134.983506600802
 30
0.0
  0
VERTEX
  5
A16
  8
0
  6
CONTINUOUS
 10
-56.716158517927397
 20
-1122.456597183306
 30
0.0
  0
VERTEX
  5
A17
  8
0
  6
CONTINUOUS
 10
-79.661945413856301
 20
-1113.300899535177
 30
0.0
  0
VERTEX
  5
A18
  8
0
  6
CONTINUOUS
 10
-79.661945413856301
 20
-1113.300899535177
 30
0.0
  0
VERTEX
  5
A19
  8
0
  6
CONTINUOUS
 10
-103.51702828021349
 20
-1096.087408816448
 30
0.0
  0
VERTEX
  5
A1A
  8
0
  6
CONTINUOUS
 10
-120.9738185460883
 20
-1073.563857874504
 30
0.0
  0
VERTEX
  5
A1B
  8
0
  6
CONTINUOUS
 10
-146.4686962387641
 20
-1020.6690090772011
 30
0.0
  0
VERTEX
  5
A1C
  8
0
  6
CONTINUOUS
 10
-146.4686962387641
 20
-1020.6690090772011
 30
0.0
  0
VERTEX
  5
A1D
  8
0
  6
CONTINUOUS
 10
-171.1718998842841
 20
-966.61171085748356
 30
0.0
  0
VERTEX
  5
A1E
  8
0
  6
CONTINUOUS
 10
-192.00063674490951
 20
-906.70928173716675
 30
0.0
  0
VERTEX
  5
A1F
  8
0
  6
CONTINUOUS
 10
-192.00063674490951
 20
-906.70928173716675
 30
0.0
  0
VERTEX
  5
A20
  8
0
  6
CONTINUOUS
 10
-203.52428120144751
 20
-835.53246526137059
 30
0.0
  0
VERTEX
  5
A21
  8
0
  6
CONTINUOUS
 10
-209.02899023896319
 20
-761.34374426098623
 30
0.0
  0
VERTEX
  5
A22
  8
0
  6
CONTINUOUS
 10
-209.02899023896319
 20
-761.34374426098623
 30
0.0
  0
VERTEX
  5
A23
  8
0
  6
CONTINUOUS
 10
-222.8799272405449
 20
-522.62451473795215
 30
0.0
  0
VERTEX
  5
A24
  8
0
  6
CONTINUOUS
 10
-230.70043125614751
 20
-352.83168143942009
 30
0.0
  0
VERTEX
  5
A25
  8
0
  6
CONTINUOUS
 10
-230.70043125614751
 20
-352.83168143942009
 30
0.0
  0
VERTEX
  5
A26
  8
0
  6
CONTINUOUS
 10
-235.76839708171599
 20
-183.5685257510267
 30
0.0
  0
VERTEX
  5
A27
  8
0
  6
CONTINUOUS
 10
-242.63837321753871
 20
-6.4686361240807422
 30
0.0
  0
SEQEND
  5
A28
  8
0
  6
CONTINUOUS
  0
ENDSEC
  0
EOF
