  0
SECTION
  2
HEADER
  9
$ACADVER
  1
AC1009
  9
$INSBASE
 10
0.0
 20
0.0
 30
0.0
  9
$EXTMIN
 10
-131.0268577000779
 20
-496.28213263751331
 30
-0.0015258207003583
  9
$EXTMAX
 10
131.02685892028759
 20
19.31573503830532
 30
0.0000000349246037
  9
$LIMMIN
 10
0.0
 20
0.0
  9
$LIMMAX
 10
12.0
 20
9.0
  9
$ORTHOMODE
 70
     0
  9
$REGENMODE
 70
     1
  9
$FILLMODE
 70
     1
  9
$QTEXTMODE
 70
     0
  9
$MIRRTEXT
 70
     1
  9
$DRAGMODE
 70
     2
  9
$LTSCALE
 40
1.0
  9
$OSMODE
 70
  3071
  9
$ATTMODE
 70
     1
  9
$TEXTSIZE
 40
3.2000000476837149
  9
$TRACEWID
 40
0.05
  9
$TEXTSTYLE
  7
STANDARD1
  9
$CLAYER
  8
0
  9
$CELTYPE
  6
CONTINUOUS
  9
$CECOLOR
 62
   256
  9
$DIMSCALE
 40
1.0
  9
$DIMASZ
 40
1.931851648807023
  9
$DIMEXO
 40
1.0
  9
$DIMDLI
 40
0.38
  9
$DIMRND
 40
0.0
  9
$DIMDLE
 40
0.0
  9
$DIMEXE
 40
2.0
  9
$DIMTP
 40
0.0
  9
$DIMTM
 40
0.0
  9
$DIMTXT
 40
2.0
  9
$DIMCEN
 40
0.09
  9
$DIMTSZ
 40
0.0
  9
$DIMTOL
 70
     0
  9
$DIMLIM
 70
     0
  9
$DIMTIH
 70
     1
  9
$DIMTOH
 70
     1
  9
$DIMSE1
 70
     0
  9
$DIMSE2
 70
     0
  9
$DIMTAD
 70
     1
  9
$DIMZIN
 70
     0
  9
$DIMBLK
  1

  9
$DIMASO
 70
     1
  9
$DIMSHO
 70
     1
  9
$DIMPOST
  1

  9
$DIMAPOST
  1

  9
$DIMALT
 70
     0
  9
$DIMALTD
 70
     2
  9
$DIMALTF
 40
25.399999999999999
  9
$DIMLFAC
 40
10.0
  9
$DIMTOFL
 70
     0
  9
$DIMTVP
 40
0.0
  9
$DIMTIX
 70
     0
  9
$DIMSOXD
 70
     0
  9
$DIMSAH
 70
     0
  9
$DIMBLK1
  1

  9
$DIMBLK2
  1

  9
$DIMSTYLE
  2
STANDARD
  9
$DIMCLRD
 70
     0
  9
$DIMCLRE
 70
     0
  9
$DIMCLRT
 70
     0
  9
$DIMTFAC
 40
0.625
  9
$DIMGAP
 40
0.09
  9
$LUNITS
 70
     2
  9
$LUPREC
 70
     3
  9
$SKETCHINC
 40
0.1
  9
$FILLETRAD
 40
0.0
  9
$AUNITS
 70
     0
  9
$AUPREC
 70
     0
  9
$MENU
  1
.
  9
$ELEVATION
 40
0.0
  9
$PELEVATION
 40
0.0
  9
$THICKNESS
 40
0.0
  9
$LIMCHECK
 70
     0
  9
$BLIPMODE
 70
     0
  9
$CHAMFERA
 40
0.0
  9
$CHAMFERB
 40
0.0
  9
$SKPOLY
 70
     0
  9
$TDCREATE
 40
2452723.4802515521
  9
$TDUPDATE
 40
2454284.5530361352
  9
$TDINDWG
 40
0.1306323727
  9
$TDUSRTIMER
 40
0.130614838
  9
$USRTIMER
 70
     1
  9
$ANGBASE
 50
0.0
  9
$ANGDIR
 70
     0
  9
$PDMODE
 70
     0
  9
$PDSIZE
 40
0.0
  9
$PLINEWID
 40
0.0
  9
$COORDS
 70
     1
  9
$SPLFRAME
 70
     0
  9
$SPLINETYPE
 70
     6
  9
$SPLINESEGS
 70
     8
  9
$ATTDIA
 70
     0
  9
$ATTREQ
 70
     1
  9
$HANDLING
 70
     1
  9
$HANDSEED
  5
1740
  9
$SURFTAB1
 70
     6
  9
$SURFTAB2
 70
     6
  9
$SURFTYPE
 70
     6
  9
$SURFU
 70
     6
  9
$SURFV
 70
     6
  9
$UCSNAME
  2

  9
$UCSORG
 10
0.0
 20
0.0
 30
0.0
  9
$UCSXDIR
 10
1.0
 20
0.0
 30
0.0
  9
$UCSYDIR
 10
0.0
 20
1.0
 30
0.0
  9
$PUCSNAME
  2

  9
$PUCSORG
 10
0.0
 20
0.0
 30
0.0
  9
$PUCSXDIR
 10
1.0
 20
0.0
 30
0.0
  9
$PUCSYDIR
 10
0.0
 20
1.0
 30
0.0
  9
$USERI1
 70
     0
  9
$USERI2
 70
     0
  9
$USERI3
 70
     0
  9
$USERI4
 70
     0
  9
$USERI5
 70
     0
  9
$USERR1
 40
0.0
  9
$USERR2
 40
0.0
  9
$USERR3
 40
0.0
  9
$USERR4
 40
0.0
  9
$USERR5
 40
0.0
  9
$WORLDVIEW
 70
     1
  9
$SHADEDGE
 70
     3
  9
$SHADEDIF
 70
    70
  9
$TILEMODE
 70
     1
  9
$MAXACTVP
 70
    64
  9
$PLIMCHECK
 70
     0
  9
$PEXTMIN
 10
1.0000000000000000E+020
 20
1.0000000000000000E+020
 30
1.0000000000000000E+020
  9
$PEXTMAX
 10
-1.0000000000000000E+020
 20
-1.0000000000000000E+020
 30
-1.0000000000000000E+020
  9
$PLIMMIN
 10
0.0
 20
0.0
  9
$PLIMMAX
 10
12.0
 20
9.0
  9
$UNITMODE
 70
     0
  9
$VISRETAIN
 70
     1
  9
$PLINEGEN
 70
     0
  9
$PSLTSCALE
 70
     1
  0
ENDSEC
  0
SECTION
  2
TABLES
  0
TABLE
  2
VPORT
 70
     1
  0
VPORT
  2
*ACTIVE
 70
     0
 10
0.0
 20
0.0
 11
1.0
 21
1.0
 12
0.0000006101047916
 22
-238.483198799604
 13
0.0
 23
0.0
 14
1.0
 24
1.0
 15
0.0
 25
0.0
 16
0.0
 26
0.0
 36
1.0
 17
0.0
 27
0.0
 37
0.0
 40
520.02360044556815
 41
1.6704871060171911
 42
50.0
 43
0.0
 44
0.0
 50
0.0
 51
0.0
 71
     0
 72
   100
 73
     1
 74
     1
 75
     0
 76
     0
 77
     0
 78
     0
  0
ENDTAB
  0
TABLE
  2
LTYPE
 70
     4
  0
LTYPE
  2
CONTINUOUS
 70
     0
  3
Solid line
 72
    65
 73
     0
 40
0.0
  0
LTYPE
  2
DASHED
 70
     0
  3
-- -- -- -- -- -- -- -- -- -- -- -- -- -- --
 72
    65
 73
     2
 40
0.75
 49
0.5
 49
-0.25
  0
LTYPE
  2
DASHDOT
 70
     0
  3
__ . __ . __ . __ . __ . __ . __ . __ . __ . __
 72
    65
 73
     4
 40
1.0
 49
0.5
 49
-0.25
 49
0.0
 49
-0.25
  0
LTYPE
  2
DIVIDE
 70
     0
  3
__ . . __ . . __ . . __ . . __ . . __ . . __
 72
    65
 73
     6
 40
1.25
 49
0.5
 49
-0.25
 49
0.0
 49
-0.25
 49
0.0
 49
-0.25
  0
ENDTAB
  0
TABLE
  2
LAYER
 70
     2
  0
LAYER
  2
0
 70
     0
 62
     7
  6
CONTINUOUS
  0
LAYER
  2
DEFPOINTS
 70
     0
 62
     7
  6
CONTINUOUS
  0
ENDTAB
  0
TABLE
  2
STYLE
 70
     5
  0
STYLE
  2
STANDARD
 70
     0
 40
0.0
 41
1.0
 50
0.0
 71
     0
 42
0.2
  3
txt
  4

  0
STYLE
  2
STANDARD1
 70
     0
 40
0.0
 41
1.0
 50
0.0
 71
     0
 42
3.2000000476837149
  3
MONOTXT
  4
BIGFONT
  0
STYLE
  2
STANDARD2
 70
     4
 40
0.0
 41
1.0
 50
0.0
 71
     0
 42
3.2000000476837149
  3
MONOTXT
  4
BIGFONT
  0
STYLE
  2
STANDARD3
 70
     0
 40
0.0
 41
1.0
 50
0.0
 71
     0
 42
3.2000000476837149
  3
MONOTXT
  4

  0
STYLE
  2
STANDARD4
 70
     4
 40
0.0
 41
1.0
 50
0.0
 71
     0
 42
3.2000000476837149
  3
MONOTXT
  4

  0
ENDTAB
  0
TABLE
  2
VIEW
 70
     0
  0
ENDTAB
  0
TABLE
  2
UCS
 70
     0
  0
ENDTAB
  0
TABLE
  2
APPID
 70
     1
  0
APPID
  2
ACAD
 70
     0
  0
ENDTAB
  0
TABLE
  2
DIMSTYLE
 70
     1
  0
DIMSTYLE
  2
STANDARD
 70
     0
  3

  4

  5

  6

  7

 40
1.0
 41
0.18
 42
0.0625
 43
0.38
 44
0.18
 45
0.0
 46
0.0
 47
0.0
 48
0.0
140
0.18
141
0.09
142
0.0
143
25.399999999999999
144
1.0
145
0.0
146
1.0
147
0.09
 71
     0
 72
     0
 73
     1
 74
     1
 75
     0
 76
     0
 77
     0
 78
     0
170
     0
171
     2
172
     0
173
     0
174
     0
175
     0
176
     0
177
     0
178
     0
  0
ENDTAB
  0
ENDSEC
  0
SECTION
  2
BLOCKS
  0
BLOCK
  8
0
  2
$MODEL_SPACE
 70
     0
 10
0.0
 20
0.0
 30
0.0
  3
$MODEL_SPACE
  1

  0
ENDBLK
  5
1273
  8
0
  0
BLOCK
 67
     1
  8
0
  2
$PAPER_SPACE
 70
     0
 10
0.0
 20
0.0
 30
0.0
  3
$PAPER_SPACE
  1

  0
ENDBLK
  5
126F
 67
     1
  8
0
  0
BLOCK
  8
0
  2
A$C0DCE74DC
 70
     0
 10
0.0
 20
0.0
 30
0.0
  3
A$C0DCE74DC
  1

  0
POLYLINE
  5
44B
  8
0
  6
CONTINUOUS
 66
     1
 10
0.0
 20
0.0
 30
0.0
  0
VERTEX
  5
129D
  8
0
  6
CONTINUOUS
 10
-289.6721186087658
 20
3.7766067386907798
 30
0.0
  0
VERTEX
  5
129E
  8
0
  6
CONTINUOUS
 10
-269.17278315711081
 20
-164.48365390275839
 30
0.0
  0
VERTEX
  5
129F
  8
0
  6
CONTINUOUS
 10
-247.0269924953337
 20
-348.03120324021592
 30
0.0
  0
VERTEX
  5
12A0
  8
0
  6
CONTINUOUS
 10
-247.0269924953337
 20
-348.03120324021592
 30
0.0
  0
VERTEX
  5
12A1
  8
0
  6
CONTINUOUS
 10
-242.44321858344691
 20
-386.90221946622182
 30
0.0
  0
VERTEX
  5
12A2
  8
0
  6
CONTINUOUS
 10
-237.6518540448908
 20
-430.95936654022353
 30
0.0
  0
VERTEX
  5
12A3
  8
0
  6
CONTINUOUS
 10
-235.15127682972931
 20
-456.20221391789971
 30
0.0
  0
VERTEX
  5
12A4
  8
0
  6
CONTINUOUS
 10
-232.56634380484181
 20
-484.26496373478801
 30
0.0
  0
VERTEX
  5
12A5
  8
0
  6
CONTINUOUS
 10
-229.8862355858754
 20
-515.65540589995965
 30
0.0
  0
VERTEX
  5
12A6
  8
0
  6
CONTINUOUS
 10
-227.10013278847691
 20
-550.88133032248493
 30
0.0
  0
VERTEX
  5
12A7
  8
0
  6
CONTINUOUS
 10
-227.10013278847691
 20
-550.88133032248493
 30
0.0
  0
VERTEX
  5
12A8
  8
0
  6
CONTINUOUS
 10
-223.4640820822888
 20
-599.98554780294569
 30
0.0
  0
VERTEX
  5
12A9
  8
0
  6
CONTINUOUS
 10
-219.923677122257
 20
-647.13958455855732
 30
0.0
  0
VERTEX
  5
12AA
  8
0
  6
CONTINUOUS
 10
-219.923677122257
 20
-647.13958455855732
 30
0.0
  0
VERTEX
  5
12AB
  8
0
  6
CONTINUOUS
 10
-218.2989038222255
 20
-667.84922108850674
 30
0.0
  0
VERTEX
  5
12AC
  8
0
  6
CONTINUOUS
 10
-216.93250760092889
 20
-688.57000846537539
 30
0.0
  0
VERTEX
  5
12AD
  8
0
  6
CONTINUOUS
 10
-216.39744502732279
 20
-699.78392000542203
 30
0.0
  0
VERTEX
  5
12AE
  8
0
  6
CONTINUOUS
 10
-215.9884696824202
 20
-712.01982279802019
 30
0.0
  0
VERTEX
  5
12AF
  8
0
  6
CONTINUOUS
 10
-215.72607921922781
 20
-725.61745135677711
 30
0.0
  0
VERTEX
  5
12B0
  8
0
  6
CONTINUOUS
 10
-215.63077129075199
 20
-740.9165401952996
 30
0.0
  0
VERTEX
  5
12B1
  8
0
  6
CONTINUOUS
 10
-215.63077129075199
 20
-740.9165401952996
 30
0.0
  0
VERTEX
  5
12B2
  8
0
  6
CONTINUOUS
 10
-215.70681489750359
 20
-755.82214911234075
 30
0.0
  0
VERTEX
  5
12B3
  8
0
  6
CONTINUOUS
 10
-215.977205629163
 20
-771.55683990445561
 30
0.0
  0
VERTEX
  5
12B4
  8
0
  6
CONTINUOUS
 10
-216.4923674753183
 20
-787.3835634068281
 30
0.0
  0
VERTEX
  5
12B5
  8
0
  6
CONTINUOUS
 10
-217.30272442555679
 20
-802.5652704546402
 30
0.0
  0
VERTEX
  5
12B6
  8
0
  6
CONTINUOUS
 10
-217.30272442555679
 20
-802.5652704546402
 30
0.0
  0
VERTEX
  5
12B7
  8
0
  6
CONTINUOUS
 10
-218.41229944504789
 20
-816.58994593909529
 30
0.0
  0
VERTEX
  5
12B8
  8
0
  6
CONTINUOUS
 10
-219.63951140128779
 20
-829.84571097548223
 30
0.0
  0
VERTEX
  5
12B9
  8
0
  6
CONTINUOUS
 10
-220.7563781373544
 20
-842.94572073510972
 30
0.0
  0
VERTEX
  5
12BA
  8
0
  6
CONTINUOUS
 10
-221.5349174963261
 20
-856.50313038928743
 30
0.0
  0
VERTEX
  5
12BB
  8
0
  6
CONTINUOUS
 10
-221.5349174963261
 20
-856.50313038928743
 30
0.0
  0
VERTEX
  5
12BC
  8
0
  6
CONTINUOUS
 10
-221.9899572456454
 20
-871.1829182495195
 30
0.0
  0
VERTEX
  5
12BD
  8
0
  6
CONTINUOUS
 10
-222.3891352291941
 20
-879.21304970823223
 30
0.0
  0
VERTEX
  5
12BE
  8
0
  6
CONTINUOUS
 10
-223.10756485021349
 20
-887.85735518808872
 30
0.0
  0
VERTEX
  5
12BF
  8
0
  6
CONTINUOUS
 10
-224.29885578236139
 20
-897.23134644064953
 30
0.0
  0
VERTEX
  5
12C0
  8
0
  6
CONTINUOUS
 10
-226.1166176992964
 20
-907.45053521747343
 30
0.0
  0
VERTEX
  5
12C1
  8
0
  6
CONTINUOUS
 10
-227.30842830007731
 20
-912.91317609984685
 30
0.0
  0
VERTEX
  5
12C2
  8
0
  6
CONTINUOUS
 10
-228.7144602746767
 20
-918.63043327012065
 30
0.0
  0
VERTEX
  5
12C3
  8
0
  6
CONTINUOUS
 10
-230.3539148323018
 20
-924.61674569724039
 30
0.0
  0
VERTEX
  5
12C4
  8
0
  6
CONTINUOUS
 10
-232.2459931821603
 20
-930.88655235015108
 30
0.0
  0
VERTEX
  5
12C5
  8
0
  6
CONTINUOUS
 10
-232.2459931821603
 20
-930.88655235015108
 30
0.0
  0
VERTEX
  5
12C6
  8
0
  6
CONTINUOUS
 10
-236.89170887803641
 20
-944.84629467450372
 30
0.0
  0
VERTEX
  5
12C7
  8
0
  6
CONTINUOUS
 10
-239.27117600938161
 20
-951.97652605349299
 30
0.0
  0
VERTEX
  5
12C8
  8
0
  6
CONTINUOUS
 10
-241.4784541999781
 20
-959.02400660639069
 30
0.0
  0
VERTEX
  5
12C9
  8
0
  6
CONTINUOUS
 10
-241.4784541999781
 20
-959.02400660639069
 30
0.0
  0
VERTEX
  5
12CA
  8
0
  6
CONTINUOUS
 10
-243.51064012962161
 20
-965.96526730888615
 30
0.0
  0
VERTEX
  5
12CB
  8
0
  6
CONTINUOUS
 10
-246.3513471538854
 20
-972.37651029083202
 30
0.0
  0
VERTEX
  5
12CC
  8
0
  6
CONTINUOUS
 10
-250.82398515154719
 20
-979.70582000939271
 30
0.0
  0
VERTEX
  5
12CD
  8
0
  6
CONTINUOUS
 10
-254.67544608339449
 20
-984.83458221576461
 30
0.0
  0
VERTEX
  5
12CE
  8
0
  6
CONTINUOUS
 10
-261.4725315409724
 20
-990.20475900619999
 30
0.0
  0
VERTEX
  5
12CF
  8
0
  6
CONTINUOUS
 10
-269.2718420883985
 20
-993.92153291900161
 30
0.0
  0
VERTEX
  5
12D0
  8
0
  6
CONTINUOUS
 10
-277.55724489175748
 20
-995.58143675953636
 30
0.0
  0
VERTEX
  5
12D1
  8
0
  6
CONTINUOUS
 10
-277.55724489175748
 20
-995.58143675953636
 30
0.0
  0
VERTEX
  5
12D2
  8
0
  6
CONTINUOUS
 10
-289.0845749379597
 20
-996.01559399550433
 30
0.0
  0
VERTEX
  5
12D3
  8
0
  6
CONTINUOUS
 10
-302.1721186087658
 20
-996.22339326130896
 30
0.0
  0
SEQEND
  5
12D4
  8
0
  6
CONTINUOUS
  0
POLYLINE
  5
44C
  8
0
  6
CONTINUOUS
 66
     1
 10
0.0
 20
0.0
 30
0.0
  0
VERTEX
  5
12D5
  8
0
  6
CONTINUOUS
 10
-62.499999999999929
 20
-0.0000000000000004
 30
0.0
  0
VERTEX
  5
12D6
  8
0
  6
CONTINUOUS
 10
-65.961798884418442
 20
-82.452168228651544
 30
0.0
  0
VERTEX
  5
12D7
  8
0
  6
CONTINUOUS
 10
-69.038134912473964
 20
-153.5172099571331
 30
0.0
  0
VERTEX
  5
12D8
  8
0
  6
CONTINUOUS
 10
-69.038134912473964
 20
-153.5172099571331
 30
0.0
  0
VERTEX
  5
12D9
  8
0
  6
CONTINUOUS
 10
-71.548229095948543
 20
-207.22612628461039
 30
0.0
  0
VERTEX
  5
12DA
  8
0
  6
CONTINUOUS
 10
-74.130037919204625
 20
-259.28242870758947
 30
0.0
  0
VERTEX
  5
12DB
  8
0
  6
CONTINUOUS
 10
-74.130037919204625
 20
-259.28242870758947
 30
0.0
  0
VERTEX
  5
12DC
  8
0
  6
CONTINUOUS
 10
-77.506282250511262
 20
-325.61558401726319
 30
0.0
  0
VERTEX
  5
12DD
  8
0
  6
CONTINUOUS
 10
-79.575763615484902
 20
-362.94823526508731
 30
0.0
  0
VERTEX
  5
12DE
  8
0
  6
CONTINUOUS
 10
-81.920005021185062
 20
-401.38636978622691
 30
0.0
  0
VERTEX
  5
12DF
  8
0
  6
CONTINUOUS
 10
-81.920005021185062
 20
-401.38636978622691
 30
0.0
  0
VERTEX
  5
12E0
  8
0
  6
CONTINUOUS
 10
-87.371291258564256
 20
-483.46637340527639
 30
0.0
  0
VERTEX
  5
12E1
  8
0
  6
CONTINUOUS
 10
-90.339939124870256
 20
-534.09199423909195
 30
0.0
  0
VERTEX
  5
12E2
  8
0
  6
CONTINUOUS
 10
-91.851375576962269
 20
-563.51765852172355
 30
0.0
  0
VERTEX
  5
12E3
  8
0
  6
CONTINUOUS
 10
-93.368072311026992
 20
-596.33911075660967
 30
0.0
  0
VERTEX
  5
12E4
  8
0
  6
CONTINUOUS
 10
-93.368072311026992
 20
-596.33911075660967
 30
0.0
  0
VERTEX
  5
12E5
  8
0
  6
CONTINUOUS
 10
-94.494574912498592
 20
-623.71508501709889
 30
0.0
  0
VERTEX
  5
12E6
  8
0
  6
CONTINUOUS
 10
-95.450992324700877
 20
-652.20502903446697
 30
0.0
  0
VERTEX
  5
12E7
  8
0
  6
CONTINUOUS
 10
-96.069767384542274
 20
-680.66482277019452
 30
0.0
  0
VERTEX
  5
12E8
  8
0
  6
CONTINUOUS
 10
-96.200177418861543
 20
-694.52587577040549
 30
0.0
  0
VERTEX
  5
12E9
  8
0
  6
CONTINUOUS
 10
-96.183342928931125
 20
-707.95034618576153
 30
0.0
  0
VERTEX
  5
12EA
  8
0
  6
CONTINUOUS
 10
-96.183342928931125
 20
-707.95034618576153
 30
0.0
  0
VERTEX
  5
12EB
  8
0
  6
CONTINUOUS
 10
-96.008074555501423
 20
-720.83159113139925
 30
0.0
  0
VERTEX
  5
12EC
  8
0
  6
CONTINUOUS
 10
-95.702204083869404
 20
-733.20845620225953
 30
0.0
  0
VERTEX
  5
12ED
  8
0
  6
CONTINUOUS
 10
-94.849005131733477
 20
-756.74991757921771
 30
0.0
  0
VERTEX
  5
12EE
  8
0
  6
CONTINUOUS
 10
-93.924442643993231
 20
-779.17647203577656
 30
0.0
  0
VERTEX
  5
12EF
  8
0
  6
CONTINUOUS
 10
-93.229213192118834
 20
-801.08986129107711
 30
0.0
  0
VERTEX
  5
12F0
  8
0
  6
CONTINUOUS
 10
-93.229213192118834
 20
-801.08986129107711
 30
0.0
  0
VERTEX
  5
12F1
  8
0
  6
CONTINUOUS
 10
-93.014756833505217
 20
-812.08545529471269
 30
0.0
  0
VERTEX
  5
12F2
  8
0
  6
CONTINUOUS
 10
-92.689539749896952
 20
-823.43816337806368
 30
0.0
  0
VERTEX
  5
12F3
  8
0
  6
CONTINUOUS
 10
-92.010293814465356
 20
-835.48295549137663
 30
0.0
  0
VERTEX
  5
12F4
  8
0
  6
CONTINUOUS
 10
-91.461888737681903
 20
-841.86956116872011
 30
0.0
  0
VERTEX
  5
12F5
  8
0
  6
CONTINUOUS
 10
-90.73375090038185
 20
-848.55480158489593
 30
0.0
  0
VERTEX
  5
12F6
  8
0
  6
CONTINUOUS
 10
-89.795471786711616
 20
-855.58054798368516
 30
0.0
  0
VERTEX
  5
12F7
  8
0
  6
CONTINUOUS
 10
-88.616642880817736
 20
-862.98867160886755
 30
0.0
  0
VERTEX
  5
12F8
  8
0
  6
CONTINUOUS
 10
-87.166855666846487
 20
-870.82104370422519
 30
0.0
  0
VERTEX
  5
12F9
  8
0
  6
CONTINUOUS
 10
-85.415701628944419
 20
-879.1195355135377
 30
0.0
  0
VERTEX
  5
12FA
  8
0
  6
CONTINUOUS
 10
-83.332772251257808
 20
-887.92601828058594
 30
0.0
  0
VERTEX
  5
12FB
  8
0
  6
CONTINUOUS
 10
-80.887659017933231
 20
-897.28236324915065
 30
0.0
  0
VERTEX
  5
12FC
  8
0
  6
CONTINUOUS
 10
-78.049953413117066
 20
-907.23044166301213
 30
0.0
  0
VERTEX
  5
12FD
  8
0
  6
CONTINUOUS
 10
-74.789246920955634
 20
-917.81212476595203
 30
0.0
  0
VERTEX
  5
12FE
  8
0
  6
CONTINUOUS
 10
-74.789246920955634
 20
-917.81212476595203
 30
0.0
  0
VERTEX
  5
12FF
  8
0
  6
CONTINUOUS
 10
-70.631973448983985
 20
-930.41550668100933
 30
0.0
  0
VERTEX
  5
1300
  8
0
  6
CONTINUOUS
 10
-64.641897973406543
 20
-949.30636034454949
 30
0.0
  0
VERTEX
  5
1301
  8
0
  6
CONTINUOUS
 10
-59.958896864746151
 20
-961.78445874156762
 30
0.0
  0
VERTEX
  5
1302
  8
0
  6
CONTINUOUS
 10
-59.958896864746151
 20
-961.78445874156762
 30
0.0
  0
VERTEX
  5
1303
  8
0
  6
CONTINUOUS
 10
-55.269056044691318
 20
-973.06928567654268
 30
0.0
  0
VERTEX
  5
1304
  8
0
  6
CONTINUOUS
 10
-52.12789369480501
 20
-979.07269871897631
 30
0.0
  0
VERTEX
  5
1305
  8
0
  6
CONTINUOUS
 10
-48.498418444161267
 20
-985.02031216716421
 30
0.0
  0
VERTEX
  5
1306
  8
0
  6
CONTINUOUS
 10
-42.836441547383743
 20
-990.96792561535131
 30
0.0
  0
VERTEX
  5
1307
  8
0
  6
CONTINUOUS
 10
-37.319644825801667
 20
-994.88464678216474
 30
0.0
  0
VERTEX
  5
1308
  8
0
  6
CONTINUOUS
 10
-30.641415025296169
 20
-997.64085841235931
 30
0.0
  0
VERTEX
  5
1309
  8
0
  6
CONTINUOUS
 10
-23.96318522479157
 20
-999.38162390186631
 30
0.0
  0
VERTEX
  5
130A
  8
0
  6
CONTINUOUS
 10
-23.96318522479157
 20
-999.38162390186631
 30
0.0
  0
VERTEX
  5
130B
  8
0
  6
CONTINUOUS
 10
-12.432621831991471
 20
-999.78766399945539
 30
0.0
  0
VERTEX
  5
130C
  8
0
  6
CONTINUOUS
 10
0.0
 20
-999.99999999999955
 30
0.0
  0
SEQEND
  5
130D
  8
0
  6
CONTINUOUS
  0
POLYLINE
  5
44D
  8
0
  6
CONTINUOUS
 66
     1
 10
0.0
 20
0.0
 30
0.0
  0
VERTEX
  5
130E
  8
0
  6
CONTINUOUS
 10
62.5
 20
-0.0000000000000004
 30
0.0
  0
VERTEX
  5
130F
  8
0
  6
CONTINUOUS
 10
65.961798884418499
 20
-82.452168228651544
 30
0.0
  0
VERTEX
  5
1310
  8
0
  6
CONTINUOUS
 10
69.038134912474092
 20
-153.5172099571331
 30
0.0
  0
VERTEX
  5
1311
  8
0
  6
CONTINUOUS
 10
69.038134912474092
 20
-153.5172099571331
 30
0.0
  0
VERTEX
  5
1312
  8
0
  6
CONTINUOUS
 10
71.548229095948614
 20
-207.22612628461039
 30
0.0
  0
VERTEX
  5
1313
  8
0
  6
CONTINUOUS
 10
74.130037919204682
 20
-259.28242870758947
 30
0.0
  0
VERTEX
  5
1314
  8
0
  6
CONTINUOUS
 10
74.130037919204682
 20
-259.28242870758947
 30
0.0
  0
VERTEX
  5
1315
  8
0
  6
CONTINUOUS
 10
77.50628225051139
 20
-325.61558401726319
 30
0.0
  0
VERTEX
  5
1316
  8
0
  6
CONTINUOUS
 10
79.575763615485016
 20
-362.94823526508731
 30
0.0
  0
VERTEX
  5
1317
  8
0
  6
CONTINUOUS
 10
81.920005021185148
 20
-401.38636978622691
 30
0.0
  0
VERTEX
  5
1318
  8
0
  6
CONTINUOUS
 10
81.920005021185148
 20
-401.38636978622691
 30
0.0
  0
VERTEX
  5
1319
  8
0
  6
CONTINUOUS
 10
87.371291258564383
 20
-483.46637340527639
 30
0.0
  0
VERTEX
  5
131A
  8
0
  6
CONTINUOUS
 10
90.339939124870412
 20
-534.09199423909195
 30
0.0
  0
VERTEX
  5
131B
  8
0
  6
CONTINUOUS
 10
91.851375576962354
 20
-563.51765852172355
 30
0.0
  0
VERTEX
  5
131C
  8
0
  6
CONTINUOUS
 10
93.368072311027063
 20
-596.33911075660967
 30
0.0
  0
VERTEX
  5
131D
  8
0
  6
CONTINUOUS
 10
93.368072311027063
 20
-596.33911075660967
 30
0.0
  0
VERTEX
  5
131E
  8
0
  6
CONTINUOUS
 10
94.494574912498706
 20
-623.71508501709889
 30
0.0
  0
VERTEX
  5
131F
  8
0
  6
CONTINUOUS
 10
95.450992324701005
 20
-652.20502903446697
 30
0.0
  0
VERTEX
  5
1320
  8
0
  6
CONTINUOUS
 10
96.069767384542416
 20
-680.66482277019452
 30
0.0
  0
VERTEX
  5
1321
  8
0
  6
CONTINUOUS
 10
96.200177418861585
 20
-694.52587577040549
 30
0.0
  0
VERTEX
  5
1322
  8
0
  6
CONTINUOUS
 10
96.183342928931225
 20
-707.95034618576153
 30
0.0
  0
VERTEX
  5
1323
  8
0
  6
CONTINUOUS
 10
96.183342928931225
 20
-707.95034618576153
 30
0.0
  0
VERTEX
  5
1324
  8
0
  6
CONTINUOUS
 10
96.00807455550148
 20
-720.83159113139925
 30
0.0
  0
VERTEX
  5
1325
  8
0
  6
CONTINUOUS
 10
95.702204083869404
 20
-733.20845620225953
 30
0.0
  0
VERTEX
  5
1326
  8
0
  6
CONTINUOUS
 10
94.849005131733477
 20
-756.74991757921771
 30
0.0
  0
VERTEX
  5
1327
  8
0
  6
CONTINUOUS
 10
93.924442643993302
 20
-779.17647203577656
 30
0.0
  0
VERTEX
  5
1328
  8
0
  6
CONTINUOUS
 10
93.229213192118877
 20
-801.08986129107711
 30
0.0
  0
VERTEX
  5
1329
  8
0
  6
CONTINUOUS
 10
93.229213192118877
 20
-801.08986129107711
 30
0.0
  0
VERTEX
  5
132A
  8
0
  6
CONTINUOUS
 10
93.014756833505288
 20
-812.08545529471269
 30
0.0
  0
VERTEX
  5
132B
  8
0
  6
CONTINUOUS
 10
92.689539749897108
 20
-823.43816337806368
 30
0.0
  0
VERTEX
  5
132C
  8
0
  6
CONTINUOUS
 10
92.010293814465484
 20
-835.48295549137663
 30
0.0
  0
VERTEX
  5
132D
  8
0
  6
CONTINUOUS
 10
91.461888737682017
 20
-841.86956116872011
 30
0.0
  0
VERTEX
  5
132E
  8
0
  6
CONTINUOUS
 10
90.73375090038185
 20
-848.55480158489593
 30
0.0
  0
VERTEX
  5
132F
  8
0
  6
CONTINUOUS
 10
89.795471786711815
 20
-855.58054798368516
 30
0.0
  0
VERTEX
  5
1330
  8
0
  6
CONTINUOUS
 10
88.616642880817807
 20
-862.98867160886755
 30
0.0
  0
VERTEX
  5
1331
  8
0
  6
CONTINUOUS
 10
87.166855666846587
 20
-870.82104370422519
 30
0.0
  0
VERTEX
  5
1332
  8
0
  6
CONTINUOUS
 10
85.415701628944504
 20
-879.1195355135377
 30
0.0
  0
VERTEX
  5
1333
  8
0
  6
CONTINUOUS
 10
83.332772251257879
 20
-887.92601828058594
 30
0.0
  0
VERTEX
  5
1334
  8
0
  6
CONTINUOUS
 10
80.88765901793326
 20
-897.28236324915065
 30
0.0
  0
VERTEX
  5
1335
  8
0
  6
CONTINUOUS
 10
78.049953413117123
 20
-907.23044166301213
 30
0.0
  0
VERTEX
  5
1336
  8
0
  6
CONTINUOUS
 10
74.789246920955733
 20
-917.81212476595203
 30
0.0
  0
VERTEX
  5
1337
  8
0
  6
CONTINUOUS
 10
74.789246920955733
 20
-917.81212476595203
 30
0.0
  0
VERTEX
  5
1338
  8
0
  6
CONTINUOUS
 10
70.631973448984127
 20
-930.41550668100933
 30
0.0
  0
VERTEX
  5
1339
  8
0
  6
CONTINUOUS
 10
64.641897973406685
 20
-949.30636034454949
 30
0.0
  0
VERTEX
  5
133A
  8
0
  6
CONTINUOUS
 10
59.958896864746301
 20
-961.78445874156762
 30
0.0
  0
VERTEX
  5
133B
  8
0
  6
CONTINUOUS
 10
59.958896864746301
 20
-961.78445874156762
 30
0.0
  0
VERTEX
  5
133C
  8
0
  6
CONTINUOUS
 10
55.269056044691411
 20
-973.06928567654268
 30
0.0
  0
VERTEX
  5
133D
  8
0
  6
CONTINUOUS
 10
52.127893694805138
 20
-979.07269871897631
 30
0.0
  0
VERTEX
  5
133E
  8
0
  6
CONTINUOUS
 10
48.498418444161409
 20
-985.02031216716421
 30
0.0
  0
VERTEX
  5
133F
  8
0
  6
CONTINUOUS
 10
42.836441547383849
 20
-990.96792561535131
 30
0.0
  0
VERTEX
  5
1340
  8
0
  6
CONTINUOUS
 10
37.319644825801781
 20
-994.88464678216474
 30
0.0
  0
VERTEX
  5
1341
  8
0
  6
CONTINUOUS
 10
30.641415025296279
 20
-997.64085841235931
 30
0.0
  0
VERTEX
  5
1342
  8
0
  6
CONTINUOUS
 10
23.963185224791658
 20
-999.38162390186631
 30
0.0
  0
VERTEX
  5
1343
  8
0
  6
CONTINUOUS
 10
23.963185224791658
 20
-999.38162390186631
 30
0.0
  0
VERTEX
  5
1344
  8
0
  6
CONTINUOUS
 10
12.43262183199157
 20
-999.78766399945539
 30
0.0
  0
VERTEX
  5
1345
  8
0
  6
CONTINUOUS
 10
0.0000000000001137
 20
-999.99999999999955
 30
0.0
  0
SEQEND
  5
1346
  8
0
  6
CONTINUOUS
  0
POLYLINE
  5
44E
  8
0
  6
CONTINUOUS
 66
     1
 10
0.0
 20
0.0
 30
0.0
  0
VERTEX
  5
1347
  8
0
  6
CONTINUOUS
 10
62.5
 20
-0.0000000000000004
 30
0.0
  0
VERTEX
  5
1348
  8
0
  6
CONTINUOUS
 10
63.85866578368757
 20
-147.94096749370141
 30
0.0
  0
VERTEX
  5
1349
  8
0
  6
CONTINUOUS
 10
64.303798534791085
 20
-218.0750382768725
 30
0.0
  0
VERTEX
  5
134A
  8
0
  6
CONTINUOUS
 10
64.467891117006374
 20
-283.60541350362831
 30
0.0
  0
VERTEX
  5
134B
  8
0
  6
CONTINUOUS
 10
64.467891117006374
 20
-283.60541350362831
 30
0.0
  0
VERTEX
  5
134C
  8
0
  6
CONTINUOUS
 10
64.344742881120283
 20
-344.01046042361457
 30
0.0
  0
VERTEX
  5
134D
  8
0
  6
CONTINUOUS
 10
64.27807080625179
 20
-402.82027602695121
 30
0.0
  0
VERTEX
  5
134E
  8
0
  6
CONTINUOUS
 10
64.400662199887151
 20
-433.04666878026251
 30
0.0
  0
VERTEX
  5
134F
  8
0
  6
CONTINUOUS
 10
64.699071278602673
 20
-464.57788973887568
 30
0.0
  0
VERTEX
  5
1350
  8
0
  6
CONTINUOUS
 10
65.22719759067364
 20
-497.98181758094478
 30
0.0
  0
VERTEX
  5
1351
  8
0
  6
CONTINUOUS
 10
66.038940684375234
 20
-533.8263309846252
 30
0.0
  0
VERTEX
  5
1352
  8
0
  6
CONTINUOUS
 10
66.038940684375234
 20
-533.8263309846252
 30
0.0
  0
VERTEX
  5
1353
  8
0
  6
CONTINUOUS
 10
66.77187439872273
 20
-561.79140038021058
 30
0.0
  0
VERTEX
  5
1354
  8
0
  6
CONTINUOUS
 10
67.334419576017353
 20
-592.76995191752724
 30
0.0
  0
VERTEX
  5
1355
  8
0
  6
CONTINUOUS
 10
67.443400415237292
 20
-609.83941839824945
 30
0.0
  0
VERTEX
  5
1356
  8
0
  6
CONTINUOUS
 10
67.379708862554935
 20
-628.20241730510236
 30
0.0
  0
VERTEX
  5
1357
  8
0
  6
CONTINUOUS
 10
67.099986498757175
 20
-648.03900260165165
 30
0.0
  0
VERTEX
  5
1358
  8
0
  6
CONTINUOUS
 10
66.560874904631063
 20
-669.52922825146356
 30
0.0
  0
VERTEX
  5
1359
  8
0
  6
CONTINUOUS
 10
66.560874904631063
 20
-669.52922825146356
 30
0.0
  0
VERTEX
  5
135A
  8
0
  6
CONTINUOUS
 10
65.846201094895264
 20
-689.39553803973729
 30
0.0
  0
VERTEX
  5
135B
  8
0
  6
CONTINUOUS
 10
64.80632671907199
 20
-710.57150716377521
 30
0.0
  0
VERTEX
  5
135C
  8
0
  6
CONTINUOUS
 10
63.338890885385688
 20
-733.01709052739
 30
0.0
  0
VERTEX
  5
135D
  8
0
  6
CONTINUOUS
 10
61.341532702060128
 20
-756.69224303439375
 30
0.0
  0
VERTEX
  5
135E
  8
0
  6
CONTINUOUS
 10
61.341532702060128
 20
-756.69224303439375
 30
0.0
  0
VERTEX
  5
135F
  8
0
  6
CONTINUOUS
 10
60.209105919357171
 20
-767.28691127682964
 30
0.0
  0
VERTEX
  5
1360
  8
0
  6
CONTINUOUS
 10
59.411894583512421
 20
-773.00212763512525
 30
0.0
  0
VERTEX
  5
1361
  8
0
  6
CONTINUOUS
 10
58.360282320300144
 20
-779.17591507741452
 30
0.0
  0
VERTEX
  5
1362
  8
0
  6
CONTINUOUS
 10
56.978967406441249
 20
-785.94326079815312
 30
0.0
  0
VERTEX
  5
1363
  8
0
  6
CONTINUOUS
 10
55.192648118656727
 20
-793.43915199179764
 30
0.0
  0
VERTEX
  5
1364
  8
0
  6
CONTINUOUS
 10
52.92602273366753
 20
-801.79857585280445
 30
0.0
  0
VERTEX
  5
1365
  8
0
  6
CONTINUOUS
 10
50.103789528194511
 20
-811.15651957562955
 30
0.0
  0
VERTEX
  5
1366
  8
0
  6
CONTINUOUS
 10
50.103789528194511
 20
-811.15651957562955
 30
0.0
  0
VERTEX
  5
1367
  8
0
  6
CONTINUOUS
 10
47.362274563121311
 20
-819.55437589439668
 30
0.0
  0
VERTEX
  5
1368
  8
0
  6
CONTINUOUS
 10
44.389748643720161
 20
-828.11454094499095
 30
0.0
  0
VERTEX
  5
1369
  8
0
  6
CONTINUOUS
 10
41.379123987963048
 20
-836.23769302921835
 30
0.0
  0
VERTEX
  5
136A
  8
0
  6
CONTINUOUS
 10
38.523312813822201
 20
-843.32451044888433
 30
0.0
  0
VERTEX
  5
136B
  8
0
  6
CONTINUOUS
 10
38.523312813822201
 20
-843.32451044888433
 30
0.0
  0
VERTEX
  5
136C
  8
0
  6
CONTINUOUS
 10
35.89143675816365
 20
-849.01704397735182
 30
0.0
  0
VERTEX
  5
136D
  8
0
  6
CONTINUOUS
 10
34.534073596222569
 20
-851.51522495903703
 30
0.0
  0
VERTEX
  5
136E
  8
0
  6
CONTINUOUS
 10
33.057455133429571
 20
-853.9228342742141
 30
0.0
  0
VERTEX
  5
136F
  8
0
  6
CONTINUOUS
 10
29.47153667095586
 20
-858.89079447062068
 30
0.0
  0
VERTEX
  5
1370
  8
0
  6
CONTINUOUS
 10
24.5838501020786
 20
-864.76983769772175
 30
0.0
  0
VERTEX
  5
1371
  8
0
  6
CONTINUOUS
 10
24.5838501020786
 20
-864.76983769772175
 30
0.0
  0
VERTEX
  5
1372
  8
0
  6
CONTINUOUS
 10
22.27901777653619
 20
-867.37521158209722
 30
0.0
  0
VERTEX
  5
1373
  8
0
  6
CONTINUOUS
 10
19.7170355974099
 20
-870.02645291424881
 30
0.0
  0
VERTEX
  5
1374
  8
0
  6
CONTINUOUS
 10
16.907794764513589
 20
-872.51559927175344
 30
0.0
  0
VERTEX
  5
1375
  8
0
  6
CONTINUOUS
 10
13.861186477661301
 20
-874.63468823218705
 30
0.0
  0
VERTEX
  5
1376
  8
0
  6
CONTINUOUS
 10
13.861186477661301
 20
-874.63468823218705
 30
0.0
  0
VERTEX
  5
1377
  8
0
  6
CONTINUOUS
 10
10.594931580620351
 20
-876.21973735652125
 30
0.0
  0
VERTEX
  5
1378
  8
0
  6
CONTINUOUS
 10
7.1580694929729107
 20
-877.28268413930527
 30
0.0
  0
VERTEX
  5
1379
  8
0
  6
CONTINUOUS
 10
3.607469278254257
 20
-877.8794460584835
 30
0.0
  0
VERTEX
  5
137A
  8
0
  6
CONTINUOUS
 10
0.0000000000000568
 20
-878.06594059199983
 30
0.0
  0
VERTEX
  5
137B
  8
0
  6
CONTINUOUS
 10
0.0000000000000568
 20
-878.06594059199983
 30
0.0
  0
VERTEX
  5
137C
  8
0
  6
CONTINUOUS
 10
-3.6074692782541402
 20
-877.8794460584835
 30
0.0
  0
VERTEX
  5
137D
  8
0
  6
CONTINUOUS
 10
-7.1580694929727411
 20
-877.28268413930527
 30
0.0
  0
VERTEX
  5
137E
  8
0
  6
CONTINUOUS
 10
-10.59493158062025
 20
-876.21973735652125
 30
0.0
  0
VERTEX
  5
137F
  8
0
  6
CONTINUOUS
 10
-13.861186477661191
 20
-874.63468823218705
 30
0.0
  0
VERTEX
  5
1380
  8
0
  6
CONTINUOUS
 10
-13.861186477661191
 20
-874.63468823218705
 30
0.0
  0
VERTEX
  5
1381
  8
0
  6
CONTINUOUS
 10
-16.907794764513461
 20
-872.51559927175344
 30
0.0
  0
VERTEX
  5
1382
  8
0
  6
CONTINUOUS
 10
-19.71703559740979
 20
-870.02645291424881
 30
0.0
  0
VERTEX
  5
1383
  8
0
  6
CONTINUOUS
 10
-22.279017776536062
 20
-867.37521158209722
 30
0.0
  0
VERTEX
  5
1384
  8
0
  6
CONTINUOUS
 10
-24.583850102078479
 20
-864.76983769772175
 30
0.0
  0
VERTEX
  5
1385
  8
0
  6
CONTINUOUS
 10
-24.583850102078479
 20
-864.76983769772175
 30
0.0
  0
VERTEX
  5
1386
  8
0
  6
CONTINUOUS
 10
-29.471536670955729
 20
-858.89079447062068
 30
0.0
  0
VERTEX
  5
1387
  8
0
  6
CONTINUOUS
 10
-33.057455133429471
 20
-853.9228342742141
 30
0.0
  0
VERTEX
  5
1388
  8
0
  6
CONTINUOUS
 10
-34.534073596222463
 20
-851.51522495903703
 30
0.0
  0
VERTEX
  5
1389
  8
0
  6
CONTINUOUS
 10
-35.89143675816355
 20
-849.01704397735182
 30
0.0
  0
VERTEX
  5
138A
  8
0
  6
CONTINUOUS
 10
-38.523312813822031
 20
-843.32451044888433
 30
0.0
  0
VERTEX
  5
138B
  8
0
  6
CONTINUOUS
 10
-38.523312813822031
 20
-843.32451044888433
 30
0.0
  0
VERTEX
  5
138C
  8
0
  6
CONTINUOUS
 10
-41.37912398796292
 20
-836.23769302921835
 30
0.0
  0
VERTEX
  5
138D
  8
0
  6
CONTINUOUS
 10
-44.389748643720047
 20
-828.11454094499095
 30
0.0
  0
VERTEX
  5
138E
  8
0
  6
CONTINUOUS
 10
-47.36227456312124
 20
-819.55437589439668
 30
0.0
  0
VERTEX
  5
138F
  8
0
  6
CONTINUOUS
 10
-50.103789528194397
 20
-811.15651957562955
 30
0.0
  0
VERTEX
  5
1390
  8
0
  6
CONTINUOUS
 10
-50.103789528194397
 20
-811.15651957562955
 30
0.0
  0
VERTEX
  5
1391
  8
0
  6
CONTINUOUS
 10
-52.926022733667381
 20
-801.79857585280445
 30
0.0
  0
VERTEX
  5
1392
  8
0
  6
CONTINUOUS
 10
-55.192648118656642
 20
-793.43915199179764
 30
0.0
  0
VERTEX
  5
1393
  8
0
  6
CONTINUOUS
 10
-56.978967406441171
 20
-785.94326079815312
 30
0.0
  0
VERTEX
  5
1394
  8
0
  6
CONTINUOUS
 10
-58.360282320300023
 20
-779.17591507741452
 30
0.0
  0
VERTEX
  5
1395
  8
0
  6
CONTINUOUS
 10
-59.411894583512279
 20
-773.00212763512525
 30
0.0
  0
VERTEX
  5
1396
  8
0
  6
CONTINUOUS
 10
-60.209105919357008
 20
-767.28691127682964
 30
0.0
  0
VERTEX
  5
1397
  8
0
  6
CONTINUOUS
 10
-61.341532702059993
 20
-756.69224303439375
 30
0.0
  0
VERTEX
  5
1398
  8
0
  6
CONTINUOUS
 10
-61.341532702059993
 20
-756.69224303439375
 30
0.0
  0
VERTEX
  5
1399
  8
0
  6
CONTINUOUS
 10
-63.338890885385489
 20
-733.01709052739
 30
0.0
  0
VERTEX
  5
139A
  8
0
  6
CONTINUOUS
 10
-64.806326719071933
 20
-710.57150716377521
 30
0.0
  0
VERTEX
  5
139B
  8
0
  6
CONTINUOUS
 10
-65.84620109489515
 20
-689.39553803973729
 30
0.0
  0
VERTEX
  5
139C
  8
0
  6
CONTINUOUS
 10
-66.56087490463095
 20
-669.52922825146356
 30
0.0
  0
VERTEX
  5
139D
  8
0
  6
CONTINUOUS
 10
-66.56087490463095
 20
-669.52922825146356
 30
0.0
  0
VERTEX
  5
139E
  8
0
  6
CONTINUOUS
 10
-67.099986498757033
 20
-648.03900260165199
 30
0.0
  0
VERTEX
  5
139F
  8
0
  6
CONTINUOUS
 10
-67.379708862554736
 20
-628.20241730510236
 30
0.0
  0
VERTEX
  5
13A0
  8
0
  6
CONTINUOUS
 10
-67.443400415237093
 20
-609.83941839824945
 30
0.0
  0
VERTEX
  5
13A1
  8
0
  6
CONTINUOUS
 10
-67.334419576017211
 20
-592.76995191752724
 30
0.0
  0
VERTEX
  5
13A2
  8
0
  6
CONTINUOUS
 10
-66.771874398722531
 20
-561.79140038021058
 30
0.0
  0
VERTEX
  5
13A3
  8
0
  6
CONTINUOUS
 10
-66.038940684375035
 20
-533.8263309846252
 30
0.0
  0
VERTEX
  5
13A4
  8
0
  6
CONTINUOUS
 10
-66.038940684375035
 20
-533.8263309846252
 30
0.0
  0
VERTEX
  5
13A5
  8
0
  6
CONTINUOUS
 10
-65.227197590673455
 20
-497.98181758094478
 30
0.0
  0
VERTEX
  5
13A6
  8
0
  6
CONTINUOUS
 10
-64.699071278602531
 20
-464.57788973887568
 30
0.0
  0
VERTEX
  5
13A7
  8
0
  6
CONTINUOUS
 10
-64.400662199886966
 20
-433.04666878026251
 30
0.0
  0
VERTEX
  5
13A8
  8
0
  6
CONTINUOUS
 10
-64.278070806251534
 20
-402.82027602695121
 30
0.0
  0
VERTEX
  5
13A9
  8
0
  6
CONTINUOUS
 10
-64.344742881120112
 20
-344.01046042361457
 30
0.0
  0
VERTEX
  5
13AA
  8
0
  6
CONTINUOUS
 10
-64.467891117006261
 20
-283.60541350362831
 30
0.0
  0
VERTEX
  5
13AB
  8
0
  6
CONTINUOUS
 10
-64.467891117006261
 20
-283.60541350362831
 30
0.0
  0
VERTEX
  5
13AC
  8
0
  6
CONTINUOUS
 10
-64.303798534790971
 20
-218.0750382768725
 30
0.0
  0
VERTEX
  5
13AD
  8
0
  6
CONTINUOUS
 10
-63.8586657836874
 20
-147.94096749370141
 30
0.0
  0
VERTEX
  5
13AE
  8
0
  6
CONTINUOUS
 10
-62.499999999999773
 20
-0.0000000000000004
 30
0.0
  0
SEQEND
  5
13AF
  8
0
  6
CONTINUOUS
  0
POLYLINE
  5
44F
  8
0
  6
CONTINUOUS
 66
     1
 10
0.0
 20
0.0
 30
0.0
  0
VERTEX
  5
13B0
  8
0
  6
CONTINUOUS
 10
-289.6721186087658
 20
3.7766067386907798
 30
0.0
  0
VERTEX
  5
13B1
  8
0
  6
CONTINUOUS
 10
-278.48805486617903
 20
-113.7165166788036
 30
0.0
  0
VERTEX
  5
13B2
  8
0
  6
CONTINUOUS
 10
-272.96883624495712
 20
-170.41947956166831
 30
0.0
  0
VERTEX
  5
13B3
  8
0
  6
CONTINUOUS
 10
-267.53699352382159
 20
-224.6701238534738
 30
0.0
  0
VERTEX
  5
13B4
  8
0
  6
CONTINUOUS
 10
-267.53699352382159
 20
-224.6701238534738
 30
0.0
  0
VERTEX
  5
13B5
  8
0
  6
CONTINUOUS
 10
-262.23320171509772
 20
-276.94158767735871
 30
0.0
  0
VERTEX
  5
13B6
  8
0
  6
CONTINUOUS
 10
-259.65575112759478
 20
-304.01554354083231
 30
0.0
  0
VERTEX
  5
13B7
  8
0
  6
CONTINUOUS
 10
-257.14433468030012
 20
-332.86931977042627
 30
0.0
  0
VERTEX
  5
13B8
  8
0
  6
CONTINUOUS
 10
-254.7112553199398
 20
-364.36866966496478
 30
0.0
  0
VERTEX
  5
13B9
  8
0
  6
CONTINUOUS
 10
-252.3688159932405
 20
-399.37934652327232
 30
0.0
  0
VERTEX
  5
13BA
  8
0
  6
CONTINUOUS
 10
-250.12931964692871
 20
-438.76710364417278
 30
0.0
  0
VERTEX
  5
13BB
  8
0
  6
CONTINUOUS
 10
-248.00506922773059
 20
-483.39769432649138
 30
0.0
  0
VERTEX
  5
13BC
  8
0
  6
CONTINUOUS
 10
-248.00506922773059
 20
-483.39769432649138
 30
0.0
  0
VERTEX
  5
13BD
  8
0
  6
CONTINUOUS
 10
-246.77115025839649
 20
-513.74687134827275
 30
0.0
  0
VERTEX
  5
13BE
  8
0
  6
CONTINUOUS
 10
-245.69661526473359
 20
-544.9337968933803
 30
0.0
  0
VERTEX
  5
13BF
  8
0
  6
CONTINUOUS
 10
-244.89197099519339
 20
-575.45538511344944
 30
0.0
  0
VERTEX
  5
13C0
  8
0
  6
CONTINUOUS
 10
-244.4677241982279
 20
-603.80855016011537
 30
0.0
  0
VERTEX
  5
13C1
  8
0
  6
CONTINUOUS
 10
-244.4677241982279
 20
-603.80855016011537
 30
0.0
  0
VERTEX
  5
13C2
  8
0
  6
CONTINUOUS
 10
-244.4921486349802
 20
-628.82669789655006
 30
0.0
  0
VERTEX
  5
13C3
  8
0
  6
CONTINUOUS
 10
-244.86458611735659
 20
-650.68920103207438
 30
0.0
  0
VERTEX
  5
13C4
  8
0
  6
CONTINUOUS
 10
-245.4421454699544
 20
-669.9119239875447
 30
0.0
  0
VERTEX
  5
13C5
  8
0
  6
CONTINUOUS
 10
-246.08193551737079
 20
-687.01073118381805
 30
0.0
  0
VERTEX
  5
13C6
  8
0
  6
CONTINUOUS
 10
-246.08193551737079
 20
-687.01073118381805
 30
0.0
  0
VERTEX
  5
13C7
  8
0
  6
CONTINUOUS
 10
-246.751834622318
 20
-702.77961687795073
 30
0.0
  0
VERTEX
  5
13C8
  8
0
  6
CONTINUOUS
 10
-247.21957588622411
 20
-710.74374154752911
 30
0.0
  0
VERTEX
  5
13C9
  8
0
  6
CONTINUOUS
 10
-247.8627992999661
 20
-719.12509467179075
 30
0.0
  0
VERTEX
  5
13CA
  8
0
  6
CONTINUOUS
 10
-248.74672062020429
 20
-728.19675668049103
 30
0.0
  0
VERTEX
  5
13CB
  8
0
  6
CONTINUOUS
 10
-249.9365556035998
 20
-738.2318080033865
 30
0.0
  0
VERTEX
  5
13CC
  8
0
  6
CONTINUOUS
 10
-251.49752000681281
 20
-749.50332907023255
 30
0.0
  0
VERTEX
  5
13CD
  8
0
  6
CONTINUOUS
 10
-253.49482958650401
 20
-762.28440031078514
 30
0.0
  0
VERTEX
  5
13CE
  8
0
  6
CONTINUOUS
 10
-253.49482958650401
 20
-762.28440031078514
 30
0.0
  0
VERTEX
  5
13CF
  8
0
  6
CONTINUOUS
 10
-255.62664441217751
 20
-774.73478974219961
 30
0.0
  0
VERTEX
  5
13D0
  8
0
  6
CONTINUOUS
 10
-257.91752801239932
 20
-786.93050328311153
 30
0.0
  0
VERTEX
  5
13D1
  8
0
  6
CONTINUOUS
 10
-257.91752801239932
 20
-786.93050328311153
 30
0.0
  0
VERTEX
  5
13D2
  8
0
  6
CONTINUOUS
 10
-260.73714341619581
 20
-800.04663675824975
 30
0.0
  0
VERTEX
  5
13D3
  8
0
  6
CONTINUOUS
 10
-263.3705203645145
 20
-810.799542936904
 30
0.0
  0
VERTEX
  5
13D4
  8
0
  6
CONTINUOUS
 10
-267.79548421549902
 20
-827.8178404659875
 30
0.0
  0
VERTEX
  5
13D5
  8
0
  6
CONTINUOUS
 10
-267.79548421549902
 20
-827.8178404659875
 30
0.0
  0
VERTEX
  5
13D6
  8
0
  6
CONTINUOUS
 10
-269.57204839348339
 20
-835.34352136345785
 30
0.0
  0
VERTEX
  5
13D7
  8
0
  6
CONTINUOUS
 10
-270.52597600181821
 20
-839.0788166444421
 30
0.0
  0
VERTEX
  5
13D8
  8
0
  6
CONTINUOUS
 10
-271.63838712634202
 20
-842.86337812423642
 30
0.0
  0
VERTEX
  5
13D9
  8
0
  6
CONTINUOUS
 10
-272.99532164452592
 20
-846.74792803582545
 30
0.0
  0
VERTEX
  5
13DA
  8
0
  6
CONTINUOUS
 10
-274.68281943384062
 20
-850.78318861219304
 30
0.0
  0
VERTEX
  5
13DB
  8
0
  6
CONTINUOUS
 10
-276.78692037175699
 20
-855.01988208632145
 30
0.0
  0
VERTEX
  5
13DC
  8
0
  6
CONTINUOUS
 10
-279.39366433574571
 20
-859.50873069119632
 30
0.0
  0
VERTEX
  5
13DD
  8
0
  6
CONTINUOUS
 10
-279.39366433574571
 20
-859.50873069119632
 30
0.0
  0
VERTEX
  5
13DE
  8
0
  6
CONTINUOUS
 10
-281.15129197912501
 20
-862.19338414654874
 30
0.0
  0
VERTEX
  5
13DF
  8
0
  6
CONTINUOUS
 10
-283.20298109711109
 20
-864.95360575765812
 30
0.0
  0
VERTEX
  5
13E0
  8
0
  6
CONTINUOUS
 10
-285.65165560975407
 20
-867.76662340526082
 30
0.0
  0
VERTEX
  5
13E1
  8
0
  6
CONTINUOUS
 10
-288.60023943710451
 20
-870.60966497009508
 30
0.0
  0
VERTEX
  5
13E2
  8
0
  6
CONTINUOUS
 10
-288.60023943710451
 20
-870.60966497009508
 30
0.0
  0
VERTEX
  5
13E3
  8
0
  6
CONTINUOUS
 10
-290.10793170285831
 20
-871.85959964153426
 30
0.0
  0
VERTEX
  5
13E4
  8
0
  6
CONTINUOUS
 10
-291.8891220584855
 20
-873.07732795216145
 30
0.0
  0
VERTEX
  5
13E5
  8
0
  6
CONTINUOUS
 10
-294.10048274537883
 20
-874.22923818160405
 30
0.0
  0
VERTEX
  5
13E6
  8
0
  6
CONTINUOUS
 10
-296.89868600493139
 20
-875.2817186094876
 30
0.0
  0
VERTEX
  5
13E7
  8
0
  6
CONTINUOUS
 10
-296.89868600493139
 20
-875.2817186094876
 30
0.0
  0
VERTEX
  5
13E8
  8
0
  6
CONTINUOUS
 10
-299.43084469143332
 20
-875.93847449019825
 30
0.0
  0
VERTEX
  5
13E9
  8
0
  6
CONTINUOUS
 10
-302.1721186087658
 20
-876.22339326130896
 30
0.0
  0
VERTEX
  5
13EA
  8
0
  6
CONTINUOUS
 10
-302.1721186087658
 20
-876.22339326130896
 30
0.0
  0
VERTEX
  5
13EB
  8
0
  6
CONTINUOUS
 10
-304.91339252609851
 20
-875.93847449019825
 30
0.0
  0
VERTEX
  5
13EC
  8
0
  6
CONTINUOUS
 10
-307.44555121260032
 20
-875.2817186094876
 30
0.0
  0
VERTEX
  5
13ED
  8
0
  6
CONTINUOUS
 10
-307.44555121260032
 20
-875.2817186094876
 30
0.0
  0
VERTEX
  5
13EE
  8
0
  6
CONTINUOUS
 10
-310.24375447215277
 20
-874.22923818160405
 30
0.0
  0
VERTEX
  5
13EF
  8
0
  6
CONTINUOUS
 10
-312.45511515904639
 20
-873.07732795216145
 30
0.0
  0
VERTEX
  5
13F0
  8
0
  6
CONTINUOUS
 10
-314.23630551467352
 20
-871.85959964153426
 30
0.0
  0
VERTEX
  5
13F1
  8
0
  6
CONTINUOUS
 10
-315.74399778042732
 20
-870.60966497009508
 30
0.0
  0
VERTEX
  5
13F2
  8
0
  6
CONTINUOUS
 10
-315.74399778042732
 20
-870.60966497009508
 30
0.0
  0
VERTEX
  5
13F3
  8
0
  6
CONTINUOUS
 10
-318.69258160777758
 20
-867.76662340526082
 30
0.0
  0
VERTEX
  5
13F4
  8
0
  6
CONTINUOUS
 10
-321.14125612042062
 20
-864.95360575765812
 30
0.0
  0
VERTEX
  5
13F5
  8
0
  6
CONTINUOUS
 10
-323.19294523840682
 20
-862.19338414654874
 30
0.0
  0
VERTEX
  5
13F6
  8
0
  6
CONTINUOUS
 10
-324.95057288178612
 20
-859.50873069119632
 30
0.0
  0
VERTEX
  5
13F7
  8
0
  6
CONTINUOUS
 10
-324.95057288178612
 20
-859.50873069119632
 30
0.0
  0
VERTEX
  5
13F8
  8
0
  6
CONTINUOUS
 10
-327.55731684577489
 20
-855.01988208632145
 30
0.0
  0
VERTEX
  5
13F9
  8
0
  6
CONTINUOUS
 10
-329.66141778369098
 20
-850.78318861219304
 30
0.0
  0
VERTEX
  5
13FA
  8
0
  6
CONTINUOUS
 10
-331.34891557300602
 20
-846.74792803582545
 30
0.0
  0
VERTEX
  5
13FB
  8
0
  6
CONTINUOUS
 10
-332.7058500911898
 20
-842.86337812423642
 30
0.0
  0
VERTEX
  5
13FC
  8
0
  6
CONTINUOUS
 10
-333.81826121571362
 20
-839.0788166444421
 30
0.0
  0
VERTEX
  5
13FD
  8
0
  6
CONTINUOUS
 10
-334.77218882404821
 20
-835.34352136345785
 30
0.0
  0
VERTEX
  5
13FE
  8
0
  6
CONTINUOUS
 10
-336.5487530020327
 20
-827.8178404659875
 30
0.0
  0
VERTEX
  5
13FF
  8
0
  6
CONTINUOUS
 10
-336.5487530020327
 20
-827.8178404659875
 30
0.0
  0
VERTEX
  5
1400
  8
0
  6
CONTINUOUS
 10
-340.97371685301721
 20
-810.799542936904
 30
0.0
  0
VERTEX
  5
1401
  8
0
  6
CONTINUOUS
 10
-343.60709380133579
 20
-800.04663675824975
 30
0.0
  0
VERTEX
  5
1402
  8
0
  6
CONTINUOUS
 10
-346.42670920513223
 20
-786.93050328311153
 30
0.0
  0
VERTEX
  5
1403
  8
0
  6
CONTINUOUS
 10
-346.42670920513223
 20
-786.93050328311153
 30
0.0
  0
VERTEX
  5
1404
  8
0
  6
CONTINUOUS
 10
-348.71759280535417
 20
-774.73478974219961
 30
0.0
  0
VERTEX
  5
1405
  8
0
  6
CONTINUOUS
 10
-350.84940763102782
 20
-762.28440031078514
 30
0.0
  0
VERTEX
  5
1406
  8
0
  6
CONTINUOUS
 10
-350.84940763102782
 20
-762.28440031078514
 30
0.0
  0
VERTEX
  5
1407
  8
0
  6
CONTINUOUS
 10
-352.84671721071919
 20
-749.50332907023255
 30
0.0
  0
VERTEX
  5
1408
  8
0
  6
CONTINUOUS
 10
-354.40768161393203
 20
-738.2318080033865
 30
0.0
  0
VERTEX
  5
1409
  8
0
  6
CONTINUOUS
 10
-355.59751659732751
 20
-728.19675668049103
 30
0.0
  0
VERTEX
  5
140A
  8
0
  6
CONTINUOUS
 10
-356.48143791756593
 20
-719.12509467179075
 30
0.0
  0
VERTEX
  5
140B
  8
0
  6
CONTINUOUS
 10
-357.12466133130778
 20
-710.74374154752911
 30
0.0
  0
VERTEX
  5
140C
  8
0
  6
CONTINUOUS
 10
-357.59240259521368
 20
-702.77961687795073
 30
0.0
  0
VERTEX
  5
140D
  8
0
  6
CONTINUOUS
 10
-358.262301700161
 20
-687.01073118381805
 30
0.0
  0
VERTEX
  5
140E
  8
0
  6
CONTINUOUS
 10
-358.262301700161
 20
-687.01073118381805
 30
0.0
  0
VERTEX
  5
140F
  8
0
  6
CONTINUOUS
 10
-358.90209174757717
 20
-669.9119239875447
 30
0.0
  0
VERTEX
  5
1410
  8
0
  6
CONTINUOUS
 10
-359.47965110017492
 20
-650.68920103207438
 30
0.0
  0
VERTEX
  5
1411
  8
0
  6
CONTINUOUS
 10
-359.85208858255129
 20
-628.82669789655006
 30
0.0
  0
VERTEX
  5
1412
  8
0
  6
CONTINUOUS
 10
-359.87651301930367
 20
-603.80855016011537
 30
0.0
  0
VERTEX
  5
1413
  8
0
  6
CONTINUOUS
 10
-359.87651301930367
 20
-603.80855016011537
 30
0.0
  0
VERTEX
  5
1414
  8
0
  6
CONTINUOUS
 10
-359.45226622233849
 20
-575.45538511344944
 30
0.0
  0
VERTEX
  5
1415
  8
0
  6
CONTINUOUS
 10
-358.64762195279809
 20
-544.9337968933803
 30
0.0
  0
VERTEX
  5
1416
  8
0
  6
CONTINUOUS
 10
-357.57308695913508
 20
-513.74687134827275
 30
0.0
  0
VERTEX
  5
1417
  8
0
  6
CONTINUOUS
 10
-356.33916798980118
 20
-483.39769432649138
 30
0.0
  0
VERTEX
  5
1418
  8
0
  6
CONTINUOUS
 10
-356.33916798980118
 20
-483.39769432649138
 30
0.0
  0
VERTEX
  5
1419
  8
0
  6
CONTINUOUS
 10
-354.21491757060312
 20
-438.76710364417278
 30
0.0
  0
VERTEX
  5
141A
  8
0
  6
CONTINUOUS
 10
-351.9754212242911
 20
-399.37934652327232
 30
0.0
  0
VERTEX
  5
141B
  8
0
  6
CONTINUOUS
 10
-349.63298189759172
 20
-364.36866966496478
 30
0.0
  0
VERTEX
  5
141C
  8
0
  6
CONTINUOUS
 10
-347.19990253723159
 20
-332.86931977042627
 30
0.0
  0
VERTEX
  5
141D
  8
0
  6
CONTINUOUS
 10
-344.68848608993687
 20
-304.01554354083231
 30
0.0
  0
VERTEX
  5
141E
  8
0
  6
CONTINUOUS
 10
-342.11103550243411
 20
-276.94158767735871
 30
0.0
  0
VERTEX
  5
141F
  8
0
  6
CONTINUOUS
 10
-336.80724369371012
 20
-224.6701238534738
 30
0.0
  0
VERTEX
  5
1420
  8
0
  6
CONTINUOUS
 10
-336.80724369371012
 20
-224.6701238534738
 30
0.0
  0
VERTEX
  5
1421
  8
0
  6
CONTINUOUS
 10
-331.37540097257431
 20
-170.41947956166831
 30
0.0
  0
VERTEX
  5
1422
  8
0
  6
CONTINUOUS
 10
-325.85618235135257
 20
-113.7165166788036
 30
0.0
  0
VERTEX
  5
1423
  8
0
  6
CONTINUOUS
 10
-314.6721186087658
 20
3.7766067386907798
 30
0.0
  0
SEQEND
  5
1424
  8
0
  6
CONTINUOUS
  0
POLYLINE
  5
450
  8
0
  6
CONTINUOUS
 66
     1
 10
0.0
 20
0.0
 30
0.0
  0
VERTEX
  5
1425
  8
0
  6
CONTINUOUS
 10
-314.6721186087658
 20
3.7766067386907798
 30
0.0
  0
VERTEX
  5
1426
  8
0
  6
CONTINUOUS
 10
-335.1714540604209
 20
-164.48365390275839
 30
0.0
  0
VERTEX
  5
1427
  8
0
  6
CONTINUOUS
 10
-357.31724472219781
 20
-348.03120324021592
 30
0.0
  0
VERTEX
  5
1428
  8
0
  6
CONTINUOUS
 10
-357.31724472219781
 20
-348.03120324021592
 30
0.0
  0
VERTEX
  5
1429
  8
0
  6
CONTINUOUS
 10
-361.90101863408478
 20
-386.90221946622182
 30
0.0
  0
VERTEX
  5
142A
  8
0
  6
CONTINUOUS
 10
-366.69238317264092
 20
-430.95936654022353
 30
0.0
  0
VERTEX
  5
142B
  8
0
  6
CONTINUOUS
 10
-369.1929603878022
 20
-456.20221391789971
 30
0.0
  0
VERTEX
  5
142C
  8
0
  6
CONTINUOUS
 10
-371.77789341268982
 20
-484.26496373478801
 30
0.0
  0
VERTEX
  5
142D
  8
0
  6
CONTINUOUS
 10
-374.45800163165632
 20
-515.65540589995965
 30
0.0
  0
VERTEX
  5
142E
  8
0
  6
CONTINUOUS
 10
-377.24410442905452
 20
-550.88133032248493
 30
0.0
  0
VERTEX
  5
142F
  8
0
  6
CONTINUOUS
 10
-377.24410442905452
 20
-550.88133032248493
 30
0.0
  0
VERTEX
  5
1430
  8
0
  6
CONTINUOUS
 10
-380.88015513524289
 20
-599.98554780294569
 30
0.0
  0
VERTEX
  5
1431
  8
0
  6
CONTINUOUS
 10
-384.42056009527471
 20
-647.13958455855732
 30
0.0
  0
VERTEX
  5
1432
  8
0
  6
CONTINUOUS
 10
-384.42056009527471
 20
-647.13958455855732
 30
0.0
  0
VERTEX
  5
1433
  8
0
  6
CONTINUOUS
 10
-386.04533339530639
 20
-667.84922108850674
 30
0.0
  0
VERTEX
  5
1434
  8
0
  6
CONTINUOUS
 10
-387.41172961660283
 20
-688.57000846537539
 30
0.0
  0
VERTEX
  5
1435
  8
0
  6
CONTINUOUS
 10
-387.94679219020878
 20
-699.78392000542203
 30
0.0
  0
VERTEX
  5
1436
  8
0
  6
CONTINUOUS
 10
-388.35576753511128
 20
-712.01982279802019
 30
0.0
  0
VERTEX
  5
1437
  8
0
  6
CONTINUOUS
 10
-388.61815799830401
 20
-725.61745135677711
 30
0.0
  0
VERTEX
  5
1438
  8
0
  6
CONTINUOUS
 10
-388.71346592677958
 20
-740.9165401952996
 30
0.0
  0
VERTEX
  5
1439
  8
0
  6
CONTINUOUS
 10
-388.71346592677958
 20
-740.9165401952996
 30
0.0
  0
VERTEX
  5
143A
  8
0
  6
CONTINUOUS
 10
-388.63742232002818
 20
-755.82214911234075
 30
0.0
  0
VERTEX
  5
143B
  8
0
  6
CONTINUOUS
 10
-388.3670315883686
 20
-771.55683990445561
 30
0.0
  0
VERTEX
  5
143C
  8
0
  6
CONTINUOUS
 10
-387.8518697422133
 20
-787.3835634068281
 30
0.0
  0
VERTEX
  5
143D
  8
0
  6
CONTINUOUS
 10
-387.04151279197481
 20
-802.5652704546402
 30
0.0
  0
VERTEX
  5
143E
  8
0
  6
CONTINUOUS
 10
-387.04151279197481
 20
-802.5652704546402
 30
0.0
  0
VERTEX
  5
143F
  8
0
  6
CONTINUOUS
 10
-385.93193777248382
 20
-816.58994593909529
 30
0.0
  0
VERTEX
  5
1440
  8
0
  6
CONTINUOUS
 10
-384.70472581624398
 20
-829.84571097548223
 30
0.0
  0
VERTEX
  5
1441
  8
0
  6
CONTINUOUS
 10
-383.58785908017722
 20
-842.94572073510972
 30
0.0
  0
VERTEX
  5
1442
  8
0
  6
CONTINUOUS
 10
-382.8093197212055
 20
-856.50313038928743
 30
0.0
  0
VERTEX
  5
1443
  8
0
  6
CONTINUOUS
 10
-382.8093197212055
 20
-856.50313038928743
 30
0.0
  0
VERTEX
  5
1444
  8
0
  6
CONTINUOUS
 10
-382.35427997188623
 20
-871.1829182495195
 30
0.0
  0
VERTEX
  5
1445
  8
0
  6
CONTINUOUS
 10
-381.9551019883375
 20
-879.21304970823223
 30
0.0
  0
VERTEX
  5
1446
  8
0
  6
CONTINUOUS
 10
-381.23667236731819
 20
-887.85735518808872
 30
0.0
  0
VERTEX
  5
1447
  8
0
  6
CONTINUOUS
 10
-380.04538143517033
 20
-897.23134644064953
 30
0.0
  0
VERTEX
  5
1448
  8
0
  6
CONTINUOUS
 10
-378.22761951823509
 20
-907.45053521747343
 30
0.0
  0
VERTEX
  5
1449
  8
0
  6
CONTINUOUS
 10
-377.0358089174544
 20
-912.91317609984685
 30
0.0
  0
VERTEX
  5
144A
  8
0
  6
CONTINUOUS
 10
-375.62977694285507
 20
-918.63043327012065
 30
0.0
  0
VERTEX
  5
144B
  8
0
  6
CONTINUOUS
 10
-373.99032238522972
 20
-924.61674569724039
 30
0.0
  0
VERTEX
  5
144C
  8
0
  6
CONTINUOUS
 10
-372.09824403537141
 20
-930.88655235015108
 30
0.0
  0
VERTEX
  5
144D
  8
0
  6
CONTINUOUS
 10
-372.09824403537141
 20
-930.88655235015108
 30
0.0
  0
VERTEX
  5
144E
  8
0
  6
CONTINUOUS
 10
-367.45252833949542
 20
-944.84629467450372
 30
0.0
  0
VERTEX
  5
144F
  8
0
  6
CONTINUOUS
 10
-365.07306120815019
 20
-951.97652605349299
 30
0.0
  0
VERTEX
  5
1450
  8
0
  6
CONTINUOUS
 10
-362.8657830175535
 20
-959.02400660639069
 30
0.0
  0
VERTEX
  5
1451
  8
0
  6
CONTINUOUS
 10
-362.8657830175535
 20
-959.02400660639069
 30
0.0
  0
VERTEX
  5
1452
  8
0
  6
CONTINUOUS
 10
-360.83359708791022
 20
-965.96526730888615
 30
0.0
  0
VERTEX
  5
1453
  8
0
  6
CONTINUOUS
 10
-357.99289006364631
 20
-972.37651029083202
 30
0.0
  0
VERTEX
  5
1454
  8
0
  6
CONTINUOUS
 10
-353.52025206598432
 20
-979.70582000939271
 30
0.0
  0
VERTEX
  5
1455
  8
0
  6
CONTINUOUS
 10
-349.66879113413711
 20
-984.83458221576461
 30
0.0
  0
VERTEX
  5
1456
  8
0
  6
CONTINUOUS
 10
-342.8717056765592
 20
-990.20475900619999
 30
0.0
  0
VERTEX
  5
1457
  8
0
  6
CONTINUOUS
 10
-335.07239512913321
 20
-993.92153291900161
 30
0.0
  0
VERTEX
  5
1458
  8
0
  6
CONTINUOUS
 10
-326.78699232577412
 20
-995.58143675953636
 30
0.0
  0
VERTEX
  5
1459
  8
0
  6
CONTINUOUS
 10
-326.78699232577412
 20
-995.58143675953636
 30
0.0
  0
VERTEX
  5
145A
  8
0
  6
CONTINUOUS
 10
-315.25966227957213
 20
-996.01559399550433
 30
0.0
  0
VERTEX
  5
145B
  8
0
  6
CONTINUOUS
 10
-302.1721186087658
 20
-996.22339326130896
 30
0.0
  0
SEQEND
  5
145C
  8
0
  6
CONTINUOUS
  0
POINT
  5
451
  8
0
  6
CONTINUOUS
 10
-362.8657830175535
 20
-959.02400660639069
 30
0.0
  0
POINT
  5
452
  8
0
  6
CONTINUOUS
 10
-372.09824403537141
 20
-930.88655235015108
 30
0.0
  0
POINT
  5
453
  8
0
  6
CONTINUOUS
 10
-382.8093197212055
 20
-856.50313038928743
 30
0.0
  0
TEXT
  5
454
  8
0
  6
CONTINUOUS
 10
-309.24575404102882
 20
-955.26260004952815
 30
0.0
 40
10.0
  1
0.3m/s
 50
0.0000025044781673
 41
0.5833333271245161
  7
STANDARD1
  0
TEXT
  5
455
  8
0
  6
CONTINUOUS
 10
-310.93799639970922
 20
-806.662566230989
 30
0.0
 40
10.0
  1
0.5m/s
 50
0.0000025044781673
 41
0.5833333271245161
  7
STANDARD1
  0
POINT
  5
456
  8
0
  6
CONTINUOUS
 10
-324.95057288178612
 20
-859.50873069119632
 30
0.0
  0
POINT
  5
457
  8
0
  6
CONTINUOUS
 10
-315.74399778042732
 20
-870.60966497009508
 30
0.0
  0
POINT
  5
458
  8
0
  6
CONTINUOUS
 10
-307.44555121260032
 20
-875.2817186094876
 30
0.0
  0
POINT
  5
459
  8
0
  6
CONTINUOUS
 10
-336.5487530020327
 20
-827.8178404659875
 30
0.0
  0
POINT
  5
45A
  8
0
  6
CONTINUOUS
 10
-296.89868600493139
 20
-875.2817186094876
 30
0.0
  0
POINT
  5
45B
  8
0
  6
CONTINUOUS
 10
-302.1721186087658
 20
-876.22339326130896
 30
0.0
  0
POINT
  5
45C
  8
0
  6
CONTINUOUS
 10
-302.1721186087658
 20
-876.22339326130896
 30
0.0
  0
POINT
  5
45D
  8
0
  6
CONTINUOUS
 10
-288.60023943710451
 20
-870.60966497009508
 30
0.0
  0
POINT
  5
45E
  8
0
  6
CONTINUOUS
 10
-279.39366433574571
 20
-859.50873069119632
 30
0.0
  0
POINT
  5
45F
  8
0
  6
CONTINUOUS
 10
-241.4784541999781
 20
-959.02400660639069
 30
0.0
  0
POINT
  5
460
  8
0
  6
CONTINUOUS
 10
-232.24599318216011
 20
-930.88655235015108
 30
0.0
  0
POINT
  5
461
  8
0
  6
CONTINUOUS
 10
-267.79548421549902
 20
-827.8178404659875
 30
0.0
  0
POINT
  5
462
  8
0
  6
CONTINUOUS
 10
-221.5349174963261
 20
-856.50313038928743
 30
0.0
  0
POINT
  5
463
  8
0
  6
CONTINUOUS
 10
-217.30272442555679
 20
-802.5652704546402
 30
0.0
  0
POINT
  5
464
  8
0
  6
CONTINUOUS
 10
-388.71346592677958
 20
-740.9165401952996
 30
0.0
  0
POINT
  5
465
  8
0
  6
CONTINUOUS
 10
-346.42670920513223
 20
-786.93050328311153
 30
0.0
  0
POINT
  5
466
  8
0
  6
CONTINUOUS
 10
-350.84940763102782
 20
-762.28440031078514
 30
0.0
  0
POINT
  5
467
  8
0
  6
CONTINUOUS
 10
-358.262301700161
 20
-687.01073118381805
 30
0.0
  0
POINT
  5
468
  8
0
  6
CONTINUOUS
 10
-359.87651301930367
 20
-603.80855016011537
 30
0.0
  0
POINT
  5
469
  8
0
  6
CONTINUOUS
 10
-377.24410442905452
 20
-550.88133032248493
 30
0.0
  0
POINT
  5
46A
  8
0
  6
CONTINUOUS
 10
-356.33916798980118
 20
-483.39769432649138
 30
0.0
  0
POINT
  5
46B
  8
0
  6
CONTINUOUS
 10
-257.91752801239932
 20
-786.93050328311153
 30
0.0
  0
POINT
  5
46C
  8
0
  6
CONTINUOUS
 10
-253.49482958650401
 20
-762.28440031078514
 30
0.0
  0
POINT
  5
46D
  8
0
  6
CONTINUOUS
 10
-215.63077129075199
 20
-740.9165401952996
 30
0.0
  0
POINT
  5
46E
  8
0
  6
CONTINUOUS
 10
-246.08193551737079
 20
-687.01073118381805
 30
0.0
  0
POINT
  5
46F
  8
0
  6
CONTINUOUS
 10
-219.923677122257
 20
-647.13958455855732
 30
0.0
  0
POINT
  5
470
  8
0
  6
CONTINUOUS
 10
-219.923677122257
 20
-647.13958455855732
 30
0.0
  0
POINT
  5
471
  8
0
  6
CONTINUOUS
 10
-244.4677241982279
 20
-603.80855016011537
 30
0.0
  0
POINT
  5
472
  8
0
  6
CONTINUOUS
 10
-227.10013278847691
 20
-550.88133032248493
 30
0.0
  0
POINT
  5
473
  8
0
  6
CONTINUOUS
 10
-248.00506922773059
 20
-483.39769432649138
 30
0.0
  0
POINT
  5
474
  8
0
  6
CONTINUOUS
 10
-58.329556678230631
 20
-965.02533357483583
 30
0.0
  0
POINT
  5
475
  8
0
  6
CONTINUOUS
 10
-74.789246920955634
 20
-917.81212476595203
 30
0.0
  0
POINT
  5
476
  8
0
  6
CONTINUOUS
 10
-93.229213192118834
 20
-801.08986129107711
 30
0.0
  0
TEXT
  5
477
  8
0
  6
CONTINUOUS
 10
-13.617407267666181
 20
-959.14310642112173
 30
0.0
 40
10.0
  1
0.3m/s
 50
0.0000025044781673
 41
0.5833333271245161
  7
STANDARD1
  0
TEXT
  5
478
  8
0
  6
CONTINUOUS
 10
-15.30964962634641
 20
-810.5430726025819
 30
0.0
 40
10.0
  1
0.5m/s
 50
0.0000025044781673
 41
0.5833333271245161
  7
STANDARD1
  0
POINT
  5
479
  8
0
  6
CONTINUOUS
 10
58.329556678230567
 20
-965.02533357483583
 30
0.0
  0
POINT
  5
47A
  8
0
  6
CONTINUOUS
 10
74.789246920955634
 20
-917.81212476595203
 30
0.0
  0
POINT
  5
47B
  8
0
  6
CONTINUOUS
 10
93.229213192118763
 20
-801.08986129107711
 30
0.0
  0
POINT
  5
47C
  8
0
  6
CONTINUOUS
 10
-93.368072311026992
 20
-596.33911075660967
 30
0.0
  0
POINT
  5
47D
  8
0
  6
CONTINUOUS
 10
96.183342928931097
 20
-707.95034618576153
 30
0.0
  0
POINT
  5
47E
  8
0
  6
CONTINUOUS
 10
93.368072311027063
 20
-596.33911075660967
 30
0.0
  0
POLYLINE
  5
47F
  8
0
  6
CONTINUOUS
 66
     1
 10
0.0
 20
0.0
 30
0.0
  0
VERTEX
  5
145D
  8
0
  6
CONTINUOUS
 10
-289.6721186087658
 20
3.7766067386907798
 30
0.0
  0
VERTEX
  5
145E
  8
0
  6
CONTINUOUS
 10
-285.87657415197663
 20
-56.214803781637137
 30
0.0
  0
VERTEX
  5
145F
  8
0
  6
CONTINUOUS
 10
-282.15658473650973
 20
-114.99925615427649
 30
0.0
  0
VERTEX
  5
1460
  8
0
  6
CONTINUOUS
 10
-282.15658473650973
 20
-114.99925615427649
 30
0.0
  0
VERTEX
  5
1461
  8
0
  6
CONTINUOUS
 10
-280.36331428332522
 20
-144.19719353441761
 30
0.0
  0
VERTEX
  5
1462
  8
0
  6
CONTINUOUS
 10
-278.70594671280742
 20
-176.45375159439641
 30
0.0
  0
VERTEX
  5
1463
  8
0
  6
CONTINUOUS
 10
-277.9588906841758
 20
-194.8734195523505
 30
0.0
  0
VERTEX
  5
1464
  8
0
  6
CONTINUOUS
 10
-277.28260738696309
 20
-215.4310300878945
 30
0.0
  0
VERTEX
  5
1465
  8
0
  6
CONTINUOUS
 10
-276.6893624914199
 20
-238.58434567023889
 30
0.0
  0
VERTEX
  5
1466
  8
0
  6
CONTINUOUS
 10
-276.1914216677979
 20
-264.79112876859392
 30
0.0
  0
VERTEX
  5
1467
  8
0
  6
CONTINUOUS
 10
-276.1914216677979
 20
-264.79112876859392
 30
0.0
  0
VERTEX
  5
1468
  8
0
  6
CONTINUOUS
 10
-275.83173271403638
 20
-294.72660154311382
 30
0.0
  0
VERTEX
  5
1469
  8
0
  6
CONTINUOUS
 10
-275.860023719536
 20
-323.11716771216612
 30
0.0
  0
VERTEX
  5
146A
  8
0
  6
CONTINUOUS
 10
-275.860023719536
 20
-323.11716771216612
 30
0.0
  0
VERTEX
  5
146B
  8
0
  6
CONTINUOUS
 10
-276.10488313753461
 20
-335.38456796006221
 30
0.0
  0
VERTEX
  5
146C
  8
0
  6
CONTINUOUS
 10
-276.54979352182221
 20
-347.16157325607031
 30
0.0
  0
VERTEX
  5
146D
  8
0
  6
CONTINUOUS
 10
-277.22976541442449
 20
-359.67519677582868
 30
0.0
  0
VERTEX
  5
146E
  8
0
  6
CONTINUOUS
 10
-278.17980935736767
 20
-374.15245169497632
 30
0.0
  0
VERTEX
  5
146F
  8
0
  6
CONTINUOUS
 10
-278.17980935736767
 20
-374.15245169497632
 30
0.0
  0
VERTEX
  5
1470
  8
0
  6
CONTINUOUS
 10
-278.77017526519637
 20
-381.7387261277882
 30
0.0
  0
VERTEX
  5
1471
  8
0
  6
CONTINUOUS
 10
-279.84898275067991
 20
-391.14604253485987
 30
0.0
  0
VERTEX
  5
1472
  8
0
  6
CONTINUOUS
 10
-279.84898275067991
 20
-391.14604253485987
 30
0.0
  0
VERTEX
  5
1473
  8
0
  6
CONTINUOUS
 10
-280.62399263978091
 20
-396.06675282645722
 30
0.0
  0
VERTEX
  5
1474
  8
0
  6
CONTINUOUS
 10
-281.95047099789201
 20
-401.90288165644682
 30
0.0
  0
VERTEX
  5
1475
  8
0
  6
CONTINUOUS
 10
-281.95047099789201
 20
-401.90288165644682
 30
0.0
  0
VERTEX
  5
1476
  8
0
  6
CONTINUOUS
 10
-284.02610007160951
 20
-408.89741475467679
 30
0.0
  0
VERTEX
  5
1477
  8
0
  6
CONTINUOUS
 10
-286.30454978071077
 20
-416.80710218791529
 30
0.0
  0
VERTEX
  5
1478
  8
0
  6
CONTINUOUS
 10
-286.30454978071077
 20
-416.80710218791529
 30
0.0
  0
VERTEX
  5
1479
  8
0
  6
CONTINUOUS
 10
-287.37672209135019
 20
-420.97758083896002
 30
0.0
  0
VERTEX
  5
147A
  8
0
  6
CONTINUOUS
 10
-288.73943761064521
 20
-425.15877370004682
 30
0.0
  0
VERTEX
  5
147B
  8
0
  6
CONTINUOUS
 10
-289.66191199238028
 20
-427.21374040889981
 30
0.0
  0
VERTEX
  5
147C
  8
0
  6
CONTINUOUS
 10
-290.8156176788886
 20
-429.22380860971572
 30
0.0
  0
VERTEX
  5
147D
  8
0
  6
CONTINUOUS
 10
-292.25341983770682
 20
-431.1731192823126
 30
0.0
  0
VERTEX
  5
147E
  8
0
  6
CONTINUOUS
 10
-294.0281836363713
 20
-433.04581340650719
 30
0.0
  0
VERTEX
  5
147F
  8
0
  6
CONTINUOUS
 10
-294.0281836363713
 20
-433.04581340650719
 30
0.0
  0
VERTEX
  5
1480
  8
0
  6
CONTINUOUS
 10
-295.42290040189039
 20
-434.21891548011149
 30
0.0
  0
VERTEX
  5
1481
  8
0
  6
CONTINUOUS
 10
-297.44948253874412
 20
-435.57747339974031
 30
0.0
  0
VERTEX
  5
1482
  8
0
  6
CONTINUOUS
 10
-297.44948253874412
 20
-435.57747339974031
 30
0.0
  0
VERTEX
  5
1483
  8
0
  6
CONTINUOUS
 10
-298.48109523163282
 20
-436.1651876221697
 30
0.0
  0
VERTEX
  5
1484
  8
0
  6
CONTINUOUS
 10
-299.63822285913972
 20
-436.65960010853712
 30
0.0
  0
VERTEX
  5
1485
  8
0
  6
CONTINUOUS
 10
-299.63822285913972
 20
-436.65960010853712
 30
0.0
  0
VERTEX
  5
1486
  8
0
  6
CONTINUOUS
 10
-300.88294546106857
 20
-436.94123414021311
 30
0.0
  0
VERTEX
  5
1487
  8
0
  6
CONTINUOUS
 10
-302.1721186087658
 20
-437.02447785135951
 30
0.0
  0
VERTEX
  5
1488
  8
0
  6
CONTINUOUS
 10
-302.1721186087658
 20
-437.02447785135951
 30
0.0
  0
VERTEX
  5
1489
  8
0
  6
CONTINUOUS
 10
-303.46129175646303
 20
-436.94123414021311
 30
0.0
  0
VERTEX
  5
148A
  8
0
  6
CONTINUOUS
 10
-304.70601435839228
 20
-436.65960010853712
 30
0.0
  0
VERTEX
  5
148B
  8
0
  6
CONTINUOUS
 10
-304.70601435839228
 20
-436.65960010853712
 30
0.0
  0
VERTEX
  5
148C
  8
0
  6
CONTINUOUS
 10
-305.86314198589901
 20
-436.1651876221697
 30
0.0
  0
VERTEX
  5
148D
  8
0
  6
CONTINUOUS
 10
-306.89475467878748
 20
-435.57747339974031
 30
0.0
  0
VERTEX
  5
148E
  8
0
  6
CONTINUOUS
 10
-306.89475467878748
 20
-435.57747339974031
 30
0.0
  0
VERTEX
  5
148F
  8
0
  6
CONTINUOUS
 10
-308.92133681564133
 20
-434.21891548011149
 30
0.0
  0
VERTEX
  5
1490
  8
0
  6
CONTINUOUS
 10
-310.3160535811603
 20
-433.04581340650719
 30
0.0
  0
VERTEX
  5
1491
  8
0
  6
CONTINUOUS
 10
-310.3160535811603
 20
-433.04581340650719
 30
0.0
  0
VERTEX
  5
1492
  8
0
  6
CONTINUOUS
 10
-312.0908173798249
 20
-431.1731192823126
 30
0.0
  0
VERTEX
  5
1493
  8
0
  6
CONTINUOUS
 10
-313.52861953864328
 20
-429.22380860971572
 30
0.0
  0
VERTEX
  5
1494
  8
0
  6
CONTINUOUS
 10
-314.68232522515149
 20
-427.21374040889981
 30
0.0
  0
VERTEX
  5
1495
  8
0
  6
CONTINUOUS
 10
-315.60479960688627
 20
-425.15877370004682
 30
0.0
  0
VERTEX
  5
1496
  8
0
  6
CONTINUOUS
 10
-316.96751512618169
 20
-420.97758083896002
 30
0.0
  0
VERTEX
  5
1497
  8
0
  6
CONTINUOUS
 10
-318.03968743682083
 20
-416.80710218791529
 30
0.0
  0
VERTEX
  5
1498
  8
0
  6
CONTINUOUS
 10
-318.03968743682083
 20
-416.80710218791529
 30
0.0
  0
VERTEX
  5
1499
  8
0
  6
CONTINUOUS
 10
-320.31813714592221
 20
-408.89741475467679
 30
0.0
  0
VERTEX
  5
149A
  8
0
  6
CONTINUOUS
 10
-322.39376621963982
 20
-401.90288165644682
 30
0.0
  0
VERTEX
  5
149B
  8
0
  6
CONTINUOUS
 10
-322.39376621963982
 20
-401.90288165644682
 30
0.0
  0
VERTEX
  5
149C
  8
0
  6
CONTINUOUS
 10
-323.72024457775092
 20
-396.06675282645722
 30
0.0
  0
VERTEX
  5
149D
  8
0
  6
CONTINUOUS
 10
-324.49525446685169
 20
-391.14604253485987
 30
0.0
  0
VERTEX
  5
149E
  8
0
  6
CONTINUOUS
 10
-324.49525446685169
 20
-391.14604253485987
 30
0.0
  0
VERTEX
  5
149F
  8
0
  6
CONTINUOUS
 10
-325.57406195233523
 20
-381.7387261277882
 30
0.0
  0
VERTEX
  5
14A0
  8
0
  6
CONTINUOUS
 10
-326.16442786016381
 20
-374.15245169497632
 30
0.0
  0
VERTEX
  5
14A1
  8
0
  6
CONTINUOUS
 10
-326.16442786016381
 20
-374.15245169497632
 30
0.0
  0
VERTEX
  5
14A2
  8
0
  6
CONTINUOUS
 10
-327.11447180310711
 20
-359.67519677582868
 30
0.0
  0
VERTEX
  5
14A3
  8
0
  6
CONTINUOUS
 10
-327.7944436957095
 20
-347.16157325607031
 30
0.0
  0
VERTEX
  5
14A4
  8
0
  6
CONTINUOUS
 10
-328.23935407999687
 20
-335.38456796006221
 30
0.0
  0
VERTEX
  5
14A5
  8
0
  6
CONTINUOUS
 10
-328.48421349799582
 20
-323.11716771216612
 30
0.0
  0
VERTEX
  5
14A6
  8
0
  6
CONTINUOUS
 10
-328.48421349799582
 20
-323.11716771216612
 30
0.0
  0
VERTEX
  5
14A7
  8
0
  6
CONTINUOUS
 10
-328.51250450349522
 20
-294.72660154311382
 30
0.0
  0
VERTEX
  5
14A8
  8
0
  6
CONTINUOUS
 10
-328.15281554973399
 20
-264.79112876859392
 30
0.0
  0
VERTEX
  5
14A9
  8
0
  6
CONTINUOUS
 10
-328.15281554973399
 20
-264.79112876859392
 30
0.0
  0
VERTEX
  5
14AA
  8
0
  6
CONTINUOUS
 10
-327.6548747261117
 20
-238.58434567023889
 30
0.0
  0
VERTEX
  5
14AB
  8
0
  6
CONTINUOUS
 10
-327.06162983056862
 20
-215.4310300878945
 30
0.0
  0
VERTEX
  5
14AC
  8
0
  6
CONTINUOUS
 10
-326.3853465333558
 20
-194.8734195523505
 30
0.0
  0
VERTEX
  5
14AD
  8
0
  6
CONTINUOUS
 10
-325.63829050472413
 20
-176.45375159439641
 30
0.0
  0
VERTEX
  5
14AE
  8
0
  6
CONTINUOUS
 10
-323.98092293420649
 20
-144.19719353441761
 30
0.0
  0
VERTEX
  5
14AF
  8
0
  6
CONTINUOUS
 10
-322.18765248102198
 20
-114.99925615427649
 30
0.0
  0
VERTEX
  5
14B0
  8
0
  6
CONTINUOUS
 10
-322.18765248102198
 20
-114.99925615427649
 30
0.0
  0
VERTEX
  5
14B1
  8
0
  6
CONTINUOUS
 10
-318.4676630655548
 20
-56.214803781637137
 30
0.0
  0
VERTEX
  5
14B2
  8
0
  6
CONTINUOUS
 10
-314.6721186087658
 20
3.7766067386907798
 30
0.0
  0
SEQEND
  5
14B3
  8
0
  6
CONTINUOUS
  0
POINT
  5
480
  8
0
  6
CONTINUOUS
 10
-357.31724472219781
 20
-348.03120324021592
 30
0.0
  0
POINT
  5
481
  8
0
  6
CONTINUOUS
 10
-306.89475467878748
 20
-435.57747339974031
 30
0.0
  0
POINT
  5
482
  8
0
  6
CONTINUOUS
 10
-310.3160535811603
 20
-433.04581340650719
 30
0.0
  0
POINT
  5
483
  8
0
  6
CONTINUOUS
 10
-324.49525446685169
 20
-391.14604253485987
 30
0.0
  0
POINT
  5
484
  8
0
  6
CONTINUOUS
 10
-318.03968743682083
 20
-416.80710218791529
 30
0.0
  0
POINT
  5
485
  8
0
  6
CONTINUOUS
 10
-322.39376621963982
 20
-401.90288165644682
 30
0.0
  0
POINT
  5
486
  8
0
  6
CONTINUOUS
 10
-299.63822285913972
 20
-436.65960010853712
 30
0.0
  0
POINT
  5
487
  8
0
  6
CONTINUOUS
 10
-297.44948253874412
 20
-435.57747339974031
 30
0.0
  0
POINT
  5
488
  8
0
  6
CONTINUOUS
 10
-304.70601435839228
 20
-436.65960010853712
 30
0.0
  0
POINT
  5
489
  8
0
  6
CONTINUOUS
 10
-302.1721186087658
 20
-437.02447785135951
 30
0.0
  0
POINT
  5
48A
  8
0
  6
CONTINUOUS
 10
-302.1721186087658
 20
-437.02447785135951
 30
0.0
  0
POINT
  5
48B
  8
0
  6
CONTINUOUS
 10
-294.0281836363713
 20
-433.04581340650719
 30
0.0
  0
POINT
  5
48C
  8
0
  6
CONTINUOUS
 10
-286.30454978071077
 20
-416.80710218791529
 30
0.0
  0
POINT
  5
48D
  8
0
  6
CONTINUOUS
 10
-279.84898275067991
 20
-391.14604253485987
 30
0.0
  0
POINT
  5
48E
  8
0
  6
CONTINUOUS
 10
-281.95047099789201
 20
-401.90288165644682
 30
0.0
  0
TEXT
  5
48F
  8
0
  6
CONTINUOUS
 10
-311.38842314557439
 20
-376.70409153520552
 30
0.0
 40
10.0
  1
1m/s
 50
0.0000025044781673
 41
0.5833333271245161
  7
STANDARD1
  0
POINT
  5
490
  8
0
  6
CONTINUOUS
 10
-326.16442786016381
 20
-374.15245169497632
 30
0.0
  0
POINT
  5
491
  8
0
  6
CONTINUOUS
 10
-326.16442786016381
 20
-374.15245169497632
 30
0.0
  0
POINT
  5
492
  8
0
  6
CONTINUOUS
 10
-328.48421349799582
 20
-323.11716771216612
 30
0.0
  0
POINT
  5
493
  8
0
  6
CONTINUOUS
 10
-278.17980935736767
 20
-374.15245169497632
 30
0.0
  0
POINT
  5
494
  8
0
  6
CONTINUOUS
 10
-278.17980935736767
 20
-374.15245169497632
 30
0.0
  0
POINT
  5
495
  8
0
  6
CONTINUOUS
 10
-275.860023719536
 20
-323.11716771216612
 30
0.0
  0
POINT
  5
496
  8
0
  6
CONTINUOUS
 10
-328.15281554973399
 20
-264.79112876859392
 30
0.0
  0
POINT
  5
497
  8
0
  6
CONTINUOUS
 10
-336.80724369371012
 20
-224.6701238534738
 30
0.0
  0
POINT
  5
498
  8
0
  6
CONTINUOUS
 10
-276.1914216677979
 20
-264.79112876859392
 30
0.0
  0
POINT
  5
499
  8
0
  6
CONTINUOUS
 10
-247.0269924953337
 20
-348.03120324021592
 30
0.0
  0
POINT
  5
49A
  8
0
  6
CONTINUOUS
 10
-267.53699352382159
 20
-224.6701238534738
 30
0.0
  0
POLYLINE
  5
49B
  8
0
  6
CONTINUOUS
 66
     1
 10
0.0
 20
0.0
 30
0.0
  0
VERTEX
  5
14B4
  8
0
  6
CONTINUOUS
 10
-289.6721186087658
 20
3.7766067386907798
 30
0.0
  0
VERTEX
  5
14B5
  8
0
  6
CONTINUOUS
 10
-289.56853021856028
 20
-1.7440919980364851
 30
0.0
  0
VERTEX
  5
14B6
  8
0
  6
CONTINUOUS
 10
-289.47796975378532
 20
-6.7897443064449252
 30
0.0
  0
VERTEX
  5
14B7
  8
0
  6
CONTINUOUS
 10
-289.47796975378532
 20
-6.7897443064449252
 30
0.0
  0
VERTEX
  5
14B8
  8
0
  6
CONTINUOUS
 10
-289.3399243141958
 20
-16.925908919841859
 30
0.0
  0
VERTEX
  5
14B9
  8
0
  6
CONTINUOUS
 10
-289.28962561018881
 20
-25.981186273735769
 30
0.0
  0
VERTEX
  5
14BA
  8
0
  6
CONTINUOUS
 10
-289.28962561018881
 20
-25.981186273735769
 30
0.0
  0
VERTEX
  5
14BB
  8
0
  6
CONTINUOUS
 10
-289.28348561739892
 20
-30.115112168634919
 30
0.0
  0
VERTEX
  5
14BC
  8
0
  6
CONTINUOUS
 10
-289.33156823431511
 20
-35.980635971998069
 30
0.0
  0
VERTEX
  5
14BD
  8
0
  6
CONTINUOUS
 10
-289.33156823431511
 20
-35.980635971998069
 30
0.0
  0
VERTEX
  5
14BE
  8
0
  6
CONTINUOUS
 10
-289.37006730719349
 20
-38.61281445744671
 30
0.0
  0
VERTEX
  5
14BF
  8
0
  6
CONTINUOUS
 10
-289.41311932195089
 20
-41.270909278262053
 30
0.0
  0
VERTEX
  5
14C0
  8
0
  6
CONTINUOUS
 10
-289.41311932195089
 20
-41.270909278262053
 30
0.0
  0
VERTEX
  5
14C1
  8
0
  6
CONTINUOUS
 10
-289.5838831522164
 20
-49.688772634745462
 30
0.0
  0
VERTEX
  5
14C2
  8
0
  6
CONTINUOUS
 10
-289.89391610358138
 20
-55.770004182319141
 30
0.0
  0
VERTEX
  5
14C3
  8
0
  6
CONTINUOUS
 10
-289.89391610358138
 20
-55.770004182319141
 30
0.0
  0
VERTEX
  5
14C4
  8
0
  6
CONTINUOUS
 10
-290.48668834337462
 20
-62.027158519025207
 30
0.0
  0
VERTEX
  5
14C5
  8
0
  6
CONTINUOUS
 10
-291.2074558986572
 20
-69.685515190007749
 30
0.0
  0
VERTEX
  5
14C6
  8
0
  6
CONTINUOUS
 10
-291.2074558986572
 20
-69.685515190007749
 30
0.0
  0
VERTEX
  5
14C7
  8
0
  6
CONTINUOUS
 10
-291.63881565639002
 20
-73.50718252286218
 30
0.0
  0
VERTEX
  5
14C8
  8
0
  6
CONTINUOUS
 10
-292.127078018605
 20
-75.69117949306991
 30
0.0
  0
VERTEX
  5
14C9
  8
0
  6
CONTINUOUS
 10
-292.94586156257918
 20
-78.12511604649653
 30
0.0
  0
VERTEX
  5
14CA
  8
0
  6
CONTINUOUS
 10
-292.94586156257918
 20
-78.12511604649653
 30
0.0
  0
VERTEX
  5
14CB
  8
0
  6
CONTINUOUS
 10
-294.0400522757098
 20
-80.435902146698325
 30
0.0
  0
VERTEX
  5
14CC
  8
0
  6
CONTINUOUS
 10
-294.81081795774912
 20
-81.651309157729088
 30
0.0
  0
VERTEX
  5
14CD
  8
0
  6
CONTINUOUS
 10
-295.78476809038301
 20
-82.894358217572915
 30
0.0
  0
VERTEX
  5
14CE
  8
0
  6
CONTINUOUS
 10
-295.78476809038301
 20
-82.894358217572915
 30
0.0
  0
VERTEX
  5
14CF
  8
0
  6
CONTINUOUS
 10
-296.83278913416018
 20
-83.907756588130184
 30
0.0
  0
VERTEX
  5
14D0
  8
0
  6
CONTINUOUS
 10
-298.53610404880908
 20
-84.863207068911393
 30
0.0
  0
VERTEX
  5
14D1
  8
0
  6
CONTINUOUS
 10
-298.53610404880908
 20
-84.863207068911393
 30
0.0
  0
VERTEX
  5
14D2
  8
0
  6
CONTINUOUS
 10
-299.42271415067881
 20
-85.178133158971391
 30
0.0
  0
VERTEX
  5
14D3
  8
0
  6
CONTINUOUS
 10
-300.36562266972669
 20
-85.386730485626984
 30
0.0
  0
VERTEX
  5
14D4
  8
0
  6
CONTINUOUS
 10
-300.36562266972669
 20
-85.386730485626984
 30
0.0
  0
VERTEX
  5
14D5
  8
0
  6
CONTINUOUS
 10
-301.28113154401069
 20
-85.437336634918239
 30
0.0
  0
VERTEX
  5
14D6
  8
0
  6
CONTINUOUS
 10
-302.1721186087658
 20
-85.424947475849635
 30
0.0
  0
VERTEX
  5
14D7
  8
0
  6
CONTINUOUS
 10
-302.1721186087658
 20
-85.424947475849635
 30
0.0
  0
VERTEX
  5
14D8
  8
0
  6
CONTINUOUS
 10
-303.06310567352108
 20
-85.437336634918239
 30
0.0
  0
VERTEX
  5
14D9
  8
0
  6
CONTINUOUS
 10
-303.97861454780508
 20
-85.386730485626984
 30
0.0
  0
VERTEX
  5
14DA
  8
0
  6
CONTINUOUS
 10
-303.97861454780508
 20
-85.386730485626984
 30
0.0
  0
VERTEX
  5
14DB
  8
0
  6
CONTINUOUS
 10
-304.92152306685301
 20
-85.178133158971391
 30
0.0
  0
VERTEX
  5
14DC
  8
0
  6
CONTINUOUS
 10
-305.80813316872269
 20
-84.863207068911393
 30
0.0
  0
VERTEX
  5
14DD
  8
0
  6
CONTINUOUS
 10
-305.80813316872269
 20
-84.863207068911393
 30
0.0
  0
VERTEX
  5
14DE
  8
0
  6
CONTINUOUS
 10
-307.51144808337142
 20
-83.907756588130184
 30
0.0
  0
VERTEX
  5
14DF
  8
0
  6
CONTINUOUS
 10
-308.55946912714882
 20
-82.894358217572915
 30
0.0
  0
VERTEX
  5
14E0
  8
0
  6
CONTINUOUS
 10
-308.55946912714882
 20
-82.894358217572915
 30
0.0
  0
VERTEX
  5
14E1
  8
0
  6
CONTINUOUS
 10
-309.53341925978248
 20
-81.651309157729088
 30
0.0
  0
VERTEX
  5
14E2
  8
0
  6
CONTINUOUS
 10
-310.30418494182157
 20
-80.435902146698325
 30
0.0
  0
VERTEX
  5
14E3
  8
0
  6
CONTINUOUS
 10
-311.39837565495247
 20
-78.12511604649653
 30
0.0
  0
VERTEX
  5
14E4
  8
0
  6
CONTINUOUS
 10
-311.39837565495247
 20
-78.12511604649653
 30
0.0
  0
VERTEX
  5
14E5
  8
0
  6
CONTINUOUS
 10
-312.21715919892682
 20
-75.69117949306991
 30
0.0
  0
VERTEX
  5
14E6
  8
0
  6
CONTINUOUS
 10
-312.7054215611418
 20
-73.50718252286218
 30
0.0
  0
VERTEX
  5
14E7
  8
0
  6
CONTINUOUS
 10
-313.13678131887451
 20
-69.685515190007749
 30
0.0
  0
VERTEX
  5
14E8
  8
0
  6
CONTINUOUS
 10
-313.13678131887451
 20
-69.685515190007749
 30
0.0
  0
VERTEX
  5
14E9
  8
0
  6
CONTINUOUS
 10
-313.85754887415709
 20
-62.027158519025207
 30
0.0
  0
VERTEX
  5
14EA
  8
0
  6
CONTINUOUS
 10
-314.45032111395022
 20
-55.770004182319141
 30
0.0
  0
VERTEX
  5
14EB
  8
0
  6
CONTINUOUS
 10
-314.45032111395022
 20
-55.770004182319141
 30
0.0
  0
VERTEX
  5
14EC
  8
0
  6
CONTINUOUS
 10
-314.76035406531531
 20
-49.688772634745462
 30
0.0
  0
VERTEX
  5
14ED
  8
0
  6
CONTINUOUS
 10
-314.93111789558083
 20
-41.270909278262053
 30
0.0
  0
VERTEX
  5
14EE
  8
0
  6
CONTINUOUS
 10
-314.93111789558083
 20
-41.270909278262053
 30
0.0
  0
VERTEX
  5
14EF
  8
0
  6
CONTINUOUS
 10
-314.97416991033828
 20
-38.61281445744671
 30
0.0
  0
VERTEX
  5
14F0
  8
0
  6
CONTINUOUS
 10
-315.01266898321632
 20
-35.980635971998069
 30
0.0
  0
VERTEX
  5
14F1
  8
0
  6
CONTINUOUS
 10
-315.01266898321632
 20
-35.980635971998069
 30
0.0
  0
VERTEX
  5
14F2
  8
0
  6
CONTINUOUS
 10
-315.0607516001329
 20
-30.115112168634919
 30
0.0
  0
VERTEX
  5
14F3
  8
0
  6
CONTINUOUS
 10
-315.05461160734279
 20
-25.981186273735769
 30
0.0
  0
VERTEX
  5
14F4
  8
0
  6
CONTINUOUS
 10
-315.05461160734279
 20
-25.981186273735769
 30
0.0
  0
VERTEX
  5
14F5
  8
0
  6
CONTINUOUS
 10
-315.00431290333569
 20
-16.925908919841859
 30
0.0
  0
VERTEX
  5
14F6
  8
0
  6
CONTINUOUS
 10
-314.86626746374628
 20
-6.7897443064449252
 30
0.0
  0
VERTEX
  5
14F7
  8
0
  6
CONTINUOUS
 10
-314.86626746374628
 20
-6.7897443064449252
 30
0.0
  0
VERTEX
  5
14F8
  8
0
  6
CONTINUOUS
 10
-314.77570699897132
 20
-1.7440919980364851
 30
0.0
  0
VERTEX
  5
14F9
  8
0
  6
CONTINUOUS
 10
-314.6721186087658
 20
3.7766067386907798
 30
0.0
  0
SEQEND
  5
14FA
  8
0
  6
CONTINUOUS
  0
TEXT
  5
49C
  8
0
  6
CONTINUOUS
 10
-308.68198061636599
 20
-75.958065408205741
 30
0.0
 40
10.0
  1
2m/s
 50
0.0000025044781673
 41
0.5833333271245161
  7
STANDARD1
  0
POINT
  5
49D
  8
0
  6
CONTINUOUS
 10
-322.18765248102198
 20
-114.99925615427649
 30
0.0
  0
POINT
  5
49E
  8
0
  6
CONTINUOUS
 10
-311.39837565495247
 20
-78.12511604649653
 30
0.0
  0
POINT
  5
49F
  8
0
  6
CONTINUOUS
 10
-308.55946912714882
 20
-82.894358217572915
 30
0.0
  0
POINT
  5
4A0
  8
0
  6
CONTINUOUS
 10
-305.80813316872269
 20
-84.863207068911393
 30
0.0
  0
POINT
  5
4A1
  8
0
  6
CONTINUOUS
 10
-314.45032111395022
 20
-55.770004182319141
 30
0.0
  0
POINT
  5
4A2
  8
0
  6
CONTINUOUS
 10
-313.13678131887451
 20
-69.685515190007749
 30
0.0
  0
POINT
  5
4A3
  8
0
  6
CONTINUOUS
 10
-282.15658473650973
 20
-114.99925615427649
 30
0.0
  0
POINT
  5
4A4
  8
0
  6
CONTINUOUS
 10
-298.53610404880908
 20
-84.863207068911393
 30
0.0
  0
POINT
  5
4A5
  8
0
  6
CONTINUOUS
 10
-295.78476809038301
 20
-82.894358217572915
 30
0.0
  0
POINT
  5
4A6
  8
0
  6
CONTINUOUS
 10
-302.1721186087658
 20
-85.424947475849635
 30
0.0
  0
POINT
  5
4A7
  8
0
  6
CONTINUOUS
 10
-303.97861454780508
 20
-85.386730485626984
 30
0.0
  0
POINT
  5
4A8
  8
0
  6
CONTINUOUS
 10
-302.1721186087658
 20
-85.424947475849635
 30
0.0
  0
POINT
  5
4A9
  8
0
  6
CONTINUOUS
 10
-300.36562266972669
 20
-85.386730485626984
 30
0.0
  0
POINT
  5
4AA
  8
0
  6
CONTINUOUS
 10
-292.94586156257918
 20
-78.12511604649653
 30
0.0
  0
POINT
  5
4AB
  8
0
  6
CONTINUOUS
 10
-289.89391610358138
 20
-55.770004182319141
 30
0.0
  0
POINT
  5
4AC
  8
0
  6
CONTINUOUS
 10
-291.2074558986572
 20
-69.685515190007749
 30
0.0
  0
LINE
  5
4AD
  8
0
  6
CONTINUOUS
 10
-288.97211860876581
 20
3.7766067386907798
 30
0.0
 11
-315.3721186087659
 21
3.7766067386907798
 31
0.0
  0
LINE
  5
4AE
  8
0
  6
CONTINUOUS
 10
-288.97211860876581
 20
3.0766067386907769
 30
0.0
 11
-315.3721186087659
 21
3.0766067386907769
 31
0.0
  0
POINT
  5
4AF
  8
0
  6
CONTINUOUS
 10
-315.01266898321632
 20
-35.980635971998069
 30
0.0
  0
POINT
  5
4B0
  8
0
  6
CONTINUOUS
 10
-314.93111789558083
 20
-41.270909278262053
 30
0.0
  0
POINT
  5
4B1
  8
0
  6
CONTINUOUS
 10
-315.05461160734279
 20
-25.981186273735769
 30
0.0
  0
POINT
  5
4B2
  8
0
  6
CONTINUOUS
 10
-314.6721186087658
 20
3.7766067386907798
 30
0.0
  0
POINT
  5
4B3
  8
0
  6
CONTINUOUS
 10
-314.6721186087658
 20
3.7766067386907798
 30
0.0
  0
POINT
  5
4B4
  8
0
  6
CONTINUOUS
 10
-314.6721186087658
 20
3.7766067386907798
 30
0.0
  0
POINT
  5
4B5
  8
0
  6
CONTINUOUS
 10
-314.6721186087658
 20
3.7766067386907798
 30
0.0
  0
LINE
  5
4B6
  8
0
  6
CONTINUOUS
 10
-315.3721186087659
 20
3.7766067386907798
 30
0.0
 11
-315.3721186087659
 21
3.0766067386907769
 31
0.0
  0
POINT
  5
4B7
  8
0
  6
CONTINUOUS
 10
-314.86626746374628
 20
-6.7897443064449252
 30
0.0
  0
POINT
  5
4B8
  8
0
  6
CONTINUOUS
 10
-289.33156823431511
 20
-35.980635971998069
 30
0.0
  0
POINT
  5
4B9
  8
0
  6
CONTINUOUS
 10
-289.41311932195089
 20
-41.270909278262053
 30
0.0
  0
POINT
  5
4BA
  8
0
  6
CONTINUOUS
 10
-289.28962561018881
 20
-25.981186273735769
 30
0.0
  0
LINE
  5
4BB
  8
0
  6
DASHDOT
 10
-302.1721186087658
 20
8.7766067386907824
 30
0.0
 11
-302.1721186087658
 21
-1.2233932613092171
 31
0.0
  0
POINT
  5
4BC
  8
0
  6
CONTINUOUS
 10
-289.6721186087658
 20
3.7766067386907798
 30
0.0
  0
POINT
  5
4BD
  8
0
  6
CONTINUOUS
 10
-289.6721186087658
 20
3.7766067386907798
 30
0.0
  0
POINT
  5
4BE
  8
0
  6
CONTINUOUS
 10
-289.6721186087658
 20
3.7766067386907798
 30
0.0
  0
POINT
  5
4BF
  8
0
  6
CONTINUOUS
 10
-289.6721186087658
 20
3.7766067386907798
 30
0.0
  0
LINE
  5
4C0
  8
0
  6
CONTINUOUS
 10
-288.97211860876581
 20
3.7766067386907798
 30
0.0
 11
-288.97211860876581
 21
3.0766067386907769
 31
0.0
  0
POINT
  5
4C1
  8
0
  6
CONTINUOUS
 10
-289.47796975378532
 20
-6.7897443064449252
 30
0.0
  0
POLYLINE
  5
4C2
  8
0
  6
CONTINUOUS
 66
     1
 10
0.0
 20
0.0
 30
0.0
  0
VERTEX
  5
14FB
  8
0
  6
CONTINUOUS
 10
62.5
 20
-0.0000000000000004
 30
0.0
  0
VERTEX
  5
14FC
  8
0
  6
CONTINUOUS
 10
59.248438763486433
 20
-59.16247225339621
 30
0.0
  0
VERTEX
  5
14FD
  8
0
  6
CONTINUOUS
 10
56.006701235297783
 20
-119.56017712177299
 30
0.0
  0
VERTEX
  5
14FE
  8
0
  6
CONTINUOUS
 10
56.006701235297783
 20
-119.56017712177299
 30
0.0
  0
VERTEX
  5
14FF
  8
0
  6
CONTINUOUS
 10
52.917835164945473
 20
-180.5223195674846
 30
0.0
  0
VERTEX
  5
1500
  8
0
  6
CONTINUOUS
 10
51.633634897089557
 20
-208.7420235950828
 30
0.0
  0
VERTEX
  5
1501
  8
0
  6
CONTINUOUS
 10
50.657784466687637
 20
-233.75399394237971
 30
0.0
  0
VERTEX
  5
1502
  8
0
  6
CONTINUOUS
 10
50.657784466687637
 20
-233.75399394237971
 30
0.0
  0
VERTEX
  5
1503
  8
0
  6
CONTINUOUS
 10
49.981012096466657
 20
-254.9833655073229
 30
0.0
  0
VERTEX
  5
1504
  8
0
  6
CONTINUOUS
 10
49.152374922338879
 20
-274.6562794300404
 30
0.0
  0
VERTEX
  5
1505
  8
0
  6
CONTINUOUS
 10
48.505681835125067
 20
-284.82356249452459
 30
0.0
  0
VERTEX
  5
1506
  8
0
  6
CONTINUOUS
 10
47.610512308512789
 20
-295.69912841120481
 30
0.0
  0
VERTEX
  5
1507
  8
0
  6
CONTINUOUS
 10
46.396696263028034
 20
-307.6487762676648
 30
0.0
  0
VERTEX
  5
1508
  8
0
  6
CONTINUOUS
 10
44.794063619196884
 20
-321.03830515148849
 30
0.0
  0
VERTEX
  5
1509
  8
0
  6
CONTINUOUS
 10
44.794063619196884
 20
-321.03830515148849
 30
0.0
  0
VERTEX
  5
150A
  8
0
  6
CONTINUOUS
 10
42.396778112236632
 20
-339.99622216644519
 30
0.0
  0
VERTEX
  5
150B
  8
0
  6
CONTINUOUS
 10
41.325460343916113
 20
-350.42372339538161
 30
0.0
  0
VERTEX
  5
150C
  8
0
  6
CONTINUOUS
 10
40.547673536169732
 20
-361.43579274782371
 30
0.0
  0
VERTEX
  5
150D
  8
0
  6
CONTINUOUS
 10
40.547673536169732
 20
-361.43579274782371
 30
0.0
  0
VERTEX
  5
150E
  8
0
  6
CONTINUOUS
 10
40.018487446261013
 20
-373.03903040467799
 30
0.0
  0
VERTEX
  5
150F
  8
0
  6
CONTINUOUS
 10
39.593897504568133
 20
-379.1148038744887
 30
0.0
  0
VERTEX
  5
1510
  8
0
  6
CONTINUOUS
 10
38.887307949103899
 20
-385.40981834287862
 30
0.0
  0
VERTEX
  5
1511
  8
0
  6
CONTINUOUS
 10
37.767217517909152
 20
-391.9514272380905
 30
0.0
  0
VERTEX
  5
1512
  8
0
  6
CONTINUOUS
 10
36.102124949024741
 20
-398.7669839883668
 30
0.0
  0
VERTEX
  5
1513
  8
0
  6
CONTINUOUS
 10
35.02410871858666
 20
-402.2860407554802
 30
0.0
  0
VERTEX
  5
1514
  8
0
  6
CONTINUOUS
 10
33.760528980491472
 20
-405.88384202195061
 30
0.0
  0
VERTEX
  5
1515
  8
0
  6
CONTINUOUS
 10
32.29494807699416
 20
-409.5638069663085
 30
0.0
  0
VERTEX
  5
1516
  8
0
  6
CONTINUOUS
 10
30.610928350350029
 20
-413.329354767084
 30
0.0
  0
VERTEX
  5
1517
  8
0
  6
CONTINUOUS
 10
30.610928350350029
 20
-413.329354767084
 30
0.0
  0
VERTEX
  5
1518
  8
0
  6
CONTINUOUS
 10
27.027644971778841
 20
-420.53240689786293
 30
0.0
  0
VERTEX
  5
1519
  8
0
  6
CONTINUOUS
 10
24.99992791799809
 20
-424.6512055133432
 30
0.0
  0
VERTEX
  5
151A
  8
0
  6
CONTINUOUS
 10
22.84041113843163
 20
-429.33332662651083
 30
0.0
  0
VERTEX
  5
151B
  8
0
  6
CONTINUOUS
 10
22.84041113843163
 20
-429.33332662651083
 30
0.0
  0
VERTEX
  5
151C
  8
0
  6
CONTINUOUS
 10
21.881638152714441
 20
-431.43141961227849
 30
0.0
  0
VERTEX
  5
151D
  8
0
  6
CONTINUOUS
 10
20.635561990603371
 20
-433.60094260982157
 30
0.0
  0
VERTEX
  5
151E
  8
0
  6
CONTINUOUS
 10
18.833595897562962
 20
-435.79246647200603
 30
0.0
  0
VERTEX
  5
151F
  8
0
  6
CONTINUOUS
 10
17.64022076615197
 20
-436.8810321188592
 30
0.0
  0
VERTEX
  5
1520
  8
0
  6
CONTINUOUS
 10
16.20715311905775
 20
-437.9565620516974
 30
0.0
  0
VERTEX
  5
1521
  8
0
  6
CONTINUOUS
 10
16.20715311905775
 20
-437.9565620516974
 30
0.0
  0
VERTEX
  5
1522
  8
0
  6
CONTINUOUS
 10
13.693405750451801
 20
-439.44177398633951
 30
0.0
  0
VERTEX
  5
1523
  8
0
  6
CONTINUOUS
 10
10.90054670355817
 20
-440.60986525944458
 30
0.0
  0
VERTEX
  5
1524
  8
0
  6
CONTINUOUS
 10
10.90054670355817
 20
-440.60986525944458
 30
0.0
  0
VERTEX
  5
1525
  8
0
  6
CONTINUOUS
 10
8.0835404237286621
 20
-441.2745641329908
 30
0.0
  0
VERTEX
  5
1526
  8
0
  6
CONTINUOUS
 10
5.32201404467747
 20
-441.61045427400018
 30
0.0
  0
VERTEX
  5
1527
  8
0
  6
CONTINUOUS
 10
5.32201404467747
 20
-441.61045427400018
 30
0.0
  0
VERTEX
  5
1528
  8
0
  6
CONTINUOUS
 10
2.638188845693036
 20
-441.82722284890548
 30
0.0
  0
VERTEX
  5
1529
  8
0
  6
CONTINUOUS
 10
0.0000000000000568
 20
-441.91411561672538
 30
0.0
  0
VERTEX
  5
152A
  8
0
  6
CONTINUOUS
 10
0.0000000000000568
 20
-441.91411561672538
 30
0.0
  0
VERTEX
  5
152B
  8
0
  6
CONTINUOUS
 10
-2.6381888456929801
 20
-441.82722284890548
 30
0.0
  0
VERTEX
  5
152C
  8
0
  6
CONTINUOUS
 10
-5.3220140446773012
 20
-441.61045427400018
 30
0.0
  0
VERTEX
  5
152D
  8
0
  6
CONTINUOUS
 10
-5.3220140446773012
 20
-441.61045427400018
 30
0.0
  0
VERTEX
  5
152E
  8
0
  6
CONTINUOUS
 10
-8.083540423728607
 20
-441.2745641329908
 30
0.0
  0
VERTEX
  5
152F
  8
0
  6
CONTINUOUS
 10
-10.90054670355806
 20
-440.60986525944458
 30
0.0
  0
VERTEX
  5
1530
  8
0
  6
CONTINUOUS
 10
-10.90054670355806
 20
-440.60986525944458
 30
0.0
  0
VERTEX
  5
1531
  8
0
  6
CONTINUOUS
 10
-13.69340575045169
 20
-439.44177398633951
 30
0.0
  0
VERTEX
  5
1532
  8
0
  6
CONTINUOUS
 10
-16.207153119057619
 20
-437.9565620516974
 30
0.0
  0
VERTEX
  5
1533
  8
0
  6
CONTINUOUS
 10
-16.207153119057619
 20
-437.9565620516974
 30
0.0
  0
VERTEX
  5
1534
  8
0
  6
CONTINUOUS
 10
-17.640220766151849
 20
-436.8810321188592
 30
0.0
  0
VERTEX
  5
1535
  8
0
  6
CONTINUOUS
 10
-18.833595897562851
 20
-435.79246647200603
 30
0.0
  0
VERTEX
  5
1536
  8
0
  6
CONTINUOUS
 10
-20.635561990603261
 20
-433.60094260982157
 30
0.0
  0
VERTEX
  5
1537
  8
0
  6
CONTINUOUS
 10
-21.88163815271432
 20
-431.43141961227849
 30
0.0
  0
VERTEX
  5
1538
  8
0
  6
CONTINUOUS
 10
-22.840411138431531
 20
-429.33332662651083
 30
0.0
  0
VERTEX
  5
1539
  8
0
  6
CONTINUOUS
 10
-22.840411138431531
 20
-429.33332662651083
 30
0.0
  0
VERTEX
  5
153A
  8
0
  6
CONTINUOUS
 10
-24.999927917997969
 20
-424.6512055133432
 30
0.0
  0
VERTEX
  5
153B
  8
0
  6
CONTINUOUS
 10
-27.02764497177871
 20
-420.53240689786293
 30
0.0
  0
VERTEX
  5
153C
  8
0
  6
CONTINUOUS
 10
-30.61092835034993
 20
-413.329354767084
 30
0.0
  0
VERTEX
  5
153D
  8
0
  6
CONTINUOUS
 10
-30.61092835034993
 20
-413.329354767084
 30
0.0
  0
VERTEX
  5
153E
  8
0
  6
CONTINUOUS
 10
-32.294948076994046
 20
-409.5638069663085
 30
0.0
  0
VERTEX
  5
153F
  8
0
  6
CONTINUOUS
 10
-33.760528980491351
 20
-405.88384202195061
 30
0.0
  0
VERTEX
  5
1540
  8
0
  6
CONTINUOUS
 10
-35.02410871858649
 20
-402.2860407554802
 30
0.0
  0
VERTEX
  5
1541
  8
0
  6
CONTINUOUS
 10
-36.102124949024642
 20
-398.7669839883668
 30
0.0
  0
VERTEX
  5
1542
  8
0
  6
CONTINUOUS
 10
-37.767217517909032
 20
-391.9514272380905
 30
0.0
  0
VERTEX
  5
1543
  8
0
  6
CONTINUOUS
 10
-38.887307949103779
 20
-385.40981834287862
 30
0.0
  0
VERTEX
  5
1544
  8
0
  6
CONTINUOUS
 10
-39.593897504568041
 20
-379.1148038744887
 30
0.0
  0
VERTEX
  5
1545
  8
0
  6
CONTINUOUS
 10
-40.018487446260899
 20
-373.03903040467799
 30
0.0
  0
VERTEX
  5
1546
  8
0
  6
CONTINUOUS
 10
-40.547673536169611
 20
-361.43579274782371
 30
0.0
  0
VERTEX
  5
1547
  8
0
  6
CONTINUOUS
 10
-40.547673536169611
 20
-361.43579274782371
 30
0.0
  0
VERTEX
  5
1548
  8
0
  6
CONTINUOUS
 10
-41.325460343915942
 20
-350.42372339538161
 30
0.0
  0
VERTEX
  5
1549
  8
0
  6
CONTINUOUS
 10
-42.396778112236447
 20
-339.99622216644519
 30
0.0
  0
VERTEX
  5
154A
  8
0
  6
CONTINUOUS
 10
-44.794063619196777
 20
-321.03830515148849
 30
0.0
  0
VERTEX
  5
154B
  8
0
  6
CONTINUOUS
 10
-44.794063619196777
 20
-321.03830515148849
 30
0.0
  0
VERTEX
  5
154C
  8
0
  6
CONTINUOUS
 10
-46.396696263027877
 20
-307.6487762676648
 30
0.0
  0
VERTEX
  5
154D
  8
0
  6
CONTINUOUS
 10
-47.610512308512682
 20
-295.69912841120481
 30
0.0
  0
VERTEX
  5
154E
  8
0
  6
CONTINUOUS
 10
-48.505681835124982
 20
-284.82356249452459
 30
0.0
  0
VERTEX
  5
154F
  8
0
  6
CONTINUOUS
 10
-49.152374922338772
 20
-274.6562794300404
 30
0.0
  0
VERTEX
  5
1550
  8
0
  6
CONTINUOUS
 10
-49.981012096466543
 20
-254.9833655073229
 30
0.0
  0
VERTEX
  5
1551
  8
0
  6
CONTINUOUS
 10
-50.657784466687481
 20
-233.75399394237971
 30
0.0
  0
VERTEX
  5
1552
  8
0
  6
CONTINUOUS
 10
-50.657784466687481
 20
-233.75399394237971
 30
0.0
  0
VERTEX
  5
1553
  8
0
  6
CONTINUOUS
 10
-51.633634897089379
 20
-208.7420235950828
 30
0.0
  0
VERTEX
  5
1554
  8
0
  6
CONTINUOUS
 10
-52.917835164945402
 20
-180.5223195674846
 30
0.0
  0
VERTEX
  5
1555
  8
0
  6
CONTINUOUS
 10
-56.006701235297577
 20
-119.56017712177299
 30
0.0
  0
VERTEX
  5
1556
  8
0
  6
CONTINUOUS
 10
-56.006701235297577
 20
-119.56017712177299
 30
0.0
  0
VERTEX
  5
1557
  8
0
  6
CONTINUOUS
 10
-59.24843876348622
 20
-59.16247225339621
 30
0.0
  0
VERTEX
  5
1558
  8
0
  6
CONTINUOUS
 10
-62.499999999999922
 20
-0.0000000000000004
 30
0.0
  0
SEQEND
  5
1559
  8
0
  6
CONTINUOUS
  0
POINT
  5
4C3
  8
0
  6
CONTINUOUS
 10
-81.920005021185062
 20
-401.38636978622691
 30
0.0
  0
POINT
  5
4C4
  8
0
  6
CONTINUOUS
 10
-22.840411138431531
 20
-429.33332662651083
 30
0.0
  0
POINT
  5
4C5
  8
0
  6
CONTINUOUS
 10
-16.207153119057619
 20
-437.9565620516974
 30
0.0
  0
POINT
  5
4C6
  8
0
  6
CONTINUOUS
 10
-30.61092835034993
 20
-413.329354767084
 30
0.0
  0
POINT
  5
4C7
  8
0
  6
CONTINUOUS
 10
-5.3220140446773012
 20
-441.61045427400018
 30
0.0
  0
POINT
  5
4C8
  8
0
  6
CONTINUOUS
 10
-10.90054670355806
 20
-440.60986525944458
 30
0.0
  0
POINT
  5
4C9
  8
0
  6
CONTINUOUS
 10
5.32201404467747
 20
-441.61045427400018
 30
0.0
  0
POINT
  5
4CA
  8
0
  6
CONTINUOUS
 10
0.0000000000000568
 20
-441.91411561672538
 30
0.0
  0
POINT
  5
4CB
  8
0
  6
CONTINUOUS
 10
0.0000000000000568
 20
-441.91411561672538
 30
0.0
  0
POINT
  5
4CC
  8
0
  6
CONTINUOUS
 10
10.90054670355817
 20
-440.60986525944458
 30
0.0
  0
POINT
  5
4CD
  8
0
  6
CONTINUOUS
 10
22.84041113843163
 20
-429.33332662651083
 30
0.0
  0
POINT
  5
4CE
  8
0
  6
CONTINUOUS
 10
16.20715311905775
 20
-437.9565620516974
 30
0.0
  0
TEXT
  5
4CF
  8
0
  6
CONTINUOUS
 10
-15.76007637221152
 20
-380.58459790679882
 30
0.0
 40
10.0
  1
1m/s
 50
0.0000025044781673
 41
0.5833333271245161
  7
STANDARD1
  0
POINT
  5
4D0
  8
0
  6
CONTINUOUS
 10
-40.547673536169611
 20
-361.43579274782371
 30
0.0
  0
POINT
  5
4D1
  8
0
  6
CONTINUOUS
 10
-44.794063619196777
 20
-321.03830515148849
 30
0.0
  0
POINT
  5
4D2
  8
0
  6
CONTINUOUS
 10
-74.130037919204625
 20
-259.28242870758947
 30
0.0
  0
POINT
  5
4D3
  8
0
  6
CONTINUOUS
 10
-74.130037919204625
 20
-259.28242870758947
 30
0.0
  0
POINT
  5
4D4
  8
0
  6
CONTINUOUS
 10
-50.657784466687481
 20
-233.75399394237971
 30
0.0
  0
POINT
  5
4D5
  8
0
  6
CONTINUOUS
 10
-69.038134912473964
 20
-153.5172099571331
 30
0.0
  0
POINT
  5
4D6
  8
0
  6
CONTINUOUS
 10
30.610928350350029
 20
-413.329354767084
 30
0.0
  0
POINT
  5
4D7
  8
0
  6
CONTINUOUS
 10
81.920005021185005
 20
-401.38636978622691
 30
0.0
  0
POINT
  5
4D8
  8
0
  6
CONTINUOUS
 10
40.547673536169732
 20
-361.43579274782371
 30
0.0
  0
POINT
  5
4D9
  8
0
  6
CONTINUOUS
 10
44.794063619196884
 20
-321.03830515148849
 30
0.0
  0
POINT
  5
4DA
  8
0
  6
CONTINUOUS
 10
50.657784466687637
 20
-233.75399394237971
 30
0.0
  0
POINT
  5
4DB
  8
0
  6
CONTINUOUS
 10
74.130037919204682
 20
-259.2824287075897
 30
0.0
  0
POINT
  5
4DC
  8
0
  6
CONTINUOUS
 10
74.130037919204682
 20
-259.2824287075897
 30
0.0
  0
POINT
  5
4DD
  8
0
  6
CONTINUOUS
 10
69.038134912473993
 20
-153.5172099571331
 30
0.0
  0
POLYLINE
  5
4DE
  8
0
  6
CONTINUOUS
 66
     1
 10
0.0
 20
0.0
 30
0.0
  0
VERTEX
  5
155A
  8
0
  6
CONTINUOUS
 10
62.500086156808607
 20
-0.0021903049312191
 30
0.0
  0
VERTEX
  5
155B
  8
0
  6
CONTINUOUS
 10
59.961261400850489
 20
-20.12991709228822
 30
0.0
  0
VERTEX
  5
155C
  8
0
  6
CONTINUOUS
 10
58.163663949855128
 20
-33.03847981145902
 30
0.0
  0
VERTEX
  5
155D
  8
0
  6
CONTINUOUS
 10
55.73224441124011
 20
-49.360681721220601
 30
0.0
  0
VERTEX
  5
155E
  8
0
  6
CONTINUOUS
 10
55.73224441124011
 20
-49.360681721220601
 30
0.0
  0
VERTEX
  5
155F
  8
0
  6
CONTINUOUS
 10
54.008170132915332
 20
-60.028017031570641
 30
0.0
  0
VERTEX
  5
1560
  8
0
  6
CONTINUOUS
 10
53.024195341460057
 20
-65.218894669052503
 30
0.0
  0
VERTEX
  5
1561
  8
0
  6
CONTINUOUS
 10
51.946962732597612
 20
-69.952614053033642
 30
0.0
  0
VERTEX
  5
1562
  8
0
  6
CONTINUOUS
 10
51.946962732597612
 20
-69.952614053033642
 30
0.0
  0
VERTEX
  5
1563
  8
0
  6
CONTINUOUS
 10
50.766528898501861
 20
-74.028780372268244
 30
0.0
  0
VERTEX
  5
1564
  8
0
  6
CONTINUOUS
 10
49.469074947680582
 20
-77.531314295642986
 30
0.0
  0
VERTEX
  5
1565
  8
0
  6
CONTINUOUS
 10
48.039813117724741
 20
-80.615215362076952
 30
0.0
  0
VERTEX
  5
1566
  8
0
  6
CONTINUOUS
 10
46.463955646225251
 20
-83.435483110490239
 30
0.0
  0
VERTEX
  5
1567
  8
0
  6
CONTINUOUS
 10
46.463955646225251
 20
-83.435483110490239
 30
0.0
  0
VERTEX
  5
1568
  8
0
  6
CONTINUOUS
 10
44.727037200413399
 20
-86.09137329972998
 30
0.0
  0
VERTEX
  5
1569
  8
0
  6
CONTINUOUS
 10
42.815882166080769
 20
-88.459166568356466
 30
0.0
  0
VERTEX
  5
156A
  8
0
  6
CONTINUOUS
 10
40.71763735865931
 20
-90.359399774857508
 30
0.0
  0
VERTEX
  5
156B
  8
0
  6
CONTINUOUS
 10
39.594339669862791
 20
-91.078099123088563
 30
0.0
  0
VERTEX
  5
156C
  8
0
  6
CONTINUOUS
 10
38.419449593581142
 20
-91.612609777721232
 30
0.0
  0
VERTEX
  5
156D
  8
0
  6
CONTINUOUS
 10
38.419449593581142
 20
-91.612609777721232
 30
0.0
  0
VERTEX
  5
156E
  8
0
  6
CONTINUOUS
 10
37.195248603686359
 20
-91.947566584214215
 30
0.0
  0
VERTEX
  5
156F
  8
0
  6
CONTINUOUS
 10
35.939570661823829
 20
-92.095875340616288
 30
0.0
  0
VERTEX
  5
1570
  8
0
  6
CONTINUOUS
 10
34.674137851581811
 20
-92.077509583124225
 30
0.0
  0
VERTEX
  5
1571
  8
0
  6
CONTINUOUS
 10
33.420672256548741
 20
-91.912442847934358
 30
0.0
  0
VERTEX
  5
1572
  8
0
  6
CONTINUOUS
 10
31.036531046463079
 20
-91.222100589247589
 30
0.0
  0
VERTEX
  5
1573
  8
0
  6
CONTINUOUS
 10
28.960923700273842
 20
-90.184636854128513
 30
0.0
  0
VERTEX
  5
1574
  8
0
  6
CONTINUOUS
 10
28.960923700273842
 20
-90.184636854128513
 30
0.0
  0
VERTEX
  5
1575
  8
0
  6
CONTINUOUS
 10
27.322342177497259
 20
-88.945429517156583
 30
0.0
  0
VERTEX
  5
1576
  8
0
  6
CONTINUOUS
 10
26.068139600885718
 20
-87.592214792940439
 30
0.0
  0
VERTEX
  5
1577
  8
0
  6
CONTINUOUS
 10
25.10038438400068
 20
-86.198318481095967
 30
0.0
  0
VERTEX
  5
1578
  8
0
  6
CONTINUOUS
 10
24.321144940403482
 20
-84.837066381239055
 30
0.0
  0
VERTEX
  5
1579
  8
0
  6
CONTINUOUS
 10
24.321144940403482
 20
-84.837066381239055
 30
0.0
  0
VERTEX
  5
157A
  8
0
  6
CONTINUOUS
 10
22.069340780987091
 20
-80.191741883123996
 30
0.0
  0
VERTEX
  5
157B
  8
0
  6
CONTINUOUS
 10
21.3323693889166
 20
-78.203193955199282
 30
0.0
  0
VERTEX
  5
157C
  8
0
  6
CONTINUOUS
 10
20.765368188037058
 20
-76.268433833263089
 30
0.0
  0
VERTEX
  5
157D
  8
0
  6
CONTINUOUS
 10
19.873325558148501
 20
-72.053411783056248
 30
0.0
  0
VERTEX
  5
157E
  8
0
  6
CONTINUOUS
 10
18.85731128791582
 20
-66.532945283903331
 30
0.0
  0
VERTEX
  5
157F
  8
0
  6
CONTINUOUS
 10
18.85731128791582
 20
-66.532945283903331
 30
0.0
  0
VERTEX
  5
1580
  8
0
  6
CONTINUOUS
 10
18.162521113650289
 20
-63.025052491839382
 30
0.0
  0
VERTEX
  5
1581
  8
0
  6
CONTINUOUS
 10
17.451455240589201
 20
-59.422233971927092
 30
0.0
  0
VERTEX
  5
1582
  8
0
  6
CONTINUOUS
 10
17.451455240589201
 20
-59.422233971927092
 30
0.0
  0
VERTEX
  5
1583
  8
0
  6
CONTINUOUS
 10
16.380877832685421
 20
-53.300599568737461
 30
0.0
  0
VERTEX
  5
1584
  8
0
  6
CONTINUOUS
 10
15.706869411626251
 20
-48.368406683638739
 30
0.0
  0
VERTEX
  5
1585
  8
0
  6
CONTINUOUS
 10
15.033583278810511
 20
-40.607739645314929
 30
0.0
  0
VERTEX
  5
1586
  8
0
  6
CONTINUOUS
 10
15.033583278810511
 20
-40.607739645314929
 30
0.0
  0
VERTEX
  5
1587
  8
0
  6
CONTINUOUS
 10
13.666089631201711
 20
-19.390820070701452
 30
0.0
  0
VERTEX
  5
1588
  8
0
  6
CONTINUOUS
 10
12.512031544056979
 20
-0.0526150496368705
 30
0.0
  0
SEQEND
  5
1589
  8
0
  6
CONTINUOUS
  0
LINE
  5
4DF
  8
0
  6
CONTINUOUS
 10
78.75
 20
-0.0000000000000004
 30
0.0
 11
-78.749999999999901
 21
0.0000000000000004
 31
0.0
  0
LINE
  5
4E0
  8
0
  6
CONTINUOUS
 10
78.75
 20
-0.7000000000000007
 30
0.0
 11
-78.749999999999901
 21
-0.7000000000000007
 31
0.0
  0
POLYLINE
  5
4E1
  8
0
  6
CONTINUOUS
 66
     1
 10
0.0
 20
0.0
 30
0.0
  0
VERTEX
  5
158A
  8
0
  6
CONTINUOUS
 10
-62.500086156808457
 20
-0.0021903049312191
 30
0.0
  0
VERTEX
  5
158B
  8
0
  6
CONTINUOUS
 10
-59.961261400850418
 20
-20.12991709228822
 30
0.0
  0
VERTEX
  5
158C
  8
0
  6
CONTINUOUS
 10
-58.163663949855021
 20
-33.03847981145902
 30
0.0
  0
VERTEX
  5
158D
  8
0
  6
CONTINUOUS
 10
-55.73224441124006
 20
-49.360681721220601
 30
0.0
  0
VERTEX
  5
158E
  8
0
  6
CONTINUOUS
 10
-55.73224441124006
 20
-49.360681721220601
 30
0.0
  0
VERTEX
  5
158F
  8
0
  6
CONTINUOUS
 10
-54.008170132915239
 20
-60.028017031570641
 30
0.0
  0
VERTEX
  5
1590
  8
0
  6
CONTINUOUS
 10
-53.024195341460029
 20
-65.218894669052503
 30
0.0
  0
VERTEX
  5
1591
  8
0
  6
CONTINUOUS
 10
-51.946962732597449
 20
-69.952614053033642
 30
0.0
  0
VERTEX
  5
1592
  8
0
  6
CONTINUOUS
 10
-51.946962732597449
 20
-69.952614053033642
 30
0.0
  0
VERTEX
  5
1593
  8
0
  6
CONTINUOUS
 10
-50.766528898501718
 20
-74.028780372268244
 30
0.0
  0
VERTEX
  5
1594
  8
0
  6
CONTINUOUS
 10
-49.469074947680483
 20
-77.531314295642986
 30
0.0
  0
VERTEX
  5
1595
  8
0
  6
CONTINUOUS
 10
-48.039813117724648
 20
-80.615215362076952
 30
0.0
  0
VERTEX
  5
1596
  8
0
  6
CONTINUOUS
 10
-46.463955646225202
 20
-83.435483110490239
 30
0.0
  0
VERTEX
  5
1597
  8
0
  6
CONTINUOUS
 10
-46.463955646225202
 20
-83.435483110490239
 30
0.0
  0
VERTEX
  5
1598
  8
0
  6
CONTINUOUS
 10
-44.727037200413278
 20
-86.09137329972998
 30
0.0
  0
VERTEX
  5
1599
  8
0
  6
CONTINUOUS
 10
-42.815882166080641
 20
-88.459166568356466
 30
0.0
  0
VERTEX
  5
159A
  8
0
  6
CONTINUOUS
 10
-40.717637358659204
 20
-90.359399774857508
 30
0.0
  0
VERTEX
  5
159B
  8
0
  6
CONTINUOUS
 10
-39.594339669862727
 20
-91.078099123088563
 30
0.0
  0
VERTEX
  5
159C
  8
0
  6
CONTINUOUS
 10
-38.419449593580971
 20
-91.612609777721232
 30
0.0
  0
VERTEX
  5
159D
  8
0
  6
CONTINUOUS
 10
-38.419449593580971
 20
-91.612609777721232
 30
0.0
  0
VERTEX
  5
159E
  8
0
  6
CONTINUOUS
 10
-37.195248603686252
 20
-91.947566584214215
 30
0.0
  0
VERTEX
  5
159F
  8
0
  6
CONTINUOUS
 10
-35.939570661823723
 20
-92.095875340616288
 30
0.0
  0
VERTEX
  5
15A0
  8
0
  6
CONTINUOUS
 10
-34.67413785158169
 20
-92.077509583124225
 30
0.0
  0
VERTEX
  5
15A1
  8
0
  6
CONTINUOUS
 10
-33.420672256548642
 20
-91.912442847934358
 30
0.0
  0
VERTEX
  5
15A2
  8
0
  6
CONTINUOUS
 10
-31.036531046462979
 20
-91.222100589247589
 30
0.0
  0
VERTEX
  5
15A3
  8
0
  6
CONTINUOUS
 10
-28.96092370027371
 20
-90.184636854128513
 30
0.0
  0
VERTEX
  5
15A4
  8
0
  6
CONTINUOUS
 10
-28.96092370027371
 20
-90.184636854128513
 30
0.0
  0
VERTEX
  5
15A5
  8
0
  6
CONTINUOUS
 10
-27.322342177497148
 20
-88.945429517156583
 30
0.0
  0
VERTEX
  5
15A6
  8
0
  6
CONTINUOUS
 10
-26.068139600885608
 20
-87.592214792940439
 30
0.0
  0
VERTEX
  5
15A7
  8
0
  6
CONTINUOUS
 10
-25.100384384000559
 20
-86.198318481095967
 30
0.0
  0
VERTEX
  5
15A8
  8
0
  6
CONTINUOUS
 10
-24.321144940403428
 20
-84.837066381239055
 30
0.0
  0
VERTEX
  5
15A9
  8
0
  6
CONTINUOUS
 10
-24.321144940403428
 20
-84.837066381239055
 30
0.0
  0
VERTEX
  5
15AA
  8
0
  6
CONTINUOUS
 10
-22.069340780986909
 20
-80.191741883123996
 30
0.0
  0
VERTEX
  5
15AB
  8
0
  6
CONTINUOUS
 10
-21.332369388916501
 20
-78.203193955199282
 30
0.0
  0
VERTEX
  5
15AC
  8
0
  6
CONTINUOUS
 10
-20.76536818803697
 20
-76.268433833263089
 30
0.0
  0
VERTEX
  5
15AD
  8
0
  6
CONTINUOUS
 10
-19.873325558148391
 20
-72.053411783056248
 30
0.0
  0
VERTEX
  5
15AE
  8
0
  6
CONTINUOUS
 10
-18.857311287915689
 20
-66.532945283903331
 30
0.0
  0
VERTEX
  5
15AF
  8
0
  6
CONTINUOUS
 10
-18.857311287915689
 20
-66.532945283903331
 30
0.0
  0
VERTEX
  5
15B0
  8
0
  6
CONTINUOUS
 10
-18.1625211136502
 20
-63.025052491839382
 30
0.0
  0
VERTEX
  5
15B1
  8
0
  6
CONTINUOUS
 10
-17.451455240589091
 20
-59.422233971927092
 30
0.0
  0
VERTEX
  5
15B2
  8
0
  6
CONTINUOUS
 10
-17.451455240589091
 20
-59.422233971927092
 30
0.0
  0
VERTEX
  5
15B3
  8
0
  6
CONTINUOUS
 10
-16.380877832685311
 20
-53.300599568737461
 30
0.0
  0
VERTEX
  5
15B4
  8
0
  6
CONTINUOUS
 10
-15.70686941162614
 20
-48.368406683638739
 30
0.0
  0
VERTEX
  5
15B5
  8
0
  6
CONTINUOUS
 10
-15.03358327881039
 20
-40.607739645314929
 30
0.0
  0
VERTEX
  5
15B6
  8
0
  6
CONTINUOUS
 10
-15.03358327881039
 20
-40.607739645314929
 30
0.0
  0
VERTEX
  5
15B7
  8
0
  6
CONTINUOUS
 10
-13.66608963120159
 20
-19.390820070701452
 30
0.0
  0
VERTEX
  5
15B8
  8
0
  6
CONTINUOUS
 10
-12.512031544056841
 20
-0.0526150496368705
 30
0.0
  0
SEQEND
  5
15B9
  8
0
  6
CONTINUOUS
  0
POINT
  5
4E2
  8
0
  6
CONTINUOUS
 10
-56.006701235297577
 20
-119.56017712177299
 30
0.0
  0
LINE
  5
4E3
  8
0
  6
CONTINUOUS
 10
-78.749999999999901
 20
-0.0000000000000004
 30
0.0
 11
-78.749999999999901
 21
-0.7000000000000007
 31
0.0
  0
POINT
  5
4E4
  8
0
  6
CONTINUOUS
 10
-62.499999999999922
 20
-0.0000000000000004
 30
0.0
  0
POLYLINE
  5
4E5
  8
0
  6
CONTINUOUS
 66
     1
 10
0.0
 20
0.0
 30
0.0
  0
VERTEX
  5
15BA
  8
0
  6
CONTINUOUS
 10
12.50000000000005
 20
-0.0000000000000004
 30
0.0
  0
VERTEX
  5
15BB
  8
0
  6
CONTINUOUS
 10
11.36809907389636
 20
-19.536549552962171
 30
0.0
  0
VERTEX
  5
15BC
  8
0
  6
CONTINUOUS
 10
9.3829807086638066
 20
-47.328897546577807
 30
0.0
  0
VERTEX
  5
15BD
  8
0
  6
CONTINUOUS
 10
9.3829807086638066
 20
-47.328897546577807
 30
0.0
  0
VERTEX
  5
15BE
  8
0
  6
CONTINUOUS
 10
8.7592483048498462
 20
-55.103890910881368
 30
0.0
  0
VERTEX
  5
15BF
  8
0
  6
CONTINUOUS
 10
8.0713258837318431
 20
-62.74084173953954
 30
0.0
  0
VERTEX
  5
15C0
  8
0
  6
CONTINUOUS
 10
8.0713258837318431
 20
-62.74084173953954
 30
0.0
  0
VERTEX
  5
15C1
  8
0
  6
CONTINUOUS
 10
7.3390456573271177
 20
-69.480641672648503
 30
0.0
  0
VERTEX
  5
15C2
  8
0
  6
CONTINUOUS
 10
6.5957142056822651
 20
-75.201562576401088
 30
0.0
  0
VERTEX
  5
15C3
  8
0
  6
CONTINUOUS
 10
6.5957142056822651
 20
-75.201562576401088
 30
0.0
  0
VERTEX
  5
15C4
  8
0
  6
CONTINUOUS
 10
5.8856893340839607
 20
-79.939981867484775
 30
0.0
  0
VERTEX
  5
15C5
  8
0
  6
CONTINUOUS
 10
5.28405938074917
 20
-83.727318938466652
 30
0.0
  0
VERTEX
  5
15C6
  8
0
  6
CONTINUOUS
 10
5.28405938074917
 20
-83.727318938466652
 30
0.0
  0
VERTEX
  5
15C7
  8
0
  6
CONTINUOUS
 10
4.7370231589918603
 20
-86.685301923153716
 30
0.0
  0
VERTEX
  5
15C8
  8
0
  6
CONTINUOUS
 10
4.30498538882898
 20
-88.000039218583808
 30
0.0
  0
VERTEX
  5
15C9
  8
0
  6
CONTINUOUS
 10
3.644490849582152
 20
-89.301851944430808
 30
0.0
  0
VERTEX
  5
15CA
  8
0
  6
CONTINUOUS
 10
3.644490849582152
 20
-89.301851944430808
 30
0.0
  0
VERTEX
  5
15CB
  8
0
  6
CONTINUOUS
 10
2.94094132346049
 20
-90.282454785124926
 30
0.0
  0
VERTEX
  5
15CC
  8
0
  6
CONTINUOUS
 10
1.677008612183555
 20
-91.597247888064473
 30
0.0
  0
VERTEX
  5
15CD
  8
0
  6
CONTINUOUS
 10
1.677008612183555
 20
-91.597247888064473
 30
0.0
  0
VERTEX
  5
15CE
  8
0
  6
CONTINUOUS
 10
0.882919212048989
 20
-92.258870557593511
 30
0.0
  0
VERTEX
  5
15CF
  8
0
  6
CONTINUOUS
 10
0.4470114692691709
 20
-92.490936498284213
 30
0.0
  0
VERTEX
  5
15D0
  8
0
  6
CONTINUOUS
 10
0.0000000000000568
 20
-92.580989006763787
 30
0.0
  0
VERTEX
  5
15D1
  8
0
  6
CONTINUOUS
 10
0.0000000000000568
 20
-92.580989006763787
 30
0.0
  0
VERTEX
  5
15D2
  8
0
  6
CONTINUOUS
 10
-0.4470114692690573
 20
-92.490936498284213
 30
0.0
  0
VERTEX
  5
15D3
  8
0
  6
CONTINUOUS
 10
-0.8829192120488187
 20
-92.258870557593497
 30
0.0
  0
VERTEX
  5
15D4
  8
0
  6
CONTINUOUS
 10
-1.677008612183438
 20
-91.597247888064473
 30
0.0
  0
VERTEX
  5
15D5
  8
0
  6
CONTINUOUS
 10
-1.677008612183438
 20
-91.597247888064473
 30
0.0
  0
VERTEX
  5
15D6
  8
0
  6
CONTINUOUS
 10
-2.9409413234603781
 20
-90.282454785124784
 30
0.0
  0
VERTEX
  5
15D7
  8
0
  6
CONTINUOUS
 10
-3.6444908495819832
 20
-89.301851944430808
 30
0.0
  0
VERTEX
  5
15D8
  8
0
  6
CONTINUOUS
 10
-3.6444908495819832
 20
-89.301851944430808
 30
0.0
  0
VERTEX
  5
15D9
  8
0
  6
CONTINUOUS
 10
-4.3049853888288681
 20
-88.000039218583808
 30
0.0
  0
VERTEX
  5
15DA
  8
0
  6
CONTINUOUS
 10
-4.7370231589917449
 20
-86.685301923153716
 30
0.0
  0
VERTEX
  5
15DB
  8
0
  6
CONTINUOUS
 10
-5.2840593807490572
 20
-83.727318938466652
 30
0.0
  0
VERTEX
  5
15DC
  8
0
  6
CONTINUOUS
 10
-5.2840593807490572
 20
-83.727318938466652
 30
0.0
  0
VERTEX
  5
15DD
  8
0
  6
CONTINUOUS
 10
-5.885689334083847
 20
-79.939981867484775
 30
0.0
  0
VERTEX
  5
15DE
  8
0
  6
CONTINUOUS
 10
-6.5957142056822118
 20
-75.201562576401088
 30
0.0
  0
VERTEX
  5
15DF
  8
0
  6
CONTINUOUS
 10
-6.5957142056822118
 20
-75.201562576401088
 30
0.0
  0
VERTEX
  5
15E0
  8
0
  6
CONTINUOUS
 10
-7.3390456573270031
 20
-69.480641672648503
 30
0.0
  0
VERTEX
  5
15E1
  8
0
  6
CONTINUOUS
 10
-8.0713258837317312
 20
-62.74084173953954
 30
0.0
  0
VERTEX
  5
15E2
  8
0
  6
CONTINUOUS
 10
-8.0713258837317312
 20
-62.74084173953954
 30
0.0
  0
VERTEX
  5
15E3
  8
0
  6
CONTINUOUS
 10
-8.7592483048497307
 20
-55.103890910881368
 30
0.0
  0
VERTEX
  5
15E4
  8
0
  6
CONTINUOUS
 10
-9.3829807086637516
 20
-47.328897546577807
 30
0.0
  0
VERTEX
  5
15E5
  8
0
  6
CONTINUOUS
 10
-9.3829807086637516
 20
-47.328897546577807
 30
0.0
  0
VERTEX
  5
15E6
  8
0
  6
CONTINUOUS
 10
-11.368099073896239
 20
-19.536549552962171
 30
0.0
  0
VERTEX
  5
15E7
  8
0
  6
CONTINUOUS
 10
-12.49999999999994
 20
-0.0000000000000004
 30
0.0
  0
SEQEND
  5
15E8
  8
0
  6
CONTINUOUS
  0
POINT
  5
4E6
  8
0
  6
CONTINUOUS
 10
0.0000000000000568
 20
-92.580989006763787
 30
0.0
  0
POINT
  5
4E7
  8
0
  6
CONTINUOUS
 10
-6.5957142056822118
 20
-75.201562576401088
 30
0.0
  0
POINT
  5
4E8
  8
0
  6
CONTINUOUS
 10
-5.2840593807490572
 20
-83.727318938466652
 30
0.0
  0
POINT
  5
4E9
  8
0
  6
CONTINUOUS
 10
-3.6444908495819832
 20
-89.301851944430808
 30
0.0
  0
POINT
  5
4EA
  8
0
  6
CONTINUOUS
 10
6.5957142056822651
 20
-75.201562576401088
 30
0.0
  0
POINT
  5
4EB
  8
0
  6
CONTINUOUS
 10
3.644490849582152
 20
-89.301851944430808
 30
0.0
  0
POINT
  5
4EC
  8
0
  6
CONTINUOUS
 10
5.28405938074917
 20
-83.727318938466652
 30
0.0
  0
POINT
  5
4ED
  8
0
  6
CONTINUOUS
 10
-1.677008612183438
 20
-91.597247888064473
 30
0.0
  0
POINT
  5
4EE
  8
0
  6
CONTINUOUS
 10
1.677008612183555
 20
-91.597247888064473
 30
0.0
  0
POINT
  5
4EF
  8
0
  6
CONTINUOUS
 10
-8.0713258837317312
 20
-62.74084173953954
 30
0.0
  0
POINT
  5
4F0
  8
0
  6
CONTINUOUS
 10
24.321144940403482
 20
-84.837066381239055
 30
0.0
  0
POINT
  5
4F1
  8
0
  6
CONTINUOUS
 10
8.0713258837318431
 20
-62.74084173953954
 30
0.0
  0
POINT
  5
4F2
  8
0
  6
CONTINUOUS
 10
17.451455240589201
 20
-59.422233971927092
 30
0.0
  0
POINT
  5
4F3
  8
0
  6
CONTINUOUS
 10
18.85731128791582
 20
-66.532945283903331
 30
0.0
  0
POLYLINE
  5
4F4
  8
0
  6
CONTINUOUS
 66
     1
 10
0.0
 20
0.0
 30
0.0
  0
VERTEX
  5
15E9
  8
0
  6
CONTINUOUS
 10
12.50000000000005
 20
-0.0000000000000004
 30
0.0
  0
VERTEX
  5
15EA
  8
0
  6
CONTINUOUS
 10
11.850770049366639
 20
-4.8204564492784812
 30
0.0
  0
VERTEX
  5
15EB
  8
0
  6
CONTINUOUS
 10
11.233093281605299
 20
-9.5541378568350392
 30
0.0
  0
VERTEX
  5
15EC
  8
0
  6
CONTINUOUS
 10
11.233093281605299
 20
-9.5541378568350392
 30
0.0
  0
VERTEX
  5
15ED
  8
0
  6
CONTINUOUS
 10
10.654855049548811
 20
-14.135361892815411
 30
0.0
  0
VERTEX
  5
15EE
  8
0
  6
CONTINUOUS
 10
10.029269385871711
 20
-18.582817074834612
 30
0.0
  0
VERTEX
  5
15EF
  8
0
  6
CONTINUOUS
 10
10.029269385871711
 20
-18.582817074834612
 30
0.0
  0
VERTEX
  5
15F0
  8
0
  6
CONTINUOUS
 10
9.2871636109603042
 20
-22.908039451131451
 30
0.0
  0
VERTEX
  5
15F1
  8
0
  6
CONTINUOUS
 10
8.524489516205449
 20
-27.009584344967891
 30
0.0
  0
VERTEX
  5
15F2
  8
0
  6
CONTINUOUS
 10
8.524489516205449
 20
-27.009584344967891
 30
0.0
  0
VERTEX
  5
15F3
  8
0
  6
CONTINUOUS
 10
7.807607883852822
 20
-30.834126910605729
 30
0.0
  0
VERTEX
  5
15F4
  8
0
  6
CONTINUOUS
 10
6.919390988561017
 20
-34.633802351279492
 30
0.0
  0
VERTEX
  5
15F5
  8
0
  6
CONTINUOUS
 10
6.919390988561017
 20
-34.633802351279492
 30
0.0
  0
VERTEX
  5
15F6
  8
0
  6
CONTINUOUS
 10
5.7011878777028624
 20
-38.51005534372603
 30
0.0
  0
VERTEX
  5
15F7
  8
0
  6
CONTINUOUS
 10
4.5117431970948569
 20
-41.656108409721391
 30
0.0
  0
VERTEX
  5
15F8
  8
0
  6
CONTINUOUS
 10
4.5117431970948569
 20
-41.656108409721391
 30
0.0
  0
VERTEX
  5
15F9
  8
0
  6
CONTINUOUS
 10
3.568184672078301
 20
-43.594109365581382
 30
0.0
  0
VERTEX
  5
15FA
  8
0
  6
CONTINUOUS
 10
2.00377674765042
 20
-46.070129360742897
 30
0.0
  0
VERTEX
  5
15FB
  8
0
  6
CONTINUOUS
 10
2.00377674765042
 20
-46.070129360742897
 30
0.0
  0
VERTEX
  5
15FC
  8
0
  6
CONTINUOUS
 10
1.062846386324622
 20
-47.400287113159777
 30
0.0
  0
VERTEX
  5
15FD
  8
0
  6
CONTINUOUS
 10
0.5390429447247698
 20
-47.885620903857379
 30
0.0
  0
VERTEX
  5
15FE
  8
0
  6
CONTINUOUS
 10
0.0000000000000568
 20
-48.07650252029822
 30
0.0
  0
VERTEX
  5
15FF
  8
0
  6
CONTINUOUS
 10
0.0000000000000568
 20
-48.07650252029822
 30
0.0
  0
VERTEX
  5
1600
  8
0
  6
CONTINUOUS
 10
-0.5390429447246561
 20
-47.885620903857379
 30
0.0
  0
VERTEX
  5
1601
  8
0
  6
CONTINUOUS
 10
-1.062846386324507
 20
-47.400287113159777
 30
0.0
  0
VERTEX
  5
1602
  8
0
  6
CONTINUOUS
 10
-2.003776747650305
 20
-46.070129360742897
 30
0.0
  0
VERTEX
  5
1603
  8
0
  6
CONTINUOUS
 10
-2.003776747650305
 20
-46.070129360742897
 30
0.0
  0
VERTEX
  5
1604
  8
0
  6
CONTINUOUS
 10
-3.5681846720781301
 20
-43.594109365581382
 30
0.0
  0
VERTEX
  5
1605
  8
0
  6
CONTINUOUS
 10
-4.511743197094745
 20
-41.656108409721391
 30
0.0
  0
VERTEX
  5
1606
  8
0
  6
CONTINUOUS
 10
-4.511743197094745
 20
-41.656108409721391
 30
0.0
  0
VERTEX
  5
1607
  8
0
  6
CONTINUOUS
 10
-5.701187877702746
 20
-38.51005534372603
 30
0.0
  0
VERTEX
  5
1608
  8
0
  6
CONTINUOUS
 10
-6.9193909885609051
 20
-34.633802351279492
 30
0.0
  0
VERTEX
  5
1609
  8
0
  6
CONTINUOUS
 10
-6.9193909885609051
 20
-34.633802351279492
 30
0.0
  0
VERTEX
  5
160A
  8
0
  6
CONTINUOUS
 10
-7.8076078838527092
 20
-30.834126910605729
 30
0.0
  0
VERTEX
  5
160B
  8
0
  6
CONTINUOUS
 10
-8.5244895162053922
 20
-27.009584344967891
 30
0.0
  0
VERTEX
  5
160C
  8
0
  6
CONTINUOUS
 10
-8.5244895162053922
 20
-27.009584344967891
 30
0.0
  0
VERTEX
  5
160D
  8
0
  6
CONTINUOUS
 10
-9.287163610960194
 20
-22.908039451131451
 30
0.0
  0
VERTEX
  5
160E
  8
0
  6
CONTINUOUS
 10
-10.029269385871601
 20
-18.582817074834612
 30
0.0
  0
VERTEX
  5
160F
  8
0
  6
CONTINUOUS
 10
-10.029269385871601
 20
-18.582817074834612
 30
0.0
  0
VERTEX
  5
1610
  8
0
  6
CONTINUOUS
 10
-10.65485504954869
 20
-14.135361892815411
 30
0.0
  0
VERTEX
  5
1611
  8
0
  6
CONTINUOUS
 10
-11.23309328160525
 20
-9.5541378568350392
 30
0.0
  0
VERTEX
  5
1612
  8
0
  6
CONTINUOUS
 10
-11.23309328160525
 20
-9.5541378568350392
 30
0.0
  0
VERTEX
  5
1613
  8
0
  6
CONTINUOUS
 10
-11.85077004936652
 20
-4.8204564492784812
 30
0.0
  0
VERTEX
  5
1614
  8
0
  6
CONTINUOUS
 10
-12.49999999999994
 20
-0.0000000000000004
 30
0.0
  0
SEQEND
  5
1615
  8
0
  6
CONTINUOUS
  0
POLYLINE
  5
4F5
  8
0
  6
CONTINUOUS
 66
     1
 10
0.0
 20
0.0
 30
0.0
  0
VERTEX
  5
1616
  8
0
  6
CONTINUOUS
 10
12.50000000000005
 20
-0.0000000000000004
 30
0.0
  0
VERTEX
  5
1617
  8
0
  6
CONTINUOUS
 10
11.45883568982196
 20
-3.537308847590281
 30
0.0
  0
VERTEX
  5
1618
  8
0
  6
CONTINUOUS
 10
10.43054401778255
 20
-6.9458527494123228
 30
0.0
  0
VERTEX
  5
1619
  8
0
  6
CONTINUOUS
 10
10.43054401778255
 20
-6.9458527494123228
 30
0.0
  0
VERTEX
  5
161A
  8
0
  6
CONTINUOUS
 10
9.4230103367144675
 20
-10.084710382128369
 30
0.0
  0
VERTEX
  5
161B
  8
0
  6
CONTINUOUS
 10
8.4241708582272281
 20
-12.764334912122919
 30
0.0
  0
VERTEX
  5
161C
  8
0
  6
CONTINUOUS
 10
8.4241708582272281
 20
-12.764334912122919
 30
0.0
  0
VERTEX
  5
161D
  8
0
  6
CONTINUOUS
 10
7.4211529441821531
 20
-14.86269464021972
 30
0.0
  0
VERTEX
  5
161E
  8
0
  6
CONTINUOUS
 10
6.417797698672981
 20
-16.576443915279341
 30
0.0
  0
VERTEX
  5
161F
  8
0
  6
CONTINUOUS
 10
6.417797698672981
 20
-16.576443915279341
 30
0.0
  0
VERTEX
  5
1620
  8
0
  6
CONTINUOUS
 10
5.4182835572575501
 20
-18.135732236277011
 30
0.0
  0
VERTEX
  5
1621
  8
0
  6
CONTINUOUS
 10
4.411424539117716
 20
-19.586003654612849
 30
0.0
  0
VERTEX
  5
1622
  8
0
  6
CONTINUOUS
 10
4.411424539117716
 20
-19.586003654612849
 30
0.0
  0
VERTEX
  5
1623
  8
0
  6
CONTINUOUS
 10
3.380839707912398
 20
-20.90616147288705
 30
0.0
  0
VERTEX
  5
1624
  8
0
  6
CONTINUOUS
 10
2.3047327215841151
 20
-21.993651446077848
 30
0.0
  0
VERTEX
  5
1625
  8
0
  6
CONTINUOUS
 10
2.3047327215841151
 20
-21.993651446077848
 30
0.0
  0
VERTEX
  5
1626
  8
0
  6
CONTINUOUS
 10
1.1695344479445551
 20
-22.72779052930256
 30
0.0
  0
VERTEX
  5
1627
  8
0
  6
CONTINUOUS
 10
0.0000000000000568
 20
-22.996838025857301
 30
0.0
  0
VERTEX
  5
1628
  8
0
  6
CONTINUOUS
 10
0.0000000000000568
 20
-22.996838025857301
 30
0.0
  0
VERTEX
  5
1629
  8
0
  6
CONTINUOUS
 10
-1.1695344479444421
 20
-22.72779052930256
 30
0.0
  0
VERTEX
  5
162A
  8
0
  6
CONTINUOUS
 10
-2.3047327215840592
 20
-21.993651446077848
 30
0.0
  0
VERTEX
  5
162B
  8
0
  6
CONTINUOUS
 10
-2.3047327215840592
 20
-21.993651446077848
 30
0.0
  0
VERTEX
  5
162C
  8
0
  6
CONTINUOUS
 10
-3.380839707912342
 20
-20.90616147288705
 30
0.0
  0
VERTEX
  5
162D
  8
0
  6
CONTINUOUS
 10
-4.4114245391176032
 20
-19.586003654612849
 30
0.0
  0
VERTEX
  5
162E
  8
0
  6
CONTINUOUS
 10
-4.4114245391176032
 20
-19.586003654612849
 30
0.0
  0
VERTEX
  5
162F
  8
0
  6
CONTINUOUS
 10
-5.4182835572574941
 20
-18.135732236277011
 30
0.0
  0
VERTEX
  5
1630
  8
0
  6
CONTINUOUS
 10
-6.4177976986729259
 20
-16.576443915279341
 30
0.0
  0
VERTEX
  5
1631
  8
0
  6
CONTINUOUS
 10
-6.4177976986729259
 20
-16.576443915279341
 30
0.0
  0
VERTEX
  5
1632
  8
0
  6
CONTINUOUS
 10
-7.4211529441820376
 20
-14.86269464021972
 30
0.0
  0
VERTEX
  5
1633
  8
0
  6
CONTINUOUS
 10
-8.4241708582271126
 20
-12.764334912122919
 30
0.0
  0
VERTEX
  5
1634
  8
0
  6
CONTINUOUS
 10
-8.4241708582271126
 20
-12.764334912122919
 30
0.0
  0
VERTEX
  5
1635
  8
0
  6
CONTINUOUS
 10
-9.4230103367144125
 20
-10.084710382128369
 30
0.0
  0
VERTEX
  5
1636
  8
0
  6
CONTINUOUS
 10
-10.430544017782429
 20
-6.9458527494123228
 30
0.0
  0
VERTEX
  5
1637
  8
0
  6
CONTINUOUS
 10
-10.430544017782429
 20
-6.9458527494123228
 30
0.0
  0
VERTEX
  5
1638
  8
0
  6
CONTINUOUS
 10
-11.458835689821839
 20
-3.537308847590281
 30
0.0
  0
VERTEX
  5
1639
  8
0
  6
CONTINUOUS
 10
-12.49999999999994
 20
-0.0000000000000004
 30
0.0
  0
SEQEND
  5
163A
  8
0
  6
CONTINUOUS
  0
POINT
  5
4F6
  8
0
  6
CONTINUOUS
 10
-12.49999999999994
 20
-0.0000000000000004
 30
0.0
  0
POINT
  5
4F7
  8
0
  6
CONTINUOUS
 10
-12.49999999999994
 20
-0.0000000000000004
 30
0.0
  0
POINT
  5
4F8
  8
0
  6
CONTINUOUS
 10
-12.49999999999994
 20
-0.0000000000000004
 30
0.0
  0
POINT
  5
4F9
  8
0
  6
CONTINUOUS
 10
-12.49999999999994
 20
-0.0021903049312191
 30
0.0
  0
POINT
  5
4FA
  8
0
  6
CONTINUOUS
 10
-4.511743197094745
 20
-41.656108409721391
 30
0.0
  0
POINT
  5
4FB
  8
0
  6
CONTINUOUS
 10
-6.9193909885609051
 20
-34.633802351279492
 30
0.0
  0
POINT
  5
4FC
  8
0
  6
CONTINUOUS
 10
-9.3829807086637516
 20
-47.328897546577807
 30
0.0
  0
POINT
  5
4FD
  8
0
  6
CONTINUOUS
 10
4.5117431970948569
 20
-41.656108409721391
 30
0.0
  0
POINT
  5
4FE
  8
0
  6
CONTINUOUS
 10
-2.003776747650305
 20
-46.070129360742897
 30
0.0
  0
POINT
  5
4FF
  8
0
  6
CONTINUOUS
 10
0.0000000000000568
 20
-48.07650252029822
 30
0.0
  0
POINT
  5
500
  8
0
  6
CONTINUOUS
 10
0.0000000000000568
 20
-48.07650252029822
 30
0.0
  0
POINT
  5
501
  8
0
  6
CONTINUOUS
 10
2.00377674765042
 20
-46.070129360742897
 30
0.0
  0
POINT
  5
502
  8
0
  6
CONTINUOUS
 10
-6.4177976986729259
 20
-16.576443915279341
 30
0.0
  0
POINT
  5
503
  8
0
  6
CONTINUOUS
 10
-8.4241708582271126
 20
-12.764334912122919
 30
0.0
  0
POINT
  5
504
  8
0
  6
CONTINUOUS
 10
-4.4114245391176032
 20
-19.586003654612849
 30
0.0
  0
POINT
  5
505
  8
0
  6
CONTINUOUS
 10
-8.5244895162053922
 20
-27.009584344967891
 30
0.0
  0
POINT
  5
506
  8
0
  6
CONTINUOUS
 10
-10.029269385871601
 20
-18.582817074834612
 30
0.0
  0
POINT
  5
507
  8
0
  6
CONTINUOUS
 10
6.417797698672981
 20
-16.576443915279341
 30
0.0
  0
POINT
  5
508
  8
0
  6
CONTINUOUS
 10
4.411424539117716
 20
-19.586003654612849
 30
0.0
  0
POINT
  5
509
  8
0
  6
CONTINUOUS
 10
-2.3047327215840592
 20
-21.993651446077848
 30
0.0
  0
POINT
  5
50A
  8
0
  6
CONTINUOUS
 10
0.0000000000000568
 20
-22.996838025857301
 30
0.0
  0
POINT
  5
50B
  8
0
  6
CONTINUOUS
 10
2.3047327215841151
 20
-21.993651446077848
 30
0.0
  0
POINT
  5
50C
  8
0
  6
CONTINUOUS
 10
15.033583278810511
 20
-40.607739645314929
 30
0.0
  0
POINT
  5
50D
  8
0
  6
CONTINUOUS
 10
6.919390988561017
 20
-34.633802351279492
 30
0.0
  0
POINT
  5
50E
  8
0
  6
CONTINUOUS
 10
9.3829807086638066
 20
-47.328897546577807
 30
0.0
  0
POINT
  5
50F
  8
0
  6
CONTINUOUS
 10
8.4241708582272281
 20
-12.764334912122919
 30
0.0
  0
POINT
  5
510
  8
0
  6
CONTINUOUS
 10
8.524489516205449
 20
-27.009584344967891
 30
0.0
  0
POINT
  5
511
  8
0
  6
CONTINUOUS
 10
10.029269385871711
 20
-18.582817074834612
 30
0.0
  0
POINT
  5
512
  8
0
  6
CONTINUOUS
 10
-11.23309328160525
 20
-9.5541378568350392
 30
0.0
  0
POINT
  5
513
  8
0
  6
CONTINUOUS
 10
-10.430544017782429
 20
-6.9458527494123228
 30
0.0
  0
LINE
  5
514
  8
0
  6
DASHDOT
 10
0.0
 20
5.0
 30
0.0
 11
0.0
 21
-5.0
 31
0.0
  0
POINT
  5
515
  8
0
  6
CONTINUOUS
 10
12.50000000000005
 20
-0.0000000000000004
 30
0.0
  0
POINT
  5
516
  8
0
  6
CONTINUOUS
 10
12.50000000000005
 20
-0.0000000000000004
 30
0.0
  0
POINT
  5
517
  8
0
  6
CONTINUOUS
 10
12.50000000000005
 20
-0.0000000000000004
 30
0.0
  0
POINT
  5
518
  8
0
  6
CONTINUOUS
 10
12.50000000000005
 20
-0.0021903049312191
 30
0.0
  0
POINT
  5
519
  8
0
  6
CONTINUOUS
 10
10.43054401778255
 20
-6.9458527494123228
 30
0.0
  0
POINT
  5
51A
  8
0
  6
CONTINUOUS
 10
11.233093281605299
 20
-9.5541378568350392
 30
0.0
  0
POINT
  5
51B
  8
0
  6
CONTINUOUS
 10
56.006701235297783
 20
-119.56017712177299
 30
0.0
  0
TEXT
  5
51C
  8
0
  6
CONTINUOUS
 10
25.81814783360425
 20
-75.163269544215552
 30
0.0
 40
10.0
  1
2m/s
 50
0.0000025044781673
 41
0.5833333271245161
  7
STANDARD1
  0
POINT
  5
51D
  8
0
  6
CONTINUOUS
 10
28.960923700273842
 20
-90.184636854128513
 30
0.0
  0
POINT
  5
51E
  8
0
  6
CONTINUOUS
 10
38.419449593581142
 20
-91.612609777721232
 30
0.0
  0
POINT
  5
51F
  8
0
  6
CONTINUOUS
 10
46.463955646225251
 20
-83.435483110490239
 30
0.0
  0
POINT
  5
520
  8
0
  6
CONTINUOUS
 10
51.946962732597612
 20
-69.952614053033642
 30
0.0
  0
POINT
  5
521
  8
0
  6
CONTINUOUS
 10
55.73224441124011
 20
-49.360681721220601
 30
0.0
  0
POINT
  5
522
  8
0
  6
CONTINUOUS
 10
62.5
 20
-0.0000000000000004
 30
0.0
  0
POINT
  5
523
  8
0
  6
CONTINUOUS
 10
62.5
 20
-0.0000000000000004
 30
0.0
  0
POINT
  5
524
  8
0
  6
CONTINUOUS
 10
62.5
 20
-0.0000000000000004
 30
0.0
  0
LINE
  5
525
  8
0
  6
CONTINUOUS
 10
78.75
 20
-0.0000000000000004
 30
0.0
 11
78.75
 21
-0.7000000000000007
 31
0.0
  0
ENDBLK
  5
527
  8
0
  0
BLOCK
  8
0
  2
A$C56ED2CAA
 70
     0
 10
0.0
 20
0.0
 30
0.0
  3
A$C56ED2CAA
  1

  0
LINE
  5
580
  8
0
  6
CONTINUOUS
 10
26.400001356282701
 20
4.300000258310785
 30
0.0
 11
0.0000013562826098
 21
4.300000258310785
 31
0.0
  0
LINE
  5
581
  8
0
  6
CONTINUOUS
 10
26.40000135628264
 20
5.0000002583107852
 30
0.0
 11
0.0000013562826098
 21
5.0000002583107852
 31
0.0
  0
LINE
  5
582
  8
0
  6
DASHDOT
 10
13.20000135628265
 20
10.00000025831077
 30
0.0
 11
13.20000135628265
 21
0.0000002583107857
 31
0.0
  0
LINE
  5
583
  8
0
  6
CONTINUOUS
 10
0.0000013562826666
 20
5.0000002583107852
 30
0.0
 11
0.0000013562826098
 21
4.300000258310785
 31
0.0
  0
LINE
  5
584
  8
0
  6
CONTINUOUS
 10
26.40000135628264
 20
5.0000002583107852
 30
0.0
 11
26.400001356282701
 21
4.300000258310785
 31
0.0
  0
ENDBLK
  5
586
  8
0
  0
BLOCK
  8
0
  2
*D4
 70
     1
 10
0.0
 20
0.0
 30
0.0
  3
*D4
  1

  0
LINE
  5
6DC
  8
0
  6
CONTINUOUS
 62
     0
 10
-301.17211860876603
 20
23.076606738690781
 30
0.0
 11
-293.08689009956089
 21
23.07660673869076
 31
0.0
  0
LINE
  5
6DD
  8
0
  6
CONTINUOUS
 62
     0
 10
-301.17211860876603
 20
3.7766067386907798
 30
0.0
 11
-293.08689009956089
 21
3.776606738690778
 31
0.0
  0
LINE
  5
6DE
  8
0
  6
CONTINUOUS
 62
     0
 10
-295.086890099561
 20
21.144755089883748
 30
0.0
 11
-295.086890099561
 21
14.516606738690781
 31
0.0
  0
LINE
  5
6DF
  8
0
  6
CONTINUOUS
 62
     0
 10
-295.086890099561
 20
5.7084583874978012
 30
0.0
 11
-295.086890099561
 21
12.336606738690779
 31
0.0
  0
SOLID
  5
6E0
  8
0
  6
CONTINUOUS
 62
     0
 10
-295.40886537436211
 20
21.144755089883748
 30
0.0
 11
-294.76491482475973
 21
21.144755089883748
 31
0.0
 12
-295.086890099561
 22
23.07660673869076
 32
0.0
 13
-295.086890099561
 23
23.07660673869076
 33
0.0
  0
SOLID
  5
6E1
  8
0
  6
CONTINUOUS
 62
     0
 10
-295.40886537436211
 20
5.7084583874978012
 30
0.0
 11
-294.76491482475973
 21
5.7084583874978012
 31
0.0
 12
-295.086890099561
 22
3.776606738690778
 32
0.0
 13
-295.086890099561
 23
3.776606738690778
 33
0.0
  0
INSERT
  5
6E2
  8
0
  6
CONTINUOUS
  2
*U5
 10
0.0
 20
0.0
 30
0.0
  0
POINT
  5
6E3
  8
DEFPOINTS
  6
CONTINUOUS
 62
     0
 10
-302.1721186087658
 20
23.076606738690781
 30
0.0
  0
POINT
  5
6E4
  8
DEFPOINTS
  6
CONTINUOUS
 62
     0
 10
-302.1721186087658
 20
3.7766067386907798
 30
0.0
  0
POINT
  5
6E5
  8
DEFPOINTS
  6
CONTINUOUS
 62
     0
 10
-295.086890099561
 20
3.776606738690778
 30
0.0
  0
ENDBLK
  5
6E7
  8
0
  0
BLOCK
  8
0
  2
*U5
 70
     1
 10
0.0
 20
0.0
 30
0.0
  3
*U5
  1

  0
TEXT
  5
1138
  8
0
  6
CONTINUOUS
 62
     0
 10
-301.086890099561
 20
12.42660673869073
 30
0.0
 40
2.0
  1
193.0000
  0
ENDBLK
  5
113A
  8
0
  0
BLOCK
  8
0
  2
*D6
 70
     1
 10
0.0
 20
0.0
 30
0.0
  3
*D6
  1

  0
LINE
  5
A39
  8
0
  6
CONTINUOUS
 62
     0
 10
120.20942868334799
 20
-199.63502806022069
 30
0.0
 11
120.20942868334799
 21
-176.28850457491581
 31
0.0
  0
LINE
  5
A3A
  8
0
  6
CONTINUOUS
 62
     0
 10
-35.29057131665197
 20
-199.63502806022069
 30
0.0
 11
-35.29057131665197
 21
-176.28850457491581
 31
0.0
  0
LINE
  5
A3B
  8
0
  6
CONTINUOUS
 62
     0
 10
118.277577034541
 20
-178.28850457491581
 30
0.0
 11
-33.35871966784493
 21
-178.28850457491581
 31
0.0
  0
SOLID
  5
A3C
  8
0
  6
CONTINUOUS
 62
     0
 10
118.277577034541
 20
-177.96652930011459
 30
0.0
 11
118.277577034541
 21
-178.61047984971691
 31
0.0
 12
120.20942868334799
 22
-178.28850457491581
 32
0.0
 13
120.20942868334799
 23
-178.28850457491581
 33
0.0
  0
SOLID
  5
A3D
  8
0
  6
CONTINUOUS
 62
     0
 10
-33.35871966784493
 20
-177.96652930011459
 30
0.0
 11
-33.35871966784493
 21
-178.61047984971691
 31
0.0
 12
-35.29057131665197
 22
-178.28850457491581
 32
0.0
 13
-35.29057131665197
 23
-178.28850457491581
 33
0.0
  0
INSERT
  5
A3E
  8
0
  6
CONTINUOUS
  2
*U7
 10
0.0
 20
0.0
 30
0.0
  0
POINT
  5
A3F
  8
DEFPOINTS
  6
CONTINUOUS
 62
     0
 10
120.20942868334799
 20
-200.63502806022069
 30
0.0
  0
POINT
  5
A40
  8
DEFPOINTS
  6
CONTINUOUS
 62
     0
 10
-35.29057131665197
 20
-200.6350280602208
 30
0.0
  0
POINT
  5
A41
  8
DEFPOINTS
  6
CONTINUOUS
 62
     0
 10
-35.29057131665197
 20
-178.28850457491581
 30
0.0
  0
ENDBLK
  5
A43
  8
0
  0
BLOCK
  8
0
  2
*U7
 70
     1
 10
0.0
 20
0.0
 30
0.0
  3
*U7
  1

  0
TEXT
  5
1140
  8
0
  6
CONTINUOUS
 62
     0
 10
35.459428683348051
 20
-178.1985045749158
 30
0.0
 40
2.0
  1
1555.0000
  0
ENDBLK
  5
1142
  8
0
  0
BLOCK
  8
0
  2
*D8
 70
     1
 10
0.0
 20
0.0
 30
0.0
  3
*D8
  1

  0
LINE
  5
D68
  8
0
  6
CONTINUOUS
 62
     0
 10
1.0
 20
-0.699999999999989
 30
0.0
 11
174.02279142063259
 21
-0.7000000000000382
 31
0.0
  0
LINE
  5
D69
  8
0
  6
CONTINUOUS
 62
     0
 10
1.000000000008469
 20
-496.26640000000077
 30
0.0
 11
174.0227914206325
 21
-496.26640000000111
 31
0.0
  0
LINE
  5
D6A
  8
0
  6
CONTINUOUS
 62
     0
 10
172.02279142063259
 20
-2.6318516488070589
 30
0.0
 11
172.02279142063259
 21
-247.3932000000006
 31
0.0
  0
LINE
  5
D6B
  8
0
  6
CONTINUOUS
 62
     0
 10
172.0227914206325
 20
-494.33454835119397
 30
0.0
 11
172.02279142063259
 21
-249.57320000000061
 31
0.0
  0
SOLID
  5
D6C
  8
0
  6
CONTINUOUS
 62
     0
 10
171.70081614583151
 20
-2.6318516488070589
 30
0.0
 11
172.3447666954338
 21
-2.6318516488070589
 31
0.0
 12
172.02279142063259
 22
-0.7000000000000374
 32
0.0
 13
172.02279142063259
 23
-0.7000000000000374
 33
0.0
  0
SOLID
  5
D6D
  8
0
  6
CONTINUOUS
 62
     0
 10
171.70081614583131
 20
-494.33454835119397
 30
0.0
 11
172.34476669543369
 21
-494.33454835119397
 31
0.0
 12
172.0227914206325
 22
-496.26640000000111
 32
0.0
 13
172.0227914206325
 23
-496.26640000000111
 33
0.0
  0
INSERT
  5
D6E
  8
0
  6
CONTINUOUS
  2
*U9
 10
0.0
 20
0.0
 30
0.0
  0
POINT
  5
D6F
  8
DEFPOINTS
  6
CONTINUOUS
 62
     0
 10
0.0
 20
-0.6999999999999889
 30
0.0
  0
POINT
  5
D70
  8
DEFPOINTS
  6
CONTINUOUS
 62
     0
 10
0.0000000000084697
 20
-496.26640000000077
 30
0.0
  0
POINT
  5
D71
  8
DEFPOINTS
  6
CONTINUOUS
 62
     0
 10
172.0227914206325
 20
-496.26640000000111
 30
0.0
  0
ENDBLK
  5
D73
  8
0
  0
BLOCK
  8
0
  2
*U9
 70
     1
 10
0.0
 20
0.0
 30
0.0
  3
*U9
  1

  0
TEXT
  5
1144
  8
0
  6
CONTINUOUS
 62
     0
 10
164.18945808729919
 20
-249.48320000000061
 30
0.0
 40
2.0
  1
4955.6640
  0
ENDBLK
  5
1146
  8
0
  0
ENDSEC
  0
SECTION
  2
ENTITIES
  0
TEXT
  5
39B
  8
0
  6
CONTINUOUS
 10
-21.808537557921571
 20
-470.61337475244272
 30
0.0
 40
10.0
  1
0.3m/s
 50
0.0000025044781673
 41
0.5833333271245161
  7
STANDARD1
  0
TEXT
  5
39C
  8
0
  6
CONTINUOUS
 10
-20.104903992419509
 20
-380.9208664585293
 30
0.0
 40
10.0
  1
0.5m/s
 50
0.0000025044781673
 41
0.5833333271245161
  7
STANDARD1
  0
TEXT
  5
3F3
  8
0
  6
CONTINUOUS
 10
-13.7038588495019
 20
-223.9385627019675
 30
0.0
 40
10.0
  1
1m/s
 50
0.0000025044781673
 41
0.5833333271245161
  7
STANDARD1
  0
TEXT
  5
440
  8
0
  6
CONTINUOUS
 10
29.783939949492041
 20
-82.779084039268355
 30
0.0
 40
10.0
  1
2m/s
 50
0.0000025044781673
 41
0.5833333271245161
  7
STANDARD1
  0
POINT
  5
BE4
  8
0
  6
CONTINUOUS
 10
-62.964090772549071
 20
0.0
 30
0.0
  0
POINT
  5
BE5
  8
0
  6
CONTINUOUS
 10
-59.966017691161817
 20
0.0
 30
0.0
  0
POINT
  5
BE6
  8
0
  6
CONTINUOUS
 10
-61.764861539993483
 20
0.0
 30
0.0
  0
POINT
  5
BE7
  8
0
  6
CONTINUOUS
 10
-6.000702226201609
 20
0.0
 30
0.0
  0
POINT
  5
BE8
  8
0
  6
CONTINUOUS
 10
-6.000702226201609
 20
0.0
 30
0.0
  0
POINT
  5
BE9
  8
0
  6
CONTINUOUS
 10
-6.3005095343396524
 20
0.0
 30
0.0
  0
POINT
  5
BEA
  8
0
  6
CONTINUOUS
 10
6.000702226201609
 20
0.0
 30
0.0
  0
POINT
  5
BEB
  8
0
  6
CONTINUOUS
 10
6.000702226201609
 20
0.0
 30
0.0
  0
POINT
  5
BEC
  8
0
  6
CONTINUOUS
 10
6.3005095343396524
 20
0.0
 30
0.0
  0
POINT
  5
BED
  8
0
  6
CONTINUOUS
 10
8.0495092904516241
 20
0.0
 30
0.0
  0
POINT
  5
BEE
  8
0
  6
CONTINUOUS
 10
59.966017691161817
 20
0.0
 30
0.0
  0
POINT
  5
BEF
  8
0
  6
CONTINUOUS
 10
58.09575420775672
 20
0.0
 30
0.0
  0
POINT
  5
BF0
  8
0
  6
CONTINUOUS
 10
62.964090772549071
 20
0.0
 30
0.0
  0
POINT
  5
BF1
  8
0
  6
CONTINUOUS
 10
61.764861539993483
 20
0.0
 30
0.0
  0
LINE
  5
BF2
  8
0
  6
CONTINUOUS
 10
78.75
 20
-0.6999999999999889
 30
0.0
 11
-78.75
 21
-0.6999999999999889
 31
0.0
  0
LINE
  5
BF3
  8
0
  6
CONTINUOUS
 10
78.75
 20
0.0
 30
0.0
 11
-78.75
 21
0.0
 31
0.0
  0
LINE
  5
BF4
  8
0
  6
CONTINUOUS
 10
-78.75
 20
0.0
 30
0.0
 11
-78.75
 21
-0.6999999999999889
 31
0.0
  0
LINE
  5
BF5
  8
0
  6
CONTINUOUS
 10
0.0
 20
5.0
 30
0.0
 11
0.0
 21
-5.0
 31
0.0
  0
LINE
  5
BF6
  8
0
  6
CONTINUOUS
 10
78.75
 20
0.0
 30
0.0
 11
78.75
 21
-0.6999999999999889
 31
0.0
  0
LINE
  5
BF7
  8
0
  6
CONTINUOUS
 10
77.75
 20
19.299999999999951
 30
0.0
 11
77.75
 21
0.0
 31
0.0
  0
LINE
  5
BF8
  8
0
  6
CONTINUOUS
 10
77.75
 20
19.299999999999951
 30
0.0
 11
-77.75
 21
19.299999999999951
 31
0.0
  0
LINE
  5
BF9
  8
0
  6
CONTINUOUS
 10
-77.75
 20
19.299999999999951
 30
0.0
 11
-77.75
 21
0.0
 31
0.0
  0
LINE
  5
BFA
  8
0
  6
CONTINUOUS
 10
-6.9553617173169711
 20
-495.70474351010091
 30
0.0
 11
0.0000000000084697
 21
-496.26640000000077
 31
0.0
  0
LINE
  5
BFF
  8
0
  6
CONTINUOUS
 10
6.9553617173178841
 20
-495.70474351010091
 30
0.0
 11
-0.0000000000071054
 21
-496.26640000000077
 31
0.0
  0
LINE
  5
CA6
  8
0
  6
CONTINUOUS
 10
91.242135736106789
 20
-180.447688210639
 30
0.0
 11
91.242135736106789
 21
-180.447688210639
 31
0.0
  0
LINE
  5
CA8
  8
0
  6
CONTINUOUS
 10
63.210000000000768
 20
-0.7000000000002729
 30
0.0
 11
76.124749889281389
 21
-81.342990399678229
 31
0.0
  0
LINE
  5
CA9
  8
0
  6
CONTINUOUS
 10
13.36885255353428
 20
-495.14575890910902
 30
0.0
 11
6.9553617173178841
 21
-495.70474351010091
 31
0.0
  0
LINE
  5
CAA
  8
0
  6
CONTINUOUS
 10
13.36885255353428
 20
-495.14575890910902
 30
0.0
 11
13.36885255353428
 21
-495.14575890910902
 31
0.0
  0
LINE
  5
CAB
  8
0
  6
CONTINUOUS
 10
19.0360030583503
 20
-494.59414444548622
 30
0.0
 11
13.36885255353428
 21
-495.14575890910902
 31
0.0
  0
LINE
  5
CAC
  8
0
  6
CONTINUOUS
 10
25.101949504752682
 20
-494.06270380591849
 30
0.0
 11
19.0360030583503
 21
-494.59414444548622
 31
0.0
  0
LINE
  5
CAD
  8
0
  6
CONTINUOUS
 10
25.101949504752682
 20
-494.06270380591849
 30
0.0
 11
25.101949504752682
 21
-494.06270380591849
 31
0.0
  0
LINE
  5
CAE
  8
0
  6
CONTINUOUS
 10
32.672653973429021
 20
-493.50363780553408
 30
0.0
 11
25.101949504752682
 21
-494.06270380591849
 31
0.0
  0
LINE
  5
CAF
  8
0
  6
CONTINUOUS
 10
41.347776052594838
 20
-492.61863033500123
 30
0.0
 11
32.672653973429021
 21
-493.50363780553408
 31
0.0
  0
LINE
  5
CB0
  8
0
  6
CONTINUOUS
 10
41.347776052594838
 20
-492.61863033500123
 30
0.0
 11
41.347776052594838
 21
-492.61863033500123
 31
0.0
  0
LINE
  5
CB1
  8
0
  6
CONTINUOUS
 10
50.412285399385858
 20
-491.074288387406
 30
0.0
 11
41.347776052594838
 21
-492.61863033500123
 31
0.0
  0
LINE
  5
CB2
  8
0
  6
CONTINUOUS
 10
59.398694439086512
 20
-488.647428289971
 30
0.0
 11
50.412285399385858
 21
-491.074288387406
 31
0.0
  0
LINE
  5
CB3
  8
0
  6
CONTINUOUS
 10
59.398694439086512
 20
-488.647428289971
 30
0.0
 11
59.398694439086512
 21
-488.647428289971
 31
0.0
  0
LINE
  5
CB4
  8
0
  6
CONTINUOUS
 10
68.075561439952963
 20
-485.13996589640283
 30
0.0
 11
59.398694439086512
 21
-488.647428289971
 31
0.0
  0
LINE
  5
CB5
  8
0
  6
CONTINUOUS
 10
76.908085273983346
 20
-480.34400583218479
 30
0.0
 11
68.075561439952963
 21
-485.13996589640283
 31
0.0
  0
LINE
  5
CB6
  8
0
  6
CONTINUOUS
 10
76.908085273983346
 20
-480.34400583218479
 30
0.0
 11
76.908085273983346
 21
-480.34400583218479
 31
0.0
  0
LINE
  5
CB7
  8
0
  6
CONTINUOUS
 10
86.238341611985987
 20
-474.16211807433319
 30
0.0
 11
76.908085273983346
 21
-480.34400583218479
 31
0.0
  0
LINE
  5
CB8
  8
0
  6
CONTINUOUS
 10
95.219272716278994
 20
-466.94854523420958
 30
0.0
 11
86.238341611985987
 21
-474.16211807433319
 31
0.0
  0
LINE
  5
CB9
  8
0
  6
CONTINUOUS
 10
95.219272716278994
 20
-466.94854523420958
 30
0.0
 11
95.219272716278994
 21
-466.94854523420958
 31
0.0
  0
LINE
  5
CBA
  8
0
  6
CONTINUOUS
 10
102.9716630111749
 20
-458.9757252142785
 30
0.0
 11
95.219272716278994
 21
-466.94854523420958
 31
0.0
  0
LINE
  5
CBB
  8
0
  6
CONTINUOUS
 10
109.6767989774588
 20
-449.73720444709051
 30
0.0
 11
102.9716630111749
 21
-458.9757252142785
 31
0.0
  0
LINE
  5
CBC
  8
0
  6
CONTINUOUS
 10
109.6767989774588
 20
-449.73720444709051
 30
0.0
 11
109.6767989774588
 21
-449.73720444709051
 31
0.0
  0
LINE
  5
CBD
  8
0
  6
CONTINUOUS
 10
115.65123025720941
 20
-438.74073475338832
 30
0.0
 11
109.6767989774588
 21
-449.73720444709051
 31
0.0
  0
LINE
  5
CBE
  8
0
  6
CONTINUOUS
 10
120.69205708121569
 20
-426.32978097660651
 30
0.0
 11
115.65123025720941
 21
-438.74073475338832
 31
0.0
  0
LINE
  5
CBF
  8
0
  6
CONTINUOUS
 10
120.69205708121569
 20
-426.32978097660651
 30
0.0
 11
120.69205708121569
 21
-426.32978097660651
 31
0.0
  0
LINE
  5
CC0
  8
0
  6
CONTINUOUS
 10
124.58336039271749
 20
-412.97144148422649
 30
0.0
 11
120.69205708121569
 21
-426.32978097660651
 31
0.0
  0
LINE
  5
CC1
  8
0
  6
CONTINUOUS
 10
127.57659339606251
 20
-398.79163571721398
 30
0.0
 11
124.58336039271749
 21
-412.97144148422649
 31
0.0
  0
LINE
  5
CC2
  8
0
  6
CONTINUOUS
 10
127.57659339606251
 20
-398.79163571721398
 30
0.0
 11
127.57659339606251
 21
-398.79163571721398
 31
0.0
  0
LINE
  5
CC3
  8
0
  6
CONTINUOUS
 10
129.87465586046321
 20
-383.18872872033103
 30
0.0
 11
127.57659339606251
 21
-398.79163571721398
 31
0.0
  0
LINE
  5
CC4
  8
0
  6
CONTINUOUS
 10
131.0188615534874
 20
-362.992046880006
 30
0.0
 11
129.87465586046321
 21
-383.18872872033103
 31
0.0
  0
LINE
  5
CC5
  8
0
  6
CONTINUOUS
 10
131.0188615534874
 20
-362.992046880006
 30
0.0
 11
131.0188615534874
 21
-362.992046880006
 31
0.0
  0
LINE
  5
CC6
  8
0
  6
CONTINUOUS
 10
130.58564386291769
 20
-336.26847997262718
 30
0.0
 11
131.0188615534874
 21
-362.992046880006
 31
0.0
  0
LINE
  5
CC7
  8
0
  6
CONTINUOUS
 10
128.95350065903239
 20
-308.6042099927086
 30
0.0
 11
130.58564386291769
 21
-336.26847997262718
 31
0.0
  0
LINE
  5
CC8
  8
0
  6
CONTINUOUS
 10
128.95350065903239
 20
-308.6042099927086
 30
0.0
 11
128.95350065903239
 21
-308.6042099927086
 31
0.0
  0
LINE
  5
CC9
  8
0
  6
CONTINUOUS
 10
122.7232619048352
 20
-262.43841216497748
 30
0.0
 11
128.95350065903239
 21
-308.6042099927086
 31
0.0
  0
LINE
  5
CCA
  8
0
  6
CONTINUOUS
 10
114.606361439501
 20
-228.31911931708811
 30
0.0
 11
122.7232619048352
 21
-262.43841216497748
 31
0.0
  0
LINE
  5
CCB
  8
0
  6
CONTINUOUS
 10
114.606361439501
 20
-228.31911931708811
 30
0.0
 11
114.606361439501
 21
-228.31911931708811
 31
0.0
  0
LINE
  5
CCC
  8
0
  6
CONTINUOUS
 10
105.56834160195351
 20
-186.4521889930727
 30
0.0
 11
114.606361439501
 21
-228.31911931708811
 31
0.0
  0
LINE
  5
CCD
  8
0
  6
CONTINUOUS
 10
94.351899294144729
 20
-133.1702506342501
 30
0.0
 11
105.56834160195351
 21
-186.4521889930727
 31
0.0
  0
LINE
  5
CCE
  8
0
  6
CONTINUOUS
 10
94.351899294144729
 20
-133.1702506342501
 30
0.0
 11
94.351899294144729
 21
-133.1702506342501
 31
0.0
  0
LINE
  5
CCF
  8
0
  6
CONTINUOUS
 10
79.778808878960561
 20
-69.69779672191703
 30
0.0
 11
94.351899294144729
 21
-133.1702506342501
 31
0.0
  0
LINE
  5
CD0
  8
0
  6
CONTINUOUS
 10
63.210000000000768
 20
-0.7000000000002729
 30
0.0
 11
79.778808878960561
 21
-69.69779672191703
 31
0.0
  0
LINE
  5
CEE
  8
0
  6
CONTINUOUS
 10
-59.632410410953582
 20
-242.83228424826191
 30
0.0
 11
-59.632410410953582
 21
-242.83228424826191
 31
0.0
  0
LINE
  5
CEF
  8
0
  6
CONTINUOUS
 10
-63.599214372647381
 20
-231.76215589809641
 30
0.0
 11
-59.632410410953582
 21
-242.83228424826191
 31
0.0
  0
LINE
  5
CF0
  8
0
  6
CONTINUOUS
 10
-66.938479009217829
 20
-218.3354660070226
 30
0.0
 11
-63.599214372647381
 21
-231.76215589809641
 31
0.0
  0
LINE
  5
CF1
  8
0
  6
CONTINUOUS
 10
-66.938479009217829
 20
-218.3354660070226
 30
0.0
 11
-66.938479009217829
 21
-218.3354660070226
 31
0.0
  0
LINE
  5
D3B
  8
0
  6
CONTINUOUS
 10
-91.242135736105936
 20
-180.447688210639
 30
0.0
 11
-91.242135736105936
 21
-180.447688210639
 31
0.0
  0
LINE
  5
D3E
  8
0
  6
CONTINUOUS
 10
-13.3688525535328
 20
-495.14575890910902
 30
0.0
 11
-6.9553617173169711
 21
-495.70474351010091
 31
0.0
  0
LINE
  5
D3F
  8
0
  6
CONTINUOUS
 10
-13.3688525535328
 20
-495.14575890910902
 30
0.0
 11
-13.3688525535328
 21
-495.14575890910902
 31
0.0
  0
LINE
  5
D40
  8
0
  6
CONTINUOUS
 10
-19.036003058349191
 20
-494.59414444548622
 30
0.0
 11
-13.3688525535328
 21
-495.14575890910902
 31
0.0
  0
LINE
  5
D41
  8
0
  6
CONTINUOUS
 10
-25.101949504751929
 20
-494.06270380591849
 30
0.0
 11
-19.036003058349191
 21
-494.59414444548622
 31
0.0
  0
LINE
  5
D42
  8
0
  6
CONTINUOUS
 10
-25.101949504751929
 20
-494.06270380591849
 30
0.0
 11
-25.101949504751929
 21
-494.06270380591849
 31
0.0
  0
LINE
  5
D43
  8
0
  6
CONTINUOUS
 10
-32.672653973427877
 20
-493.50363780553408
 30
0.0
 11
-25.101949504751929
 21
-494.06270380591849
 31
0.0
  0
LINE
  5
D44
  8
0
  6
CONTINUOUS
 10
-41.347776052594043
 20
-492.61863033500123
 30
0.0
 11
-32.672653973427877
 21
-493.50363780553408
 31
0.0
  0
LINE
  5
D45
  8
0
  6
CONTINUOUS
 10
-41.347776052594043
 20
-492.61863033500123
 30
0.0
 11
-41.347776052594043
 21
-492.61863033500123
 31
0.0
  0
LINE
  5
D46
  8
0
  6
CONTINUOUS
 10
-50.4122853993847
 20
-491.074288387406
 30
0.0
 11
-41.347776052594043
 21
-492.61863033500123
 31
0.0
  0
LINE
  5
D47
  8
0
  6
CONTINUOUS
 10
-59.398694439085197
 20
-488.647428289971
 30
0.0
 11
-50.4122853993847
 21
-491.074288387406
 31
0.0
  0
LINE
  5
D48
  8
0
  6
CONTINUOUS
 10
-59.398694439085197
 20
-488.647428289971
 30
0.0
 11
-59.398694439085197
 21
-488.647428289971
 31
0.0
  0
LINE
  5
D49
  8
0
  6
CONTINUOUS
 10
-68.075561439952025
 20
-485.13996589640283
 30
0.0
 11
-59.398694439085197
 21
-488.647428289971
 31
0.0
  0
LINE
  5
D4A
  8
0
  6
CONTINUOUS
 10
-76.908085273982024
 20
-480.34400583218479
 30
0.0
 11
-68.075561439952025
 21
-485.13996589640283
 31
0.0
  0
LINE
  5
D4B
  8
0
  6
CONTINUOUS
 10
-76.908085273982024
 20
-480.34400583218479
 30
0.0
 11
-76.908085273982024
 21
-480.34400583218479
 31
0.0
  0
LINE
  5
D4C
  8
0
  6
CONTINUOUS
 10
-86.238341611984794
 20
-474.16211807433319
 30
0.0
 11
-76.908085273982024
 21
-480.34400583218479
 31
0.0
  0
LINE
  5
D4D
  8
0
  6
CONTINUOUS
 10
-95.219272716278127
 20
-466.94854523420958
 30
0.0
 11
-86.238341611984794
 21
-474.16211807433319
 31
0.0
  0
LINE
  5
D4E
  8
0
  6
CONTINUOUS
 10
-95.219272716278127
 20
-466.94854523420958
 30
0.0
 11
-95.219272716278127
 21
-466.94854523420958
 31
0.0
  0
LINE
  5
D4F
  8
0
  6
CONTINUOUS
 10
-102.9716630111737
 20
-458.9757252142785
 30
0.0
 11
-95.219272716278127
 21
-466.94854523420958
 31
0.0
  0
LINE
  5
D50
  8
0
  6
CONTINUOUS
 10
-109.6767989774573
 20
-449.73720444709051
 30
0.0
 11
-102.9716630111737
 21
-458.9757252142785
 31
0.0
  0
LINE
  5
D51
  8
0
  6
CONTINUOUS
 10
-109.6767989774573
 20
-449.73720444709051
 30
0.0
 11
-109.6767989774573
 21
-449.73720444709051
 31
0.0
  0
LINE
  5
D52
  8
0
  6
CONTINUOUS
 10
-115.6512302572083
 20
-438.74073475338832
 30
0.0
 11
-109.6767989774573
 21
-449.73720444709051
 31
0.0
  0
LINE
  5
D53
  8
0
  6
CONTINUOUS
 10
-120.6920570812144
 20
-426.32978097660651
 30
0.0
 11
-115.6512302572083
 21
-438.74073475338832
 31
0.0
  0
LINE
  5
D54
  8
0
  6
CONTINUOUS
 10
-120.6920570812144
 20
-426.32978097660651
 30
0.0
 11
-120.6920570812144
 21
-426.32978097660651
 31
0.0
  0
LINE
  5
D55
  8
0
  6
CONTINUOUS
 10
-124.5833603927165
 20
-412.97144148422512
 30
0.0
 11
-120.6920570812144
 21
-426.32978097660651
 31
0.0
  0
LINE
  5
D56
  8
0
  6
CONTINUOUS
 10
-127.5765933960614
 20
-398.79163571721398
 30
0.0
 11
-124.5833603927165
 21
-412.97144148422512
 31
0.0
  0
LINE
  5
D57
  8
0
  6
CONTINUOUS
 10
-127.5765933960614
 20
-398.79163571721398
 30
0.0
 11
-127.5765933960614
 21
-398.79163571721398
 31
0.0
  0
LINE
  5
D58
  8
0
  6
CONTINUOUS
 10
-129.87465586046159
 20
-383.18872872033103
 30
0.0
 11
-127.5765933960614
 21
-398.79163571721398
 31
0.0
  0
LINE
  5
D59
  8
0
  6
CONTINUOUS
 10
-131.0188615534862
 20
-362.992046880006
 30
0.0
 11
-129.87465586046159
 21
-383.18872872033103
 31
0.0
  0
LINE
  5
D5A
  8
0
  6
CONTINUOUS
 10
-131.0188615534862
 20
-362.992046880006
 30
0.0
 11
-131.0188615534862
 21
-362.992046880006
 31
0.0
  0
LINE
  5
D5B
  8
0
  6
CONTINUOUS
 10
-130.5856438629165
 20
-336.26847997262718
 30
0.0
 11
-131.0188615534862
 21
-362.992046880006
 31
0.0
  0
LINE
  5
D5C
  8
0
  6
CONTINUOUS
 10
-128.95350065903159
 20
-308.6042099927086
 30
0.0
 11
-130.5856438629165
 21
-336.26847997262718
 31
0.0
  0
LINE
  5
D5D
  8
0
  6
CONTINUOUS
 10
-128.95350065903159
 20
-308.6042099927086
 30
0.0
 11
-128.95350065903159
 21
-308.6042099927086
 31
0.0
  0
LINE
  5
D5E
  8
0
  6
CONTINUOUS
 10
-122.7232619048342
 20
-262.43841216497748
 30
0.0
 11
-128.95350065903159
 21
-308.6042099927086
 31
0.0
  0
LINE
  5
D5F
  8
0
  6
CONTINUOUS
 10
-114.60636143949949
 20
-228.31911931708811
 30
0.0
 11
-122.7232619048342
 21
-262.43841216497748
 31
0.0
  0
LINE
  5
D60
  8
0
  6
CONTINUOUS
 10
-114.60636143949949
 20
-228.31911931708811
 30
0.0
 11
-114.60636143949949
 21
-228.31911931708811
 31
0.0
  0
LINE
  5
D61
  8
0
  6
CONTINUOUS
 10
-105.568341601952
 20
-186.4521889930727
 30
0.0
 11
-114.60636143949949
 21
-228.31911931708811
 31
0.0
  0
LINE
  5
D62
  8
0
  6
CONTINUOUS
 10
-94.351899294143266
 20
-133.1702506342501
 30
0.0
 11
-105.568341601952
 21
-186.4521889930727
 31
0.0
  0
LINE
  5
D63
  8
0
  6
CONTINUOUS
 10
-94.351899294143266
 20
-133.1702506342501
 30
0.0
 11
-94.351899294143266
 21
-133.1702506342501
 31
0.0
  0
LINE
  5
D64
  8
0
  6
CONTINUOUS
 10
-79.778808878959452
 20
-69.69779672191703
 30
0.0
 11
-94.351899294143266
 21
-133.1702506342501
 31
0.0
  0
LINE
  5
D65
  8
0
  6
CONTINUOUS
 10
-63.209999999999297
 20
-0.7000000000002729
 30
0.0
 11
-79.778808878959452
 21
-69.69779672191703
 31
0.0
  0
POLYLINE
  5
D80
  8
0
  6
CONTINUOUS
 66
     1
 10
0.0
 20
0.0
 30
0.0
  0
VERTEX
  5
163B
  8
0
  6
CONTINUOUS
 10
-12.64192157413617
 20
-0.7012473003296691
 30
0.0
  0
VERTEX
  5
163C
  8
0
  6
CONTINUOUS
 10
-9.9715786790000607
 20
-7.0396983380427374
 30
0.0
  0
VERTEX
  5
163D
  8
0
  6
CONTINUOUS
 10
-9.165919944248742
 20
-8.954193239827644
 30
0.0
  0
VERTEX
  5
163E
  8
0
  6
CONTINUOUS
 10
-7.5366760852477892
 20
-11.991754725058399
 30
0.0
  0
VERTEX
  5
163F
  8
0
  6
CONTINUOUS
 10
-6.715720446392706
 20
-13.086670834374109
 30
0.0
  0
VERTEX
  5
1640
  8
0
  6
CONTINUOUS
 10
-5.8947648075376247
 20
-14.18158694368981
 30
0.0
  0
VERTEX
  5
1641
  8
0
  6
CONTINUOUS
 10
-5.0340684699222891
 20
-14.93908426733514
 30
0.0
  0
VERTEX
  5
1642
  8
0
  6
CONTINUOUS
 10
-4.1733721323069499
 20
-15.696581590980481
 30
0.0
  0
VERTEX
  5
1643
  8
0
  6
CONTINUOUS
 10
-1.8866230912638
 20
-16.753142794043001
 30
0.0
  0
VERTEX
  5
1644
  8
0
  6
CONTINUOUS
 10
-1.386739654658071
 20
-16.901583100174879
 30
0.0
  0
VERTEX
  5
1645
  8
0
  6
CONTINUOUS
 10
-0.3533391622641205
 20
-17.191738388275429
 30
0.0
  0
VERTEX
  5
1646
  8
0
  6
CONTINUOUS
 10
0.0000000000007342
 20
-17.285593781399111
 30
0.0
  0
VERTEX
  5
1647
  8
0
  6
CONTINUOUS
 10
0.3533391622655699
 20
-17.191738388275429
 30
0.0
  0
VERTEX
  5
1648
  8
0
  6
CONTINUOUS
 10
0.8868562180537651
 20
-17.05002340630676
 30
0.0
  0
VERTEX
  5
1649
  8
0
  6
CONTINUOUS
 10
1.886623091265049
 20
-16.753142794043001
 30
0.0
  0
VERTEX
  5
164A
  8
0
  6
CONTINUOUS
 10
4.1733721323079731
 20
-15.696581590980481
 30
0.0
  0
VERTEX
  5
164B
  8
0
  6
CONTINUOUS
 10
5.8947648075391612
 20
-14.18158694368981
 30
0.0
  0
VERTEX
  5
164C
  8
0
  6
CONTINUOUS
 10
7.5366760852487564
 20
-11.991754725058399
 30
0.0
  0
VERTEX
  5
164D
  8
0
  6
CONTINUOUS
 10
9.165919944249536
 20
-8.954193239827644
 30
0.0
  0
VERTEX
  5
164E
  8
0
  6
CONTINUOUS
 10
12.641921574136861
 20
-0.7012473003296691
 30
0.0
  0
SEQEND
  5
164F
  8
0
  6
CONTINUOUS
  0
POLYLINE
  5
D82
  8
0
  6
CONTINUOUS
 66
     1
 10
0.0
 20
0.0
 30
0.0
  0
VERTEX
  5
1650
  8
0
  6
CONTINUOUS
 10
-12.64192157413617
 20
-0.7012473003296691
 30
0.0
  0
VERTEX
  5
1651
  8
0
  6
CONTINUOUS
 10
-10.677958349571149
 20
-9.8094317413465433
 30
0.0
  0
VERTEX
  5
1652
  8
0
  6
CONTINUOUS
 10
-8.0979675063566692
 20
-19.685562938793051
 30
0.0
  0
VERTEX
  5
1653
  8
0
  6
CONTINUOUS
 10
-7.06067751834928
 20
-22.8929258182086
 30
0.0
  0
VERTEX
  5
1654
  8
0
  6
CONTINUOUS
 10
-6.2042538129246596
 20
-24.907846219103028
 30
0.0
  0
VERTEX
  5
1655
  8
0
  6
CONTINUOUS
 10
-4.841799743410574
 20
-27.92506510778162
 30
0.0
  0
VERTEX
  5
1656
  8
0
  6
CONTINUOUS
 10
-3.804467215770897
 20
-29.854986089435439
 30
0.0
  0
VERTEX
  5
1657
  8
0
  6
CONTINUOUS
 10
-2.7856054487995991
 20
-31.467489460430329
 30
0.0
  0
VERTEX
  5
1658
  8
0
  6
CONTINUOUS
 10
-2.2980458453785082
 20
-32.152370337555581
 30
0.0
  0
VERTEX
  5
1659
  8
0
  6
CONTINUOUS
 10
-1.868892982514011
 20
-32.577194024881813
 30
0.0
  0
VERTEX
  5
165A
  8
0
  6
CONTINUOUS
 10
-1.439740119649511
 20
-33.002017712208037
 30
0.0
  0
VERTEX
  5
165B
  8
0
  6
CONTINUOUS
 10
-1.064934245688901
 20
-33.203734596759091
 30
0.0
  0
VERTEX
  5
165C
  8
0
  6
CONTINUOUS
 10
-0.6901283717282924
 20
-33.405451481310138
 30
0.0
  0
VERTEX
  5
165D
  8
0
  6
CONTINUOUS
 10
0.0000000000006821
 20
-33.569200000000357
 30
0.0
  0
VERTEX
  5
165E
  8
0
  6
CONTINUOUS
 10
0.6901283717292018
 20
-33.405451481310138
 30
0.0
  0
VERTEX
  5
165F
  8
0
  6
CONTINUOUS
 10
0.6901283717292018
 20
-33.405451481310138
 30
0.0
  0
VERTEX
  5
1660
  8
0
  6
CONTINUOUS
 10
1.4397401196502511
 20
-33.002017712208037
 30
0.0
  0
VERTEX
  5
1661
  8
0
  6
CONTINUOUS
 10
1.8688929825149181
 20
-32.577194024881813
 30
0.0
  0
VERTEX
  5
1662
  8
0
  6
CONTINUOUS
 10
2.29804584537959
 20
-32.152370337555581
 30
0.0
  0
VERTEX
  5
1663
  8
0
  6
CONTINUOUS
 10
3.273165052221485
 20
-30.782608583305091
 30
0.0
  0
VERTEX
  5
1664
  8
0
  6
CONTINUOUS
 10
3.8044672157718642
 20
-29.854986089435439
 30
0.0
  0
VERTEX
  5
1665
  8
0
  6
CONTINUOUS
 10
4.3357693793222412
 20
-28.92736359556579
 30
0.0
  0
VERTEX
  5
1666
  8
0
  6
CONTINUOUS
 10
4.8417997434117961
 20
-27.92506510778162
 30
0.0
  0
VERTEX
  5
1667
  8
0
  6
CONTINUOUS
 10
5.347830107501351
 20
-26.92276661999745
 30
0.0
  0
VERTEX
  5
1668
  8
0
  6
CONTINUOUS
 10
6.204253812925967
 20
-24.907846219103028
 30
0.0
  0
VERTEX
  5
1669
  8
0
  6
CONTINUOUS
 10
7.0606775183505883
 20
-22.8929258182086
 30
0.0
  0
VERTEX
  5
166A
  8
0
  6
CONTINUOUS
 10
7.5793225123543371
 20
-21.289244378500818
 30
0.0
  0
VERTEX
  5
166B
  8
0
  6
CONTINUOUS
 10
8.0979675063580885
 20
-19.685562938793051
 30
0.0
  0
VERTEX
  5
166C
  8
0
  6
CONTINUOUS
 10
9.3879629279650434
 20
-14.74749734006979
 30
0.0
  0
VERTEX
  5
166D
  8
0
  6
CONTINUOUS
 10
12.641921574136861
 20
-0.7012473003296691
 30
0.0
  0
SEQEND
  5
166E
  8
0
  6
CONTINUOUS
  0
POLYLINE
  5
D83
  8
0
  6
CONTINUOUS
 66
     1
 10
0.0
 20
0.0
 30
0.0
  0
VERTEX
  5
166F
  8
0
  6
CONTINUOUS
 10
-12.64192157413617
 20
-0.7012473003296691
 30
0.0
  0
VERTEX
  5
1670
  8
0
  6
CONTINUOUS
 10
-11.22416627471395
 20
-15.808949923610269
 30
0.0
  0
VERTEX
  5
1671
  8
0
  6
CONTINUOUS
 10
-10.77731612317416
 20
-20.341392904240362
 30
0.0
  0
VERTEX
  5
1672
  8
0
  6
CONTINUOUS
 10
-9.7747529003178215
 20
-28.091870228977768
 30
0.0
  0
VERTEX
  5
1673
  8
0
  6
CONTINUOUS
 10
-8.7362142965352518
 20
-34.951384926505398
 30
0.0
  0
VERTEX
  5
1674
  8
0
  6
CONTINUOUS
 10
-7.7302783271310309
 20
-41.401790940899218
 30
0.0
  0
VERTEX
  5
1675
  8
0
  6
CONTINUOUS
 10
-6.6951124698945801
 20
-47.197995886345097
 30
0.0
  0
VERTEX
  5
1676
  8
0
  6
CONTINUOUS
 10
-5.5846857889570147
 20
-51.997123562474592
 30
0.0
  0
VERTEX
  5
1677
  8
0
  6
CONTINUOUS
 10
-4.5465842313270164
 20
-55.792108840619221
 30
0.0
  0
VERTEX
  5
1678
  8
0
  6
CONTINUOUS
 10
-3.602355414740825
 20
-58.666904488702372
 30
0.0
  0
VERTEX
  5
1679
  8
0
  6
CONTINUOUS
 10
-2.075776756972457
 20
-60.73372378932639
 30
0.0
  0
VERTEX
  5
167A
  8
0
  6
CONTINUOUS
 10
-1.067128530190472
 20
-61.409816843986853
 30
0.0
  0
VERTEX
  5
167B
  8
0
  6
CONTINUOUS
 10
0.0000000000006857
 20
-61.983715214274042
 30
0.0
  0
VERTEX
  5
167C
  8
0
  6
CONTINUOUS
 10
0.4971885242990765
 20
-61.716328788227301
 30
0.0
  0
VERTEX
  5
167D
  8
0
  6
CONTINUOUS
 10
1.0671285301919491
 20
-61.409816843986853
 30
0.0
  0
VERTEX
  5
167E
  8
0
  6
CONTINUOUS
 10
2.075776756973708
 20
-60.73372378932639
 30
0.0
  0
VERTEX
  5
167F
  8
0
  6
CONTINUOUS
 10
2.8390660858577781
 20
-59.700314139014381
 30
0.0
  0
VERTEX
  5
1680
  8
0
  6
CONTINUOUS
 10
3.6023554147418482
 20
-58.666904488702372
 30
0.0
  0
VERTEX
  5
1681
  8
0
  6
CONTINUOUS
 10
4.5465842313277562
 20
-55.792108840619221
 30
0.0
  0
VERTEX
  5
1682
  8
0
  6
CONTINUOUS
 10
6.6951124698954319
 20
-47.197995886345097
 30
0.0
  0
VERTEX
  5
1683
  8
0
  6
CONTINUOUS
 10
8.7362142965367262
 20
-34.951384926505398
 30
0.0
  0
VERTEX
  5
1684
  8
0
  6
CONTINUOUS
 10
10.77731612317552
 20
-20.341392904240362
 30
0.0
  0
VERTEX
  5
1685
  8
0
  6
CONTINUOUS
 10
12.641921574136861
 20
-0.7012473003296709
 30
0.0
  0
SEQEND
  5
1686
  8
0
  6
CONTINUOUS
  0
POLYLINE
  5
D84
  8
0
  6
CONTINUOUS
 66
     1
 10
0.0
 20
0.0
 30
0.0
  0
VERTEX
  5
1687
  8
0
  6
CONTINUOUS
 10
-63.210000000019029
 20
-0.7004096276984911
 30
0.0
  0
VERTEX
  5
1688
  8
0
  6
CONTINUOUS
 10
-69.667374944639803
 20
-41.021495199839251
 30
0.0
  0
VERTEX
  5
1689
  8
0
  6
CONTINUOUS
 10
-83.683442812693144
 20
-130.89533930515859
 30
0.0
  0
VERTEX
  5
168A
  8
0
  6
CONTINUOUS
 10
-91.242135736105936
 20
-180.447688210639
 30
0.0
  0
VERTEX
  5
168B
  8
0
  6
CONTINUOUS
 10
-97.752144834062122
 20
-230.798913818149
 30
0.0
  0
VERTEX
  5
168C
  8
0
  6
CONTINUOUS
 10
-99.729912660328864
 20
-246.95650216216771
 30
0.0
  0
VERTEX
  5
168D
  8
0
  6
CONTINUOUS
 10
-103.2268438516696
 20
-279.70498272673098
 30
0.0
  0
VERTEX
  5
168E
  8
0
  6
CONTINUOUS
 10
-104.1020783682528
 20
-312.03779886517691
 30
0.0
  0
VERTEX
  5
168F
  8
0
  6
CONTINUOUS
 10
-103.2293053179274
 20
-324.20032314646232
 30
0.0
  0
VERTEX
  5
1690
  8
0
  6
CONTINUOUS
 10
-100.267026236061
 20
-348.32301878163088
 30
0.0
  0
VERTEX
  5
1691
  8
0
  6
CONTINUOUS
 10
-96.373551605076585
 20
-365.91297589143932
 30
0.0
  0
VERTEX
  5
1692
  8
0
  6
CONTINUOUS
 10
-94.713091348580804
 20
-371.6332106902662
 30
0.0
  0
VERTEX
  5
1693
  8
0
  6
CONTINUOUS
 10
-89.870321431397613
 20
-382.66356874054651
 30
0.0
  0
VERTEX
  5
1694
  8
0
  6
CONTINUOUS
 10
-86.623731411050414
 20
-387.92303042597013
 30
0.0
  0
VERTEX
  5
1695
  8
0
  6
CONTINUOUS
 10
-83.377141390703173
 20
-393.18249211139403
 30
0.0
  0
VERTEX
  5
1696
  8
0
  6
CONTINUOUS
 10
-76.288714070817548
 20
-402.35646572351908
 30
0.0
  0
VERTEX
  5
1697
  8
0
  6
CONTINUOUS
 10
-69.539112984635111
 20
-409.49185903772968
 30
0.0
  0
VERTEX
  5
1698
  8
0
  6
CONTINUOUS
 10
-65.966721870175107
 20
-412.33931533008791
 30
0.0
  0
VERTEX
  5
1699
  8
0
  6
CONTINUOUS
 10
-58.275655587598933
 20
-417.64766512960682
 30
0.0
  0
VERTEX
  5
169A
  8
0
  6
CONTINUOUS
 10
-50.050608983820943
 20
-422.00921306581881
 30
0.0
  0
VERTEX
  5
169B
  8
0
  6
CONTINUOUS
 10
-42.440589330589731
 20
-425.0645836830015
 30
0.0
  0
VERTEX
  5
169C
  8
0
  6
CONTINUOUS
 10
-32.75602114474799
 20
-427.58398222566558
 30
0.0
  0
VERTEX
  5
169D
  8
0
  6
CONTINUOUS
 10
-23.802903795030119
 20
-428.90063239817852
 30
0.0
  0
VERTEX
  5
169E
  8
0
  6
CONTINUOUS
 10
-14.84978644531224
 20
-430.2172825706914
 30
0.0
  0
VERTEX
  5
169F
  8
0
  6
CONTINUOUS
 10
-7.4248932226557773
 20
-430.37264128534599
 30
0.0
  0
VERTEX
  5
16A0
  8
0
  6
CONTINUOUS
 10
0.0000000000006786
 20
-430.52800000000082
 30
0.0
  0
VERTEX
  5
16A1
  8
0
  6
CONTINUOUS
 10
7.42489322265686
 20
-430.37264128534599
 30
0.0
  0
VERTEX
  5
16A2
  8
0
  6
CONTINUOUS
 10
14.84978644531304
 20
-430.2172825706914
 30
0.0
  0
VERTEX
  5
16A3
  8
0
  6
CONTINUOUS
 10
23.8029037950309
 20
-428.90063239817852
 30
0.0
  0
VERTEX
  5
16A4
  8
0
  6
CONTINUOUS
 10
32.756021144748772
 20
-427.58398222566558
 30
0.0
  0
VERTEX
  5
16A5
  8
0
  6
CONTINUOUS
 10
38.93694111302139
 20
-426.21929987113322
 30
0.0
  0
VERTEX
  5
16A6
  8
0
  6
CONTINUOUS
 10
42.440589330591003
 20
-425.0645836830015
 30
0.0
  0
VERTEX
  5
16A7
  8
0
  6
CONTINUOUS
 10
45.944237548160601
 20
-423.90986749486979
 30
0.0
  0
VERTEX
  5
16A8
  8
0
  6
CONTINUOUS
 10
50.050608983822087
 20
-422.00921306581881
 30
0.0
  0
VERTEX
  5
16A9
  8
0
  6
CONTINUOUS
 10
54.156980419483602
 20
-420.10855863676773
 30
0.0
  0
VERTEX
  5
16AA
  8
0
  6
CONTINUOUS
 10
58.275655587600099
 20
-417.64766512960682
 30
0.0
  0
VERTEX
  5
16AB
  8
0
  6
CONTINUOUS
 10
62.394330755716602
 20
-415.18677162244632
 30
0.0
  0
VERTEX
  5
16AC
  8
0
  6
CONTINUOUS
 10
65.966721870176471
 20
-412.33931533008791
 30
0.0
  0
VERTEX
  5
16AD
  8
0
  6
CONTINUOUS
 10
69.539112984636347
 20
-409.49185903772968
 30
0.0
  0
VERTEX
  5
16AE
  8
0
  6
CONTINUOUS
 10
76.288714070818259
 20
-402.35646572351908
 30
0.0
  0
VERTEX
  5
16AF
  8
0
  6
CONTINUOUS
 10
79.832927730761284
 20
-397.76947891745669
 30
0.0
  0
VERTEX
  5
16B0
  8
0
  6
CONTINUOUS
 10
83.377141390704296
 20
-393.18249211139403
 30
0.0
  0
VERTEX
  5
16B1
  8
0
  6
CONTINUOUS
 10
86.623731411051381
 20
-387.92303042597013
 30
0.0
  0
VERTEX
  5
16B2
  8
0
  6
CONTINUOUS
 10
89.870321431398523
 20
-382.66356874054651
 30
0.0
  0
VERTEX
  5
16B3
  8
0
  6
CONTINUOUS
 10
94.713091348581926
 20
-371.6332106902662
 30
0.0
  0
VERTEX
  5
16B4
  8
0
  6
CONTINUOUS
 10
98.034011861573305
 20
-360.19274109261232
 30
0.0
  0
VERTEX
  5
16B5
  8
0
  6
CONTINUOUS
 10
98.034011861573305
 20
-360.19274109261232
 30
0.0
  0
VERTEX
  5
16B6
  8
0
  6
CONTINUOUS
 10
99.150519048817713
 20
-354.25787993712169
 30
0.0
  0
VERTEX
  5
16B7
  8
0
  6
CONTINUOUS
 10
101.07545529781861
 20
-342.28912806408061
 30
0.0
  0
VERTEX
  5
16B8
  8
0
  6
CONTINUOUS
 10
102.55659483875181
 20
-330.22778024649631
 30
0.0
  0
VERTEX
  5
16B9
  8
0
  6
CONTINUOUS
 10
104.1020783682543
 20
-312.03779886517691
 30
0.0
  0
VERTEX
  5
16BA
  8
0
  6
CONTINUOUS
 10
104.1020783682543
 20
-312.03779886517691
 30
0.0
  0
VERTEX
  5
16BB
  8
0
  6
CONTINUOUS
 10
103.22684385167101
 20
-279.70498272673098
 30
0.0
  0
VERTEX
  5
16BC
  8
0
  6
CONTINUOUS
 10
103.22684385167101
 20
-279.70498272673098
 30
0.0
  0
VERTEX
  5
16BD
  8
0
  6
CONTINUOUS
 10
103.22684385167101
 20
-279.70498272673098
 30
0.0
  0
VERTEX
  5
16BE
  8
0
  6
CONTINUOUS
 10
103.22684385167101
 20
-279.70498272673098
 30
0.0
  0
VERTEX
  5
16BF
  8
0
  6
CONTINUOUS
 10
99.729912660330413
 20
-246.95650216216771
 30
0.0
  0
VERTEX
  5
16C0
  8
0
  6
CONTINUOUS
 10
97.752144834063444
 20
-230.798913818149
 30
0.0
  0
VERTEX
  5
16C1
  8
0
  6
CONTINUOUS
 10
91.242135736106789
 20
-180.447688210639
 30
0.0
  0
VERTEX
  5
16C2
  8
0
  6
CONTINUOUS
 10
91.242135736106789
 20
-180.447688210639
 30
0.0
  0
VERTEX
  5
16C3
  8
0
  6
CONTINUOUS
 10
83.683442812694096
 20
-130.89533930515859
 30
0.0
  0
VERTEX
  5
16C4
  8
0
  6
CONTINUOUS
 10
76.124749889281389
 20
-81.342990399678229
 30
0.0
  0
VERTEX
  5
16C5
  8
0
  6
CONTINUOUS
 10
63.210000000020443
 20
-0.7004096276984911
 30
0.0
  0
SEQEND
  5
16C6
  8
0
  6
CONTINUOUS
  0
POLYLINE
  5
D85
  8
0
  6
CONTINUOUS
 66
     1
 10
0.0
 20
0.0
 30
0.0
  0
VERTEX
  5
16C7
  8
0
  6
CONTINUOUS
 10
-63.210000000019029
 20
-0.7004096276984911
 30
0.0
  0
VERTEX
  5
16C8
  8
0
  6
CONTINUOUS
 10
-66.14868785270761
 20
-44.641779664454823
 30
0.0
  0
VERTEX
  5
16C9
  8
0
  6
CONTINUOUS
 10
-71.6659351610367
 20
-143.55570506008121
 30
0.0
  0
VERTEX
  5
16CA
  8
0
  6
CONTINUOUS
 10
-72.333446608533279
 20
-164.62893004513941
 30
0.0
  0
VERTEX
  5
16CB
  8
0
  6
CONTINUOUS
 10
-70.208360195786071
 20
-196.59108457045701
 30
0.0
  0
VERTEX
  5
16CC
  8
0
  6
CONTINUOUS
 10
-68.166958675682679
 20
-210.9883373964486
 30
0.0
  0
VERTEX
  5
16CD
  8
0
  6
CONTINUOUS
 10
-66.938479009217829
 20
-218.3354660070226
 30
0.0
  0
VERTEX
  5
16CE
  8
0
  6
CONTINUOUS
 10
-63.599214372647381
 20
-231.76215589809641
 30
0.0
  0
VERTEX
  5
16CF
  8
0
  6
CONTINUOUS
 10
-59.632410410953582
 20
-242.83228424826191
 30
0.0
  0
VERTEX
  5
16D0
  8
0
  6
CONTINUOUS
 10
-55.302579862482901
 20
-250.9869012380293
 30
0.0
  0
VERTEX
  5
16D1
  8
0
  6
CONTINUOUS
 10
-50.607266848391589
 20
-257.01465270371727
 30
0.0
  0
VERTEX
  5
16D2
  8
0
  6
CONTINUOUS
 10
-45.506589760699462
 20
-261.8433695782536
 30
0.0
  0
VERTEX
  5
16D3
  8
0
  6
CONTINUOUS
 10
-40.077932692069773
 20
-265.61002752520488
 30
0.0
  0
VERTEX
  5
16D4
  8
0
  6
CONTINUOUS
 10
-34.431193706614067
 20
-268.2780760051362
 30
0.0
  0
VERTEX
  5
16D5
  8
0
  6
CONTINUOUS
 10
-31.560127380106149
 20
-269.09289547054198
 30
0.0
  0
VERTEX
  5
16D6
  8
0
  6
CONTINUOUS
 10
-28.689061053598209
 20
-269.90771493594781
 30
0.0
  0
VERTEX
  5
16D7
  8
0
  6
CONTINUOUS
 10
-22.98903501089757
 20
-270.52313193197688
 30
0.0
  0
VERTEX
  5
16D8
  8
0
  6
CONTINUOUS
 10
-20.252054398281359
 20
-270.21542343396231
 30
0.0
  0
VERTEX
  5
16D9
  8
0
  6
CONTINUOUS
 10
-14.97751446189443
 20
-268.95448948295291
 30
0.0
  0
VERTEX
  5
16DA
  8
0
  6
CONTINUOUS
 10
-10.142616124807891
 20
-266.8056457775815
 30
0.0
  0
VERTEX
  5
16DB
  8
0
  6
CONTINUOUS
 10
-5.8175014665078484
 20
-264.58892167289412
 30
0.0
  0
VERTEX
  5
16DC
  8
0
  6
CONTINUOUS
 10
-0.0000000000604246
 20
-261.79085333167808
 30
0.0
  0
VERTEX
  5
16DD
  8
0
  6
CONTINUOUS
 10
10.142616124808971
 20
-266.8056457775815
 30
0.0
  0
VERTEX
  5
16DE
  8
0
  6
CONTINUOUS
 10
17.515073785665919
 20
-269.90771493594781
 30
0.0
  0
VERTEX
  5
16DF
  8
0
  6
CONTINUOUS
 10
22.989035010898512
 20
-270.52313193197688
 30
0.0
  0
VERTEX
  5
16E0
  8
0
  6
CONTINUOUS
 10
25.839048032249089
 20
-270.21542343396231
 30
0.0
  0
VERTEX
  5
16E1
  8
0
  6
CONTINUOUS
 10
28.689061053599659
 20
-269.90771493594781
 30
0.0
  0
VERTEX
  5
16E2
  8
0
  6
CONTINUOUS
 10
34.431193706615431
 20
-268.2780760051362
 30
0.0
  0
VERTEX
  5
16E3
  8
0
  6
CONTINUOUS
 10
37.254563199343082
 20
-266.94405176517063
 30
0.0
  0
VERTEX
  5
16E4
  8
0
  6
CONTINUOUS
 10
40.077932692070732
 20
-265.61002752520488
 30
0.0
  0
VERTEX
  5
16E5
  8
0
  6
CONTINUOUS
 10
45.506589760700379
 20
-261.8433695782536
 30
0.0
  0
VERTEX
  5
16E6
  8
0
  6
CONTINUOUS
 10
50.607266848392243
 20
-257.01465270371727
 30
0.0
  0
VERTEX
  5
16E7
  8
0
  6
CONTINUOUS
 10
55.302579862483817
 20
-250.9869012380293
 30
0.0
  0
VERTEX
  5
16E8
  8
0
  6
CONTINUOUS
 10
57.467495136719471
 20
-246.90959274314559
 30
0.0
  0
VERTEX
  5
16E9
  8
0
  6
CONTINUOUS
 10
59.632410410955139
 20
-242.83228424826191
 30
0.0
  0
VERTEX
  5
16EA
  8
0
  6
CONTINUOUS
 10
61.615812391801931
 20
-237.29722007317909
 30
0.0
  0
VERTEX
  5
16EB
  8
0
  6
CONTINUOUS
 10
63.599214372648753
 20
-231.76215589809641
 30
0.0
  0
VERTEX
  5
16EC
  8
0
  6
CONTINUOUS
 10
66.938479009219293
 20
-218.3354660070234
 30
0.0
  0
VERTEX
  5
16ED
  8
0
  6
CONTINUOUS
 10
69.395438342148765
 20
-203.6412087858748
 30
0.0
  0
VERTEX
  5
16EE
  8
0
  6
CONTINUOUS
 10
71.021282049426048
 20
-189.54096035503909
 30
0.0
  0
VERTEX
  5
16EF
  8
0
  6
CONTINUOUS
 10
71.677364328980289
 20
-177.08494520008921
 30
0.0
  0
VERTEX
  5
16F0
  8
0
  6
CONTINUOUS
 10
71.999690884786332
 20
-154.0923175526103
 30
0.0
  0
VERTEX
  5
16F1
  8
0
  6
CONTINUOUS
 10
71.999690884786332
 20
-154.0923175526103
 30
0.0
  0
VERTEX
  5
16F2
  8
0
  6
CONTINUOUS
 10
71.048818462616609
 20
-130.6128028729218
 30
0.0
  0
VERTEX
  5
16F3
  8
0
  6
CONTINUOUS
 10
71.048818462616609
 20
-130.6128028729218
 30
0.0
  0
VERTEX
  5
16F4
  8
0
  6
CONTINUOUS
 10
69.544627868855571
 20
-101.1736441093277
 30
0.0
  0
VERTEX
  5
16F5
  8
0
  6
CONTINUOUS
 10
67.403120913112616
 20
-64.659583598673862
 30
0.0
  0
VERTEX
  5
16F6
  8
0
  6
CONTINUOUS
 10
63.210000000020443
 20
-0.7004096276984911
 30
0.0
  0
SEQEND
  5
16F7
  8
0
  6
CONTINUOUS
  0
POLYLINE
  5
D88
  8
0
  6
CONTINUOUS
 66
     1
 10
0.0
 20
0.0
 30
0.0
  0
VERTEX
  5
16F8
  8
0
  6
CONTINUOUS
 10
-63.210000000019029
 20
-0.7004096276984911
 30
0.0
  0
VERTEX
  5
16F9
  8
0
  6
CONTINUOUS
 10
-62.466460609517497
 20
-57.743448975741202
 30
0.0
  0
VERTEX
  5
16FA
  8
0
  6
CONTINUOUS
 10
-61.798770330381132
 20
-79.595268911595184
 30
0.0
  0
VERTEX
  5
16FB
  8
0
  6
CONTINUOUS
 10
-60.97885301918825
 20
-94.825367863769316
 30
0.0
  0
VERTEX
  5
16FC
  8
0
  6
CONTINUOUS
 10
-60.328341940541087
 20
-103.7801579852382
 30
0.0
  0
VERTEX
  5
16FD
  8
0
  6
CONTINUOUS
 10
-59.140206358822788
 20
-117.24003948809229
 30
0.0
  0
VERTEX
  5
16FE
  8
0
  6
CONTINUOUS
 10
-57.085546248726558
 20
-127.1819432466252
 30
0.0
  0
VERTEX
  5
16FF
  8
0
  6
CONTINUOUS
 10
-55.568510641701423
 20
-132.61875562377301
 30
0.0
  0
VERTEX
  5
1700
  8
0
  6
CONTINUOUS
 10
-53.464587123692411
 20
-137.5605889059278
 30
0.0
  0
VERTEX
  5
1701
  8
0
  6
CONTINUOUS
 10
-51.061514271165883
 20
-141.89786579840609
 30
0.0
  0
VERTEX
  5
1702
  8
0
  6
CONTINUOUS
 10
-48.513623402776702
 20
-144.79394524372881
 30
0.0
  0
VERTEX
  5
1703
  8
0
  6
CONTINUOUS
 10
-45.361489449605983
 20
-146.40486216893979
 30
0.0
  0
VERTEX
  5
1704
  8
0
  6
CONTINUOUS
 10
-41.263125327594409
 20
-147.10581064445839
 30
0.0
  0
VERTEX
  5
1705
  8
0
  6
CONTINUOUS
 10
-39.111588803647578
 20
-147.13087798707261
 30
0.0
  0
VERTEX
  5
1706
  8
0
  6
CONTINUOUS
 10
-36.960052279700733
 20
-147.1559453296868
 30
0.0
  0
VERTEX
  5
1707
  8
0
  6
CONTINUOUS
 10
-33.257952173039541
 20
-146.73429645927459
 30
0.0
  0
VERTEX
  5
1708
  8
0
  6
CONTINUOUS
 10
-30.135641044325109
 20
-145.8154359798811
 30
0.0
  0
VERTEX
  5
1709
  8
0
  6
CONTINUOUS
 10
-27.372070923659869
 20
-144.15270655952961
 30
0.0
  0
VERTEX
  5
170A
  8
0
  6
CONTINUOUS
 10
-24.77360364510076
 20
-140.81899203969459
 30
0.0
  0
VERTEX
  5
170B
  8
0
  6
CONTINUOUS
 10
-22.255693294876089
 20
-135.12625364676791
 30
0.0
  0
VERTEX
  5
170C
  8
0
  6
CONTINUOUS
 10
-20.142753163952761
 20
-128.0232209733644
 30
0.0
  0
VERTEX
  5
170D
  8
0
  6
CONTINUOUS
 10
-18.73505284382702
 20
-120.695972211495
 30
0.0
  0
VERTEX
  5
170E
  8
0
  6
CONTINUOUS
 10
-17.827327923378331
 20
-113.6432115845373
 30
0.0
  0
VERTEX
  5
170F
  8
0
  6
CONTINUOUS
 10
-16.826210765926501
 20
-101.5692546179806
 30
0.0
  0
VERTEX
  5
1710
  8
0
  6
CONTINUOUS
 10
-15.825093608474671
 20
-89.495297651423925
 30
0.0
  0
VERTEX
  5
1711
  8
0
  6
CONTINUOUS
 10
-15.270054137164781
 20
-71.43381351375433
 30
0.0
  0
VERTEX
  5
1712
  8
0
  6
CONTINUOUS
 10
-12.64192157413617
 20
-0.7012473003296691
 30
0.0
  0
SEQEND
  5
1713
  8
0
  6
CONTINUOUS
  0
POLYLINE
  5
D89
  8
0
  6
CONTINUOUS
 66
     1
 10
0.0
 20
0.0
 30
0.0
  0
VERTEX
  5
1714
  8
0
  6
CONTINUOUS
 10
63.210000000019029
 20
-0.7004096276984911
 30
0.0
  0
VERTEX
  5
1715
  8
0
  6
CONTINUOUS
 10
62.466460609517497
 20
-57.743448975741202
 30
0.0
  0
VERTEX
  5
1716
  8
0
  6
CONTINUOUS
 10
61.798770330381132
 20
-79.595268911595184
 30
0.0
  0
VERTEX
  5
1717
  8
0
  6
CONTINUOUS
 10
60.97885301918825
 20
-94.825367863769316
 30
0.0
  0
VERTEX
  5
1718
  8
0
  6
CONTINUOUS
 10
60.328341940541087
 20
-103.7801579852382
 30
0.0
  0
VERTEX
  5
1719
  8
0
  6
CONTINUOUS
 10
59.140206358822788
 20
-117.24003948809229
 30
0.0
  0
VERTEX
  5
171A
  8
0
  6
CONTINUOUS
 10
57.085546248726558
 20
-127.1819432466252
 30
0.0
  0
VERTEX
  5
171B
  8
0
  6
CONTINUOUS
 10
55.568510641701423
 20
-132.61875562377301
 30
0.0
  0
VERTEX
  5
171C
  8
0
  6
CONTINUOUS
 10
53.464587123692411
 20
-137.5605889059278
 30
0.0
  0
VERTEX
  5
171D
  8
0
  6
CONTINUOUS
 10
51.061514271165883
 20
-141.89786579840609
 30
0.0
  0
VERTEX
  5
171E
  8
0
  6
CONTINUOUS
 10
48.513623402776702
 20
-144.79394524372881
 30
0.0
  0
VERTEX
  5
171F
  8
0
  6
CONTINUOUS
 10
45.361489449605983
 20
-146.40486216893979
 30
0.0
  0
VERTEX
  5
1720
  8
0
  6
CONTINUOUS
 10
41.263125327594409
 20
-147.10581064445839
 30
0.0
  0
VERTEX
  5
1721
  8
0
  6
CONTINUOUS
 10
39.111588803647578
 20
-147.13087798707261
 30
0.0
  0
VERTEX
  5
1722
  8
0
  6
CONTINUOUS
 10
36.960052279700733
 20
-147.1559453296868
 30
0.0
  0
VERTEX
  5
1723
  8
0
  6
CONTINUOUS
 10
33.257952173039541
 20
-146.73429645927459
 30
0.0
  0
VERTEX
  5
1724
  8
0
  6
CONTINUOUS
 10
30.135641044325109
 20
-145.8154359798811
 30
0.0
  0
VERTEX
  5
1725
  8
0
  6
CONTINUOUS
 10
27.372070923659869
 20
-144.15270655952961
 30
0.0
  0
VERTEX
  5
1726
  8
0
  6
CONTINUOUS
 10
24.77360364510076
 20
-140.81899203969459
 30
0.0
  0
VERTEX
  5
1727
  8
0
  6
CONTINUOUS
 10
22.255693294876089
 20
-135.12625364676791
 30
0.0
  0
VERTEX
  5
1728
  8
0
  6
CONTINUOUS
 10
20.142753163952761
 20
-128.0232209733644
 30
0.0
  0
VERTEX
  5
1729
  8
0
  6
CONTINUOUS
 10
18.73505284382702
 20
-120.695972211495
 30
0.0
  0
VERTEX
  5
172A
  8
0
  6
CONTINUOUS
 10
17.827327923378331
 20
-113.6432115845373
 30
0.0
  0
VERTEX
  5
172B
  8
0
  6
CONTINUOUS
 10
16.826210765926501
 20
-101.5692546179806
 30
0.0
  0
VERTEX
  5
172C
  8
0
  6
CONTINUOUS
 10
15.825093608474671
 20
-89.495297651423925
 30
0.0
  0
VERTEX
  5
172D
  8
0
  6
CONTINUOUS
 10
15.270054137164781
 20
-71.43381351375433
 30
0.0
  0
VERTEX
  5
172E
  8
0
  6
CONTINUOUS
 10
12.64192157413617
 20
-0.7012473003296691
 30
0.0
  0
SEQEND
  5
172F
  8
0
  6
CONTINUOUS
  0
ENDSEC
  0
EOF
