  0
SECTION
  2
HEADER
  9
$ACADVER
  1
AC1009
  9
$INSBASE
 10
0.0
 20
0.0
 30
0.0
  9
$EXTMIN
 10
-2001.9548990423029
 20
-3240.6513937225368
 30
-0.0015258207003583
  9
$EXTMAX
 10
2474.7748196176622
 20
193.1047915216368
 30
0.0000000349246037
  9
$LIMMIN
 10
0.0
 20
0.0
  9
$LIMMAX
 10
12.0
 20
9.0
  9
$ORTHOMODE
 70
     0
  9
$REGENMODE
 70
     1
  9
$FILLMODE
 70
     1
  9
$QTEXTMODE
 70
     0
  9
$MIRRTEXT
 70
     0
  9
$DRAGMODE
 70
     2
  9
$LTSCALE
 40
1.0
  9
$OSMODE
 70
  3071
  9
$ATTMODE
 70
     1
  9
$TEXTSIZE
 40
3.200000047683714
  9
$TRACEWID
 40
0.05
  9
$TEXTSTYLE
  7
STANDARD1
  9
$CLAYER
  8
0
  9
$CELTYPE
  6
CONTINUOUS
  9
$CECOLOR
 62
   256
  9
$DIMSCALE
 40
1.0
  9
$DIMASZ
 40
1.931851648807023
  9
$DIMEXO
 40
1.0
  9
$DIMDLI
 40
0.38
  9
$DIMRND
 40
0.0
  9
$DIMDLE
 40
0.0
  9
$DIMEXE
 40
2.0
  9
$DIMTP
 40
0.0
  9
$DIMTM
 40
0.0
  9
$DIMTXT
 40
2.0
  9
$DIMCEN
 40
0.09
  9
$DIMTSZ
 40
0.0
  9
$DIMTOL
 70
     0
  9
$DIMLIM
 70
     0
  9
$DIMTIH
 70
     1
  9
$DIMTOH
 70
     1
  9
$DIMSE1
 70
     0
  9
$DIMSE2
 70
     0
  9
$DIMTAD
 70
     1
  9
$DIMZIN
 70
     0
  9
$DIMBLK
  1

  9
$DIMASO
 70
     1
  9
$DIMSHO
 70
     1
  9
$DIMPOST
  1

  9
$DIMAPOST
  1

  9
$DIMALT
 70
     0
  9
$DIMALTD
 70
     2
  9
$DIMALTF
 40
25.399999999999999
  9
$DIMLFAC
 40
1.0
  9
$DIMTOFL
 70
     0
  9
$DIMTVP
 40
0.0
  9
$DIMTIX
 70
     0
  9
$DIMSOXD
 70
     0
  9
$DIMSAH
 70
     0
  9
$DIMBLK1
  1

  9
$DIMBLK2
  1

  9
$DIMSTYLE
  2
STANDARD
  9
$DIMCLRD
 70
     0
  9
$DIMCLRE
 70
     0
  9
$DIMCLRT
 70
     0
  9
$DIMTFAC
 40
0.625
  9
$DIMGAP
 40
0.09
  9
$LUNITS
 70
     2
  9
$LUPREC
 70
     3
  9
$SKETCHINC
 40
0.1
  9
$FILLETRAD
 40
0.0
  9
$AUNITS
 70
     0
  9
$AUPREC
 70
     0
  9
$MENU
  1
.
  9
$ELEVATION
 40
0.0
  9
$PELEVATION
 40
0.0
  9
$THICKNESS
 40
0.0
  9
$LIMCHECK
 70
     0
  9
$BLIPMODE
 70
     0
  9
$CHAMFERA
 40
0.0
  9
$CHAMFERB
 40
0.0
  9
$SKPOLY
 70
     0
  9
$TDCREATE
 40
2453297.551192489
  9
$TDUPDATE
 40
2454284.546760486
  9
$TDINDWG
 40
0.0068140625
  9
$TDUSRTIMER
 40
0.0068097106
  9
$USRTIMER
 70
     1
  9
$ANGBASE
 50
0.0
  9
$ANGDIR
 70
     0
  9
$PDMODE
 70
     0
  9
$PDSIZE
 40
0.0
  9
$PLINEWID
 40
0.0
  9
$COORDS
 70
     1
  9
$SPLFRAME
 70
     0
  9
$SPLINETYPE
 70
     6
  9
$SPLINESEGS
 70
     8
  9
$ATTDIA
 70
     0
  9
$ATTREQ
 70
     1
  9
$HANDLING
 70
     1
  9
$HANDSEED
  5
8A8
  9
$SURFTAB1
 70
     6
  9
$SURFTAB2
 70
     6
  9
$SURFTYPE
 70
     6
  9
$SURFU
 70
     6
  9
$SURFV
 70
     6
  9
$UCSNAME
  2

  9
$UCSORG
 10
0.0
 20
0.0
 30
0.0
  9
$UCSXDIR
 10
1.0
 20
0.0
 30
0.0
  9
$UCSYDIR
 10
0.0
 20
1.0
 30
0.0
  9
$PUCSNAME
  2

  9
$PUCSORG
 10
0.0
 20
0.0
 30
0.0
  9
$PUCSXDIR
 10
1.0
 20
0.0
 30
0.0
  9
$PUCSYDIR
 10
0.0
 20
1.0
 30
0.0
  9
$USERI1
 70
     0
  9
$USERI2
 70
     0
  9
$USERI3
 70
     0
  9
$USERI4
 70
     0
  9
$USERI5
 70
     0
  9
$USERR1
 40
0.0
  9
$USERR2
 40
0.0
  9
$USERR3
 40
0.0
  9
$USERR4
 40
0.0
  9
$USERR5
 40
0.0
  9
$WORLDVIEW
 70
     1
  9
$SHADEDGE
 70
     3
  9
$SHADEDIF
 70
    70
  9
$TILEMODE
 70
     1
  9
$MAXACTVP
 70
    64
  9
$PLIMCHECK
 70
     0
  9
$PEXTMIN
 10
1.0000000000000000E+020
 20
1.0000000000000000E+020
 30
1.0000000000000000E+020
  9
$PEXTMAX
 10
-1.0000000000000000E+020
 20
-1.0000000000000000E+020
 30
-1.0000000000000000E+020
  9
$PLIMMIN
 10
0.0
 20
0.0
  9
$PLIMMAX
 10
12.0
 20
9.0
  9
$UNITMODE
 70
     0
  9
$VISRETAIN
 70
     1
  9
$PLINEGEN
 70
     0
  9
$PSLTSCALE
 70
     1
  0
ENDSEC
  0
SECTION
  2
TABLES
  0
TABLE
  2
VPORT
 70
     1
  0
VPORT
  2
*ACTIVE
 70
     0
 10
0.0
 20
0.0
 11
1.0
 21
1.0
 12
236.4099602876797
 22
-1523.77330110045
 13
0.0
 23
0.0
 14
1.0
 24
1.0
 15
0.0
 25
0.0
 16
0.0
 26
0.0
 36
1.0
 17
0.0
 27
0.0
 37
0.0
 40
3463.2304872634381
 41
1.6704871060171911
 42
50.0
 43
0.0
 44
0.0
 50
0.0
 51
0.0
 71
     0
 72
   100
 73
     1
 74
     1
 75
     0
 76
     0
 77
     0
 78
     0
  0
ENDTAB
  0
TABLE
  2
LTYPE
 70
     4
  0
LTYPE
  2
CONTINUOUS
 70
     0
  3
Solid line
 72
    65
 73
     0
 40
0.0
  0
LTYPE
  2
DASHED
 70
     0
  3
-- -- -- -- -- -- -- -- -- -- -- -- -- -- --
 72
    65
 73
     2
 40
0.75
 49
0.5
 49
-0.25
  0
LTYPE
  2
DASHDOT
 70
     0
  3
__ . __ . __ . __ . __ . __ . __ . __ . __ . __
 72
    65
 73
     4
 40
1.0
 49
0.5
 49
-0.25
 49
0.0
 49
-0.25
  0
LTYPE
  2
DIVIDE
 70
     0
  3
__ . . __ . . __ . . __ . . __ . . __ . . __
 72
    65
 73
     6
 40
1.25
 49
0.5
 49
-0.25
 49
0.0
 49
-0.25
 49
0.0
 49
-0.25
  0
ENDTAB
  0
TABLE
  2
LAYER
 70
     2
  0
LAYER
  2
0
 70
     0
 62
     7
  6
CONTINUOUS
  0
LAYER
  2
DEFPOINTS
 70
     0
 62
     7
  6
CONTINUOUS
  0
ENDTAB
  0
TABLE
  2
STYLE
 70
     5
  0
STYLE
  2
STANDARD
 70
     0
 40
0.0
 41
1.0
 50
0.0
 71
     0
 42
0.2
  3
txt
  4

  0
STYLE
  2
STANDARD1
 70
     0
 40
0.0
 41
1.0
 50
0.0
 71
     0
 42
3.200000047683714
  3
MONOTXT
  4
BIGFONT
  0
STYLE
  2
STANDARD2
 70
     4
 40
0.0
 41
1.0
 50
0.0
 71
     0
 42
3.200000047683714
  3
MONOTXT
  4
BIGFONT
  0
STYLE
  2
STANDARD3
 70
     0
 40
0.0
 41
1.0
 50
0.0
 71
     0
 42
3.200000047683714
  3
MONOTXT
  4

  0
STYLE
  2
STANDARD4
 70
     4
 40
0.0
 41
1.0
 50
0.0
 71
     0
 42
3.200000047683714
  3
MONOTXT
  4

  0
ENDTAB
  0
TABLE
  2
VIEW
 70
     0
  0
ENDTAB
  0
TABLE
  2
UCS
 70
     0
  0
ENDTAB
  0
TABLE
  2
APPID
 70
     1
  0
APPID
  2
ACAD
 70
     0
  0
ENDTAB
  0
TABLE
  2
DIMSTYLE
 70
     1
  0
DIMSTYLE
  2
STANDARD
 70
     0
  3

  4

  5

  6

  7

 40
1.0
 41
0.18
 42
0.0625
 43
0.38
 44
0.18
 45
0.0
 46
0.0
 47
0.0
 48
0.0
140
0.18
141
0.09
142
0.0
143
25.399999999999999
144
1.0
145
0.0
146
1.0
147
0.09
 71
     0
 72
     0
 73
     1
 74
     1
 75
     0
 76
     0
 77
     0
 78
     0
170
     0
171
     2
172
     0
173
     0
174
     0
175
     0
176
     0
177
     0
178
     0
  0
ENDTAB
  0
ENDSEC
  0
SECTION
  2
BLOCKS
  0
BLOCK
  8
0
  2
$MODEL_SPACE
 70
     0
 10
0.0
 20
0.0
 30
0.0
  3
$MODEL_SPACE
  1

  0
ENDBLK
  5
48B
  8
0
  0
BLOCK
 67
     1
  8
0
  2
$PAPER_SPACE
 70
     0
 10
0.0
 20
0.0
 30
0.0
  3
$PAPER_SPACE
  1

  0
ENDBLK
  5
487
 67
     1
  8
0
  0
BLOCK
  8
0
  2
*D2
 70
     1
 10
0.0
 20
0.0
 30
0.0
  3
*D2
  1

  0
LINE
  5
4A2
  8
0
  6
CONTINUOUS
 62
     0
 10
124.3992722693292
 20
3613.1129033427401
 30
0.0
 11
124.3992722693292
 21
3776.321321147027
 31
0.0
  0
LINE
  5
4A3
  8
0
  6
CONTINUOUS
 62
     0
 10
-25.600727730670759
 20
3613.1129033427401
 30
0.0
 11
-25.600727730670751
 21
3776.321321147027
 31
0.0
  0
LINE
  5
4A4
  8
0
  6
CONTINUOUS
 62
     0
 10
122.46742062052211
 20
3774.321321147027
 30
0.0
 11
-23.668876081863718
 21
3774.321321147027
 31
0.0
  0
SOLID
  5
4A5
  8
0
  6
CONTINUOUS
 62
     0
 10
122.46742062052211
 20
3774.6432964218279
 30
0.0
 11
122.46742062052211
 21
3773.9993458722251
 31
0.0
 12
124.3992722693292
 22
3774.321321147027
 32
0.0
 13
124.3992722693292
 23
3774.321321147027
 33
0.0
  0
SOLID
  5
4A6
  8
0
  6
CONTINUOUS
 62
     0
 10
-23.668876081863718
 20
3774.6432964218279
 30
0.0
 11
-23.668876081863718
 21
3773.9993458722251
 31
0.0
 12
-25.600727730670751
 22
3774.321321147027
 32
0.0
 13
-25.600727730670751
 23
3774.321321147027
 33
0.0
  0
INSERT
  5
4A8
  8
0
  6
CONTINUOUS
  2
*U3
 10
0.0
 20
0.0
 30
0.0
  0
POINT
  5
4A9
  8
DEFPOINTS
  6
CONTINUOUS
 62
     0
 10
124.3992722693292
 20
3612.1129033427401
 30
0.0
  0
POINT
  5
4AA
  8
DEFPOINTS
  6
CONTINUOUS
 62
     0
 10
-25.600727730670759
 20
3612.1129033427401
 30
0.0
  0
POINT
  5
4AB
  8
DEFPOINTS
  6
CONTINUOUS
 62
     0
 10
-25.600727730670751
 20
3774.321321147027
 30
0.0
  0
ENDBLK
  5
4AC
  8
0
  0
BLOCK
  8
0
  2
*U3
 70
     1
 10
0.0
 20
0.0
 30
0.0
  3
*U3
  1

  0
TEXT
  5
4E4
  8
0
  6
CONTINUOUS
 62
     0
 10
43.565938935995923
 20
3774.4113211470271
 30
0.0
 40
2.0
  1
150.0000
  0
ENDBLK
  5
4E5
  8
0
  0
BLOCK
  8
0
  2
*D4
 70
     1
 10
0.0
 20
0.0
 30
0.0
  3
*D4
  1

  0
LINE
  5
4AF
  8
0
  6
CONTINUOUS
 62
     0
 10
75.0
 20
201.0
 30
0.0
 11
75.0
 21
292.30853778011078
 31
0.0
  0
LINE
  5
4B0
  8
0
  6
CONTINUOUS
 62
     0
 10
-75.0
 20
201.0
 30
0.0
 11
-75.0
 21
292.30853778011078
 31
0.0
  0
LINE
  5
4B1
  8
0
  6
CONTINUOUS
 62
     0
 10
73.068148351192974
 20
290.30853778011078
 30
0.0
 11
-73.068148351192974
 21
290.30853778011078
 31
0.0
  0
SOLID
  5
4B2
  8
0
  6
CONTINUOUS
 62
     0
 10
73.068148351192974
 20
290.630513054912
 30
0.0
 11
73.068148351192974
 21
289.98656250530951
 31
0.0
 12
75.0
 22
290.30853778011078
 32
0.0
 13
75.0
 23
290.30853778011078
 33
0.0
  0
SOLID
  5
4B3
  8
0
  6
CONTINUOUS
 62
     0
 10
-73.068148351192974
 20
290.630513054912
 30
0.0
 11
-73.068148351192974
 21
289.98656250530951
 31
0.0
 12
-75.0
 22
290.30853778011078
 32
0.0
 13
-75.0
 23
290.30853778011078
 33
0.0
  0
INSERT
  5
4B5
  8
0
  6
CONTINUOUS
  2
*U5
 10
0.0
 20
0.0
 30
0.0
  0
POINT
  5
4B6
  8
DEFPOINTS
  6
CONTINUOUS
 62
     0
 10
75.0
 20
200.0
 30
0.0
  0
POINT
  5
4B7
  8
DEFPOINTS
  6
CONTINUOUS
 62
     0
 10
-75.0
 20
200.0
 30
0.0
  0
POINT
  5
4B8
  8
DEFPOINTS
  6
CONTINUOUS
 62
     0
 10
-75.0
 20
290.30853778011078
 30
0.0
  0
ENDBLK
  5
4B9
  8
0
  0
BLOCK
  8
0
  2
*U5
 70
     1
 10
0.0
 20
0.0
 30
0.0
  3
*U5
  1

  0
TEXT
  5
4E7
  8
0
  6
CONTINUOUS
 62
     0
 10
-5.8333333333333321
 20
290.39853778011081
 30
0.0
 40
2.0
  1
150.0000
  0
ENDBLK
  5
4E8
  8
0
  0
BLOCK
  8
0
  2
*D6
 70
     1
 10
0.0
 20
0.0
 30
0.0
  3
*D6
  1

  0
LINE
  5
4BC
  8
0
  6
CONTINUOUS
 62
     0
 10
76.0
 20
200.0
 30
0.0
 11
92.957795740345361
 21
200.0
 31
0.0
  0
LINE
  5
4BD
  8
0
  6
CONTINUOUS
 62
     0
 10
76.0
 20
-7.0
 30
0.0
 11
92.957795740345304
 21
-7.0000000000000027
 31
0.0
  0
LINE
  5
4BE
  8
0
  6
CONTINUOUS
 62
     0
 10
90.957795740345347
 20
198.0681483511928
 30
0.0
 11
90.957795740345347
 21
97.590000000000003
 31
0.0
  0
LINE
  5
4BF
  8
0
  6
CONTINUOUS
 62
     0
 10
90.957795740345304
 20
-5.0681483511929812
 30
0.0
 11
90.957795740345304
 21
95.409999999999997
 31
0.0
  0
SOLID
  5
4C0
  8
0
  6
CONTINUOUS
 62
     0
 10
90.635820465544214
 20
198.0681483511928
 30
0.0
 11
91.279771015146522
 21
198.0681483511928
 31
0.0
 12
90.957795740345347
 22
200.0
 32
0.0
 13
90.957795740345347
 23
200.0
 33
0.0
  0
SOLID
  5
4C1
  8
0
  6
CONTINUOUS
 62
     0
 10
90.635820465544128
 20
-5.0681483511929812
 30
0.0
 11
91.27977101514648
 21
-5.0681483511929812
 31
0.0
 12
90.957795740345304
 22
-7.0000000000000027
 32
0.0
 13
90.957795740345304
 23
-7.0000000000000027
 33
0.0
  0
INSERT
  5
4C3
  8
0
  6
CONTINUOUS
  2
*U7
 10
0.0
 20
0.0
 30
0.0
  0
POINT
  5
4C4
  8
DEFPOINTS
  6
CONTINUOUS
 62
     0
 10
75.0
 20
200.0
 30
0.0
  0
POINT
  5
4C5
  8
DEFPOINTS
  6
CONTINUOUS
 62
     0
 10
75.0
 20
-7.0
 30
0.0
  0
POINT
  5
4C6
  8
DEFPOINTS
  6
CONTINUOUS
 62
     0
 10
90.957795740345304
 20
-7.0000000000000027
 30
0.0
  0
ENDBLK
  5
4C7
  8
0
  0
BLOCK
  8
0
  2
*U7
 70
     1
 10
0.0
 20
0.0
 30
0.0
  3
*U7
  1

  0
TEXT
  5
4EA
  8
0
  6
CONTINUOUS
 62
     0
 10
84.791129073678633
 20
95.5
 30
0.0
 40
2.0
  1
207.0000
  0
ENDBLK
  5
4EB
  8
0
  0
BLOCK
  8
0
  2
*D8
 70
     1
 10
0.0
 20
0.0
 30
0.0
  3
*D8
  1

  0
LINE
  5
4CA
  8
0
  6
CONTINUOUS
 62
     0
 10
0.9999999999999927
 20
-0.0000000000000003
 30
0.0
 11
2943.5083143571351
 21
-0.0000000000008338
 31
0.0
  0
LINE
  5
4CB
  8
0
  6
CONTINUOUS
 62
     0
 10
1589.91305457663
 20
-3239.1458490064711
 30
0.0
 11
2943.508314357131
 21
-3239.1458490064711
 31
0.0
  0
LINE
  5
4CC
  8
0
  6
CONTINUOUS
 62
     0
 10
2941.5083143571328
 20
-1.931851648807855
 30
0.0
 11
2941.5083143571328
 21
-1618.4829245032361
 31
0.0
  0
LINE
  5
4CD
  8
0
  6
CONTINUOUS
 62
     0
 10
2941.5083143571319
 20
-3237.213997357665
 30
0.0
 11
2941.5083143571328
 21
-1620.6629245032359
 31
0.0
  0
SOLID
  5
4CE
  8
0
  6
CONTINUOUS
 62
     0
 10
2941.1863390823319
 20
-1.931851648807855
 30
0.0
 11
2941.8302896319342
 21
-1.931851648807855
 31
0.0
 12
2941.5083143571328
 22
-0.0000000000008333
 32
0.0
 13
2941.5083143571328
 23
-0.0000000000008333
 33
0.0
  0
SOLID
  5
4CF
  8
0
  6
CONTINUOUS
 62
     0
 10
2941.186339082331
 20
-3237.213997357665
 30
0.0
 11
2941.8302896319328
 21
-3237.213997357665
 31
0.0
 12
2941.5083143571319
 22
-3239.1458490064711
 32
0.0
 13
2941.5083143571319
 23
-3239.1458490064711
 33
0.0
  0
INSERT
  5
4D1
  8
0
  6
CONTINUOUS
  2
*U9
 10
0.0
 20
0.0
 30
0.0
  0
POINT
  5
4D2
  8
DEFPOINTS
  6
CONTINUOUS
 62
     0
 10
-0.0000000000000071
 20
0.0
 30
0.0
  0
POINT
  5
4D3
  8
DEFPOINTS
  6
CONTINUOUS
 62
     0
 10
1588.9130545766311
 20
-3239.1458490064711
 30
0.0
  0
POINT
  5
4D4
  8
DEFPOINTS
  6
CONTINUOUS
 62
     0
 10
2941.5083143571319
 20
-3239.1458490064711
 30
0.0
  0
ENDBLK
  5
4D5
  8
0
  0
BLOCK
  8
0
  2
*U9
 70
     1
 10
0.0
 20
0.0
 30
0.0
  3
*U9
  1

  0
TEXT
  5
4ED
  8
0
  6
CONTINUOUS
 62
     0
 10
2933.8416476904672
 20
-1620.5729245032351
 30
0.0
 40
2.0
  1
3239.1458
  0
ENDBLK
  5
4EE
  8
0
  0
BLOCK
  8
0
  2
*D10
 70
     1
 10
0.0
 20
0.0
 30
0.0
  3
*D10
  1

  0
LINE
  5
4D8
  8
0
  6
CONTINUOUS
 62
     0
 10
2474.6381985840571
 20
-2498.9872362767751
 30
0.0
 11
2474.6381985840571
 21
-335.90941293723881
 31
0.0
  0
LINE
  5
4D9
  8
0
  6
CONTINUOUS
 62
     0
 10
-0.0000000000000072
 20
-23.96162275565985
 30
0.0
 11
-0.0000000000000265
 21
-339.90941293723881
 31
0.0
  0
LINE
  5
4DA
  8
0
  6
CONTINUOUS
 62
     0
 10
2472.7063469352502
 20
-337.90941293723881
 30
0.0
 11
1.931851648806995
 21
-337.90941293723881
 31
0.0
  0
SOLID
  5
4DB
  8
0
  6
CONTINUOUS
 62
     0
 10
2472.7063469352502
 20
-337.58743766243771
 30
0.0
 11
2472.7063469352502
 21
-338.23138821203992
 31
0.0
 12
2474.6381985840571
 22
-337.90941293723881
 32
0.0
 13
2474.6381985840571
 23
-337.90941293723881
 33
0.0
  0
SOLID
  5
4DC
  8
0
  6
CONTINUOUS
 62
     0
 10
1.931851648806995
 20
-337.58743766243771
 30
0.0
 11
1.931851648806995
 21
-338.23138821203992
 31
0.0
 12
-0.0000000000000264
 22
-337.90941293723881
 32
0.0
 13
-0.0000000000000264
 23
-337.90941293723881
 33
0.0
  0
INSERT
  5
4DE
  8
0
  6
CONTINUOUS
  2
*U11
 10
0.0
 20
0.0
 30
0.0
  0
POINT
  5
4DF
  8
DEFPOINTS
  6
CONTINUOUS
 62
     0
 10
2474.6381985840571
 20
-2499.987236276776
 30
0.0
  0
POINT
  5
4E0
  8
DEFPOINTS
  6
CONTINUOUS
 62
     0
 10
-0.0000000000000071
 20
-22.961622755659839
 30
0.0
  0
POINT
  5
4E1
  8
DEFPOINTS
  6
CONTINUOUS
 62
     0
 10
-0.0000000000000264
 20
-337.90941293723881
 30
0.0
  0
ENDBLK
  5
4E2
  8
0
  0
BLOCK
  8
0
  2
*U11
 70
     1
 10
0.0
 20
0.0
 30
0.0
  3
*U11
  1

  0
TEXT
  5
4F0
  8
0
  6
CONTINUOUS
 62
     0
 10
1229.3190992920281
 20
-337.81941293723878
 30
0.0
 40
2.0
  1
2474.6382
  0
ENDBLK
  5
4F1
  8
0
  0
ENDSEC
  0
SECTION
  2
ENTITIES
  0
POLYLINE
  5
4F2
  8
0
  6
CONTINUOUS
 66
     1
 10
0.0
 20
0.0
 30
0.0
  0
VERTEX
  5
6F7
  8
0
  6
CONTINUOUS
 10
-73.181027451892092
 20
-7.0
 30
0.0
  0
VERTEX
  5
6F8
  8
0
  6
CONTINUOUS
 10
-95.927110392178307
 20
-31.519671728673991
 30
0.0
  0
VERTEX
  5
6F9
  8
0
  6
CONTINUOUS
 10
-144.54393499994691
 20
-66.614790451461431
 30
0.0
  0
VERTEX
  5
6FA
  8
0
  6
CONTINUOUS
 10
-144.54393499994691
 20
-66.614790451461431
 30
0.0
  0
VERTEX
  5
6FB
  8
0
  6
CONTINUOUS
 10
-215.11639920838539
 20
-125.8480860089352
 30
0.0
  0
VERTEX
  5
6FC
  8
0
  6
CONTINUOUS
 10
-292.82014101327138
 20
-178.95346507827509
 30
0.0
  0
VERTEX
  5
6FD
  8
0
  6
CONTINUOUS
 10
-292.82014101327138
 20
-178.95346507827509
 30
0.0
  0
VERTEX
  5
6FE
  8
0
  6
CONTINUOUS
 10
-352.49960885084482
 20
-222.4294405346981
 30
0.0
  0
VERTEX
  5
6FF
  8
0
  6
CONTINUOUS
 10
-414.06773841276811
 20
-282.51912119035921
 30
0.0
  0
VERTEX
  5
700
  8
0
  6
CONTINUOUS
 10
-414.06773841276811
 20
-282.51912119035921
 30
0.0
  0
VERTEX
  5
701
  8
0
  6
CONTINUOUS
 10
-446.42237014699191
 20
-321.24803579983239
 30
0.0
  0
VERTEX
  5
702
  8
0
  6
CONTINUOUS
 10
-474.69153711251681
 20
-365.87684440252718
 30
0.0
  0
VERTEX
  5
703
  8
0
  6
CONTINUOUS
 10
-474.69153711251681
 20
-365.87684440252718
 30
0.0
  0
VERTEX
  5
704
  8
0
  6
CONTINUOUS
 10
-490.31486651909592
 20
-412.85392641903047
 30
0.0
  0
VERTEX
  5
705
  8
0
  6
CONTINUOUS
 10
-489.84748678747093
 20
-459.33853406463078
 30
0.0
  0
VERTEX
  5
706
  8
0
  6
CONTINUOUS
 10
-489.84748678747093
 20
-459.33853406463078
 30
0.0
  0
VERTEX
  5
707
  8
0
  6
CONTINUOUS
 10
-471.7265326563309
 20
-501.40364916771063
 30
0.0
  0
VERTEX
  5
708
  8
0
  6
CONTINUOUS
 10
-436.8016629251768
 20
-530.06629921434887
 30
0.0
  0
VERTEX
  5
709
  8
0
  6
CONTINUOUS
 10
-436.8016629251768
 20
-530.06629921434887
 30
0.0
  0
VERTEX
  5
70A
  8
0
  6
CONTINUOUS
 10
-389.14924707638778
 20
-539.01051239398203
 30
0.0
  0
VERTEX
  5
70B
  8
0
  6
CONTINUOUS
 10
-343.33997326305052
 20
-537.6442740518147
 30
0.0
  0
VERTEX
  5
70C
  8
0
  6
CONTINUOUS
 10
-343.33997326305052
 20
-537.6442740518147
 30
0.0
  0
VERTEX
  5
70D
  8
0
  6
CONTINUOUS
 10
-309.89114494187447
 20
-537.79229726582275
 30
0.0
  0
VERTEX
  5
70E
  8
0
  6
CONTINUOUS
 10
-272.61220811335522
 20
-545.22224888929202
 30
0.0
  0
VERTEX
  5
70F
  8
0
  6
CONTINUOUS
 10
-272.61220811335522
 20
-545.22224888929202
 30
0.0
  0
VERTEX
  5
710
  8
0
  6
CONTINUOUS
 10
-250.69773859584311
 20
-552.05549950971044
 30
0.0
  0
VERTEX
  5
711
  8
0
  6
CONTINUOUS
 10
-229.67035070103071
 20
-562.9041901767049
 30
0.0
  0
VERTEX
  5
712
  8
0
  6
CONTINUOUS
 10
-229.67035070103071
 20
-562.9041901767049
 30
0.0
  0
VERTEX
  5
713
  8
0
  6
CONTINUOUS
 10
-213.95327510966311
 20
-579.20171258884761
 30
0.0
  0
VERTEX
  5
714
  8
0
  6
CONTINUOUS
 10
-201.8844429636373
 20
-600.7940643640668
 30
0.0
  0
VERTEX
  5
715
  8
0
  6
CONTINUOUS
 10
-201.8844429636373
 20
-600.7940643640668
 30
0.0
  0
VERTEX
  5
716
  8
0
  6
CONTINUOUS
 10
-190.36378462043641
 20
-626.33715012750827
 30
0.0
  0
VERTEX
  5
717
  8
0
  6
CONTINUOUS
 10
-176.6245268387365
 20
-651.31389661384549
 30
0.0
  0
VERTEX
  5
718
  8
0
  6
CONTINUOUS
 10
-176.6245268387365
 20
-651.31389661384549
 30
0.0
  0
VERTEX
  5
719
  8
0
  6
CONTINUOUS
 10
-158.79772563899701
 20
-671.18584984038705
 30
0.0
  0
VERTEX
  5
71A
  8
0
  6
CONTINUOUS
 10
-138.27245768761711
 20
-684.50201084541334
 30
0.0
  0
VERTEX
  5
71B
  8
0
  6
CONTINUOUS
 10
-138.27245768761711
 20
-684.50201084541334
 30
0.0
  0
VERTEX
  5
71C
  8
0
  6
CONTINUOUS
 10
-117.0684495818526
 20
-690.81502548656681
 30
0.0
  0
VERTEX
  5
71D
  8
0
  6
CONTINUOUS
 10
-96.4700069964465
 20
-690.60466387793986
 30
0.0
  0
VERTEX
  5
71E
  8
0
  6
CONTINUOUS
 10
-96.4700069964465
 20
-690.60466387793986
 30
0.0
  0
VERTEX
  5
71F
  8
0
  6
CONTINUOUS
 10
-76.976283927784621
 20
-684.11182501584915
 30
0.0
  0
VERTEX
  5
720
  8
0
  6
CONTINUOUS
 10
-56.681248581340853
 20
-669.69479916904174
 30
0.0
  0
VERTEX
  5
721
  8
0
  6
CONTINUOUS
 10
-56.681248581340853
 20
-669.69479916904174
 30
0.0
  0
VERTEX
  5
722
  8
0
  6
CONTINUOUS
 10
-34.091843295853643
 20
-647.22967570728224
 30
0.0
  0
VERTEX
  5
723
  8
0
  6
CONTINUOUS
 10
-11.77209273403237
 20
-624.54634913195855
 30
0.0
  0
VERTEX
  5
724
  8
0
  6
CONTINUOUS
 10
-11.77209273403237
 20
-624.54634913195855
 30
0.0
  0
VERTEX
  5
725
  8
0
  6
CONTINUOUS
 10
8.3900931724163552
 20
-608.49846858290721
 30
0.0
  0
VERTEX
  5
726
  8
0
  6
CONTINUOUS
 10
31.268345739769028
 20
-594.08089662213524
 30
0.0
  0
VERTEX
  5
727
  8
0
  6
CONTINUOUS
 10
31.268345739769028
 20
-594.08089662213524
 30
0.0
  0
VERTEX
  5
728
  8
0
  6
CONTINUOUS
 10
62.319645042327451
 20
-577.41638353363294
 30
0.0
  0
VERTEX
  5
729
  8
0
  6
CONTINUOUS
 10
102.572824938511
 20
-570.99801706713822
 30
0.0
  0
VERTEX
  5
72A
  8
0
  6
CONTINUOUS
 10
102.572824938511
 20
-570.99801706713822
 30
0.0
  0
VERTEX
  5
72B
  8
0
  6
CONTINUOUS
 10
149.74830233569381
 20
-585.51948216375331
 30
0.0
  0
VERTEX
  5
72C
  8
0
  6
CONTINUOUS
 10
192.76097255295119
 20
-608.10651506432214
 30
0.0
  0
VERTEX
  5
72D
  8
0
  6
CONTINUOUS
 10
192.76097255295119
 20
-608.10651506432214
 30
0.0
  0
VERTEX
  5
72E
  8
0
  6
CONTINUOUS
 10
221.595528397447
 20
-623.87731108275409
 30
0.0
  0
VERTEX
  5
72F
  8
0
  6
CONTINUOUS
 10
239.3213742170019
 20
-633.48785052552876
 30
0.0
  0
VERTEX
  5
730
  8
0
  6
CONTINUOUS
 10
239.3213742170019
 20
-633.48785052552876
 30
0.0
  0
VERTEX
  5
731
  8
0
  6
CONTINUOUS
 10
251.98680080760599
 20
-641.14762609510535
 30
0.0
  0
VERTEX
  5
732
  8
0
  6
CONTINUOUS
 10
264.47093321727192
 20
-649.74239508529615
 30
0.0
  0
VERTEX
  5
733
  8
0
  6
CONTINUOUS
 10
264.47093321727192
 20
-649.74239508529615
 30
0.0
  0
VERTEX
  5
734
  8
0
  6
CONTINUOUS
 10
280.3707337312984
 20
-661.13494982051066
 30
0.0
  0
VERTEX
  5
735
  8
0
  6
CONTINUOUS
 10
299.3236793321102
 20
-674.41995815622215
 30
0.0
  0
VERTEX
  5
736
  8
0
  6
CONTINUOUS
 10
299.3236793321102
 20
-674.41995815622215
 30
0.0
  0
VERTEX
  5
737
  8
0
  6
CONTINUOUS
 10
320.42297859861912
 20
-688.37773191830092
 30
0.0
  0
VERTEX
  5
738
  8
0
  6
CONTINUOUS
 10
344.54425179856241
 20
-703.2992832831751
 30
0.0
  0
VERTEX
  5
739
  8
0
  6
CONTINUOUS
 10
344.54425179856241
 20
-703.2992832831751
 30
0.0
  0
VERTEX
  5
73A
  8
0
  6
CONTINUOUS
 10
372.66071353130172
 20
-719.03294455690002
 30
0.0
  0
VERTEX
  5
73B
  8
0
  6
CONTINUOUS
 10
404.35354403386998
 20
-732.14562821351092
 30
0.0
  0
VERTEX
  5
73C
  8
0
  6
CONTINUOUS
 10
404.35354403386998
 20
-732.14562821351092
 30
0.0
  0
VERTEX
  5
73D
  8
0
  6
CONTINUOUS
 10
440.07894966512532
 20
-738.53105765484895
 30
0.0
  0
VERTEX
  5
73E
  8
0
  6
CONTINUOUS
 10
485.18527563355718
 20
-734.6716198260259
 30
0.0
  0
VERTEX
  5
73F
  8
0
  6
CONTINUOUS
 10
485.18527563355718
 20
-734.6716198260259
 30
0.0
  0
VERTEX
  5
740
  8
0
  6
CONTINUOUS
 10
506.41773024188359
 20
-728.65947835013822
 30
0.0
  0
VERTEX
  5
741
  8
0
  6
CONTINUOUS
 10
528.12713304588203
 20
-714.46368692609894
 30
0.0
  0
VERTEX
  5
742
  8
0
  6
CONTINUOUS
 10
528.12713304588203
 20
-714.46368692609894
 30
0.0
  0
VERTEX
  5
743
  8
0
  6
CONTINUOUS
 10
547.82964011115519
 20
-687.75850925748637
 30
0.0
  0
VERTEX
  5
744
  8
0
  6
CONTINUOUS
 10
560.96502400823715
 20
-651.31389661384549
 30
0.0
  0
VERTEX
  5
745
  8
0
  6
CONTINUOUS
 10
560.96502400823715
 20
-651.31389661384549
 30
0.0
  0
VERTEX
  5
746
  8
0
  6
CONTINUOUS
 10
563.22520144462874
 20
-609.11401354759869
 30
0.0
  0
VERTEX
  5
747
  8
0
  6
CONTINUOUS
 10
553.38704917076006
 20
-562.9041901767049
 30
0.0
  0
VERTEX
  5
748
  8
0
  6
CONTINUOUS
 10
553.38704917076006
 20
-562.9041901767049
 30
0.0
  0
VERTEX
  5
749
  8
0
  6
CONTINUOUS
 10
530.64306243956185
 20
-513.38771369879305
 30
0.0
  0
VERTEX
  5
74A
  8
0
  6
CONTINUOUS
 10
492.76325047103433
 20
-459.33853406463078
 30
0.0
  0
VERTEX
  5
74B
  8
0
  6
CONTINUOUS
 10
492.76325047103433
 20
-459.33853406463078
 30
0.0
  0
VERTEX
  5
74C
  8
0
  6
CONTINUOUS
 10
438.76049385381413
 20
-399.01132115625711
 30
0.0
  0
VERTEX
  5
74D
  8
0
  6
CONTINUOUS
 10
374.04164468400711
 20
-330.51296182765822
 30
0.0
  0
VERTEX
  5
74E
  8
0
  6
CONTINUOUS
 10
374.04164468400711
 20
-330.51296182765822
 30
0.0
  0
VERTEX
  5
74F
  8
0
  6
CONTINUOUS
 10
305.88867696658929
 20
-255.0695061280644
 30
0.0
  0
VERTEX
  5
750
  8
0
  6
CONTINUOUS
 10
242.69008083454079
 20
-186.53143991574001
 30
0.0
  0
VERTEX
  5
751
  8
0
  6
CONTINUOUS
 10
242.69008083454079
 20
-186.53143991574001
 30
0.0
  0
VERTEX
  5
752
  8
0
  6
CONTINUOUS
 10
190.40596644796531
 20
-136.58009383510031
 30
0.0
  0
VERTEX
  5
753
  8
0
  6
CONTINUOUS
 10
150.7599202737764
 20
-91.533635955692716
 30
0.0
  0
VERTEX
  5
754
  8
0
  6
CONTINUOUS
 10
150.7599202737764
 20
-91.533635955692716
 30
0.0
  0
VERTEX
  5
755
  8
0
  6
CONTINUOUS
 10
103.68716056291299
 20
-46.100041433615381
 30
0.0
  0
VERTEX
  5
756
  8
0
  6
CONTINUOUS
 10
75.154819082334129
 20
-7.0
 30
0.0
  0
SEQEND
  5
757
  8
0
  6
CONTINUOUS
  0
POLYLINE
  5
554
  8
0
  6
CONTINUOUS
 66
     1
 10
0.0
 20
0.0
 30
0.0
  0
VERTEX
  5
758
  8
0
  6
CONTINUOUS
 10
-73.181027451892092
 20
-7.0
 30
0.0
  0
VERTEX
  5
759
  8
0
  6
CONTINUOUS
 10
-214.3820165719055
 20
-81.453847160639285
 30
0.0
  0
VERTEX
  5
75A
  8
0
  6
CONTINUOUS
 10
-351.37999388405018
 20
-142.1634802698581
 30
0.0
  0
VERTEX
  5
75B
  8
0
  6
CONTINUOUS
 10
-351.37999388405018
 20
-142.1634802698581
 30
0.0
  0
VERTEX
  5
75C
  8
0
  6
CONTINUOUS
 10
-398.75420332614891
 20
-161.27243802665581
 30
0.0
  0
VERTEX
  5
75D
  8
0
  6
CONTINUOUS
 10
-455.58668569145601
 20
-187.7066039326559
 30
0.0
  0
VERTEX
  5
75E
  8
0
  6
CONTINUOUS
 10
-455.58668569145601
 20
-187.7066039326559
 30
0.0
  0
VERTEX
  5
75F
  8
0
  6
CONTINUOUS
 10
-622.28751398732652
 20
-273.27703837681457
 30
0.0
  0
VERTEX
  5
760
  8
0
  6
CONTINUOUS
 10
-850.23578046400394
 20
-404.27539310043761
 30
0.0
  0
VERTEX
  5
761
  8
0
  6
CONTINUOUS
 10
-850.23578046400394
 20
-404.27539310043761
 30
0.0
  0
VERTEX
  5
762
  8
0
  6
CONTINUOUS
 10
-1063.5847793665571
 20
-550.69232334028527
 30
0.0
  0
VERTEX
  5
763
  8
0
  6
CONTINUOUS
 10
-1226.6155936764651
 20
-682.83390696257732
 30
0.0
  0
VERTEX
  5
764
  8
0
  6
CONTINUOUS
 10
-1226.6155936764651
 20
-682.83390696257732
 30
0.0
  0
VERTEX
  5
765
  8
0
  6
CONTINUOUS
 10
-1325.3623823197991
 20
-782.15594710258108
 30
0.0
  0
VERTEX
  5
766
  8
0
  6
CONTINUOUS
 10
-1392.7438192646021
 20
-874.39772534230872
 30
0.0
  0
VERTEX
  5
767
  8
0
  6
CONTINUOUS
 10
-1392.7438192646021
 20
-874.39772534230872
 30
0.0
  0
VERTEX
  5
768
  8
0
  6
CONTINUOUS
 10
-1461.1422944381111
 20
-988.55904477036927
 30
0.0
  0
VERTEX
  5
769
  8
0
  6
CONTINUOUS
 10
-1491.2867405113591
 20
-1053.647182520418
 30
0.0
  0
VERTEX
  5
76A
  8
0
  6
CONTINUOUS
 10
-1513.910546562397
 20
-1122.398316055006
 30
0.0
  0
VERTEX
  5
76B
  8
0
  6
CONTINUOUS
 10
-1513.910546562397
 20
-1122.398316055006
 30
0.0
  0
VERTEX
  5
76C
  8
0
  6
CONTINUOUS
 10
-1526.160628797707
 20
-1193.214895965551
 30
0.0
  0
VERTEX
  5
76D
  8
0
  6
CONTINUOUS
 10
-1528.2239052893251
 20
-1263.1351439275591
 30
0.0
  0
VERTEX
  5
76E
  8
0
  6
CONTINUOUS
 10
-1521.0472945756651
 20
-1328.856224387564
 30
0.0
  0
VERTEX
  5
76F
  8
0
  6
CONTINUOUS
 10
-1505.577715195152
 20
-1387.075301792094
 30
0.0
  0
VERTEX
  5
770
  8
0
  6
CONTINUOUS
 10
-1505.577715195152
 20
-1387.075301792094
 30
0.0
  0
VERTEX
  5
771
  8
0
  6
CONTINUOUS
 10
-1482.855557500633
 20
-1435.3505957336461
 30
0.0
  0
VERTEX
  5
772
  8
0
  6
CONTINUOUS
 10
-1454.295099102691
 20
-1474.6845463885541
 30
0.0
  0
VERTEX
  5
773
  8
0
  6
CONTINUOUS
 10
-1385.6902778965939
 20
-1533.9823991276401
 30
0.0
  0
VERTEX
  5
774
  8
0
  6
CONTINUOUS
 10
-1385.6902778965939
 20
-1533.9823991276401
 30
0.0
  0
VERTEX
  5
775
  8
0
  6
CONTINUOUS
 10
-1309.6454429914761
 20
-1577.5292824219439
 30
0.0
  0
VERTEX
  5
776
  8
0
  6
CONTINUOUS
 10
-1227.323569859981
 20
-1608.49545802085
 30
0.0
  0
VERTEX
  5
777
  8
0
  6
CONTINUOUS
 10
-1227.323569859981
 20
-1608.49545802085
 30
0.0
  0
VERTEX
  5
778
  8
0
  6
CONTINUOUS
 10
-1139.889968134413
 20
-1627.218157178746
 30
0.0
  0
VERTEX
  5
779
  8
0
  6
CONTINUOUS
 10
-1057.238500027669
 20
-1632.092649833279
 30
0.0
  0
VERTEX
  5
77A
  8
0
  6
CONTINUOUS
 10
-1057.238500027669
 20
-1632.092649833279
 30
0.0
  0
VERTEX
  5
77B
  8
0
  6
CONTINUOUS
 10
-987.67710958757721
 20
-1624.1943116933071
 30
0.0
  0
VERTEX
  5
77C
  8
0
  6
CONTINUOUS
 10
-924.44151562106003
 20
-1617.2609028693
 30
0.0
  0
VERTEX
  5
77D
  8
0
  6
CONTINUOUS
 10
-924.44151562106003
 20
-1617.2609028693
 30
0.0
  0
VERTEX
  5
77E
  8
0
  6
CONTINUOUS
 10
-858.59048519389614
 20
-1624.8355593089029
 30
0.0
  0
VERTEX
  5
77F
  8
0
  6
CONTINUOUS
 10
-787.54720364815921
 20
-1647.0205359068759
 30
0.0
  0
VERTEX
  5
780
  8
0
  6
CONTINUOUS
 10
-787.54720364815921
 20
-1647.0205359068759
 30
0.0
  0
VERTEX
  5
781
  8
0
  6
CONTINUOUS
 10
-711.92695984683473
 20
-1681.577607333262
 30
0.0
  0
VERTEX
  5
782
  8
0
  6
CONTINUOUS
 10
-638.74903846024142
 20
-1730.347508412121
 30
0.0
  0
VERTEX
  5
783
  8
0
  6
CONTINUOUS
 10
-638.74903846024142
 20
-1730.347508412121
 30
0.0
  0
VERTEX
  5
784
  8
0
  6
CONTINUOUS
 10
-574.82237422178525
 20
-1792.8619975300739
 30
0.0
  0
VERTEX
  5
785
  8
0
  6
CONTINUOUS
 10
-519.71050630988884
 20
-1855.337967169959
 30
0.0
  0
VERTEX
  5
786
  8
0
  6
CONTINUOUS
 10
-519.71050630988884
 20
-1855.337967169959
 30
0.0
  0
VERTEX
  5
787
  8
0
  6
CONTINUOUS
 10
-471.60208583581118
 20
-1904.7748201186289
 30
0.0
  0
VERTEX
  5
788
  8
0
  6
CONTINUOUS
 10
-430.43160719714677
 20
-1944.616866282747
 30
0.0
  0
VERTEX
  5
789
  8
0
  6
CONTINUOUS
 10
-430.43160719714677
 20
-1944.616866282747
 30
0.0
  0
VERTEX
  5
78A
  8
0
  6
CONTINUOUS
 10
-359.12217022546139
 20
-2024.247253696612
 30
0.0
  0
VERTEX
  5
78B
  8
0
  6
CONTINUOUS
 10
-301.54612971425081
 20
-2084.414966755025
 30
0.0
  0
VERTEX
  5
78C
  8
0
  6
CONTINUOUS
 10
-301.54612971425081
 20
-2084.414966755025
 30
0.0
  0
VERTEX
  5
78D
  8
0
  6
CONTINUOUS
 10
-237.36115378759791
 20
-2119.346165127321
 30
0.0
  0
VERTEX
  5
78E
  8
0
  6
CONTINUOUS
 10
-164.87061478132981
 20
-2134.7898185058339
 30
0.0
  0
VERTEX
  5
78F
  8
0
  6
CONTINUOUS
 10
-164.87061478132981
 20
-2134.7898185058339
 30
0.0
  0
VERTEX
  5
790
  8
0
  6
CONTINUOUS
 10
-88.167012517764206
 20
-2138.162749156309
 30
0.0
  0
VERTEX
  5
791
  8
0
  6
CONTINUOUS
 10
-15.85365255343164
 20
-2132.030379615152
 30
0.0
  0
VERTEX
  5
792
  8
0
  6
CONTINUOUS
 10
-15.85365255343164
 20
-2132.030379615152
 30
0.0
  0
VERTEX
  5
793
  8
0
  6
CONTINUOUS
 10
45.90889249185782
 20
-2118.0836484494262
 30
0.0
  0
VERTEX
  5
794
  8
0
  6
CONTINUOUS
 10
105.2417874793944
 20
-2099.366958078173
 30
0.0
  0
VERTEX
  5
795
  8
0
  6
CONTINUOUS
 10
105.2417874793944
 20
-2099.366958078173
 30
0.0
  0
VERTEX
  5
796
  8
0
  6
CONTINUOUS
 10
170.4365252204081
 20
-2079.5756550316619
 30
0.0
  0
VERTEX
  5
797
  8
0
  6
CONTINUOUS
 10
236.18417284478701
 20
-2063.6553984330758
 30
0.0
  0
VERTEX
  5
798
  8
0
  6
CONTINUOUS
 10
236.18417284478701
 20
-2063.6553984330758
 30
0.0
  0
VERTEX
  5
799
  8
0
  6
CONTINUOUS
 10
297.1097649396865
 20
-2056.0197378238549
 30
0.0
  0
VERTEX
  5
79A
  8
0
  6
CONTINUOUS
 10
361.17463160267113
 20
-2057.7034718255682
 30
0.0
  0
VERTEX
  5
79B
  8
0
  6
CONTINUOUS
 10
361.17463160267113
 20
-2057.7034718255682
 30
0.0
  0
VERTEX
  5
79C
  8
0
  6
CONTINUOUS
 10
435.43280084103611
 20
-2067.8619127082429
 30
0.0
  0
VERTEX
  5
79D
  8
0
  6
CONTINUOUS
 10
509.97279679058909
 20
-2081.511178255636
 30
0.0
  0
VERTEX
  5
79E
  8
0
  6
CONTINUOUS
 10
509.97279679058909
 20
-2081.511178255636
 30
0.0
  0
VERTEX
  5
79F
  8
0
  6
CONTINUOUS
 10
575.34530770188348
 20
-2094.6405065424242
 30
0.0
  0
VERTEX
  5
7A0
  8
0
  6
CONTINUOUS
 10
640.91518215595875
 20
-2111.2708112932228
 30
0.0
  0
VERTEX
  5
7A1
  8
0
  6
CONTINUOUS
 10
640.91518215595875
 20
-2111.2708112932228
 30
0.0
  0
VERTEX
  5
7A2
  8
0
  6
CONTINUOUS
 10
717.8275232658583
 20
-2135.620759718066
 30
0.0
  0
VERTEX
  5
7A3
  8
0
  6
CONTINUOUS
 10
805.53429194215425
 20
-2164.6683573187061
 30
0.0
  0
VERTEX
  5
7A4
  8
0
  6
CONTINUOUS
 10
805.53429194215425
 20
-2164.6683573187061
 30
0.0
  0
VERTEX
  5
7A5
  8
0
  6
CONTINUOUS
 10
899.36986657930561
 20
-2194.3502420099999
 30
0.0
  0
VERTEX
  5
7A6
  8
0
  6
CONTINUOUS
 10
989.89143770977421
 20
-2223.6782430674389
 30
0.0
  0
VERTEX
  5
7A7
  8
0
  6
CONTINUOUS
 10
989.89143770977421
 20
-2223.6782430674389
 30
0.0
  0
VERTEX
  5
7A8
  8
0
  6
CONTINUOUS
 10
1070.480359675739
 20
-2251.263296274321
 30
0.0
  0
VERTEX
  5
7A9
  8
0
  6
CONTINUOUS
 10
1150.591829920224
 20
-2271.0375720844659
 30
0.0
  0
VERTEX
  5
7AA
  8
0
  6
CONTINUOUS
 10
1150.591829920224
 20
-2271.0375720844659
 30
0.0
  0
VERTEX
  5
7AB
  8
0
  6
CONTINUOUS
 10
1239.03144444228
 20
-2277.764633046424
 30
0.0
  0
VERTEX
  5
7AC
  8
0
  6
CONTINUOUS
 10
1325.9325503642219
 20
-2274.2123754171371
 30
0.0
  0
VERTEX
  5
7AD
  8
0
  6
CONTINUOUS
 10
1325.9325503642219
 20
-2274.2123754171371
 30
0.0
  0
VERTEX
  5
7AE
  8
0
  6
CONTINUOUS
 10
1400.7818892548621
 20
-2261.3838739482972
 30
0.0
  0
VERTEX
  5
7AF
  8
0
  6
CONTINUOUS
 10
1435.1772325941979
 20
-2247.332480526793
 30
0.0
  0
VERTEX
  5
7B0
  8
0
  6
CONTINUOUS
 10
1469.15202934575
 20
-2225.218583662232
 30
0.0
  0
VERTEX
  5
7B1
  8
0
  6
CONTINUOUS
 10
1469.15202934575
 20
-2225.218583662232
 30
0.0
  0
VERTEX
  5
7B2
  8
0
  6
CONTINUOUS
 10
1536.0817050706851
 20
-2154.3982278928052
 30
0.0
  0
VERTEX
  5
7B3
  8
0
  6
CONTINUOUS
 10
1588.3884890097311
 20
-2063.6372229493941
 30
0.0
  0
VERTEX
  5
7B4
  8
0
  6
CONTINUOUS
 10
1588.3884890097311
 20
-2063.6372229493941
 30
0.0
  0
VERTEX
  5
7B5
  8
0
  6
CONTINUOUS
 10
1612.4353769963261
 20
-1968.992650905996
 30
0.0
  0
VERTEX
  5
7B6
  8
0
  6
CONTINUOUS
 10
1610.988219731134
 20
-1865.859563919593
 30
0.0
  0
VERTEX
  5
7B7
  8
0
  6
CONTINUOUS
 10
1610.988219731134
 20
-1865.859563919593
 30
0.0
  0
VERTEX
  5
7B8
  8
0
  6
CONTINUOUS
 10
1589.524775012552
 20
-1746.697027875806
 30
0.0
  0
VERTEX
  5
7B9
  8
0
  6
CONTINUOUS
 10
1547.96757416267
 20
-1612.882193491859
 30
0.0
  0
VERTEX
  5
7BA
  8
0
  6
CONTINUOUS
 10
1547.96757416267
 20
-1612.882193491859
 30
0.0
  0
VERTEX
  5
7BB
  8
0
  6
CONTINUOUS
 10
1484.613224188193
 20
-1467.7705237531191
 30
0.0
  0
VERTEX
  5
7BC
  8
0
  6
CONTINUOUS
 10
1396.809861310634
 20
-1313.7126458858979
 30
0.0
  0
VERTEX
  5
7BD
  8
0
  6
CONTINUOUS
 10
1396.809861310634
 20
-1313.7126458858979
 30
0.0
  0
VERTEX
  5
7BE
  8
0
  6
CONTINUOUS
 10
1286.42950901625
 20
-1155.9501869099031
 30
0.0
  0
VERTEX
  5
7BF
  8
0
  6
CONTINUOUS
 10
1174.388210635492
 20
-1012.293608777474
 30
0.0
  0
VERTEX
  5
7C0
  8
0
  6
CONTINUOUS
 10
1174.388210635492
 20
-1012.293608777474
 30
0.0
  0
VERTEX
  5
7C1
  8
0
  6
CONTINUOUS
 10
1076.780835111804
 20
-894.13851963771378
 30
0.0
  0
VERTEX
  5
7C2
  8
0
  6
CONTINUOUS
 10
971.37353399637027
 20
-774.65227749414112
 30
0.0
  0
VERTEX
  5
7C3
  8
0
  6
CONTINUOUS
 10
971.37353399637027
 20
-774.65227749414112
 30
0.0
  0
VERTEX
  5
7C4
  8
0
  6
CONTINUOUS
 10
835.90467761935383
 20
-628.75676506849607
 30
0.0
  0
VERTEX
  5
7C5
  8
0
  6
CONTINUOUS
 10
686.33022881906504
 20
-476.62021410094383
 30
0.0
  0
VERTEX
  5
7C6
  8
0
  6
CONTINUOUS
 10
686.33022881906504
 20
-476.62021410094383
 30
0.0
  0
VERTEX
  5
7C7
  8
0
  6
CONTINUOUS
 10
542.65206356650322
 20
-342.84329411014733
 30
0.0
  0
VERTEX
  5
7C8
  8
0
  6
CONTINUOUS
 10
402.83811785527638
 20
-224.5100767102781
 30
0.0
  0
VERTEX
  5
7C9
  8
0
  6
CONTINUOUS
 10
402.83811785527638
 20
-224.5100767102781
 30
0.0
  0
VERTEX
  5
7CA
  8
0
  6
CONTINUOUS
 10
262.70386581891103
 20
-114.3607887996413
 30
0.0
  0
VERTEX
  5
7CB
  8
0
  6
CONTINUOUS
 10
75.154819082334129
 20
-7.0
 30
0.0
  0
SEQEND
  5
7CC
  8
0
  6
CONTINUOUS
  0
POLYLINE
  5
5CA
  8
0
  6
CONTINUOUS
 66
     1
 10
0.0
 20
0.0
 30
0.0
  0
VERTEX
  5
7CD
  8
0
  6
CONTINUOUS
 10
-73.181027451892092
 20
-7.0
 30
0.0
  0
VERTEX
  5
7CE
  8
0
  6
CONTINUOUS
 10
-219.8822753561191
 20
-61.383099306023283
 30
0.0
  0
VERTEX
  5
7CF
  8
0
  6
CONTINUOUS
 10
-386.55255629705601
 20
-128.7221439738978
 30
0.0
  0
VERTEX
  5
7D0
  8
0
  6
CONTINUOUS
 10
-386.55255629705601
 20
-128.7221439738978
 30
0.0
  0
VERTEX
  5
7D1
  8
0
  6
CONTINUOUS
 10
-587.06508899961852
 20
-204.24816607390071
 30
0.0
  0
VERTEX
  5
7D2
  8
0
  6
CONTINUOUS
 10
-810.90983494154864
 20
-291.9364819140992
 30
0.0
  0
VERTEX
  5
7D3
  8
0
  6
CONTINUOUS
 10
-810.90983494154864
 20
-291.9364819140992
 30
0.0
  0
VERTEX
  5
7D4
  8
0
  6
CONTINUOUS
 10
-1041.3820478449379
 20
-393.3929743387738
 30
0.0
  0
VERTEX
  5
7D5
  8
0
  6
CONTINUOUS
 10
-1261.381407656449
 20
-500.85083447752982
 30
0.0
  0
VERTEX
  5
7D6
  8
0
  6
CONTINUOUS
 10
-1261.381407656449
 20
-500.85083447752982
 30
0.0
  0
VERTEX
  5
7D7
  8
0
  6
CONTINUOUS
 10
-1457.5087459254371
 20
-608.97926427749076
 30
0.0
  0
VERTEX
  5
7D8
  8
0
  6
CONTINUOUS
 10
-1546.9457203334359
 20
-667.30434910750398
 30
0.0
  0
VERTEX
  5
7D9
  8
0
  6
CONTINUOUS
 10
-1631.5650743874569
 20
-731.56420067055694
 30
0.0
  0
VERTEX
  5
7DA
  8
0
  6
CONTINUOUS
 10
-1631.5650743874569
 20
-731.56420067055694
 30
0.0
  0
VERTEX
  5
7DB
  8
0
  6
CONTINUOUS
 10
-1711.5053958382341
 20
-803.20687132894705
 30
0.0
  0
VERTEX
  5
7DC
  8
0
  6
CONTINUOUS
 10
-1784.659095048376
 20
-880.1900625551267
 30
0.0
  0
VERTEX
  5
7DD
  8
0
  6
CONTINUOUS
 10
-1848.357038033467
 20
-959.59888809908875
 30
0.0
  0
VERTEX
  5
7DE
  8
0
  6
CONTINUOUS
 10
-1899.9300908090829
 20
-1038.5184617108221
 30
0.0
  0
VERTEX
  5
7DF
  8
0
  6
CONTINUOUS
 10
-1899.9300908090829
 20
-1038.5184617108221
 30
0.0
  0
VERTEX
  5
7E0
  8
0
  6
CONTINUOUS
 10
-1937.637581382827
 20
-1114.49210816147
 30
0.0
  0
VERTEX
  5
7E1
  8
0
  6
CONTINUOUS
 10
-1963.4526857303661
 20
-1186.895996306783
 30
0.0
  0
VERTEX
  5
7E2
  8
0
  6
CONTINUOUS
 10
-1991.012287617589
 20
-1320.3320171890041
 30
0.0
  0
VERTEX
  5
7E3
  8
0
  6
CONTINUOUS
 10
-1991.012287617589
 20
-1320.3320171890041
 30
0.0
  0
VERTEX
  5
7E4
  8
0
  6
CONTINUOUS
 10
-2001.818298853821
 20
-1441.055553501601
 30
0.0
  0
VERTEX
  5
7E5
  8
0
  6
CONTINUOUS
 10
-1999.065316388373
 20
-1565.511594904302
 30
0.0
  0
VERTEX
  5
7E6
  8
0
  6
CONTINUOUS
 10
-1999.065316388373
 20
-1565.511594904302
 30
0.0
  0
VERTEX
  5
7E7
  8
0
  6
CONTINUOUS
 10
-1983.9598701432849
 20
-1705.971572542594
 30
0.0
  0
VERTEX
  5
7E8
  8
0
  6
CONTINUOUS
 10
-1965.771027365256
 20
-1843.7967229893429
 30
0.0
  0
VERTEX
  5
7E9
  8
0
  6
CONTINUOUS
 10
-1965.771027365256
 20
-1843.7967229893429
 30
0.0
  0
VERTEX
  5
7EA
  8
0
  6
CONTINUOUS
 10
-1957.0242373384231
 20
-1905.877649164338
 30
0.0
  0
VERTEX
  5
7EB
  8
0
  6
CONTINUOUS
 10
-1939.602976183766
 20
-1971.7878035375679
 30
0.0
  0
VERTEX
  5
7EC
  8
0
  6
CONTINUOUS
 10
-1902.7824465122301
 20
-2052.606699122724
 30
0.0
  0
VERTEX
  5
7ED
  8
0
  6
CONTINUOUS
 10
-1835.8378509347631
 20
-2159.4138489334969
 30
0.0
  0
VERTEX
  5
7EE
  8
0
  6
CONTINUOUS
 10
-1835.8378509347631
 20
-2159.4138489334969
 30
0.0
  0
VERTEX
  5
7EF
  8
0
  6
CONTINUOUS
 10
-1772.0036122192239
 20
-2244.9964557360622
 30
0.0
  0
VERTEX
  5
7F0
  8
0
  6
CONTINUOUS
 10
-1696.0093746937921
 20
-2327.6655257978532
 30
0.0
  0
VERTEX
  5
7F1
  8
0
  6
CONTINUOUS
 10
-1696.0093746937921
 20
-2327.6655257978532
 30
0.0
  0
VERTEX
  5
7F2
  8
0
  6
CONTINUOUS
 10
-1595.2897334055201
 20
-2403.0633355560958
 30
0.0
  0
VERTEX
  5
7F3
  8
0
  6
CONTINUOUS
 10
-1489.695593833673
 20
-2452.584472806318
 30
0.0
  0
VERTEX
  5
7F4
  8
0
  6
CONTINUOUS
 10
-1384.2542274733889
 20
-2481.741701465498
 30
0.0
  0
VERTEX
  5
7F5
  8
0
  6
CONTINUOUS
 10
-1283.992905819814
 20
-2496.0477854506162
 30
0.0
  0
VERTEX
  5
7F6
  8
0
  6
CONTINUOUS
 10
-1283.992905819814
 20
-2496.0477854506162
 30
0.0
  0
VERTEX
  5
7F7
  8
0
  6
CONTINUOUS
 10
-1110.386905423494
 20
-2505.4122648403359
 30
0.0
  0
VERTEX
  5
7F8
  8
0
  6
CONTINUOUS
 10
-1035.0894760349879
 20
-2515.9713865177991
 30
0.0
  0
VERTEX
  5
7F9
  8
0
  6
CONTINUOUS
 10
-965.4328786565884
 20
-2541.0534711800501
 30
0.0
  0
VERTEX
  5
7FA
  8
0
  6
CONTINUOUS
 10
-965.4328786565884
 20
-2541.0534711800501
 30
0.0
  0
VERTEX
  5
7FB
  8
0
  6
CONTINUOUS
 10
-899.97816377322556
 20
-2585.5881673492968
 30
0.0
  0
VERTEX
  5
7FC
  8
0
  6
CONTINUOUS
 10
-837.61922939854401
 20
-2642.408592647424
 30
0.0
  0
VERTEX
  5
7FD
  8
0
  6
CONTINUOUS
 10
-777.33318542836241
 20
-2701.3237319712312
 30
0.0
  0
VERTEX
  5
7FE
  8
0
  6
CONTINUOUS
 10
-718.09714175850195
 20
-2752.1425702175238
 30
0.0
  0
VERTEX
  5
7FF
  8
0
  6
CONTINUOUS
 10
-718.09714175850195
 20
-2752.1425702175238
 30
0.0
  0
VERTEX
  5
800
  8
0
  6
CONTINUOUS
 10
-659.8738024610725
 20
-2787.0628690368121
 30
0.0
  0
VERTEX
  5
801
  8
0
  6
CONTINUOUS
 10
-606.56824831334245
 20
-2807.837497094461
 30
0.0
  0
VERTEX
  5
802
  8
0
  6
CONTINUOUS
 10
-534.27319528121393
 20
-2823.5163226011268
 30
0.0
  0
VERTEX
  5
803
  8
0
  6
CONTINUOUS
 10
-534.27319528121393
 20
-2823.5163226011268
 30
0.0
  0
VERTEX
  5
804
  8
0
  6
CONTINUOUS
 10
-488.96843530577343
 20
-2832.705166875674
 30
0.0
  0
VERTEX
  5
805
  8
0
  6
CONTINUOUS
 10
-252.93463309144491
 20
-2870.5019771984962
 30
0.0
  0
VERTEX
  5
806
  8
0
  6
CONTINUOUS
 10
-252.93463309144491
 20
-2870.5019771984962
 30
0.0
  0
VERTEX
  5
807
  8
0
  6
CONTINUOUS
 10
-50.420884115318692
 20
-2903.1226070116331
 30
0.0
  0
VERTEX
  5
808
  8
0
  6
CONTINUOUS
 10
160.9052479229228
 20
-2950.2949166101021
 30
0.0
  0
VERTEX
  5
809
  8
0
  6
CONTINUOUS
 10
160.9052479229228
 20
-2950.2949166101021
 30
0.0
  0
VERTEX
  5
80A
  8
0
  6
CONTINUOUS
 10
333.55950218336568
 20
-3013.1502026495582
 30
0.0
  0
VERTEX
  5
80B
  8
0
  6
CONTINUOUS
 10
511.34270491267517
 20
-3083.2546096645819
 30
0.0
  0
VERTEX
  5
80C
  8
0
  6
CONTINUOUS
 10
511.34270491267517
 20
-3083.2546096645819
 30
0.0
  0
VERTEX
  5
80D
  8
0
  6
CONTINUOUS
 10
742.2468576675584
 20
-3149.7001655529248
 30
0.0
  0
VERTEX
  5
80E
  8
0
  6
CONTINUOUS
 10
999.74357615830274
 20
-3201.2475837861052
 30
0.0
  0
VERTEX
  5
80F
  8
0
  6
CONTINUOUS
 10
999.74357615830274
 20
-3201.2475837861052
 30
0.0
  0
VERTEX
  5
810
  8
0
  6
CONTINUOUS
 10
1246.73574152693
 20
-3229.8481331594271
 30
0.0
  0
VERTEX
  5
811
  8
0
  6
CONTINUOUS
 10
1478.3716824887961
 20
-3240.5466181895972
 30
0.0
  0
VERTEX
  5
812
  8
0
  6
CONTINUOUS
 10
1478.3716824887961
 20
-3240.5466181895972
 30
0.0
  0
VERTEX
  5
813
  8
0
  6
CONTINUOUS
 10
1699.4544266644641
 20
-3237.7450798233431
 30
0.0
  0
VERTEX
  5
814
  8
0
  6
CONTINUOUS
 10
1809.4313837904961
 20
-3228.0070145057721
 30
0.0
  0
VERTEX
  5
815
  8
0
  6
CONTINUOUS
 10
1921.160349721976
 20
-3210.1809690060882
 30
0.0
  0
VERTEX
  5
816
  8
0
  6
CONTINUOUS
 10
1921.160349721976
 20
-3210.1809690060882
 30
0.0
  0
VERTEX
  5
817
  8
0
  6
CONTINUOUS
 10
2018.955837879588
 20
-3186.0736376983259
 30
0.0
  0
VERTEX
  5
818
  8
0
  6
CONTINUOUS
 10
2119.8139108857949
 20
-3146.9724697199531
 30
0.0
  0
VERTEX
  5
819
  8
0
  6
CONTINUOUS
 10
2119.8139108857949
 20
-3146.9724697199531
 30
0.0
  0
VERTEX
  5
81A
  8
0
  6
CONTINUOUS
 10
2222.6396529776721
 20
-3084.1448566252338
 30
0.0
  0
VERTEX
  5
81B
  8
0
  6
CONTINUOUS
 10
2272.4022510171631
 20
-3039.9180161804061
 30
0.0
  0
VERTEX
  5
81C
  8
0
  6
CONTINUOUS
 10
2319.4464002233331
 20
-2984.860962719431
 30
0.0
  0
VERTEX
  5
81D
  8
0
  6
CONTINUOUS
 10
2319.4464002233331
 20
-2984.860962719431
 30
0.0
  0
VERTEX
  5
81E
  8
0
  6
CONTINUOUS
 10
2362.538032598115
 20
-2918.0516356025519
 30
0.0
  0
VERTEX
  5
81F
  8
0
  6
CONTINUOUS
 10
2400.3616086382208
 20
-2841.7443028844468
 30
0.0
  0
VERTEX
  5
820
  8
0
  6
CONTINUOUS
 10
2431.581220964059
 20
-2758.9873147934122
 30
0.0
  0
VERTEX
  5
821
  8
0
  6
CONTINUOUS
 10
2454.8609621960391
 20
-2672.8290215577381
 30
0.0
  0
VERTEX
  5
822
  8
0
  6
CONTINUOUS
 10
2454.8609621960391
 20
-2672.8290215577381
 30
0.0
  0
VERTEX
  5
823
  8
0
  6
CONTINUOUS
 10
2469.1625495450689
 20
-2586.0034378696109
 30
0.0
  0
VERTEX
  5
824
  8
0
  6
CONTINUOUS
 10
2474.6381985840571
 20
-2499.987236276776
 30
0.0
  0
VERTEX
  5
825
  8
0
  6
CONTINUOUS
 10
2471.737749476405
 20
-2415.942753790865
 30
0.0
  0
VERTEX
  5
826
  8
0
  6
CONTINUOUS
 10
2460.911042385525
 20
-2335.032327423517
 30
0.0
  0
VERTEX
  5
827
  8
0
  6
CONTINUOUS
 10
2460.911042385525
 20
-2335.032327423517
 30
0.0
  0
VERTEX
  5
828
  8
0
  6
CONTINUOUS
 10
2442.5890096126759
 20
-2257.808911587832
 30
0.0
  0
VERTEX
  5
829
  8
0
  6
CONTINUOUS
 10
2417.126952010562
 20
-2182.3879303027729
 30
0.0
  0
VERTEX
  5
82A
  8
0
  6
CONTINUOUS
 10
2346.1283342807751
 20
-2026.9774370662681
 30
0.0
  0
VERTEX
  5
82B
  8
0
  6
CONTINUOUS
 10
2346.1283342807751
 20
-2026.9774370662681
 30
0.0
  0
VERTEX
  5
82C
  8
0
  6
CONTINUOUS
 10
2247.0693648452711
 20
-1851.664247161445
 30
0.0
  0
VERTEX
  5
82D
  8
0
  6
CONTINUOUS
 10
2104.9563462516958
 20
-1650.572032371703
 30
0.0
  0
VERTEX
  5
82E
  8
0
  6
CONTINUOUS
 10
2104.9563462516958
 20
-1650.572032371703
 30
0.0
  0
VERTEX
  5
82F
  8
0
  6
CONTINUOUS
 10
1914.3336197555641
 20
-1429.5114057519061
 30
0.0
  0
VERTEX
  5
830
  8
0
  6
CONTINUOUS
 10
1722.045554545321
 20
-1229.7804731068311
 30
0.0
  0
VERTEX
  5
831
  8
0
  6
CONTINUOUS
 10
1722.045554545321
 20
-1229.7804731068311
 30
0.0
  0
VERTEX
  5
832
  8
0
  6
CONTINUOUS
 10
1569.7871467831501
 20
-1084.717399443844
 30
0.0
  0
VERTEX
  5
833
  8
0
  6
CONTINUOUS
 10
1426.355872593266
 20
-960.33309383074015
 30
0.0
  0
VERTEX
  5
834
  8
0
  6
CONTINUOUS
 10
1426.355872593266
 20
-960.33309383074015
 30
0.0
  0
VERTEX
  5
835
  8
0
  6
CONTINUOUS
 10
1248.233257214938
 20
-812.60732514976576
 30
0.0
  0
VERTEX
  5
836
  8
0
  6
CONTINUOUS
 10
1015.534542385601
 20
-624.72255748052203
 30
0.0
  0
VERTEX
  5
837
  8
0
  6
CONTINUOUS
 10
1015.534542385601
 20
-624.72255748052203
 30
0.0
  0
VERTEX
  5
838
  8
0
  6
CONTINUOUS
 10
724.16630526991014
 20
-395.54216636499712
 30
0.0
  0
VERTEX
  5
839
  8
0
  6
CONTINUOUS
 10
409.56674824313859
 20
-159.45047799738711
 30
0.0
  0
VERTEX
  5
83A
  8
0
  6
CONTINUOUS
 10
409.56674824313859
 20
-159.45047799738711
 30
0.0
  0
VERTEX
  5
83B
  8
0
  6
CONTINUOUS
 10
275.97399875854541
 20
-93.224325819540795
 30
0.0
  0
VERTEX
  5
83C
  8
0
  6
CONTINUOUS
 10
75.154819082334129
 20
-7.0
 30
0.0
  0
SEQEND
  5
83D
  8
0
  6
CONTINUOUS
  0
POLYLINE
  5
63C
  8
0
  6
CONTINUOUS
 66
     1
 10
0.0
 20
0.0
 30
0.0
  0
VERTEX
  5
83E
  8
0
  6
CONTINUOUS
 10
-73.181027451892092
 20
-7.0
 30
0.0
  0
VERTEX
  5
83F
  8
0
  6
CONTINUOUS
 10
-195.5477825830842
 20
-74.074051449023045
 30
0.0
  0
VERTEX
  5
840
  8
0
  6
CONTINUOUS
 10
-325.01227351549448
 20
-137.3247107372039
 30
0.0
  0
VERTEX
  5
841
  8
0
  6
CONTINUOUS
 10
-325.01227351549448
 20
-137.3247107372039
 30
0.0
  0
VERTEX
  5
842
  8
0
  6
CONTINUOUS
 10
-446.57025959977273
 20
-215.4054496690041
 30
0.0
  0
VERTEX
  5
843
  8
0
  6
CONTINUOUS
 10
-560.10961863701129
 20
-301.8928523222657
 30
0.0
  0
VERTEX
  5
844
  8
0
  6
CONTINUOUS
 10
-560.10961863701129
 20
-301.8928523222657
 30
0.0
  0
VERTEX
  5
845
  8
0
  6
CONTINUOUS
 10
-665.30844839608949
 20
-389.5975027698201
 30
0.0
  0
VERTEX
  5
846
  8
0
  6
CONTINUOUS
 10
-757.59138853911725
 20
-480.56683461461961
 30
0.0
  0
VERTEX
  5
847
  8
0
  6
CONTINUOUS
 10
-757.59138853911725
 20
-480.56683461461961
 30
0.0
  0
VERTEX
  5
848
  8
0
  6
CONTINUOUS
 10
-832.95635772537571
 20
-577.11006023920095
 30
0.0
  0
VERTEX
  5
849
  8
0
  6
CONTINUOUS
 10
-893.94784870960405
 20
-673.34665761429187
 30
0.0
  0
VERTEX
  5
84A
  8
0
  6
CONTINUOUS
 10
-893.94784870960405
 20
-673.34665761429187
 30
0.0
  0
VERTEX
  5
84B
  8
0
  6
CONTINUOUS
 10
-944.55347846688153
 20
-772.51888340217306
 30
0.0
  0
VERTEX
  5
84C
  8
0
  6
CONTINUOUS
 10
-966.97792151719693
 20
-837.48368925758814
 30
0.0
  0
VERTEX
  5
84D
  8
0
  6
CONTINUOUS
 10
-987.98678675821043
 20
-922.54984344311265
 30
0.0
  0
VERTEX
  5
84E
  8
0
  6
CONTINUOUS
 10
-987.98678675821043
 20
-922.54984344311265
 30
0.0
  0
VERTEX
  5
84F
  8
0
  6
CONTINUOUS
 10
-999.0891661322446
 20
-985.52245180501995
 30
0.0
  0
VERTEX
  5
850
  8
0
  6
CONTINUOUS
 10
-1002.0926274655041
 20
-1044.8004629063189
 30
0.0
  0
VERTEX
  5
851
  8
0
  6
CONTINUOUS
 10
-1002.0926274655041
 20
-1044.8004629063189
 30
0.0
  0
VERTEX
  5
852
  8
0
  6
CONTINUOUS
 10
-990.14121908207369
 20
-1088.703010833641
 30
0.0
  0
VERTEX
  5
853
  8
0
  6
CONTINUOUS
 10
-959.77510534362386
 20
-1115.3296664427501
 30
0.0
  0
VERTEX
  5
854
  8
0
  6
CONTINUOUS
 10
-959.77510534362386
 20
-1115.3296664427501
 30
0.0
  0
VERTEX
  5
855
  8
0
  6
CONTINUOUS
 10
-910.0800851711374
 20
-1124.774565474723
 30
0.0
  0
VERTEX
  5
856
  8
0
  6
CONTINUOUS
 10
-846.9283796852776
 20
-1115.3296664427501
 30
0.0
  0
VERTEX
  5
857
  8
0
  6
CONTINUOUS
 10
-846.9283796852776
 20
-1115.3296664427501
 30
0.0
  0
VERTEX
  5
858
  8
0
  6
CONTINUOUS
 10
-776.71854133839963
 20
-1085.9566816770559
 30
0.0
  0
VERTEX
  5
859
  8
0
  6
CONTINUOUS
 10
-701.16802570994435
 20
-1040.0985160038599
 30
0.0
  0
VERTEX
  5
85A
  8
0
  6
CONTINUOUS
 10
-701.16802570994435
 20
-1040.0985160038599
 30
0.0
  0
VERTEX
  5
85B
  8
0
  6
CONTINUOUS
 10
-620.86978867008725
 20
-987.10387462642109
 30
0.0
  0
VERTEX
  5
85C
  8
0
  6
CONTINUOUS
 10
-579.17993055971101
 20
-966.5346298501006
 30
0.0
  0
VERTEX
  5
85D
  8
0
  6
CONTINUOUS
 10
-536.59988412487087
 20
-955.46347176011272
 30
0.0
  0
VERTEX
  5
85E
  8
0
  6
CONTINUOUS
 10
-536.59988412487087
 20
-955.46347176011272
 30
0.0
  0
VERTEX
  5
85F
  8
0
  6
CONTINUOUS
 10
-493.50271078094079
 20
-956.91302950965189
 30
0.0
  0
VERTEX
  5
860
  8
0
  6
CONTINUOUS
 10
-451.34280339728218
 20
-969.35834063049083
 30
0.0
  0
VERTEX
  5
861
  8
0
  6
CONTINUOUS
 10
-411.84488770675591
 20
-990.13754474903783
 30
0.0
  0
VERTEX
  5
862
  8
0
  6
CONTINUOUS
 10
-376.73368944222142
 20
-1016.588781491708
 30
0.0
  0
VERTEX
  5
863
  8
0
  6
CONTINUOUS
 10
-376.73368944222142
 20
-1016.588781491708
 30
0.0
  0
VERTEX
  5
864
  8
0
  6
CONTINUOUS
 10
-320.69150065961912
 20
-1078.290702584442
 30
0.0
  0
VERTEX
  5
865
  8
0
  6
CONTINUOUS
 10
-267.61980559761582
 20
-1145.323177066851
 30
0.0
  0
VERTEX
  5
866
  8
0
  6
CONTINUOUS
 10
-267.61980559761582
 20
-1145.323177066851
 30
0.0
  0
VERTEX
  5
867
  8
0
  6
CONTINUOUS
 10
-201.5269814895085
 20
-1207.99711420061
 30
0.0
  0
VERTEX
  5
868
  8
0
  6
CONTINUOUS
 10
-165.1121056044453
 20
-1231.1342811940649
 30
0.0
  0
VERTEX
  5
869
  8
0
  6
CONTINUOUS
 10
-128.35603016101231
 20
-1244.7076027439671
 30
0.0
  0
VERTEX
  5
86A
  8
0
  6
CONTINUOUS
 10
-128.35603016101231
 20
-1244.7076027439671
 30
0.0
  0
VERTEX
  5
86B
  8
0
  6
CONTINUOUS
 10
-92.506157835913683
 20
-1246.579154481037
 30
0.0
  0
VERTEX
  5
86C
  8
0
  6
CONTINUOUS
 10
-58.08617302576053
 20
-1238.3512477426821
 30
0.0
  0
VERTEX
  5
86D
  8
0
  6
CONTINUOUS
 10
5.0931147433572876
 20
-1201.7465398960021
 30
0.0
  0
VERTEX
  5
86E
  8
0
  6
CONTINUOUS
 10
5.0931147433572876
 20
-1201.7465398960021
 30
0.0
  0
VERTEX
  5
86F
  8
0
  6
CONTINUOUS
 10
60.277394414713669
 20
-1155.815484535402
 30
0.0
  0
VERTEX
  5
870
  8
0
  6
CONTINUOUS
 10
113.9126267809843
 20
-1123.972259867805
 30
0.0
  0
VERTEX
  5
871
  8
0
  6
CONTINUOUS
 10
113.9126267809843
 20
-1123.972259867805
 30
0.0
  0
VERTEX
  5
872
  8
0
  6
CONTINUOUS
 10
142.6774397472058
 20
-1120.3766163556541
 30
0.0
  0
VERTEX
  5
873
  8
0
  6
CONTINUOUS
 10
173.79818701149011
 20
-1126.5052922487271
 30
0.0
  0
VERTEX
  5
874
  8
0
  6
CONTINUOUS
 10
245.79670825783049
 20
-1168.70782775265
 30
0.0
  0
VERTEX
  5
875
  8
0
  6
CONTINUOUS
 10
245.79670825783049
 20
-1168.70782775265
 30
0.0
  0
VERTEX
  5
876
  8
0
  6
CONTINUOUS
 10
332.94871877431513
 20
-1246.781899675146
 30
0.0
  0
VERTEX
  5
877
  8
0
  6
CONTINUOUS
 10
428.94306924381442
 20
-1335.5598704771801
 30
0.0
  0
VERTEX
  5
878
  8
0
  6
CONTINUOUS
 10
428.94306924381442
 20
-1335.5598704771801
 30
0.0
  0
VERTEX
  5
879
  8
0
  6
CONTINUOUS
 10
524.85727156462656
 20
-1410.130234460562
 30
0.0
  0
VERTEX
  5
87A
  8
0
  6
CONTINUOUS
 10
610.67516006819449
 20
-1467.9756841250719
 30
0.0
  0
VERTEX
  5
87B
  8
0
  6
CONTINUOUS
 10
610.67516006819449
 20
-1467.9756841250719
 30
0.0
  0
VERTEX
  5
87C
  8
0
  6
CONTINUOUS
 10
681.71750579430784
 20
-1511.6315274107239
 30
0.0
  0
VERTEX
  5
87D
  8
0
  6
CONTINUOUS
 10
755.74650418299393
 20
-1541.4493358205091
 30
0.0
  0
VERTEX
  5
87E
  8
0
  6
CONTINUOUS
 10
755.74650418299393
 20
-1541.4493358205091
 30
0.0
  0
VERTEX
  5
87F
  8
0
  6
CONTINUOUS
 10
849.00820770238238
 20
-1554.327374420963
 30
0.0
  0
VERTEX
  5
880
  8
0
  6
CONTINUOUS
 10
899.46549763443102
 20
-1549.9921832374359
 30
0.0
  0
VERTEX
  5
881
  8
0
  6
CONTINUOUS
 10
949.24267253277299
 20
-1535.5344189698319
 30
0.0
  0
VERTEX
  5
882
  8
0
  6
CONTINUOUS
 10
949.24267253277299
 20
-1535.5344189698319
 30
0.0
  0
VERTEX
  5
883
  8
0
  6
CONTINUOUS
 10
990.84988040075893
 20
-1512.2895520972941
 30
0.0
  0
VERTEX
  5
884
  8
0
  6
CONTINUOUS
 10
1030.617065584988
 20
-1475.3315040937271
 30
0.0
  0
VERTEX
  5
885
  8
0
  6
CONTINUOUS
 10
1030.617065584988
 20
-1475.3315040937271
 30
0.0
  0
VERTEX
  5
886
  8
0
  6
CONTINUOUS
 10
1068.0493730653491
 20
-1421.484363213724
 30
0.0
  0
VERTEX
  5
887
  8
0
  6
CONTINUOUS
 10
1098.456231484465
 20
-1351.6819981186311
 30
0.0
  0
VERTEX
  5
888
  8
0
  6
CONTINUOUS
 10
1098.456231484465
 20
-1351.6819981186311
 30
0.0
  0
VERTEX
  5
889
  8
0
  6
CONTINUOUS
 10
1115.14377715301
 20
-1268.474706631182
 30
0.0
  0
VERTEX
  5
88A
  8
0
  6
CONTINUOUS
 10
1115.1176689463371
 20
-1223.3406001308331
 30
0.0
  0
VERTEX
  5
88B
  8
0
  6
CONTINUOUS
 10
1107.6006933911119
 20
-1176.7687228129439
 30
0.0
  0
VERTEX
  5
88C
  8
0
  6
CONTINUOUS
 10
1107.6006933911119
 20
-1176.7687228129439
 30
0.0
  0
VERTEX
  5
88D
  8
0
  6
CONTINUOUS
 10
1067.14566129645
 20
-1078.9374916471561
 30
0.0
  0
VERTEX
  5
88E
  8
0
  6
CONTINUOUS
 10
996.23480606751355
 20
-964.86736556498215
 30
0.0
  0
VERTEX
  5
88F
  8
0
  6
CONTINUOUS
 10
996.23480606751355
 20
-964.86736556498215
 30
0.0
  0
VERTEX
  5
890
  8
0
  6
CONTINUOUS
 10
900.77631033536534
 20
-827.28314955895235
 30
0.0
  0
VERTEX
  5
891
  8
0
  6
CONTINUOUS
 10
789.34914236058364
 20
-682.75055141916209
 30
0.0
  0
VERTEX
  5
892
  8
0
  6
CONTINUOUS
 10
789.34914236058364
 20
-682.75055141916209
 30
0.0
  0
VERTEX
  5
893
  8
0
  6
CONTINUOUS
 10
671.62225378444077
 20
-550.12093249685665
 30
0.0
  0
VERTEX
  5
894
  8
0
  6
CONTINUOUS
 10
558.95374414146772
 20
-433.54736559032921
 30
0.0
  0
VERTEX
  5
895
  8
0
  6
CONTINUOUS
 10
558.95374414146772
 20
-433.54736559032921
 30
0.0
  0
VERTEX
  5
896
  8
0
  6
CONTINUOUS
 10
457.6433340330201
 20
-331.1185086497548
 30
0.0
  0
VERTEX
  5
897
  8
0
  6
CONTINUOUS
 10
352.068080434492
 20
-231.3636487857992
 30
0.0
  0
VERTEX
  5
898
  8
0
  6
CONTINUOUS
 10
352.068080434492
 20
-231.3636487857992
 30
0.0
  0
VERTEX
  5
899
  8
0
  6
CONTINUOUS
 10
226.75568027173469
 20
-123.6645362093363
 30
0.0
  0
VERTEX
  5
89A
  8
0
  6
CONTINUOUS
 10
75.154819082334129
 20
-7.0
 30
0.0
  0
SEQEND
  5
89B
  8
0
  6
CONTINUOUS
  0
LINE
  5
69B
  8
0
  6
CONTINUOUS
 10
84.999999999999986
 20
-7.0
 30
0.0
 11
-85.0
 21
-7.0
 31
0.0
  0
LINE
  5
69C
  8
0
  6
CONTINUOUS
 10
75.0
 20
193.0000000000008
 30
0.0
 11
75.0
 21
0.0
 31
0.0
  0
LINE
  5
69D
  8
0
  6
CONTINUOUS
 10
-75.0
 20
193.0
 30
0.0
 11
-75.0
 21
0.0
 31
0.0
  0
LINE
  5
69E
  8
0
  6
CONTINUOUS
 10
84.999999999999986
 20
0.0
 30
0.0
 11
84.999999999999986
 21
-7.0
 31
0.0
  0
LINE
  5
69F
  8
0
  6
CONTINUOUS
 10
84.999999999999986
 20
0.0
 30
0.0
 11
84.999999999999986
 21
-7.0
 31
0.0
  0
LINE
  5
6A0
  8
0
  6
CONTINUOUS
 10
-85.0
 20
0.0
 30
0.0
 11
-85.0
 21
-7.0
 31
0.0
  0
LINE
  5
6A1
  8
0
  6
CONTINUOUS
 10
84.999999999999986
 20
0.0
 30
0.0
 11
-85.0
 21
0.0
 31
0.0
  0
LINE
  5
6A2
  8
0
  6
CONTINUOUS
 10
75.0
 20
193.0
 30
0.0
 11
-75.0
 21
193.0
 31
0.0
  0
TEXT
  5
6A3
  8
0
  6
CONTINUOUS
 10
-301.97933728256641
 20
-487.01954613645648
 30
0.0
 40
160.0
  1
1.5m/s
 50
0.0000025044687019
 41
0.687499990065893
  7
STANDARD1
  0
TEXT
  5
6A4
  8
0
  6
CONTINUOUS
 10
-206.5221616515268
 20
-997.05677798663123
 30
0.0
 40
160.0
  1
1m/s
 50
0.0000025044687019
 41
0.687499990065893
  7
STANDARD1
  0
TEXT
  5
6A5
  8
0
  6
CONTINUOUS
 10
-204.6303196618496
 20
-1854.16592294373
 30
0.0
 40
160.0
  1
0.5m/s
 50
0.0000025044687019
 41
0.687499990065893
  7
STANDARD1
  0
TEXT
  5
6A6
  8
0
  6
CONTINUOUS
 10
-186.93086964661359
 20
-2761.368399206729
 30
0.0
 40
160.0
  1
0.3m/s
 50
0.0000025044687019
 41
0.687499990065893
  7
STANDARD1
  0
LINE
  5
6A7
  8
0
  6
CONTINUOUS
 10
-0.0000000000000071
 20
-22.961622755659839
 30
0.0
 11
-0.0000000000000071
 21
22.961622755659839
 31
0.0
  0
ENDSEC
  0
EOF
