  0
SECTION
  2
HEADER
  9
$ACADVER
  1
AC1015
  9
$ACADMAINTVER
 70
    20
  9
$DWGCODEPAGE
  3
ANSI_932
  9
$INSBASE
 10
0.0
 20
0.0
 30
0.0
  9
$EXTMIN
 10
-1608.678903825266
 20
-4506.999999596837
 30
0.0
  9
$EXTMAX
 10
2651.298500024925
 20
183.0
 30
0.0
  9
$LIMMIN
 10
0.0
 20
0.0
  9
$LIMMAX
 10
12.0
 20
9.0
  9
$ORTHOMODE
 70
     0
  9
$REGENMODE
 70
     1
  9
$FILLMODE
 70
     1
  9
$QTEXTMODE
 70
     0
  9
$MIRRTEXT
 70
     0
  9
$LTSCALE
 40
1.0
  9
$ATTMODE
 70
     1
  9
$TEXTSIZE
 40
3.200000047683714
  9
$TRACEWID
 40
0.05
  9
$TEXTSTYLE
  7
STANDARD1
  9
$CLAYER
  8
0
  9
$CELTYPE
  6
CONTINUOUS
  9
$CECOLOR
 62
   256
  9
$CELTSCALE
 40
1.0
  9
$DISPSILH
 70
     0
  9
$DIMSCALE
 40
1.0
  9
$DIMASZ
 40
1.931851648807023
  9
$DIMEXO
 40
1.0
  9
$DIMDLI
 40
0.38
  9
$DIMRND
 40
0.0
  9
$DIMDLE
 40
0.0
  9
$DIMEXE
 40
2.0
  9
$DIMTP
 40
0.0
  9
$DIMTM
 40
0.0
  9
$DIMTXT
 40
2.0
  9
$DIMCEN
 40
0.09
  9
$DIMTSZ
 40
0.0
  9
$DIMTOL
 70
     0
  9
$DIMLIM
 70
     0
  9
$DIMTIH
 70
     1
  9
$DIMTOH
 70
     1
  9
$DIMSE1
 70
     0
  9
$DIMSE2
 70
     0
  9
$DIMTAD
 70
     1
  9
$DIMZIN
 70
     0
  9
$DIMBLK
  1

  9
$DIMASO
 70
     1
  9
$DIMSHO
 70
     1
  9
$DIMPOST
  1

  9
$DIMAPOST
  1

  9
$DIMALT
 70
     0
  9
$DIMALTD
 70
     2
  9
$DIMALTF
 40
25.4
  9
$DIMLFAC
 40
1.0
  9
$DIMTOFL
 70
     0
  9
$DIMTVP
 40
0.0
  9
$DIMTIX
 70
     0
  9
$DIMSOXD
 70
     0
  9
$DIMSAH
 70
     0
  9
$DIMBLK1
  1

  9
$DIMBLK2
  1

  9
$DIMSTYLE
  2
STANDARD
  9
$DIMCLRD
 70
     0
  9
$DIMCLRE
 70
     0
  9
$DIMCLRT
 70
     0
  9
$DIMTFAC
 40
0.625
  9
$DIMGAP
 40
0.09
  9
$DIMJUST
 70
     0
  9
$DIMSD1
 70
     0
  9
$DIMSD2
 70
     0
  9
$DIMTOLJ
 70
     1
  9
$DIMTZIN
 70
     0
  9
$DIMALTZ
 70
     0
  9
$DIMALTTZ
 70
     0
  9
$DIMUPT
 70
     0
  9
$DIMDEC
 70
     4
  9
$DIMTDEC
 70
     4
  9
$DIMALTU
 70
     2
  9
$DIMALTTD
 70
     2
  9
$DIMTXSTY
  7
STANDARD
  9
$DIMAUNIT
 70
     0
  9
$DIMADEC
 70
     0
  9
$DIMALTRND
 40
0.0
  9
$DIMAZIN
 70
     0
  9
$DIMDSEP
 70
    46
  9
$DIMATFIT
 70
     3
  9
$DIMFRAC
 70
     0
  9
$DIMLDRBLK
  1

  9
$DIMLUNIT
 70
     2
  9
$DIMLWD
 70
    -2
  9
$DIMLWE
 70
    -2
  9
$DIMTMOVE
 70
     0
  9
$LUNITS
 70
     2
  9
$LUPREC
 70
     3
  9
$SKETCHINC
 40
0.1
  9
$FILLETRAD
 40
0.0
  9
$AUNITS
 70
     0
  9
$AUPREC
 70
     0
  9
$MENU
  1
.
  9
$ELEVATION
 40
0.0
  9
$PELEVATION
 40
0.0
  9
$THICKNESS
 40
0.0
  9
$LIMCHECK
 70
     0
  9
$CHAMFERA
 40
0.0
  9
$CHAMFERB
 40
0.0
  9
$CHAMFERC
 40
0.0
  9
$CHAMFERD
 40
0.0
  9
$SKPOLY
 70
     0
  9
$TDCREATE
 40
2453297.545854491
  9
$TDUCREATE
 40
2453297.170854491
  9
$TDUPDATE
 40
2457466.622527766
  9
$TDUUPDATE
 40
2457466.247527766
  9
$TDINDWG
 40
0.0797858912
  9
$TDUSRTIMER
 40
0.0797616782
  9
$USRTIMER
 70
     1
  9
$ANGBASE
 50
0.0
  9
$ANGDIR
 70
     0
  9
$PDMODE
 70
     0
  9
$PDSIZE
 40
0.0
  9
$PLINEWID
 40
0.0
  9
$SPLFRAME
 70
     0
  9
$SPLINETYPE
 70
     6
  9
$SPLINESEGS
 70
     8
  9
$HANDSEED
  5
E0D
  9
$SURFTAB1
 70
     6
  9
$SURFTAB2
 70
     6
  9
$SURFTYPE
 70
     6
  9
$SURFU
 70
     6
  9
$SURFV
 70
     6
  9
$UCSBASE
  2

  9
$UCSNAME
  2

  9
$UCSORG
 10
0.0
 20
0.0
 30
0.0
  9
$UCSXDIR
 10
1.0
 20
0.0
 30
0.0
  9
$UCSYDIR
 10
0.0
 20
1.0
 30
0.0
  9
$UCSORTHOREF
  2

  9
$UCSORTHOVIEW
 70
     0
  9
$UCSORGTOP
 10
0.0
 20
0.0
 30
0.0
  9
$UCSORGBOTTOM
 10
0.0
 20
0.0
 30
0.0
  9
$UCSORGLEFT
 10
0.0
 20
0.0
 30
0.0
  9
$UCSORGRIGHT
 10
0.0
 20
0.0
 30
0.0
  9
$UCSORGFRONT
 10
0.0
 20
0.0
 30
0.0
  9
$UCSORGBACK
 10
0.0
 20
0.0
 30
0.0
  9
$PUCSBASE
  2

  9
$PUCSNAME
  2

  9
$PUCSORG
 10
0.0
 20
0.0
 30
0.0
  9
$PUCSXDIR
 10
1.0
 20
0.0
 30
0.0
  9
$PUCSYDIR
 10
0.0
 20
1.0
 30
0.0
  9
$PUCSORTHOREF
  2

  9
$PUCSORTHOVIEW
 70
     0
  9
$PUCSORGTOP
 10
0.0
 20
0.0
 30
0.0
  9
$PUCSORGBOTTOM
 10
0.0
 20
0.0
 30
0.0
  9
$PUCSORGLEFT
 10
0.0
 20
0.0
 30
0.0
  9
$PUCSORGRIGHT
 10
0.0
 20
0.0
 30
0.0
  9
$PUCSORGFRONT
 10
0.0
 20
0.0
 30
0.0
  9
$PUCSORGBACK
 10
0.0
 20
0.0
 30
0.0
  9
$USERI1
 70
     0
  9
$USERI2
 70
     0
  9
$USERI3
 70
     0
  9
$USERI4
 70
     0
  9
$USERI5
 70
     0
  9
$USERR1
 40
0.0
  9
$USERR2
 40
0.0
  9
$USERR3
 40
0.0
  9
$USERR4
 40
0.0
  9
$USERR5
 40
0.0
  9
$WORLDVIEW
 70
     1
  9
$SHADEDGE
 70
     3
  9
$SHADEDIF
 70
    70
  9
$TILEMODE
 70
     1
  9
$MAXACTVP
 70
    64
  9
$PINSBASE
 10
0.0
 20
0.0
 30
0.0
  9
$PLIMCHECK
 70
     0
  9
$PEXTMIN
 10
1.000000000000000E+20
 20
1.000000000000000E+20
 30
1.000000000000000E+20
  9
$PEXTMAX
 10
-1.000000000000000E+20
 20
-1.000000000000000E+20
 30
-1.000000000000000E+20
  9
$PLIMMIN
 10
0.0
 20
0.0
  9
$PLIMMAX
 10
12.0
 20
9.0
  9
$UNITMODE
 70
     0
  9
$VISRETAIN
 70
     1
  9
$PLINEGEN
 70
     0
  9
$PSLTSCALE
 70
     1
  9
$TREEDEPTH
 70
  3020
  9
$CMLSTYLE
  2
Standard
  9
$CMLJUST
 70
     0
  9
$CMLSCALE
 40
1.0
  9
$PROXYGRAPHICS
 70
     1
  9
$MEASUREMENT
 70
     0
  9
$CELWEIGHT
370
    -1
  9
$ENDCAPS
280
     0
  9
$JOINSTYLE
280
     0
  9
$LWDISPLAY
290
     0
  9
$INSUNITS
 70
     0
  9
$HYPERLINKBASE
  1

  9
$STYLESHEET
  1

  9
$XEDIT
290
     1
  9
$CEPSNTYPE
380
     0
  9
$PSTYLEMODE
290
     1
  9
$FINGERPRINTGUID
  2
{6681D287-EE10-4BA6-880D-1DFBE34A3BC0}
  9
$VERSIONGUID
  2
{EFA55B92-444E-43A2-8E2E-891CFE1F316B}
  9
$EXTNAMES
290
     1
  9
$PSVPSCALE
 40
0.0
  9
$OLESTARTUP
290
     0
  0
ENDSEC
  0
SECTION
  2
CLASSES
  0
CLASS
  1
ACDBDICTIONARYWDFLT
  2
AcDbDictionaryWithDefault
  3
ObjectDBX Classes
 90
        0
280
     0
281
     0
  0
CLASS
  1
MATERIAL
  2
AcDbMaterial
  3
ObjectDBX Classes
 90
     1153
280
     0
281
     0
  0
CLASS
  1
VISUALSTYLE
  2
AcDbVisualStyle
  3
ObjectDBX Classes
 90
     4095
280
     0
281
     0
  0
CLASS
  1
SCALE
  2
AcDbScale
  3
ObjectDBX Classes
 90
     1153
280
     0
281
     0
  0
CLASS
  1
TABLESTYLE
  2
AcDbTableStyle
  3
ObjectDBX Classes
 90
     4095
280
     0
281
     0
  0
CLASS
  1
MLEADERSTYLE
  2
AcDbMLeaderStyle
  3
ACDB_MLEADERSTYLE_CLASS
 90
     4095
280
     0
281
     0
  0
CLASS
  1
DICTIONARYVAR
  2
AcDbDictionaryVar
  3
ObjectDBX Classes
 90
        0
280
     0
281
     0
  0
CLASS
  1
CELLSTYLEMAP
  2
AcDbCellStyleMap
  3
ObjectDBX Classes
 90
     1152
280
     0
281
     0
  0
CLASS
  1
ACDBPLACEHOLDER
  2
AcDbPlaceHolder
  3
ObjectDBX Classes
 90
        0
280
     0
281
     0
  0
CLASS
  1
LAYOUT
  2
AcDbLayout
  3
ObjectDBX Classes
 90
        0
280
     0
281
     0
  0
ENDSEC
  0
SECTION
  2
TABLES
  0
TABLE
  2
VPORT
  5
C7D
330
0
100
AcDbSymbolTable
 70
     1
  0
VPORT
  5
CE5
330
C7D
100
AcDbSymbolTableRecord
100
AcDbViewportTableRecord
  2
*ACTIVE
 70
     0
 10
0.0
 20
0.0
 11
1.0
 21
1.0
 12
2497.625455493882
 22
-3100.065246215922
 13
0.0
 23
0.0
 14
1.0
 24
1.0
 15
0.0
 25
0.0
 16
0.0
 26
0.0
 36
1.0
 17
0.0
 27
0.0
 37
0.0
 40
13350.57718613369
 41
2.221271393643031
 42
50.0
 43
0.0
 44
0.0
 50
0.0
 51
0.0
 71
     0
 72
   100
 73
     1
 74
     1
 75
     0
 76
     0
 77
     0
 78
     0
281
     0
 65
     1
110
0.0
120
0.0
130
0.0
111
1.0
121
0.0
131
0.0
112
0.0
122
1.0
132
0.0
 79
     0
146
0.0
  0
ENDTAB
  0
TABLE
  2
LTYPE
  5
C7A
330
0
100
AcDbSymbolTable
 70
     5
  0
LTYPE
  5
CCF
330
C7A
100
AcDbSymbolTableRecord
100
AcDbLinetypeTableRecord
  2
ByBlock
 70
     0
  3

 72
    65
 73
     0
 40
0.0
  0
LTYPE
  5
CD0
330
C7A
100
AcDbSymbolTableRecord
100
AcDbLinetypeTableRecord
  2
ByLayer
 70
     0
  3

 72
    65
 73
     0
 40
0.0
  0
LTYPE
  5
CD1
330
C7A
100
AcDbSymbolTableRecord
100
AcDbLinetypeTableRecord
  2
CONTINUOUS
 70
     0
  3
Solid line
 72
    65
 73
     0
 40
0.0
  0
LTYPE
  5
CE6
330
C7A
100
AcDbSymbolTableRecord
100
AcDbLinetypeTableRecord
  2
DASHED
 70
     0
  3
-- -- -- -- -- -- -- -- -- -- -- -- -- -- --
 72
    65
 73
     2
 40
0.75
 49
0.5
 74
     0
 49
-0.25
 74
     0
  0
LTYPE
  5
CE7
330
C7A
100
AcDbSymbolTableRecord
100
AcDbLinetypeTableRecord
  2
DASHDOT
 70
     0
  3
__ . __ . __ . __ . __ . __ . __ . __ . __ . __
 72
    65
 73
     4
 40
1.0
 49
0.5
 74
     0
 49
-0.25
 74
     0
 49
0.0
 74
     0
 49
-0.25
 74
     0
  0
LTYPE
  5
CE8
330
C7A
100
AcDbSymbolTableRecord
100
AcDbLinetypeTableRecord
  2
DIVIDE
 70
     0
  3
__ . . __ . . __ . . __ . . __ . . __ . . __
 72
    65
 73
     6
 40
1.25
 49
0.5
 74
     0
 49
-0.25
 74
     0
 49
0.0
 74
     0
 49
-0.25
 74
     0
 49
0.0
 74
     0
 49
-0.25
 74
     0
  0
ENDTAB
  0
TABLE
  2
LAYER
  5
C77
330
0
100
AcDbSymbolTable
 70
     2
  0
LAYER
  5
CC9
102
{ACAD_XDICTIONARY
360
D7A
102
}
330
C77
100
AcDbSymbolTableRecord
100
AcDbLayerTableRecord
  2
0
 70
     0
 62
     7
  6
CONTINUOUS
370
    -3
390
C84
  0
LAYER
  5
CE9
330
C77
100
AcDbSymbolTableRecord
100
AcDbLayerTableRecord
  2
DEFPOINTS
 70
     0
 62
     7
  6
CONTINUOUS
290
     0
370
    -3
390
C84
  0
ENDTAB
  0
TABLE
  2
STYLE
  5
C78
330
0
100
AcDbSymbolTable
 70
     6
  0
STYLE
  5
CCA
330
C78
100
AcDbSymbolTableRecord
100
AcDbTextStyleTableRecord
  2
STANDARD
 70
     0
 40
0.0
 41
1.0
 50
0.0
 71
     0
 42
0.2
  3
txt
  4

  0
STYLE
  5
CCE
330
C78
100
AcDbSymbolTableRecord
100
AcDbTextStyleTableRecord
  2
Annotative
 70
     0
 40
0.0
 41
1.0
 50
0.0
 71
     0
 42
0.2
  3
txt
  4

1001
AcadAnnotative
1000
AnnotativeData
1002
{
1070
     1
1070
     1
1002
}
  0
STYLE
  5
CE4
330
C78
100
AcDbSymbolTableRecord
100
AcDbTextStyleTableRecord
  2
STANDARD1
 70
     0
 40
0.0
 41
1.0
 50
0.0
 71
     0
 42
3.200000047683714
  3
MONOTXT
  4
BIGFONT
  0
STYLE
  5
CEA
330
C78
100
AcDbSymbolTableRecord
100
AcDbTextStyleTableRecord
  2
STANDARD2
 70
     4
 40
0.0
 41
1.0
 50
0.0
 71
     0
 42
3.200000047683714
  3
MONOTXT
  4
BIGFONT
  0
STYLE
  5
CEB
330
C78
100
AcDbSymbolTableRecord
100
AcDbTextStyleTableRecord
  2
STANDARD3
 70
     0
 40
0.0
 41
1.0
 50
0.0
 71
     0
 42
3.200000047683714
  3
MONOTXT
  4

  0
STYLE
  5
CEC
330
C78
100
AcDbSymbolTableRecord
100
AcDbTextStyleTableRecord
  2
STANDARD4
 70
     4
 40
0.0
 41
1.0
 50
0.0
 71
     0
 42
3.200000047683714
  3
MONOTXT
  4

  0
ENDTAB
  0
TABLE
  2
VIEW
  5
C7B
330
0
100
AcDbSymbolTable
 70
     0
  0
ENDTAB
  0
TABLE
  2
UCS
  5
C7C
330
0
100
AcDbSymbolTable
 70
     0
  0
ENDTAB
  0
TABLE
  2
APPID
  5
C7E
330
0
100
AcDbSymbolTable
 70
     4
  0
APPID
  5
CCB
330
C7E
100
AcDbSymbolTableRecord
100
AcDbRegAppTableRecord
  2
ACAD
 70
     0
  0
APPID
  5
CD2
330
C7E
100
AcDbSymbolTableRecord
100
AcDbRegAppTableRecord
  2
AcadAnnotative
 70
     0
  0
APPID
  5
CED
330
C7E
100
AcDbSymbolTableRecord
100
AcDbRegAppTableRecord
  2
CONTENTBLOCKICON
 70
     0
  0
APPID
  5
E08
330
C7E
100
AcDbSymbolTableRecord
100
AcDbRegAppTableRecord
  2
ACAD_MLEADERVER
 70
     0
  0
ENDTAB
  0
TABLE
  2
DIMSTYLE
  5
C7F
330
0
100
AcDbSymbolTable
 70
     3
100
AcDbDimStyleTable
 71
     1
340
CCC
  0
DIMSTYLE
105
CCC
330
C7F
100
AcDbSymbolTableRecord
100
AcDbDimStyleTableRecord
  2
STANDARD
 70
     0
271
     3
272
     3
279
     2
340
CE4
  0
DIMSTYLE
105
CCD
330
C7F
100
AcDbSymbolTableRecord
100
AcDbDimStyleTableRecord
  2
Annotative
 70
     0
340
CCA
1001
AcadAnnotative
1000
AnnotativeData
1002
{
1070
     1
1070
     1
1002
}
  0
ENDTAB
  0
TABLE
  2
BLOCK_RECORD
  5
C76
330
0
100
AcDbSymbolTable
 70
    33
  0
BLOCK_RECORD
  5
CE0
330
C76
100
AcDbSymbolTableRecord
100
AcDbBlockTableRecord
  2
*Model_Space
340
CE3
  0
BLOCK_RECORD
  5
CDC
330
C76
100
AcDbSymbolTableRecord
100
AcDbBlockTableRecord
  2
*Paper_Space
340
CDF
  0
BLOCK_RECORD
  5
CF1
330
C76
100
AcDbSymbolTableRecord
100
AcDbBlockTableRecord
  2
$MODEL_SPACE
340
0
  0
BLOCK_RECORD
  5
CF3
330
C76
100
AcDbSymbolTableRecord
100
AcDbBlockTableRecord
  2
$PAPER_SPACE
340
0
  0
BLOCK_RECORD
  5
CF5
330
C76
100
AcDbSymbolTableRecord
100
AcDbBlockTableRecord
  2
*D2
340
0
  0
BLOCK_RECORD
  5
CF7
330
C76
100
AcDbSymbolTableRecord
100
AcDbBlockTableRecord
  2
*U3
340
0
102
{BLKREFS
331
4DB
102
}
  0
BLOCK_RECORD
  5
CF9
330
C76
100
AcDbSymbolTableRecord
100
AcDbBlockTableRecord
  2
*D4
340
0
  0
BLOCK_RECORD
  5
CFB
330
C76
100
AcDbSymbolTableRecord
100
AcDbBlockTableRecord
  2
*U5
340
0
102
{BLKREFS
331
514
102
}
  0
BLOCK_RECORD
  5
CFD
330
C76
100
AcDbSymbolTableRecord
100
AcDbBlockTableRecord
  2
*D6
340
0
  0
BLOCK_RECORD
  5
CFF
330
C76
100
AcDbSymbolTableRecord
100
AcDbBlockTableRecord
  2
*U7
340
0
102
{BLKREFS
331
51F
102
}
  0
BLOCK_RECORD
  5
D01
330
C76
100
AcDbSymbolTableRecord
100
AcDbBlockTableRecord
  2
*D8
340
0
  0
BLOCK_RECORD
  5
D03
330
C76
100
AcDbSymbolTableRecord
100
AcDbBlockTableRecord
  2
*U9
340
0
102
{BLKREFS
331
547
102
}
  0
BLOCK_RECORD
  5
D05
330
C76
100
AcDbSymbolTableRecord
100
AcDbBlockTableRecord
  2
A$C7EF44B2E
340
0
  0
BLOCK_RECORD
  5
D07
330
C76
100
AcDbSymbolTableRecord
100
AcDbBlockTableRecord
  2
*D11
340
0
  0
BLOCK_RECORD
  5
D09
330
C76
100
AcDbSymbolTableRecord
100
AcDbBlockTableRecord
  2
*U12
340
0
102
{BLKREFS
331
7F1
102
}
  0
BLOCK_RECORD
  5
D0B
330
C76
100
AcDbSymbolTableRecord
100
AcDbBlockTableRecord
  2
*D13
340
0
  0
BLOCK_RECORD
  5
D0D
330
C76
100
AcDbSymbolTableRecord
100
AcDbBlockTableRecord
  2
*U14
340
0
102
{BLKREFS
331
80C
102
}
  0
BLOCK_RECORD
  5
D0F
330
C76
100
AcDbSymbolTableRecord
100
AcDbBlockTableRecord
  2
*D15
340
0
  0
BLOCK_RECORD
  5
D11
330
C76
100
AcDbSymbolTableRecord
100
AcDbBlockTableRecord
  2
*U16
340
0
102
{BLKREFS
331
81A
102
}
  0
BLOCK_RECORD
  5
D13
330
C76
100
AcDbSymbolTableRecord
100
AcDbBlockTableRecord
  2
*D17
340
0
  0
BLOCK_RECORD
  5
D15
330
C76
100
AcDbSymbolTableRecord
100
AcDbBlockTableRecord
  2
*U18
340
0
102
{BLKREFS
331
828
102
}
  0
BLOCK_RECORD
  5
D17
330
C76
100
AcDbSymbolTableRecord
100
AcDbBlockTableRecord
  2
*D19
340
0
  0
BLOCK_RECORD
  5
D19
330
C76
100
AcDbSymbolTableRecord
100
AcDbBlockTableRecord
  2
*U20
340
0
102
{BLKREFS
331
835
102
}
  0
BLOCK_RECORD
  5
D1B
330
C76
100
AcDbSymbolTableRecord
100
AcDbBlockTableRecord
  2
*D21
340
0
  0
BLOCK_RECORD
  5
D1D
330
C76
100
AcDbSymbolTableRecord
100
AcDbBlockTableRecord
  2
*U22
340
0
102
{BLKREFS
331
842
102
}
  0
BLOCK_RECORD
  5
D1F
330
C76
100
AcDbSymbolTableRecord
100
AcDbBlockTableRecord
  2
1
340
0
  0
BLOCK_RECORD
  5
D21
330
C76
100
AcDbSymbolTableRecord
100
AcDbBlockTableRecord
  2
*D24
340
0
  0
BLOCK_RECORD
  5
D23
330
C76
100
AcDbSymbolTableRecord
100
AcDbBlockTableRecord
  2
*U25
340
0
102
{BLKREFS
331
901
102
}
  0
BLOCK_RECORD
  5
D27
330
C76
100
AcDbSymbolTableRecord
100
AcDbBlockTableRecord
  2
*D26
340
0
  0
BLOCK_RECORD
  5
D4E
330
C76
100
AcDbSymbolTableRecord
100
AcDbBlockTableRecord
  2
A$C3B842846
340
0
102
{BLKREFS
331
D5A
331
D63
102
}
  0
ENDTAB
  0
ENDSEC
  0
SECTION
  2
BLOCKS
  0
BLOCK
  5
CE1
330
CE0
100
AcDbEntity
  8
0
100
AcDbBlockBegin
  2
*Model_Space
 70
     0
 10
0.0
 20
0.0
 30
0.0
  3
*Model_Space
  1

  0
ENDBLK
  5
CE2
330
CE0
100
AcDbEntity
  8
0
100
AcDbBlockEnd
  0
BLOCK
  5
CDD
330
CDC
100
AcDbEntity
 67
     1
  8
0
100
AcDbBlockBegin
  2
*Paper_Space
 70
     0
 10
0.0
 20
0.0
 30
0.0
  3
*Paper_Space
  1

  0
ENDBLK
  5
CDE
330
CDC
100
AcDbEntity
 67
     1
  8
0
100
AcDbBlockEnd
  0
BLOCK
  5
CF2
330
CF1
100
AcDbEntity
  8
0
100
AcDbBlockBegin
  2
$MODEL_SPACE
 70
     0
 10
0.0
 20
0.0
 30
0.0
  3
$MODEL_SPACE
  1

  0
ENDBLK
  5
AD8
330
CF1
100
AcDbEntity
  8
0
100
AcDbBlockEnd
  0
BLOCK
  5
CF4
330
CF3
100
AcDbEntity
  8
0
100
AcDbBlockBegin
  2
$PAPER_SPACE
 70
     0
 10
0.0
 20
0.0
 30
0.0
  3
$PAPER_SPACE
  1

  0
ENDBLK
  5
AD4
330
CF3
100
AcDbEntity
  8
0
100
AcDbBlockEnd
  0
BLOCK
  5
CF6
330
CF5
100
AcDbEntity
  8
0
100
AcDbBlockBegin
  2
*D2
 70
     1
 10
0.0
 20
0.0
 30
0.0
  3
*D2
  1

  0
LINE
  5
4D6
330
CF5
100
AcDbEntity
  8
0
  6
Continuous
 62
     0
100
AcDbLine
 10
2329.177165685542
 20
2297.581134850927
 30
0.0
 11
2329.177165685542
 21
2451.53639980186
 31
0.0
  0
LINE
  5
4D7
330
CF5
100
AcDbEntity
  8
0
  6
Continuous
 62
     0
100
AcDbLine
 10
2079.177165685542
 20
2297.581134850927
 30
0.0
 11
2079.177165685542
 21
2451.53639980186
 31
0.0
  0
LINE
  5
4D8
330
CF5
100
AcDbEntity
  8
0
  6
Continuous
 62
     0
100
AcDbLine
 10
2327.245314036735
 20
2449.536399801857
 30
0.0
 11
2081.109017334349
 21
2449.536399801857
 31
0.0
  0
SOLID
  5
4D9
330
CF5
100
AcDbEntity
  8
0
  6
Continuous
 62
     0
100
AcDbTrace
 10
2327.245314036735
 20
2449.85837507666
 30
0.0
 11
2327.245314036735
 21
2449.214424527057
 31
0.0
 12
2329.177165685542
 22
2449.536399801857
 32
0.0
 13
2329.177165685542
 23
2449.536399801857
 33
0.0
  0
SOLID
  5
4DA
330
CF5
100
AcDbEntity
  8
0
  6
Continuous
 62
     0
100
AcDbTrace
 10
2081.109017334349
 20
2449.85837507666
 30
0.0
 11
2081.109017334349
 21
2449.214424527057
 31
0.0
 12
2079.177165685542
 22
2449.536399801857
 32
0.0
 13
2079.177165685542
 23
2449.536399801857
 33
0.0
  0
INSERT
  5
4DB
330
CF5
100
AcDbEntity
  8
0
  6
Continuous
100
AcDbBlockReference
  2
*U3
 10
0.0
 20
0.0
 30
0.0
  0
POINT
  5
4DC
330
CF5
100
AcDbEntity
  8
DEFPOINTS
  6
Continuous
 62
     0
100
AcDbPoint
 10
2329.177165685542
 20
2296.581134850927
 30
0.0
  0
POINT
  5
4DD
330
CF5
100
AcDbEntity
  8
DEFPOINTS
  6
Continuous
 62
     0
100
AcDbPoint
 10
2079.177165685542
 20
2296.581134850927
 30
0.0
  0
POINT
  5
4DE
330
CF5
100
AcDbEntity
  8
DEFPOINTS
  6
Continuous
 62
     0
100
AcDbPoint
 10
2079.177165685542
 20
2449.536399801857
 30
0.0
  0
ENDBLK
  5
4E0
330
CF5
100
AcDbEntity
  8
0
100
AcDbBlockEnd
  0
BLOCK
  5
CF8
330
CF7
100
AcDbEntity
  8
0
100
AcDbBlockBegin
  2
*U3
 70
     1
 10
0.0
 20
0.0
 30
0.0
  3
*U3
  1

  0
TEXT
  5
932
330
CF7
100
AcDbEntity
  8
0
  6
Continuous
 62
     0
100
AcDbText
 10
2198.010499018876
 20
2449.626399801859
 30
0.0
 40
2.0
  1
250.0000
100
AcDbText
  0
ENDBLK
  5
934
330
CF7
100
AcDbEntity
  8
0
100
AcDbBlockEnd
  0
BLOCK
  5
CFA
330
CF9
100
AcDbEntity
  8
0
100
AcDbBlockBegin
  2
*D4
 70
     1
 10
0.0
 20
0.0
 30
0.0
  3
*D4
  1

  0
LINE
  5
50E
330
CF9
100
AcDbEntity
  8
0
  6
Continuous
 62
     0
100
AcDbLine
 10
6636.107425603085
 20
-3614.803789094324
 30
0.0
 11
8006.756334362547
 21
-3614.803789094324
 31
0.0
  0
LINE
  5
50F
330
CF9
100
AcDbEntity
  8
0
  6
Continuous
 62
     0
100
AcDbLine
 10
6636.107425602968
 20
-7508.866093579887
 30
0.0
 11
8006.756334362547
 21
-7508.866093579887
 31
0.0
  0
LINE
  5
510
330
CF9
100
AcDbEntity
  8
0
  6
Continuous
 62
     0
100
AcDbLine
 10
8004.75633436255
 20
-3616.735640743132
 30
0.0
 11
8004.75633436255
 21
-5560.744941337103
 31
0.0
  0
LINE
  5
511
330
CF9
100
AcDbEntity
  8
0
  6
Continuous
 62
     0
100
AcDbLine
 10
8004.75633436255
 20
-7506.934241931076
 30
0.0
 11
8004.75633436255
 21
-5562.924941337104
 31
0.0
  0
SOLID
  5
512
330
CF9
100
AcDbEntity
  8
0
  6
Continuous
 62
     0
100
AcDbTrace
 10
8004.434359087751
 20
-3616.735640743132
 30
0.0
 11
8005.078309637353
 21
-3616.735640743132
 31
0.0
 12
8004.75633436255
 22
-3614.803789094324
 32
0.0
 13
8004.75633436255
 23
-3614.803789094324
 33
0.0
  0
SOLID
  5
513
330
CF9
100
AcDbEntity
  8
0
  6
Continuous
 62
     0
100
AcDbTrace
 10
8004.434359087751
 20
-7506.934241931076
 30
0.0
 11
8005.078309637353
 21
-7506.934241931076
 31
0.0
 12
8004.75633436255
 22
-7508.866093579887
 32
0.0
 13
8004.75633436255
 23
-7508.866093579887
 33
0.0
  0
INSERT
  5
514
330
CF9
100
AcDbEntity
  8
0
  6
Continuous
100
AcDbBlockReference
  2
*U5
 10
0.0
 20
0.0
 30
0.0
  0
POINT
  5
515
330
CF9
100
AcDbEntity
  8
DEFPOINTS
  6
Continuous
 62
     0
100
AcDbPoint
 10
6635.107425603084
 20
-3614.803789094324
 30
0.0
  0
POINT
  5
516
330
CF9
100
AcDbEntity
  8
DEFPOINTS
  6
Continuous
 62
     0
100
AcDbPoint
 10
6635.107425602967
 20
-7508.866093579887
 30
0.0
  0
POINT
  5
517
330
CF9
100
AcDbEntity
  8
DEFPOINTS
  6
Continuous
 62
     0
100
AcDbPoint
 10
8004.75633436255
 20
-7508.866093579887
 30
0.0
  0
ENDBLK
  5
50D
330
CF9
100
AcDbEntity
  8
0
100
AcDbBlockEnd
  0
BLOCK
  5
CFC
330
CFB
100
AcDbEntity
  8
0
100
AcDbBlockBegin
  2
*U5
 70
     1
 10
0.0
 20
0.0
 30
0.0
  3
*U5
  1

  0
TEXT
  5
936
330
CFB
100
AcDbEntity
  8
0
  6
Continuous
 62
     0
100
AcDbText
 10
7996.92300102922
 20
-5562.834941337104
 30
0.0
 40
2.0
  1
3894.0623
100
AcDbText
  0
ENDBLK
  5
938
330
CFB
100
AcDbEntity
  8
0
100
AcDbBlockEnd
  0
BLOCK
  5
CFE
330
CFD
100
AcDbEntity
  8
0
100
AcDbBlockBegin
  2
*D6
 70
     1
 10
0.0
 20
0.0
 30
0.0
  3
*D6
  1

  0
LINE
  5
51A
330
CFD
100
AcDbEntity
  8
0
  6
Continuous
 62
     0
100
AcDbLine
 10
7030.107425603107
 20
-3413.67001507424
 30
0.0
 11
7030.107425603107
 21
-3224.386656052491
 31
0.0
  0
LINE
  5
51B
330
CFD
100
AcDbEntity
  8
0
  6
Continuous
 62
     0
100
AcDbLine
 10
6240.107425603108
 20
-3413.67001507424
 30
0.0
 11
6240.107425603108
 21
-3224.386656052491
 31
0.0
  0
LINE
  5
51C
330
CFD
100
AcDbEntity
  8
0
  6
Continuous
 62
     0
100
AcDbLine
 10
7028.1755739543
 20
-3226.386656052491
 30
0.0
 11
6242.039277251915
 21
-3226.386656052491
 31
0.0
  0
SOLID
  5
51D
330
CFD
100
AcDbEntity
  8
0
  6
Continuous
 62
     0
100
AcDbTrace
 10
7028.1755739543
 20
-3226.064680777689
 30
0.0
 11
7028.1755739543
 21
-3226.708631327293
 31
0.0
 12
7030.107425603107
 22
-3226.386656052491
 32
0.0
 13
7030.107425603107
 23
-3226.386656052491
 33
0.0
  0
SOLID
  5
51E
330
CFD
100
AcDbEntity
  8
0
  6
Continuous
 62
     0
100
AcDbTrace
 10
6242.039277251915
 20
-3226.064680777689
 30
0.0
 11
6242.039277251915
 21
-3226.708631327293
 31
0.0
 12
6240.107425603108
 22
-3226.386656052491
 32
0.0
 13
6240.107425603108
 23
-3226.386656052491
 33
0.0
  0
INSERT
  5
51F
330
CFD
100
AcDbEntity
  8
0
  6
Continuous
100
AcDbBlockReference
  2
*U7
 10
0.0
 20
0.0
 30
0.0
  0
POINT
  5
520
330
CFD
100
AcDbEntity
  8
DEFPOINTS
  6
Continuous
 62
     0
100
AcDbPoint
 10
7030.107425603107
 20
-3414.67001507424
 30
0.0
  0
POINT
  5
521
330
CFD
100
AcDbEntity
  8
DEFPOINTS
  6
Continuous
 62
     0
100
AcDbPoint
 10
6240.107425603108
 20
-3414.67001507424
 30
0.0
  0
POINT
  5
522
330
CFD
100
AcDbEntity
  8
DEFPOINTS
  6
Continuous
 62
     0
100
AcDbPoint
 10
6240.107425603108
 20
-3226.386656052491
 30
0.0
  0
ENDBLK
  5
524
330
CFD
100
AcDbEntity
  8
0
100
AcDbBlockEnd
  0
BLOCK
  5
D00
330
CFF
100
AcDbEntity
  8
0
100
AcDbBlockBegin
  2
*U7
 70
     1
 10
0.0
 20
0.0
 30
0.0
  3
*U7
  1

  0
TEXT
  5
93A
330
CFF
100
AcDbEntity
  8
0
  6
Continuous
 62
     0
100
AcDbText
 10
6628.94075893644
 20
-3226.296656052491
 30
0.0
 40
2.0
  1
790.0000
100
AcDbText
  0
ENDBLK
  5
93C
330
CFF
100
AcDbEntity
  8
0
100
AcDbBlockEnd
  0
BLOCK
  5
D02
330
D01
100
AcDbEntity
  8
0
100
AcDbBlockBegin
  2
*D8
 70
     1
 10
0.0
 20
0.0
 30
0.0
  3
*D8
  1

  0
LINE
  5
541
330
D01
100
AcDbEntity
  8
0
  6
Continuous
 62
     0
100
AcDbLine
 10
1.0
 20
-7.0
 30
0.0
 11
66.63082957718147
 21
-7.000000000000016
 31
0.0
  0
LINE
  5
542
330
D01
100
AcDbEntity
  8
0
  6
Continuous
 62
     0
100
AcDbLine
 10
-1.355794833284998
 20
-196.9212700911425
 30
0.0
 11
66.63082957718143
 21
-196.9212700911426
 31
0.0
  0
LINE
  5
543
330
D01
100
AcDbEntity
  8
0
  6
Continuous
 62
     0
100
AcDbLine
 10
64.63082957718147
 20
-8.93185164880704
 30
0.0
 11
64.63082957718143
 21
-100.8706350455713
 31
0.0
  0
LINE
  5
544
330
D01
100
AcDbEntity
  8
0
  6
Continuous
 62
     0
100
AcDbLine
 10
64.63082957718143
 20
-194.9894184423355
 30
0.0
 11
64.63082957718143
 21
-103.0506350455713
 31
0.0
  0
SOLID
  5
545
330
D01
100
AcDbEntity
  8
0
  6
Continuous
 62
     0
100
AcDbTrace
 10
64.3088543023803
 20
-8.93185164880704
 30
0.0
 11
64.95280485198263
 21
-8.93185164880704
 31
0.0
 12
64.63082957718147
 22
-7.000000000000016
 32
0.0
 13
64.63082957718147
 23
-7.000000000000016
 33
0.0
  0
SOLID
  5
546
330
D01
100
AcDbEntity
  8
0
  6
Continuous
 62
     0
100
AcDbTrace
 10
64.30885430238024
 20
-194.9894184423355
 30
0.0
 11
64.95280485198261
 21
-194.9894184423355
 31
0.0
 12
64.63082957718143
 22
-196.9212700911426
 32
0.0
 13
64.63082957718143
 23
-196.9212700911426
 33
0.0
  0
INSERT
  5
547
330
D01
100
AcDbEntity
  8
0
  6
Continuous
100
AcDbBlockReference
  2
*U9
 10
0.0
 20
0.0
 30
0.0
  0
POINT
  5
548
330
D01
100
AcDbEntity
  8
DEFPOINTS
  6
Continuous
 62
     0
100
AcDbPoint
 10
0.0
 20
-7.0
 30
0.0
  0
POINT
  5
549
330
D01
100
AcDbEntity
  8
DEFPOINTS
  6
Continuous
 62
     0
100
AcDbPoint
 10
-2.355794833284999
 20
-196.9212700911425
 30
0.0
  0
POINT
  5
54A
330
D01
100
AcDbEntity
  8
DEFPOINTS
  6
Continuous
 62
     0
100
AcDbPoint
 10
64.63082957718143
 20
-196.9212700911426
 30
0.0
  0
ENDBLK
  5
54C
330
D01
100
AcDbEntity
  8
0
100
AcDbBlockEnd
  0
BLOCK
  5
D04
330
D03
100
AcDbEntity
  8
0
100
AcDbBlockBegin
  2
*U9
 70
     1
 10
0.0
 20
0.0
 30
0.0
  3
*U9
  1

  0
TEXT
  5
93E
330
D03
100
AcDbEntity
  8
0
  6
Continuous
 62
     0
100
AcDbText
 10
58.29749624384813
 20
-102.9606350455713
 30
0.0
 40
2.0
  1
189.9213
100
AcDbText
  0
ENDBLK
  5
940
330
D03
100
AcDbEntity
  8
0
100
AcDbBlockEnd
  0
BLOCK
  5
D06
330
D05
100
AcDbEntity
  8
0
100
AcDbBlockBegin
  2
A$C7EF44B2E
 70
     0
 10
0.0
 20
0.0
 30
0.0
  3
A$C7EF44B2E
  1

  0
LINE
  5
6F2
330
D05
100
AcDbEntity
  8
0
  6
Continuous
100
AcDbLine
 10
724.9999427774159
 20
4492.999949177884
 30
0.0
 11
-0.0000572225837345
 21
4492.999949177889
 31
0.0
  0
LINE
  5
6F3
330
D05
100
AcDbEntity
  8
0
  6
Continuous
100
AcDbLine
 10
362.4999427774164
 20
4435.448555259749
 30
0.0
 11
362.4999427774164
 21
4557.238970894894
 31
0.0
  0
LINE
  5
6F4
330
D05
100
AcDbEntity
  8
0
  6
Continuous
100
AcDbLine
 10
712.4999427774159
 20
4499.999949177887
 30
0.0
 11
712.4999427774159
 21
4682.999949177886
 31
0.0
  0
LINE
  5
6F5
330
D05
100
AcDbEntity
  8
0
  6
Continuous
100
AcDbLine
 10
12.49994277741626
 20
4499.999949177889
 30
0.0
 11
12.49994277741626
 21
4682.999949177887
 31
0.0
  0
LINE
  5
6F6
330
D05
100
AcDbEntity
  8
0
  6
Continuous
100
AcDbLine
 10
712.4999427774159
 20
4682.999949177887
 30
0.0
 11
12.49994277741626
 21
4682.999949177887
 31
0.0
  0
LINE
  5
6F7
330
D05
100
AcDbEntity
  8
0
  6
Continuous
100
AcDbLine
 10
724.9999427774159
 20
4499.999949177885
 30
0.0
 11
-0.0000572225837345
 21
4499.999949177889
 31
0.0
  0
LINE
  5
6F8
330
D05
100
AcDbEntity
  8
0
  6
Continuous
100
AcDbLine
 10
-0.0000572225837345
 20
4492.999949177889
 30
0.0
 11
-0.0000572225837345
 21
4499.999949177887
 31
0.0
  0
LINE
  5
6F9
330
D05
100
AcDbEntity
  8
0
  6
Continuous
100
AcDbLine
 10
724.9999427774159
 20
4492.999949177889
 30
0.0
 11
724.9999427774159
 21
4499.999949177887
 31
0.0
  0
LINE
  5
6FA
330
D05
100
AcDbEntity
  8
0
  6
Continuous
100
AcDbLine
 10
373.9837419422763
 20
4050.819432583979
 30
0.0
 11
362.4999427774123
 21
4049.949500164315
 31
0.0
  0
LINE
  5
6FB
330
D05
100
AcDbEntity
  8
0
  6
Continuous
100
AcDbLine
 10
351.0161436125542
 20
4050.819432583979
 30
0.0
 11
362.4999427774174
 21
4049.949500164315
 31
0.0
  0
LINE
  5
6FC
330
D05
100
AcDbEntity
  8
0
  6
Continuous
100
AcDbLine
 10
577.3852449243454
 20
3794.806445261226
 30
0.0
 11
563.5829800624701
 21
4492.999949177884
 31
0.0
  0
LINE
  5
6FD
330
D05
100
AcDbEntity
  8
0
  6
Continuous
100
AcDbLine
 10
565.2276218596532
 20
4065.704162092798
 30
0.0
 11
563.5829800624701
 21
4492.999949177884
 31
0.0
  0
LINE
  5
6FE
330
D05
100
AcDbEntity
  8
0
  6
Continuous
100
AcDbLine
 10
568.0507211790073
 20
4135.274150304107
 30
0.0
 11
563.5829800624701
 21
4492.999949177884
 31
0.0
  0
LINE
  5
6FF
330
D05
100
AcDbEntity
  8
0
  6
Continuous
100
AcDbLine
 10
156.9491643758226
 20
4135.274150304107
 30
0.0
 11
161.306574567291
 21
4492.999949177888
 31
0.0
  0
LINE
  5
700
330
D05
100
AcDbEntity
  8
0
  6
Continuous
100
AcDbLine
 10
159.7722636951747
 20
4065.704162092798
 30
0.0
 11
161.306574567291
 21
4492.999949177888
 31
0.0
  0
LINE
  5
701
330
D05
100
AcDbEntity
  8
0
  6
Continuous
100
AcDbLine
 10
147.6146406304841
 20
3794.806445261226
 30
0.0
 11
161.306574567291
 21
4492.999949177888
 31
0.0
  0
LINE
  5
702
330
D05
100
AcDbEntity
  8
0
  6
Continuous
100
AcDbLine
 10
130.282249441804
 20
3344.653144909351
 30
0.0
 11
147.6146406304841
 21
3794.806445261226
 31
0.0
  0
LINE
  5
703
330
D05
100
AcDbEntity
  8
0
  6
Continuous
100
AcDbLine
 10
100.4485133503203
 20
2777.431986485217
 30
0.0
 11
130.282249441804
 21
3344.653144909351
 31
0.0
  0
LINE
  5
704
330
D05
100
AcDbEntity
  8
0
  6
Continuous
100
AcDbLine
 10
100.4485133503203
 20
2777.431986485217
 30
0.0
 11
100.4485133503203
 21
2777.431986485217
 31
0.0
  0
LINE
  5
705
330
D05
100
AcDbEntity
  8
0
  6
Continuous
100
AcDbLine
 10
82.05216414485311
 20
2474.155679008905
 30
0.0
 11
100.4485133503203
 21
2777.431986485217
 31
0.0
  0
LINE
  5
706
330
D05
100
AcDbEntity
  8
0
  6
Continuous
100
AcDbLine
 10
64.03464363003445
 20
2184.715660051088
 30
0.0
 11
82.05216414485311
 21
2474.155679008905
 31
0.0
  0
LINE
  5
707
330
D05
100
AcDbEntity
  8
0
  6
Continuous
100
AcDbLine
 10
64.03464363003445
 20
2184.715660051088
 30
0.0
 11
64.03464363003445
 21
2184.715660051088
 31
0.0
  0
LINE
  5
708
330
D05
100
AcDbEntity
  8
0
  6
Continuous
100
AcDbLine
 10
50.76852904752929
 20
1923.689569240704
 30
0.0
 11
64.03464363003445
 21
2184.715660051088
 31
0.0
  0
LINE
  5
709
330
D05
100
AcDbEntity
  8
0
  6
Continuous
100
AcDbLine
 10
48.42685172746906
 20
1575.884088009355
 30
0.0
 11
50.76852904752929
 21
1923.689569240704
 31
0.0
  0
LINE
  5
70A
330
D05
100
AcDbEntity
  8
0
  6
Continuous
100
AcDbLine
 10
48.42685172746906
 20
1575.884088009355
 30
0.0
 11
48.42685172746906
 21
1575.884088009355
 31
0.0
  0
LINE
  5
70B
330
D05
100
AcDbEntity
  8
0
  6
Continuous
100
AcDbLine
 10
51.2154954926641
 20
1404.021040456026
 30
0.0
 11
48.42685172746906
 21
1575.884088009355
 31
0.0
  0
LINE
  5
70C
330
D05
100
AcDbEntity
  8
0
  6
Continuous
100
AcDbLine
 10
54.17885838354759
 20
1238.937285726765
 30
0.0
 11
51.2154954926641
 21
1404.021040456026
 31
0.0
  0
LINE
  5
70D
330
D05
100
AcDbEntity
  8
0
  6
Continuous
100
AcDbLine
 10
54.17885838354759
 20
1238.937285726765
 30
0.0
 11
54.17885838354759
 21
1238.937285726765
 31
0.0
  0
LINE
  5
70E
330
D05
100
AcDbEntity
  8
0
  6
Continuous
100
AcDbLine
 10
59.23408159865136
 20
970.7811331113713
 30
0.0
 11
54.17885838354759
 21
1238.937285726765
 31
0.0
  0
LINE
  5
70F
330
D05
100
AcDbEntity
  8
0
  6
Continuous
100
AcDbLine
 10
84.66811370278938
 20
706.3916261505733
 30
0.0
 11
59.23408159865136
 21
970.7811331113713
 31
0.0
  0
LINE
  5
710
330
D05
100
AcDbEntity
  8
0
  6
Continuous
100
AcDbLine
 10
84.66811370278938
 20
706.3916261505733
 30
0.0
 11
84.66811370278938
 21
706.3916261505733
 31
0.0
  0
LINE
  5
711
330
D05
100
AcDbEntity
  8
0
  6
Continuous
100
AcDbLine
 10
107.9628978741542
 20
547.6199930684311
 30
0.0
 11
84.66811370278938
 21
706.3916261505733
 31
0.0
  0
LINE
  5
712
330
D05
100
AcDbEntity
  8
0
  6
Continuous
100
AcDbLine
 10
137.5161562561654
 20
389.3033708303983
 30
0.0
 11
107.9628978741542
 21
547.6199930684311
 31
0.0
  0
LINE
  5
713
330
D05
100
AcDbEntity
  8
0
  6
Continuous
100
AcDbLine
 10
137.5161562561654
 20
389.3033708303983
 30
0.0
 11
137.5161562561654
 21
389.3033708303983
 31
0.0
  0
LINE
  5
714
330
D05
100
AcDbEntity
  8
0
  6
Continuous
100
AcDbLine
 10
170.5843624316995
 20
265.816513988434
 30
0.0
 11
137.5161562561654
 21
389.3033708303983
 31
0.0
  0
LINE
  5
715
330
D05
100
AcDbEntity
  8
0
  6
Continuous
100
AcDbLine
 10
204.5925179585101
 20
173.8459665743812
 30
0.0
 11
170.5843624316995
 21
265.816513988434
 31
0.0
  0
LINE
  5
716
330
D05
100
AcDbEntity
  8
0
  6
Continuous
100
AcDbLine
 10
204.5925179585101
 20
173.8459665743812
 30
0.0
 11
204.5925179585101
 21
173.8459665743812
 31
0.0
  0
LINE
  5
717
330
D05
100
AcDbEntity
  8
0
  6
Continuous
100
AcDbLine
 10
240.5990633409576
 20
101.9370589369255
 30
0.0
 11
204.5925179585101
 21
173.8459665743812
 31
0.0
  0
LINE
  5
718
330
D05
100
AcDbEntity
  8
0
  6
Continuous
100
AcDbLine
 10
294.0276668949674
 20
43.75847721226089
 30
0.0
 11
240.5990633409576
 21
101.9370589369255
 31
0.0
  0
LINE
  5
719
330
D05
100
AcDbEntity
  8
0
  6
Continuous
100
AcDbLine
 10
294.0276668949674
 20
43.75847721226089
 30
0.0
 11
294.0276668949674
 21
43.75847721226089
 31
0.0
  0
LINE
  5
71A
330
D05
100
AcDbEntity
  8
0
  6
Continuous
100
AcDbLine
 10
326.5532021739383
 20
21.4717218375299
 30
0.0
 11
294.0276668949674
 21
43.75847721226089
 31
0.0
  0
LINE
  5
71B
330
D05
100
AcDbEntity
  8
0
  6
Continuous
100
AcDbLine
 10
362.4999427774153
 20
-0.0000508221191922
 30
0.0
 11
326.5532021739383
 21
21.4717218375299
 31
0.0
  0
LINE
  5
71C
330
D05
100
AcDbEntity
  8
0
  6
Continuous
100
AcDbLine
 10
148.6923953942461
 20
3463.733965131372
 30
0.0
 11
159.7722636951747
 21
4065.704162092798
 31
0.0
  0
LINE
  5
71D
330
D05
100
AcDbEntity
  8
0
  6
Continuous
100
AcDbLine
 10
148.6923953942461
 20
3463.733965131372
 30
0.0
 11
148.6923953942461
 21
3463.733965131372
 31
0.0
  0
LINE
  5
71E
330
D05
100
AcDbEntity
  8
0
  6
Continuous
100
AcDbLine
 10
140.9395765543463
 20
3195.556656102648
 30
0.0
 11
148.6923953942461
 21
3463.733965131372
 31
0.0
  0
LINE
  5
71F
330
D05
100
AcDbEntity
  8
0
  6
Continuous
100
AcDbLine
 10
130.2085178329456
 20
2929.755280027054
 30
0.0
 11
140.9395765543463
 21
3195.556656102648
 31
0.0
  0
LINE
  5
720
330
D05
100
AcDbEntity
  8
0
  6
Continuous
100
AcDbLine
 10
130.2085178329456
 20
2929.755280027054
 30
0.0
 11
130.2085178329456
 21
2929.755280027054
 31
0.0
  0
LINE
  5
721
330
D05
100
AcDbEntity
  8
0
  6
Continuous
100
AcDbLine
 10
117.8000987540737
 20
2696.807881625743
 30
0.0
 11
130.2085178329456
 21
2929.755280027054
 31
0.0
  0
LINE
  5
722
330
D05
100
AcDbEntity
  8
0
  6
Continuous
100
AcDbLine
 10
113.2122519344159
 20
2480.638991931381
 30
0.0
 11
117.8000987540737
 21
2696.807881625743
 31
0.0
  0
LINE
  5
723
330
D05
100
AcDbEntity
  8
0
  6
Continuous
100
AcDbLine
 10
113.2122519344159
 20
2480.638991931381
 30
0.0
 11
113.2122519344159
 21
2480.638991931381
 31
0.0
  0
LINE
  5
724
330
D05
100
AcDbEntity
  8
0
  6
Continuous
100
AcDbLine
 10
123.8110958476861
 20
2265.473636172683
 30
0.0
 11
113.2122519344159
 21
2480.638991931381
 31
0.0
  0
LINE
  5
725
330
D05
100
AcDbEntity
  8
0
  6
Continuous
100
AcDbLine
 10
140.2384393030411
 20
2083.292330051133
 30
0.0
 11
123.8110958476861
 21
2265.473636172683
 31
0.0
  0
LINE
  5
726
330
D05
100
AcDbEntity
  8
0
  6
Continuous
100
AcDbLine
 10
140.2384393030411
 20
2083.292330051133
 30
0.0
 11
140.2384393030411
 21
2083.292330051133
 31
0.0
  0
LINE
  5
727
330
D05
100
AcDbEntity
  8
0
  6
Continuous
100
AcDbLine
 10
152.8154654799485
 20
1963.852057871549
 30
0.0
 11
140.2384393030411
 21
2083.292330051133
 31
0.0
  0
LINE
  5
728
330
D05
100
AcDbEntity
  8
0
  6
Continuous
100
AcDbLine
 10
167.3051647036766
 20
1880.26018787947
 30
0.0
 11
152.8154654799485
 21
1963.852057871549
 31
0.0
  0
LINE
  5
729
330
D05
100
AcDbEntity
  8
0
  6
Continuous
100
AcDbLine
 10
167.3051647036766
 20
1880.26018787947
 30
0.0
 11
167.3051647036766
 21
1880.26018787947
 31
0.0
  0
LINE
  5
72A
330
D05
100
AcDbEntity
  8
0
  6
Continuous
100
AcDbLine
 10
190.9619899214735
 20
1799.961398870052
 30
0.0
 11
167.3051647036766
 21
1880.26018787947
 31
0.0
  0
LINE
  5
72B
330
D05
100
AcDbEntity
  8
0
  6
Continuous
100
AcDbLine
 10
221.5644374227077
 20
1724.39922789613
 30
0.0
 11
190.9619899214735
 21
1799.961398870052
 31
0.0
  0
LINE
  5
72C
330
D05
100
AcDbEntity
  8
0
  6
Continuous
100
AcDbLine
 10
221.5644374227077
 20
1724.39922789613
 30
0.0
 11
221.5644374227077
 21
1724.39922789613
 31
0.0
  0
LINE
  5
72D
330
D05
100
AcDbEntity
  8
0
  6
Continuous
100
AcDbLine
 10
255.1513502063587
 20
1662.346181760914
 30
0.0
 11
221.5644374227077
 21
1724.39922789613
 31
0.0
  0
LINE
  5
72E
330
D05
100
AcDbEntity
  8
0
  6
Continuous
100
AcDbLine
 10
290.2789147677502
 20
1617.891788011322
 30
0.0
 11
255.1513502063587
 21
1662.346181760914
 31
0.0
  0
LINE
  5
72F
330
D05
100
AcDbEntity
  8
0
  6
Continuous
100
AcDbLine
 10
290.2789147677502
 20
1617.891788011322
 30
0.0
 11
290.2789147677502
 21
1617.891788011322
 31
0.0
  0
LINE
  5
730
330
D05
100
AcDbEntity
  8
0
  6
Continuous
100
AcDbLine
 10
326.2078852357944
 20
1591.758579331505
 30
0.0
 11
290.2789147677502
 21
1617.891788011322
 31
0.0
  0
LINE
  5
731
330
D05
100
AcDbEntity
  8
0
  6
Continuous
100
AcDbLine
 10
362.4999427774153
 20
1575.884088210911
 30
0.0
 11
326.2078852357944
 21
1591.758579331505
 31
0.0
  0
LINE
  5
732
330
D05
100
AcDbEntity
  8
0
  6
Continuous
100
AcDbLine
 10
161.8049404273189
 20
3584.441655571688
 30
0.0
 11
156.9491643758226
 21
4135.274150304107
 31
0.0
  0
LINE
  5
733
330
D05
100
AcDbEntity
  8
0
  6
Continuous
100
AcDbLine
 10
161.8049404273189
 20
3584.441655571688
 30
0.0
 11
161.8049404273189
 21
3584.441655571688
 31
0.0
  0
LINE
  5
734
330
D05
100
AcDbEntity
  8
0
  6
Continuous
100
AcDbLine
 10
164.8907753802554
 20
3463.996347843405
 30
0.0
 11
161.8049404273189
 21
3584.441655571688
 31
0.0
  0
LINE
  5
735
330
D05
100
AcDbEntity
  8
0
  6
Continuous
100
AcDbLine
 10
172.7502834512871
 20
3350.247956890225
 30
0.0
 11
164.8907753802554
 21
3463.996347843405
 31
0.0
  0
LINE
  5
736
330
D05
100
AcDbEntity
  8
0
  6
Continuous
100
AcDbLine
 10
172.7502834512871
 20
3350.247956890225
 30
0.0
 11
172.7502834512871
 21
3350.247956890225
 31
0.0
  0
LINE
  5
737
330
D05
100
AcDbEntity
  8
0
  6
Continuous
100
AcDbLine
 10
188.001145294377
 20
3256.211783146578
 30
0.0
 11
172.7502834512871
 21
3350.247956890225
 31
0.0
  0
LINE
  5
738
330
D05
100
AcDbEntity
  8
0
  6
Continuous
100
AcDbLine
 10
206.7303766329041
 20
3178.512607763277
 30
0.0
 11
188.001145294377
 21
3256.211783146578
 31
0.0
  0
LINE
  5
739
330
D05
100
AcDbEntity
  8
0
  6
Continuous
100
AcDbLine
 10
206.7303766329041
 20
3178.512607763277
 30
0.0
 11
206.7303766329041
 21
3178.512607763277
 31
0.0
  0
LINE
  5
73A
330
D05
100
AcDbEntity
  8
0
  6
Continuous
100
AcDbLine
 10
225.2264650607116
 20
3112.141325050163
 30
0.0
 11
206.7303766329041
 21
3178.512607763277
 31
0.0
  0
LINE
  5
73B
330
D05
100
AcDbEntity
  8
0
  6
Continuous
100
AcDbLine
 10
247.1144505841063
 20
3061.943801236806
 30
0.0
 11
225.2264650607116
 21
3112.141325050163
 31
0.0
  0
LINE
  5
73C
330
D05
100
AcDbEntity
  8
0
  6
Continuous
100
AcDbLine
 10
247.1144505841063
 20
3061.943801236806
 30
0.0
 11
247.1144505841063
 21
3061.943801236806
 31
0.0
  0
LINE
  5
73D
330
D05
100
AcDbEntity
  8
0
  6
Continuous
100
AcDbLine
 10
275.8782934385654
 20
3032.439319282143
 30
0.0
 11
247.1144505841063
 21
3061.943801236806
 31
0.0
  0
LINE
  5
73E
330
D05
100
AcDbEntity
  8
0
  6
Continuous
100
AcDbLine
 10
307.1010823637745
 20
3016.9858571427
 30
0.0
 11
275.8782934385654
 21
3032.439319282143
 31
0.0
  0
LINE
  5
73F
330
D05
100
AcDbEntity
  8
0
  6
Continuous
100
AcDbLine
 10
307.1010823637745
 20
3016.9858571427
 30
0.0
 11
307.1010823637745
 21
3016.9858571427
 31
0.0
  0
LINE
  5
740
330
D05
100
AcDbEntity
  8
0
  6
Continuous
100
AcDbLine
 10
335.7838083364729
 20
3007.33823528
 30
0.0
 11
307.1010823637745
 21
3016.9858571427
 31
0.0
  0
LINE
  5
741
330
D05
100
AcDbEntity
  8
0
  6
Continuous
100
AcDbLine
 10
362.4999427774153
 20
2999.999949177881
 30
0.0
 11
335.7838083364729
 21
3007.33823528
 31
0.0
  0
LINE
  5
742
330
D05
100
AcDbEntity
  8
0
  6
Continuous
100
AcDbLine
 10
563.1949451275112
 20
3584.441655571688
 30
0.0
 11
568.0507211790073
 21
4135.274150304107
 31
0.0
  0
LINE
  5
743
330
D05
100
AcDbEntity
  8
0
  6
Continuous
100
AcDbLine
 10
563.1949451275112
 20
3584.441655571688
 30
0.0
 11
563.1949451275112
 21
3584.441655571688
 31
0.0
  0
LINE
  5
744
330
D05
100
AcDbEntity
  8
0
  6
Continuous
100
AcDbLine
 10
560.109110174574
 20
3463.996347843405
 30
0.0
 11
563.1949451275112
 21
3584.441655571688
 31
0.0
  0
LINE
  5
745
330
D05
100
AcDbEntity
  8
0
  6
Continuous
100
AcDbLine
 10
552.2496021035435
 20
3350.247956890225
 30
0.0
 11
560.109110174574
 21
3463.996347843405
 31
0.0
  0
LINE
  5
746
330
D05
100
AcDbEntity
  8
0
  6
Continuous
100
AcDbLine
 10
552.2496021035435
 20
3350.247956890225
 30
0.0
 11
552.2496021035435
 21
3350.247956890225
 31
0.0
  0
LINE
  5
747
330
D05
100
AcDbEntity
  8
0
  6
Continuous
100
AcDbLine
 10
536.9987402604522
 20
3256.211783146578
 30
0.0
 11
552.2496021035435
 21
3350.247956890225
 31
0.0
  0
LINE
  5
748
330
D05
100
AcDbEntity
  8
0
  6
Continuous
100
AcDbLine
 10
518.2695089219262
 20
3178.512607763277
 30
0.0
 11
536.9987402604522
 21
3256.211783146578
 31
0.0
  0
LINE
  5
749
330
D05
100
AcDbEntity
  8
0
  6
Continuous
100
AcDbLine
 10
518.2695089219262
 20
3178.512607763277
 30
0.0
 11
518.2695089219262
 21
3178.512607763277
 31
0.0
  0
LINE
  5
74A
330
D05
100
AcDbEntity
  8
0
  6
Continuous
100
AcDbLine
 10
499.7734204941183
 20
3112.141325050163
 30
0.0
 11
518.2695089219262
 21
3178.512607763277
 31
0.0
  0
LINE
  5
74B
330
D05
100
AcDbEntity
  8
0
  6
Continuous
100
AcDbLine
 10
477.8854349707231
 20
3061.943801236806
 30
0.0
 11
499.7734204941183
 21
3112.141325050163
 31
0.0
  0
LINE
  5
74C
330
D05
100
AcDbEntity
  8
0
  6
Continuous
100
AcDbLine
 10
477.8854349707231
 20
3061.943801236806
 30
0.0
 11
477.8854349707231
 21
3061.943801236806
 31
0.0
  0
LINE
  5
74D
330
D05
100
AcDbEntity
  8
0
  6
Continuous
100
AcDbLine
 10
449.1215921162643
 20
3032.439319282143
 30
0.0
 11
477.8854349707231
 21
3061.943801236806
 31
0.0
  0
LINE
  5
74E
330
D05
100
AcDbEntity
  8
0
  6
Continuous
100
AcDbLine
 10
417.8988031910551
 20
3016.9858571427
 30
0.0
 11
449.1215921162643
 21
3032.439319282143
 31
0.0
  0
LINE
  5
74F
330
D05
100
AcDbEntity
  8
0
  6
Continuous
100
AcDbLine
 10
417.8988031910551
 20
3016.9858571427
 30
0.0
 11
417.8988031910551
 21
3016.9858571427
 31
0.0
  0
LINE
  5
750
330
D05
100
AcDbEntity
  8
0
  6
Continuous
100
AcDbLine
 10
389.2160772183563
 20
3007.33823528
 30
0.0
 11
417.8988031910551
 21
3016.9858571427
 31
0.0
  0
LINE
  5
751
330
D05
100
AcDbEntity
  8
0
  6
Continuous
100
AcDbLine
 10
362.4999427774153
 20
2999.999949177881
 30
0.0
 11
389.2160772183563
 21
3007.33823528
 31
0.0
  0
LINE
  5
752
330
D05
100
AcDbEntity
  8
0
  6
Continuous
100
AcDbLine
 10
576.307490160584
 20
3463.733965131372
 30
0.0
 11
565.2276218596532
 21
4065.704162092798
 31
0.0
  0
LINE
  5
753
330
D05
100
AcDbEntity
  8
0
  6
Continuous
100
AcDbLine
 10
576.307490160584
 20
3463.733965131372
 30
0.0
 11
576.307490160584
 21
3463.733965131372
 31
0.0
  0
LINE
  5
754
330
D05
100
AcDbEntity
  8
0
  6
Continuous
100
AcDbLine
 10
584.0603090004832
 20
3195.556656102648
 30
0.0
 11
576.307490160584
 21
3463.733965131372
 31
0.0
  0
LINE
  5
755
330
D05
100
AcDbEntity
  8
0
  6
Continuous
100
AcDbLine
 10
594.7913677218841
 20
2929.755280027054
 30
0.0
 11
584.0603090004832
 21
3195.556656102648
 31
0.0
  0
LINE
  5
756
330
D05
100
AcDbEntity
  8
0
  6
Continuous
100
AcDbLine
 10
594.7913677218841
 20
2929.755280027054
 30
0.0
 11
594.7913677218841
 21
2929.755280027054
 31
0.0
  0
LINE
  5
757
330
D05
100
AcDbEntity
  8
0
  6
Continuous
100
AcDbLine
 10
607.1997868007561
 20
2696.807881625743
 30
0.0
 11
594.7913677218841
 21
2929.755280027054
 31
0.0
  0
LINE
  5
758
330
D05
100
AcDbEntity
  8
0
  6
Continuous
100
AcDbLine
 10
611.7876336204133
 20
2480.638991931381
 30
0.0
 11
607.1997868007561
 21
2696.807881625743
 31
0.0
  0
LINE
  5
759
330
D05
100
AcDbEntity
  8
0
  6
Continuous
100
AcDbLine
 10
611.7876336204133
 20
2480.638991931381
 30
0.0
 11
611.7876336204133
 21
2480.638991931381
 31
0.0
  0
LINE
  5
75A
330
D05
100
AcDbEntity
  8
0
  6
Continuous
100
AcDbLine
 10
601.188789707144
 20
2265.473636172683
 30
0.0
 11
611.7876336204133
 21
2480.638991931381
 31
0.0
  0
LINE
  5
75B
330
D05
100
AcDbEntity
  8
0
  6
Continuous
100
AcDbLine
 10
584.7614462517895
 20
2083.292330051133
 30
0.0
 11
601.188789707144
 21
2265.473636172683
 31
0.0
  0
LINE
  5
75C
330
D05
100
AcDbEntity
  8
0
  6
Continuous
100
AcDbLine
 10
584.7614462517895
 20
2083.292330051133
 30
0.0
 11
584.7614462517895
 21
2083.292330051133
 31
0.0
  0
LINE
  5
75D
330
D05
100
AcDbEntity
  8
0
  6
Continuous
100
AcDbLine
 10
572.1844200748812
 20
1963.85205787155
 30
0.0
 11
584.7614462517895
 21
2083.292330051133
 31
0.0
  0
LINE
  5
75E
330
D05
100
AcDbEntity
  8
0
  6
Continuous
100
AcDbLine
 10
557.6947208511535
 20
1880.260187879481
 30
0.0
 11
572.1844200748812
 21
1963.85205787155
 31
0.0
  0
LINE
  5
75F
330
D05
100
AcDbEntity
  8
0
  6
Continuous
100
AcDbLine
 10
557.6947208511535
 20
1880.260187879481
 30
0.0
 11
557.6947208511535
 21
1880.260187879481
 31
0.0
  0
LINE
  5
760
330
D05
100
AcDbEntity
  8
0
  6
Continuous
100
AcDbLine
 10
534.0378956333563
 20
1799.961398870053
 30
0.0
 11
557.6947208511535
 21
1880.260187879481
 31
0.0
  0
LINE
  5
761
330
D05
100
AcDbEntity
  8
0
  6
Continuous
100
AcDbLine
 10
503.4354481321225
 20
1724.39922789613
 30
0.0
 11
534.0378956333563
 21
1799.961398870053
 31
0.0
  0
LINE
  5
762
330
D05
100
AcDbEntity
  8
0
  6
Continuous
100
AcDbLine
 10
503.4354481321225
 20
1724.39922789613
 30
0.0
 11
503.4354481321225
 21
1724.39922789613
 31
0.0
  0
LINE
  5
763
330
D05
100
AcDbEntity
  8
0
  6
Continuous
100
AcDbLine
 10
469.8485353484712
 20
1662.346181760914
 30
0.0
 11
503.4354481321225
 21
1724.39922789613
 31
0.0
  0
LINE
  5
764
330
D05
100
AcDbEntity
  8
0
  6
Continuous
100
AcDbLine
 10
434.7209707870793
 20
1617.891788011322
 30
0.0
 11
469.8485353484712
 21
1662.346181760914
 31
0.0
  0
LINE
  5
765
330
D05
100
AcDbEntity
  8
0
  6
Continuous
100
AcDbLine
 10
434.7209707870793
 20
1617.891788011322
 30
0.0
 11
434.7209707870793
 21
1617.891788011322
 31
0.0
  0
LINE
  5
766
330
D05
100
AcDbEntity
  8
0
  6
Continuous
100
AcDbLine
 10
398.7920003190354
 20
1591.758579331505
 30
0.0
 11
434.7209707870793
 21
1617.891788011322
 31
0.0
  0
LINE
  5
767
330
D05
100
AcDbEntity
  8
0
  6
Continuous
100
AcDbLine
 10
362.4999427774153
 20
1575.884088210911
 30
0.0
 11
398.7920003190354
 21
1591.758579331505
 31
0.0
  0
LINE
  5
768
330
D05
100
AcDbEntity
  8
0
  6
Continuous
100
AcDbLine
 10
594.7176361130255
 20
3344.653144909351
 30
0.0
 11
577.3852449243454
 21
3794.806445261226
 31
0.0
  0
LINE
  5
769
330
D05
100
AcDbEntity
  8
0
  6
Continuous
100
AcDbLine
 10
624.5513722045102
 20
2777.431986485217
 30
0.0
 11
594.7176361130255
 21
3344.653144909351
 31
0.0
  0
LINE
  5
76A
330
D05
100
AcDbEntity
  8
0
  6
Continuous
100
AcDbLine
 10
624.5513722045102
 20
2777.431986485217
 30
0.0
 11
624.5513722045102
 21
2777.431986485217
 31
0.0
  0
LINE
  5
76B
330
D05
100
AcDbEntity
  8
0
  6
Continuous
100
AcDbLine
 10
642.9477214099761
 20
2474.155679008905
 30
0.0
 11
624.5513722045102
 21
2777.431986485217
 31
0.0
  0
LINE
  5
76C
330
D05
100
AcDbEntity
  8
0
  6
Continuous
100
AcDbLine
 10
660.9652419247955
 20
2184.715660051088
 30
0.0
 11
642.9477214099761
 21
2474.155679008905
 31
0.0
  0
LINE
  5
76D
330
D05
100
AcDbEntity
  8
0
  6
Continuous
100
AcDbLine
 10
660.9652419247955
 20
2184.715660051088
 30
0.0
 11
660.9652419247955
 21
2184.715660051088
 31
0.0
  0
LINE
  5
76E
330
D05
100
AcDbEntity
  8
0
  6
Continuous
100
AcDbLine
 10
674.2313565073001
 20
1923.689569240704
 30
0.0
 11
660.9652419247955
 21
2184.715660051088
 31
0.0
  0
LINE
  5
76F
330
D05
100
AcDbEntity
  8
0
  6
Continuous
100
AcDbLine
 10
676.5730338273601
 20
1575.884088009355
 30
0.0
 11
674.2313565073001
 21
1923.689569240704
 31
0.0
  0
LINE
  5
770
330
D05
100
AcDbEntity
  8
0
  6
Continuous
100
AcDbLine
 10
676.5730338273601
 20
1575.884088009355
 30
0.0
 11
676.5730338273601
 21
1575.884088009355
 31
0.0
  0
LINE
  5
771
330
D05
100
AcDbEntity
  8
0
  6
Continuous
100
AcDbLine
 10
673.7843900621661
 20
1404.021040456026
 30
0.0
 11
676.5730338273601
 21
1575.884088009355
 31
0.0
  0
LINE
  5
772
330
D05
100
AcDbEntity
  8
0
  6
Continuous
100
AcDbLine
 10
670.8210271712812
 20
1238.937285726765
 30
0.0
 11
673.7843900621661
 21
1404.021040456026
 31
0.0
  0
LINE
  5
773
330
D05
100
AcDbEntity
  8
0
  6
Continuous
100
AcDbLine
 10
670.8210271712812
 20
1238.937285726765
 30
0.0
 11
670.8210271712812
 21
1238.937285726765
 31
0.0
  0
LINE
  5
774
330
D05
100
AcDbEntity
  8
0
  6
Continuous
100
AcDbLine
 10
665.7658039561781
 20
970.7811331113713
 30
0.0
 11
670.8210271712812
 21
1238.937285726765
 31
0.0
  0
LINE
  5
775
330
D05
100
AcDbEntity
  8
0
  6
Continuous
100
AcDbLine
 10
640.3317718520404
 20
706.3916261505733
 30
0.0
 11
665.7658039561781
 21
970.7811331113713
 31
0.0
  0
LINE
  5
776
330
D05
100
AcDbEntity
  8
0
  6
Continuous
100
AcDbLine
 10
640.3317718520404
 20
706.3916261505733
 30
0.0
 11
640.3317718520404
 21
706.3916261505733
 31
0.0
  0
LINE
  5
777
330
D05
100
AcDbEntity
  8
0
  6
Continuous
100
AcDbLine
 10
617.0369876806762
 20
547.6199930684311
 30
0.0
 11
640.3317718520404
 21
706.3916261505733
 31
0.0
  0
LINE
  5
778
330
D05
100
AcDbEntity
  8
0
  6
Continuous
100
AcDbLine
 10
587.4837292986645
 20
389.3033708303983
 30
0.0
 11
617.0369876806762
 21
547.6199930684311
 31
0.0
  0
LINE
  5
779
330
D05
100
AcDbEntity
  8
0
  6
Continuous
100
AcDbLine
 10
587.4837292986645
 20
389.3033708303983
 30
0.0
 11
587.4837292986645
 21
389.3033708303983
 31
0.0
  0
LINE
  5
77A
330
D05
100
AcDbEntity
  8
0
  6
Continuous
100
AcDbLine
 10
554.4155231231305
 20
265.816513988434
 30
0.0
 11
587.4837292986645
 21
389.3033708303983
 31
0.0
  0
LINE
  5
77B
330
D05
100
AcDbEntity
  8
0
  6
Continuous
100
AcDbLine
 10
520.4073675963193
 20
173.8459665743812
 30
0.0
 11
554.4155231231305
 21
265.816513988434
 31
0.0
  0
LINE
  5
77C
330
D05
100
AcDbEntity
  8
0
  6
Continuous
100
AcDbLine
 10
520.4073675963193
 20
173.8459665743812
 30
0.0
 11
520.4073675963193
 21
173.8459665743812
 31
0.0
  0
LINE
  5
77D
330
D05
100
AcDbEntity
  8
0
  6
Continuous
100
AcDbLine
 10
484.4008222138711
 20
101.9370589369255
 30
0.0
 11
520.4073675963193
 21
173.8459665743812
 31
0.0
  0
LINE
  5
77E
330
D05
100
AcDbEntity
  8
0
  6
Continuous
100
AcDbLine
 10
430.9722186598624
 20
43.75847721226089
 30
0.0
 11
484.4008222138711
 21
101.9370589369255
 31
0.0
  0
LINE
  5
77F
330
D05
100
AcDbEntity
  8
0
  6
Continuous
100
AcDbLine
 10
430.9722186598624
 20
43.75847721226089
 30
0.0
 11
430.9722186598624
 21
43.75847721226089
 31
0.0
  0
LINE
  5
780
330
D05
100
AcDbEntity
  8
0
  6
Continuous
100
AcDbLine
 10
398.4466833808924
 20
21.4717218375299
 30
0.0
 11
430.9722186598624
 21
43.75847721226089
 31
0.0
  0
LINE
  5
781
330
D05
100
AcDbEntity
  8
0
  6
Continuous
100
AcDbLine
 10
362.4999427774153
 20
-0.0000508221191922
 30
0.0
 11
398.4466833808924
 21
21.4717218375299
 31
0.0
  0
LINE
  5
782
330
D05
100
AcDbEntity
  8
0
  6
Continuous
100
AcDbLine
 10
339.3205022268053
 20
4051.808277875513
 30
0.0
 11
351.0161436125542
 21
4050.819432583979
 31
0.0
  0
LINE
  5
783
330
D05
100
AcDbEntity
  8
0
  6
Continuous
100
AcDbLine
 10
339.3205022268053
 20
4051.808277875513
 30
0.0
 11
339.3205022268053
 21
4051.808277875513
 31
0.0
  0
LINE
  5
784
330
D05
100
AcDbEntity
  8
0
  6
Continuous
100
AcDbLine
 10
327.387062238382
 20
4052.964244492598
 30
0.0
 11
339.3205022268053
 21
4051.808277875513
 31
0.0
  0
LINE
  5
785
330
D05
100
AcDbEntity
  8
0
  6
Continuous
100
AcDbLine
 10
315.9334106218716
 20
4054.052723216171
 30
0.0
 11
327.387062238382
 21
4052.964244492598
 31
0.0
  0
LINE
  5
786
330
D05
100
AcDbEntity
  8
0
  6
Continuous
100
AcDbLine
 10
315.9334106218716
 20
4054.052723216171
 30
0.0
 11
315.9334106218716
 21
4054.052723216171
 31
0.0
  0
LINE
  5
787
330
D05
100
AcDbEntity
  8
0
  6
Continuous
100
AcDbLine
 10
283.0109511561246
 20
4057.004254828934
 30
0.0
 11
315.9334106218716
 21
4054.052723216171
 31
0.0
  0
LINE
  5
788
330
D05
100
AcDbEntity
  8
0
  6
Continuous
100
AcDbLine
 10
258.1157527501283
 20
4066.711758659205
 30
0.0
 11
283.0109511561246
 21
4057.004254828934
 31
0.0
  0
LINE
  5
789
330
D05
100
AcDbEntity
  8
0
  6
Continuous
100
AcDbLine
 10
258.1157527501283
 20
4066.711758659205
 30
0.0
 11
258.1157527501283
 21
4066.711758659205
 31
0.0
  0
LINE
  5
78A
330
D05
100
AcDbEntity
  8
0
  6
Continuous
100
AcDbLine
 10
232.813751203591
 20
4091.343261073787
 30
0.0
 11
258.1157527501283
 21
4066.711758659205
 31
0.0
  0
LINE
  5
78B
330
D05
100
AcDbEntity
  8
0
  6
Continuous
100
AcDbLine
 10
209.6484098812108
 20
4124.010550664617
 30
0.0
 11
232.813751203591
 21
4091.343261073787
 31
0.0
  0
LINE
  5
78C
330
D05
100
AcDbEntity
  8
0
  6
Continuous
100
AcDbLine
 10
209.6484098812108
 20
4124.010550664617
 30
0.0
 11
209.6484098812108
 21
4124.010550664617
 31
0.0
  0
LINE
  5
78D
330
D05
100
AcDbEntity
  8
0
  6
Continuous
100
AcDbLine
 10
192.658684135833
 20
4157.146305146531
 30
0.0
 11
209.6484098812108
 21
4124.010550664617
 31
0.0
  0
LINE
  5
78E
330
D05
100
AcDbEntity
  8
0
  6
Continuous
100
AcDbLine
 10
180.8879697079444
 20
4195.522996500803
 30
0.0
 11
192.658684135833
 21
4157.146305146531
 31
0.0
  0
LINE
  5
78F
330
D05
100
AcDbEntity
  8
0
  6
Continuous
100
AcDbLine
 10
180.8879697079444
 20
4195.522996500803
 30
0.0
 11
180.8879697079444
 21
4195.522996500803
 31
0.0
  0
LINE
  5
790
330
D05
100
AcDbEntity
  8
0
  6
Continuous
100
AcDbLine
 10
172.470123192944
 20
4244.141085236092
 30
0.0
 11
180.8879697079444
 21
4195.522996500803
 31
0.0
  0
LINE
  5
791
330
D05
100
AcDbEntity
  8
0
  6
Continuous
100
AcDbLine
 10
166.8964042182578
 20
4296.573191704149
 30
0.0
 11
172.470123192944
 21
4244.141085236092
 31
0.0
  0
LINE
  5
792
330
D05
100
AcDbEntity
  8
0
  6
Continuous
100
AcDbLine
 10
166.8964042182578
 20
4296.573191704149
 30
0.0
 11
166.8964042182578
 21
4296.573191704149
 31
0.0
  0
LINE
  5
793
330
D05
100
AcDbEntity
  8
0
  6
Continuous
100
AcDbLine
 10
163.8540958717516
 20
4345.885805958208
 30
0.0
 11
166.8964042182578
 21
4296.573191704149
 31
0.0
  0
LINE
  5
794
330
D05
100
AcDbEntity
  8
0
  6
Continuous
100
AcDbLine
 10
162.4571720510312
 20
4394.548737014281
 30
0.0
 11
163.8540958717516
 21
4345.885805958208
 31
0.0
  0
LINE
  5
795
330
D05
100
AcDbEntity
  8
0
  6
Continuous
100
AcDbLine
 10
162.4571720510312
 20
4394.548737014281
 30
0.0
 11
162.4571720510312
 21
4394.548737014281
 31
0.0
  0
LINE
  5
796
330
D05
100
AcDbEntity
  8
0
  6
Continuous
100
AcDbLine
 10
161.796502328979
 20
4446.2316042064
 30
0.0
 11
162.4571720510312
 21
4394.548737014281
 31
0.0
  0
LINE
  5
797
330
D05
100
AcDbEntity
  8
0
  6
Continuous
100
AcDbLine
 10
161.306574567291
 20
4492.999949177888
 30
0.0
 11
161.796502328979
 21
4446.2316042064
 31
0.0
  0
LINE
  5
798
330
D05
100
AcDbEntity
  8
0
  6
Continuous
100
AcDbLine
 10
385.6793833280244
 20
4051.808277875513
 30
0.0
 11
373.9837419422763
 21
4050.819432583979
 31
0.0
  0
LINE
  5
799
330
D05
100
AcDbEntity
  8
0
  6
Continuous
100
AcDbLine
 10
385.6793833280244
 20
4051.808277875513
 30
0.0
 11
385.6793833280244
 21
4051.808277875513
 31
0.0
  0
LINE
  5
79A
330
D05
100
AcDbEntity
  8
0
  6
Continuous
100
AcDbLine
 10
397.6128233164484
 20
4052.964244492598
 30
0.0
 11
385.6793833280244
 21
4051.808277875513
 31
0.0
  0
LINE
  5
79B
330
D05
100
AcDbEntity
  8
0
  6
Continuous
100
AcDbLine
 10
409.0664749329585
 20
4054.052723216171
 30
0.0
 11
397.6128233164484
 21
4052.964244492598
 31
0.0
  0
LINE
  5
79C
330
D05
100
AcDbEntity
  8
0
  6
Continuous
100
AcDbLine
 10
409.0664749329585
 20
4054.052723216171
 30
0.0
 11
409.0664749329585
 21
4054.052723216171
 31
0.0
  0
LINE
  5
79D
330
D05
100
AcDbEntity
  8
0
  6
Continuous
100
AcDbLine
 10
441.9889343987054
 20
4057.004254828934
 30
0.0
 11
409.0664749329585
 21
4054.052723216171
 31
0.0
  0
LINE
  5
79E
330
D05
100
AcDbEntity
  8
0
  6
Continuous
100
AcDbLine
 10
466.8841328047014
 20
4066.711758659205
 30
0.0
 11
441.9889343987054
 21
4057.004254828934
 31
0.0
  0
LINE
  5
79F
330
D05
100
AcDbEntity
  8
0
  6
Continuous
100
AcDbLine
 10
466.8841328047014
 20
4066.711758659205
 30
0.0
 11
466.8841328047014
 21
4066.711758659205
 31
0.0
  0
LINE
  5
7A0
330
D05
100
AcDbEntity
  8
0
  6
Continuous
100
AcDbLine
 10
492.1861343512391
 20
4091.343261073787
 30
0.0
 11
466.8841328047014
 21
4066.711758659205
 31
0.0
  0
LINE
  5
7A1
330
D05
100
AcDbEntity
  8
0
  6
Continuous
100
AcDbLine
 10
515.3514756736183
 20
4124.010550664617
 30
0.0
 11
492.1861343512391
 21
4091.343261073787
 31
0.0
  0
LINE
  5
7A2
330
D05
100
AcDbEntity
  8
0
  6
Continuous
100
AcDbLine
 10
515.3514756736183
 20
4124.010550664617
 30
0.0
 11
515.3514756736183
 21
4124.010550664617
 31
0.0
  0
LINE
  5
7A3
330
D05
100
AcDbEntity
  8
0
  6
Continuous
100
AcDbLine
 10
532.3412014189961
 20
4157.146305146531
 30
0.0
 11
515.3514756736183
 21
4124.010550664617
 31
0.0
  0
LINE
  5
7A4
330
D05
100
AcDbEntity
  8
0
  6
Continuous
100
AcDbLine
 10
544.1119158468855
 20
4195.522996500803
 30
0.0
 11
532.3412014189961
 21
4157.146305146531
 31
0.0
  0
LINE
  5
7A5
330
D05
100
AcDbEntity
  8
0
  6
Continuous
100
AcDbLine
 10
544.1119158468855
 20
4195.522996500803
 30
0.0
 11
544.1119158468855
 21
4195.522996500803
 31
0.0
  0
LINE
  5
7A6
330
D05
100
AcDbEntity
  8
0
  6
Continuous
100
AcDbLine
 10
552.5297623618862
 20
4244.141085236092
 30
0.0
 11
544.1119158468855
 21
4195.522996500803
 31
0.0
  0
LINE
  5
7A7
330
D05
100
AcDbEntity
  8
0
  6
Continuous
100
AcDbLine
 10
558.1034813365723
 20
4296.573191704149
 30
0.0
 11
552.5297623618862
 21
4244.141085236092
 31
0.0
  0
LINE
  5
7A8
330
D05
100
AcDbEntity
  8
0
  6
Continuous
100
AcDbLine
 10
558.1034813365723
 20
4296.573191704149
 30
0.0
 11
558.1034813365723
 21
4296.573191704149
 31
0.0
  0
LINE
  5
7A9
330
D05
100
AcDbEntity
  8
0
  6
Continuous
100
AcDbLine
 10
561.1457896830792
 20
4345.885805958208
 30
0.0
 11
558.1034813365723
 21
4296.573191704149
 31
0.0
  0
LINE
  5
7AA
330
D05
100
AcDbEntity
  8
0
  6
Continuous
100
AcDbLine
 10
562.5427135037985
 20
4394.548737014281
 30
0.0
 11
561.1457896830792
 21
4345.885805958208
 31
0.0
  0
LINE
  5
7AB
330
D05
100
AcDbEntity
  8
0
  6
Continuous
100
AcDbLine
 10
562.5427135037985
 20
4394.548737014281
 30
0.0
 11
562.5427135037985
 21
4394.548737014281
 31
0.0
  0
LINE
  5
7AC
330
D05
100
AcDbEntity
  8
0
  6
Continuous
100
AcDbLine
 10
563.2033832258501
 20
4446.2316042064
 30
0.0
 11
562.5427135037985
 21
4394.548737014281
 31
0.0
  0
LINE
  5
7AD
330
D05
100
AcDbEntity
  8
0
  6
Continuous
100
AcDbLine
 10
563.5829800624701
 20
4492.999949177884
 30
0.0
 11
563.2033832258501
 21
4446.2316042064
 31
0.0
  0
TEXT
  5
7AE
330
D05
100
AcDbEntity
  8
0
  6
Continuous
100
AcDbText
 10
1104.812756623352
 20
4170.570663462354
 30
0.0
 40
160.0
  1
1.5m/s
 50
0.0000025044687019
 41
0.687499990065893
  7
STANDARD1
100
AcDbText
  0
TEXT
  5
7AF
330
D05
100
AcDbEntity
  8
0
  6
Continuous
100
AcDbText
 10
1198.961406214519
 20
3643.250832694568
 30
0.0
 40
160.0
  1
1m/s
 50
0.0000025044687019
 41
0.687499990065893
  7
STANDARD1
100
AcDbText
  0
TEXT
  5
7B0
330
D05
100
AcDbEntity
  8
0
  6
Continuous
100
AcDbText
 10
1127.014897468536
 20
2102.274467344555
 30
0.0
 40
160.0
  1
0.5m/s
 50
0.0000025044687019
 41
0.687499990065893
  7
STANDARD1
100
AcDbText
  0
TEXT
  5
7B1
330
D05
100
AcDbEntity
  8
0
  6
Continuous
100
AcDbText
 10
1127.014897468536
 20
393.4311092319995
 30
0.0
 40
160.0
  1
0.3m/s
 50
0.0000025044687019
 41
0.687499990065893
  7
STANDARD1
100
AcDbText
  0
LINE
  5
7B2
330
D05
100
AcDbEntity
  8
0
  6
Continuous
100
AcDbLine
 10
457.7670270211672
 20
4309.840614682689
 30
0.0
 11
1071.244286670175
 21
4240.153609515065
 31
0.0
  0
LINE
  5
7B3
330
D05
100
AcDbEntity
  8
0
  6
Continuous
100
AcDbLine
 10
388.0537020610573
 20
3543.283595786648
 30
0.0
 11
1168.842886738806
 21
3696.595007155425
 31
0.0
  0
LINE
  5
7B4
330
D05
100
AcDbEntity
  8
0
  6
Continuous
100
AcDbLine
 10
443.8243620291466
 20
1996.232156961049
 30
0.0
 11
1029.416291694106
 21
2163.480969363351
 31
0.0
  0
LINE
  5
7B5
330
D05
100
AcDbEntity
  8
0
  6
Continuous
100
AcDbLine
 10
429.8816970371261
 20
630.366931571276
 30
0.0
 11
1043.358956686126
 21
477.0555202025061
 31
0.0
  0
ENDBLK
  5
7B9
330
D05
100
AcDbEntity
  8
0
100
AcDbBlockEnd
  0
BLOCK
  5
D08
330
D07
100
AcDbEntity
  8
0
100
AcDbBlockBegin
  2
*D11
 70
     1
 10
0.0
 20
0.0
 30
0.0
  3
*D11
  1

  0
LINE
  5
7EC
330
D07
100
AcDbEntity
  8
0
  6
Continuous
 62
     0
100
AcDbLine
 10
10364.3135832305
 20
-10458.86878720535
 30
0.0
 11
10364.3135832305
 21
-10318.88748443973
 31
0.0
  0
LINE
  5
7ED
330
D07
100
AcDbEntity
  8
0
  6
Continuous
 62
     0
100
AcDbLine
 10
10214.3135832305
 20
-10458.86878720535
 30
0.0
 11
10214.3135832305
 21
-10318.88748443973
 31
0.0
  0
LINE
  5
7EE
330
D07
100
AcDbEntity
  8
0
  6
Continuous
 62
     0
100
AcDbLine
 10
10362.3817315817
 20
-10320.88748443973
 30
0.0
 11
10216.24543487931
 21
-10320.88748443973
 31
0.0
  0
SOLID
  5
7EF
330
D07
100
AcDbEntity
  8
0
  6
Continuous
 62
     0
100
AcDbTrace
 10
10362.3817315817
 20
-10320.56550916492
 30
0.0
 11
10362.3817315817
 21
-10321.20945971453
 31
0.0
 12
10364.3135832305
 22
-10320.88748443973
 32
0.0
 13
10364.3135832305
 23
-10320.88748443973
 33
0.0
  0
SOLID
  5
7F0
330
D07
100
AcDbEntity
  8
0
  6
Continuous
 62
     0
100
AcDbTrace
 10
10216.24543487931
 20
-10320.56550916492
 30
0.0
 11
10216.24543487931
 21
-10321.20945971453
 31
0.0
 12
10214.3135832305
 22
-10320.88748443973
 32
0.0
 13
10214.3135832305
 23
-10320.88748443973
 33
0.0
  0
INSERT
  5
7F1
330
D07
100
AcDbEntity
  8
0
  6
Continuous
100
AcDbBlockReference
  2
*U12
 10
0.0
 20
0.0
 30
0.0
  0
POINT
  5
7F2
330
D07
100
AcDbEntity
  8
DEFPOINTS
  6
Continuous
 62
     0
100
AcDbPoint
 10
10364.3135832305
 20
-10459.86878720535
 30
0.0
  0
POINT
  5
7F3
330
D07
100
AcDbEntity
  8
DEFPOINTS
  6
Continuous
 62
     0
100
AcDbPoint
 10
10214.3135832305
 20
-10459.86878720535
 30
0.0
  0
POINT
  5
7F4
330
D07
100
AcDbEntity
  8
DEFPOINTS
  6
Continuous
 62
     0
100
AcDbPoint
 10
10214.3135832305
 20
-10320.88748443973
 30
0.0
  0
ENDBLK
  5
7F6
330
D07
100
AcDbEntity
  8
0
100
AcDbBlockEnd
  0
BLOCK
  5
D0A
330
D09
100
AcDbEntity
  8
0
100
AcDbBlockBegin
  2
*U12
 70
     1
 10
0.0
 20
0.0
 30
0.0
  3
*U12
  1

  0
TEXT
  5
942
330
D09
100
AcDbEntity
  8
0
  6
Continuous
 62
     0
100
AcDbText
 10
10283.48024989716
 20
-10320.79748443973
 30
0.0
 40
2.0
  1
150.0000
100
AcDbText
  0
ENDBLK
  5
944
330
D09
100
AcDbEntity
  8
0
100
AcDbBlockEnd
  0
BLOCK
  5
D0C
330
D0B
100
AcDbEntity
  8
0
100
AcDbBlockBegin
  2
*D13
 70
     1
 10
0.0
 20
0.0
 30
0.0
  3
*D13
  1

  0
LINE
  5
807
330
D0B
100
AcDbEntity
  8
0
  6
Continuous
 62
     0
100
AcDbLine
 10
75.0
 20
184.0
 30
0.0
 11
75.0
 21
235.8352901760809
 31
0.0
  0
LINE
  5
808
330
D0B
100
AcDbEntity
  8
0
  6
Continuous
 62
     0
100
AcDbLine
 10
-75.0
 20
184.0
 30
0.0
 11
-75.0
 21
235.8352901760809
 31
0.0
  0
LINE
  5
809
330
D0B
100
AcDbEntity
  8
0
  6
Continuous
 62
     0
100
AcDbLine
 10
73.06814835119297
 20
233.8352901760809
 30
0.0
 11
-73.06814835119297
 21
233.8352901760809
 31
0.0
  0
SOLID
  5
80A
330
D0B
100
AcDbEntity
  8
0
  6
Continuous
 62
     0
100
AcDbTrace
 10
73.06814835119297
 20
234.1572654508821
 30
0.0
 11
73.06814835119297
 21
233.5133149012797
 31
0.0
 12
75.0
 22
233.8352901760809
 32
0.0
 13
75.0
 23
233.8352901760809
 33
0.0
  0
SOLID
  5
80B
330
D0B
100
AcDbEntity
  8
0
  6
Continuous
 62
     0
100
AcDbTrace
 10
-73.06814835119297
 20
234.1572654508821
 30
0.0
 11
-73.06814835119297
 21
233.5133149012797
 31
0.0
 12
-75.0
 22
233.8352901760809
 32
0.0
 13
-75.0
 23
233.8352901760809
 33
0.0
  0
INSERT
  5
80C
330
D0B
100
AcDbEntity
  8
0
  6
Continuous
100
AcDbBlockReference
  2
*U14
 10
0.0
 20
0.0
 30
0.0
  0
POINT
  5
80D
330
D0B
100
AcDbEntity
  8
DEFPOINTS
  6
Continuous
 62
     0
100
AcDbPoint
 10
75.0
 20
183.0
 30
0.0
  0
POINT
  5
80E
330
D0B
100
AcDbEntity
  8
DEFPOINTS
  6
Continuous
 62
     0
100
AcDbPoint
 10
-75.0
 20
183.0
 30
0.0
  0
POINT
  5
80F
330
D0B
100
AcDbEntity
  8
DEFPOINTS
  6
Continuous
 62
     0
100
AcDbPoint
 10
-75.0
 20
233.8352901760809
 30
0.0
  0
ENDBLK
  5
811
330
D0B
100
AcDbEntity
  8
0
100
AcDbBlockEnd
  0
BLOCK
  5
D0E
330
D0D
100
AcDbEntity
  8
0
100
AcDbBlockBegin
  2
*U14
 70
     1
 10
0.0
 20
0.0
 30
0.0
  3
*U14
  1

  0
TEXT
  5
946
330
D0D
100
AcDbEntity
  8
0
  6
Continuous
 62
     0
100
AcDbText
 10
-5.833333333333332
 20
233.9252901760809
 30
0.0
 40
2.0
  1
150.0000
100
AcDbText
  0
ENDBLK
  5
948
330
D0D
100
AcDbEntity
  8
0
100
AcDbBlockEnd
  0
BLOCK
  5
D10
330
D0F
100
AcDbEntity
  8
0
100
AcDbBlockBegin
  2
*D15
 70
     1
 10
0.0
 20
0.0
 30
0.0
  3
*D15
  1

  0
LINE
  5
814
330
D0F
100
AcDbEntity
  8
0
  6
Continuous
 62
     0
100
AcDbLine
 10
76.0
 20
182.9999999999982
 30
0.0
 11
96.66395878909685
 21
182.9999999999982
 31
0.0
  0
LINE
  5
815
330
D0F
100
AcDbEntity
  8
0
  6
Continuous
 62
     0
100
AcDbLine
 10
75.99999999999603
 20
-7.000000000001557
 30
0.0
 11
96.6639587890968
 21
-7.000000000001563
 31
0.0
  0
LINE
  5
816
330
D0F
100
AcDbEntity
  8
0
  6
Continuous
 62
     0
100
AcDbLine
 10
94.66395878909684
 20
181.0681483511911
 30
0.0
 11
94.66395878909679
 21
89.08999999999833
 31
0.0
  0
LINE
  5
817
330
D0F
100
AcDbEntity
  8
0
  6
Continuous
 62
     0
100
AcDbLine
 10
94.66395878909679
 20
-5.068148351194539
 30
0.0
 11
94.66395878909679
 21
86.9099999999983
 31
0.0
  0
SOLID
  5
818
330
D0F
100
AcDbEntity
  8
0
  6
Continuous
 62
     0
100
AcDbTrace
 10
94.34198351429563
 20
181.0681483511911
 30
0.0
 11
94.98593406389799
 21
181.0681483511911
 31
0.0
 12
94.66395878909684
 22
182.9999999999982
 32
0.0
 13
94.66395878909684
 23
182.9999999999982
 33
0.0
  0
SOLID
  5
819
330
D0F
100
AcDbEntity
  8
0
  6
Continuous
 62
     0
100
AcDbTrace
 10
94.34198351429563
 20
-5.068148351194539
 30
0.0
 11
94.98593406389796
 21
-5.068148351194539
 31
0.0
 12
94.66395878909679
 22
-7.000000000001563
 32
0.0
 13
94.66395878909679
 23
-7.000000000001563
 33
0.0
  0
INSERT
  5
81A
330
D0F
100
AcDbEntity
  8
0
  6
Continuous
100
AcDbBlockReference
  2
*U16
 10
0.0
 20
0.0
 30
0.0
  0
POINT
  5
81B
330
D0F
100
AcDbEntity
  8
DEFPOINTS
  6
Continuous
 62
     0
100
AcDbPoint
 10
75.0
 20
182.9999999999982
 30
0.0
  0
POINT
  5
81C
330
D0F
100
AcDbEntity
  8
DEFPOINTS
  6
Continuous
 62
     0
100
AcDbPoint
 10
74.99999999999603
 20
-7.000000000001557
 30
0.0
  0
POINT
  5
81D
330
D0F
100
AcDbEntity
  8
DEFPOINTS
  6
Continuous
 62
     0
100
AcDbPoint
 10
94.66395878909679
 20
-7.000000000001563
 30
0.0
  0
ENDBLK
  5
81F
330
D0F
100
AcDbEntity
  8
0
100
AcDbBlockEnd
  0
BLOCK
  5
D12
330
D11
100
AcDbEntity
  8
0
100
AcDbBlockBegin
  2
*U16
 70
     1
 10
0.0
 20
0.0
 30
0.0
  3
*U16
  1

  0
TEXT
  5
94A
330
D11
100
AcDbEntity
  8
0
  6
Continuous
 62
     0
100
AcDbText
 10
88.83062545576345
 20
86.99999999999832
 30
0.0
 40
2.0
  1
190.0000
100
AcDbText
  0
ENDBLK
  5
94C
330
D11
100
AcDbEntity
  8
0
100
AcDbBlockEnd
  0
BLOCK
  5
D14
330
D13
100
AcDbEntity
  8
0
100
AcDbBlockBegin
  2
*D17
 70
     1
 10
0.0
 20
0.0
 30
0.0
  3
*D17
  1

  0
LINE
  5
822
330
D13
100
AcDbEntity
  8
0
  6
Continuous
 62
     0
100
AcDbLine
 10
1.000000000000045
 20
-0.0000000000000003
 30
0.0
 11
1001.286628822782
 21
-0.0000000000002836
 31
0.0
  0
LINE
  5
823
330
D13
100
AcDbEntity
  8
0
  6
Continuous
 62
     0
100
AcDbLine
 10
1.0
 20
-4506.999999596837
 30
0.0
 11
1001.286628822781
 21
-4506.999999596837
 31
0.0
  0
LINE
  5
824
330
D13
100
AcDbEntity
  8
0
  6
Continuous
 62
     0
100
AcDbLine
 10
999.2866288227824
 20
-1.931851648807306
 30
0.0
 11
999.2866288227821
 21
-2252.409999798419
 31
0.0
  0
LINE
  5
825
330
D13
100
AcDbEntity
  8
0
  6
Continuous
 62
     0
100
AcDbLine
 10
999.286628822781
 20
-4505.06814794803
 30
0.0
 11
999.2866288227821
 21
-2254.589999798419
 31
0.0
  0
SOLID
  5
826
330
D13
100
AcDbEntity
  8
0
  6
Continuous
 62
     0
100
AcDbTrace
 10
998.9646535479812
 20
-1.931851648807306
 30
0.0
 11
999.6086040975836
 21
-1.931851648807306
 31
0.0
 12
999.2866288227824
 22
-0.0000000000002831
 32
0.0
 13
999.2866288227824
 23
-0.0000000000002831
 33
0.0
  0
SOLID
  5
827
330
D13
100
AcDbEntity
  8
0
  6
Continuous
 62
     0
100
AcDbTrace
 10
998.9646535479804
 20
-4505.06814794803
 30
0.0
 11
999.6086040975823
 21
-4505.06814794803
 31
0.0
 12
999.286628822781
 22
-4506.999999596837
 32
0.0
 13
999.286628822781
 23
-4506.999999596837
 33
0.0
  0
INSERT
  5
828
330
D13
100
AcDbEntity
  8
0
  6
Continuous
100
AcDbBlockReference
  2
*U18
 10
0.0
 20
0.0
 30
0.0
  0
POINT
  5
829
330
D13
100
AcDbEntity
  8
DEFPOINTS
  6
Continuous
 62
     0
100
AcDbPoint
 10
0.000000000000048
 20
0.0
 30
0.0
  0
POINT
  5
82A
330
D13
100
AcDbEntity
  8
DEFPOINTS
  6
Continuous
 62
     0
100
AcDbPoint
 10
0.0
 20
-4506.999999596837
 30
0.0
  0
POINT
  5
82B
330
D13
100
AcDbEntity
  8
DEFPOINTS
  6
Continuous
 62
     0
100
AcDbPoint
 10
999.286628822781
 20
-4506.999999596837
 30
0.0
  0
ENDBLK
  5
82D
330
D13
100
AcDbEntity
  8
0
100
AcDbBlockEnd
  0
BLOCK
  5
D16
330
D15
100
AcDbEntity
  8
0
100
AcDbBlockBegin
  2
*U18
 70
     1
 10
0.0
 20
0.0
 30
0.0
  3
*U18
  1

  0
TEXT
  5
94E
330
D15
100
AcDbEntity
  8
0
  6
Continuous
 62
     0
100
AcDbText
 10
992.1199621561155
 20
-2254.499999798419
 30
0.0
 40
2.0
  1
4507.0000
100
AcDbText
  0
ENDBLK
  5
950
330
D15
100
AcDbEntity
  8
0
100
AcDbBlockEnd
  0
BLOCK
  5
D18
330
D17
100
AcDbEntity
  8
0
100
AcDbBlockBegin
  2
*D19
 70
     1
 10
0.0
 20
0.0
 30
0.0
  3
*D19
  1

  0
LINE
  5
830
330
D17
100
AcDbEntity
  8
0
  6
Continuous
 62
     0
100
AcDbLine
 10
742.4542504736527
 20
-3005.999999596838
 30
0.0
 11
742.4542504736527
 21
58.6484169018513
 31
0.0
  0
LINE
  5
831
330
D17
100
AcDbEntity
  8
0
  6
Continuous
 62
     0
100
AcDbLine
 10
0.0000000000000481
 20
39.80055763185373
 30
0.0
 11
0.0000000000000492
 21
58.6484169018513
 31
0.0
  0
LINE
  5
832
330
D17
100
AcDbEntity
  8
0
  6
Continuous
 62
     0
100
AcDbLine
 10
740.5223988248462
 20
56.64841690185131
 30
0.0
 11
1.93185164880707
 21
56.64841690185131
 31
0.0
  0
SOLID
  5
833
330
D17
100
AcDbEntity
  8
0
  6
Continuous
 62
     0
100
AcDbTrace
 10
740.5223988248462
 20
56.97039217665246
 30
0.0
 11
740.5223988248462
 21
56.32644162705013
 31
0.0
 12
742.4542504736527
 22
56.64841690185131
 32
0.0
 13
742.4542504736527
 23
56.64841690185131
 33
0.0
  0
SOLID
  5
834
330
D17
100
AcDbEntity
  8
0
  6
Continuous
 62
     0
100
AcDbTrace
 10
1.93185164880707
 20
56.97039217665246
 30
0.0
 11
1.93185164880707
 21
56.32644162705013
 31
0.0
 12
0.0000000000000491
 22
56.64841690185131
 32
0.0
 13
0.0000000000000491
 23
56.64841690185131
 33
0.0
  0
INSERT
  5
835
330
D17
100
AcDbEntity
  8
0
  6
Continuous
100
AcDbBlockReference
  2
*U20
 10
0.0
 20
0.0
 30
0.0
  0
POINT
  5
836
330
D17
100
AcDbEntity
  8
DEFPOINTS
  6
Continuous
 62
     0
100
AcDbPoint
 10
742.4542504736527
 20
-3006.999999596838
 30
0.0
  0
POINT
  5
837
330
D17
100
AcDbEntity
  8
DEFPOINTS
  6
Continuous
 62
     0
100
AcDbPoint
 10
0.000000000000048
 20
38.80055763185373
 30
0.0
  0
POINT
  5
838
330
D17
100
AcDbEntity
  8
DEFPOINTS
  6
Continuous
 62
     0
100
AcDbPoint
 10
0.0000000000000491
 20
56.64841690185131
 30
0.0
  0
ENDBLK
  5
83A
330
D17
100
AcDbEntity
  8
0
100
AcDbBlockEnd
  0
BLOCK
  5
D1A
330
D19
100
AcDbEntity
  8
0
100
AcDbBlockBegin
  2
*U20
 70
     1
 10
0.0
 20
0.0
 30
0.0
  3
*U20
  1

  0
TEXT
  5
952
330
D19
100
AcDbEntity
  8
0
  6
Continuous
 62
     0
100
AcDbText
 10
364.2271252368266
 20
56.7384169018513
 30
0.0
 40
2.0
  1
742.4543
100
AcDbText
  0
ENDBLK
  5
954
330
D19
100
AcDbEntity
  8
0
100
AcDbBlockEnd
  0
BLOCK
  5
D1C
330
D1B
100
AcDbEntity
  8
0
100
AcDbBlockBegin
  2
*D21
 70
     1
 10
0.0
 20
0.0
 30
0.0
  3
*D21
  1

  0
LINE
  5
83D
330
D1B
100
AcDbEntity
  8
0
  6
Continuous
 62
     0
100
AcDbLine
 10
489.3112737262743
 20
-1806.53518399827
 30
0.0
 11
489.3112737262746
 21
142.3383693633222
 31
0.0
  0
LINE
  5
83E
330
D1B
100
AcDbEntity
  8
0
  6
Continuous
 62
     0
100
AcDbLine
 10
0.0000000000000481
 20
-37.80055763185373
 30
0.0
 11
0.0000000000000591
 21
142.3383693633222
 31
0.0
  0
LINE
  5
83F
330
D1B
100
AcDbEntity
  8
0
  6
Continuous
 62
     0
100
AcDbLine
 10
487.3794220774676
 20
140.338369363322
 30
0.0
 11
1.93185164880708
 21
140.338369363322
 31
0.0
  0
SOLID
  5
840
330
D1B
100
AcDbEntity
  8
0
  6
Continuous
 62
     0
100
AcDbTrace
 10
487.3794220774676
 20
140.6603446381234
 30
0.0
 11
487.3794220774676
 21
140.0163940885211
 31
0.0
 12
489.3112737262746
 22
140.338369363322
 32
0.0
 13
489.3112737262746
 23
140.338369363322
 33
0.0
  0
SOLID
  5
841
330
D1B
100
AcDbEntity
  8
0
  6
Continuous
 62
     0
100
AcDbTrace
 10
1.93185164880708
 20
140.6603446381234
 30
0.0
 11
1.93185164880708
 21
140.0163940885211
 31
0.0
 12
0.000000000000059
 22
140.338369363322
 32
0.0
 13
0.000000000000059
 23
140.338369363322
 33
0.0
  0
INSERT
  5
842
330
D1B
100
AcDbEntity
  8
0
  6
Continuous
100
AcDbBlockReference
  2
*U22
 10
0.0
 20
0.0
 30
0.0
  0
POINT
  5
843
330
D1B
100
AcDbEntity
  8
DEFPOINTS
  6
Continuous
 62
     0
100
AcDbPoint
 10
489.3112737262743
 20
-1807.53518399827
 30
0.0
  0
POINT
  5
844
330
D1B
100
AcDbEntity
  8
DEFPOINTS
  6
Continuous
 62
     0
100
AcDbPoint
 10
0.000000000000048
 20
-38.80055763185373
 30
0.0
  0
POINT
  5
845
330
D1B
100
AcDbEntity
  8
DEFPOINTS
  6
Continuous
 62
     0
100
AcDbPoint
 10
0.000000000000059
 20
140.338369363322
 30
0.0
  0
ENDBLK
  5
847
330
D1B
100
AcDbEntity
  8
0
100
AcDbBlockEnd
  0
BLOCK
  5
D1E
330
D1D
100
AcDbEntity
  8
0
100
AcDbBlockBegin
  2
*U22
 70
     1
 10
0.0
 20
0.0
 30
0.0
  3
*U22
  1

  0
TEXT
  5
956
330
D1D
100
AcDbEntity
  8
0
  6
Continuous
 62
     0
100
AcDbText
 10
238.322303529804
 20
140.4283693633223
 30
0.0
 40
2.0
  1
489.3113
100
AcDbText
  0
ENDBLK
  5
958
330
D1D
100
AcDbEntity
  8
0
100
AcDbBlockEnd
  0
BLOCK
  5
D20
330
D1F
100
AcDbEntity
  8
0
100
AcDbBlockBegin
  2
1
 70
     0
 10
0.0
 20
0.0
 30
0.0
  3
1
  1

  0
LWPOLYLINE
  5
84B
330
D1F
100
AcDbEntity
  8
0
  6
Continuous
100
AcDbPolyline
 90
       21
 70
     0
 43
0.0
 10
0.0
 20
-456.9999995968371
 10
15.09930210411038
 20
-453.1264878451548
 10
28.61342260648417
 20
-448.8545491609436
 10
28.61342260648417
 20
-448.8545491609436
 10
51.06890509197729
 20
-434.2259692730364
 10
63.30617192608769
 20
-412.3032596992179
 10
63.30617192608769
 20
-412.3032596992179
 10
73.5457557423251
 20
-381.7867107866005
 10
81.8915733472968
 20
-344.7763012021368
 10
81.8915733472968
 20
-344.7763012021368
 10
86.93398416498713
 20
-303.9030539953202
 10
89.32573391577898
 20
-260.5224814259491
 10
89.32573391577898
 20
-260.5224814259491
 10
90.0470542092953
 20
-216.0968067661343
 10
89.32573391577898
 20
-173.7906081269684
 10
89.32573391577898
 20
-173.7906081269684
 10
87.22984475767955
 20
-135.5860585069676
 10
83.94103260570592
 20
-97.03335561547465
 10
83.94103260570592
 20
-97.03335561547465
 10
79.71623726516554
 20
-53.61816514038583
 10
75.0000001315675
 20
-6.999999973068042
  0
LWPOLYLINE
  5
84C
330
D1F
100
AcDbEntity
  8
0
  6
Continuous
100
AcDbPolyline
 90
       21
 70
     0
 43
0.0
 10
0.0
 20
-456.9999995968371
 10
-15.09930210411402
 20
-453.1264878451548
 10
-28.6134226064878
 20
-448.8545491609436
 10
-28.6134226064878
 20
-448.8545491609436
 10
-51.06890509198092
 20
-434.2259692730364
 10
-63.30617192609316
 20
-412.3032596992179
 10
-63.30617192609316
 20
-412.3032596992179
 10
-73.54575574232876
 20
-381.7867107866005
 10
-81.89157334730044
 20
-344.7763012021368
 10
-81.89157334730044
 20
-344.7763012021368
 10
-86.93398416499077
 20
-303.9030539953202
 10
-89.32573391578262
 20
-260.5224814259491
 10
-89.32573391578262
 20
-260.5224814259491
 10
-90.04705420929893
 20
-216.0968067661343
 10
-89.32573391578262
 20
-173.7906081269684
 10
-89.32573391578262
 20
-173.7906081269684
 10
-87.22984475768317
 20
-135.5860585069676
 10
-83.94103260571137
 20
-97.03335561547465
 10
-83.94103260571137
 20
-97.03335561547465
 10
-79.7162372651692
 20
-53.61816514038583
 10
-75.00000013157114
 20
-6.999999973068042
  0
LWPOLYLINE
  5
84D
330
D1F
100
AcDbEntity
  8
0
  6
Continuous
100
AcDbPolyline
 90
       18
 70
     0
 43
0.0
 10
0.0
 20
-1506.999999596837
 10
44.31394344659202
 20
-1500.017382746733
 10
88.82726845281286
 20
-1485.277336320314
 10
88.82726845281286
 20
-1485.277336320314
 10
133.357889217661
 20
-1455.639365374532
 10
176.1978504975777
 20
-1406.430713499423
 10
176.1978504975777
 20
-1406.430713499423
 10
214.484033475459
 20
-1336.884851047427
 10
242.2585344826293
 20
-1259.392416887533
 10
242.2585344826293
 20
-1259.392416887533
 10
254.485677694247
 20
-1184.43479374402
 10
252.9134835124496
 20
-1101.699171245787
 10
252.9134835124496
 20
-1101.699171245787
 10
241.3688657999665
 20
-1000.925900329814
 10
225.2106160348812
 20
-892.8621702607761
 10
225.2106160348812
 20
-892.8621702607761
 10
138.5619116542002
 20
-360.8233794653735
 10
75.0000001315675
 20
-6.999999973068042
  0
LWPOLYLINE
  5
84E
330
D1F
100
AcDbEntity
  8
0
  6
Continuous
100
AcDbPolyline
 90
       25
 70
     0
 43
0.0
 10
0.0
 20
-2931.115860563807
 10
73.69288836859777
 20
-2916.374635519376
 10
150.1606746709258
 20
-2887.553314170884
 10
150.1606746709258
 20
-2887.553314170884
 10
229.5286356191136
 20
-2834.91912194698
 10
301.3235630389172
 20
-2766.128571207184
 10
301.3235630389172
 20
-2766.128571207184
 10
363.990678666858
 20
-2676.395693073915
 10
403.8714866059688
 20
-2585.23841172493
 10
443.4970845265268
 20
-2416.903663482299
 10
443.4970845265268
 20
-2416.903663482299
 10
467.218961680397
 20
-2287.826832576151
 10
484.3469015960509
 20
-2185.496256670695
 10
484.3469015960509
 20
-2185.496256670695
 10
494.9695721547104
 20
-2091.995099760825
 10
500.0
 20
-2006.999999596837
 10
500.0
 20
-2006.999999596837
 10
489.3112737262743
 20
-1807.53518399827
 10
447.738402317962
 20
-1610.848869749738
 10
447.738402317962
 20
-1610.848869749738
 10
385.6257971436753
 20
-1338.783995503239
 10
318.1481015684749
 20
-1039.691618298162
 10
318.1481015684749
 20
-1039.691618298162
 10
176.2386965402438
 20
-425.6097616740426
 10
75.0000001315675
 20
-6.999999973068042
  0
LWPOLYLINE
  5
84F
330
D1F
100
AcDbEntity
  8
0
  6
Continuous
100
AcDbPolyline
 90
       22
 70
     0
 43
0.0
 10
0.0
 20
-4506.999999596837
 10
132.5078689066449
 20
-4470.855622469024
 10
252.2140912659998
 20
-4442.546603597338
 10
252.2140912659998
 20
-4442.546603597338
 10
360.0031859326557
 20
-4391.633309820667
 10
440.4902360049872
 20
-4320.072730435524
 10
501.3337272126518
 20
-4233.841477657725
 10
550.1921452853236
 20
-4138.916163703096
 10
550.1921452853236
 20
-4138.916163703096
 10
632.112787575179
 20
-3933.688336112989
 10
695.1454618660791
 20
-3686.194820323783
 10
695.1454618660791
 20
-3686.194820323783
 10
735.7377769720332
 20
-3373.561329589058
 10
742.4542504736527
 20
-3006.999999596838
 10
742.4542504736527
 20
-3006.999999596838
 10
707.9588491028189
 20
-2609.344188061196
 10
649.1964274298863
 20
-2215.825718365953
 10
649.1964274298863
 20
-2215.825718365953
 10
510.7044096067948
 20
-1492.071320843786
 10
367.877744039948
 20
-915.3580386043833
 10
222.1613133106002
 20
-436.6721665534842
 10
75.0
 20
-6.999999596837367
  0
LWPOLYLINE
  5
850
330
D1F
100
AcDbEntity
  8
0
  6
Continuous
100
AcDbPolyline
 90
       18
 70
     0
 43
0.0
 10
0.0
 20
-1506.999999596837
 10
-44.31394344659564
 20
-1500.017382746733
 10
-88.8272684528165
 20
-1485.277336320314
 10
-88.8272684528165
 20
-1485.277336320314
 10
-133.3578892176665
 20
-1455.639365374532
 10
-176.1978504975814
 20
-1406.430713499423
 10
-176.1978504975814
 20
-1406.430713499423
 10
-214.4840334754626
 20
-1336.884851047427
 10
-242.258534482633
 20
-1259.392416887533
 10
-242.258534482633
 20
-1259.392416887533
 10
-254.4856776942506
 20
-1184.43479374402
 10
-252.9134835124533
 20
-1101.699171245787
 10
-252.9134835124533
 20
-1101.699171245787
 10
-241.3688657999701
 20
-1000.925900329814
 10
-225.2106160348849
 20
-892.8621702607761
 10
-225.2106160348849
 20
-892.8621702607761
 10
-138.5619116542038
 20
-360.8233794653735
 10
-75.00000013157114
 20
-6.999999973068042
  0
LWPOLYLINE
  5
851
330
D1F
100
AcDbEntity
  8
0
  6
Continuous
100
AcDbPolyline
 90
       25
 70
     0
 43
0.0
 10
0.0
 20
-2931.115860563807
 10
-73.6928883686014
 20
-2916.374635519376
 10
-150.1606746709294
 20
-2887.553314170884
 10
-150.1606746709294
 20
-2887.553314170884
 10
-229.5286356191173
 20
-2834.91912194698
 10
-301.3235630389226
 20
-2766.128571207184
 10
-301.3235630389226
 20
-2766.128571207184
 10
-363.9906786668616
 20
-2676.395693073915
 10
-403.8714866059724
 20
-2585.23841172493
 10
-443.4970845265305
 20
-2416.903663482299
 10
-443.4970845265305
 20
-2416.903663482299
 10
-467.2189616804007
 20
-2287.826832576151
 10
-484.3469015960545
 20
-2185.496256670695
 10
-484.3469015960545
 20
-2185.496256670695
 10
-494.9695721547176
 20
-2091.995099760825
 10
-500.0
 20
-2006.999999596837
 10
-500.0
 20
-2006.999999596837
 10
-489.3112737262781
 20
-1807.53518399827
 10
-447.7384023179657
 20
-1610.848869749738
 10
-447.7384023179657
 20
-1610.848869749738
 10
-385.6257971436789
 20
-1338.783995503239
 10
-318.1481015684803
 20
-1039.691618298162
 10
-318.1481015684803
 20
-1039.691618298162
 10
-176.2386965402475
 20
-425.6097616740426
 10
-75.00000013157114
 20
-6.999999973068042
  0
LWPOLYLINE
  5
852
330
D1F
100
AcDbEntity
  8
0
  6
Continuous
100
AcDbPolyline
 90
       22
 70
     0
 43
0.0
 10
0.0
 20
-4506.999999596837
 10
-132.5078689066504
 20
-4470.855622469024
 10
-252.2140912660034
 20
-4442.546603597338
 10
-252.2140912660034
 20
-4442.546603597338
 10
-360.0031859326572
 20
-4391.633309820667
 10
-440.4902360049872
 20
-4320.072730435524
 10
-501.3337272126554
 20
-4233.841477657725
 10
-550.1921452853276
 20
-4138.916163703096
 10
-550.1921452853276
 20
-4138.916163703096
 10
-632.1127875751844
 20
-3933.688336112989
 10
-695.1454618660826
 20
-3686.194820323783
 10
-695.1454618660826
 20
-3686.194820323783
 10
-735.7377769720385
 20
-3373.561329589058
 10
-742.4542504736582
 20
-3006.999999596838
 10
-742.4542504736582
 20
-3006.999999596838
 10
-707.9588491028225
 20
-2609.344188061196
 10
-649.1964274298898
 20
-2215.825718365953
 10
-649.1964274298898
 20
-2215.825718365953
 10
-510.7044096068
 20
-1492.071320843786
 10
-367.8777440399536
 20
-915.3580386043833
 10
-222.1613133106039
 20
-436.6721665534842
 10
-75.0
 20
-6.999999596837367
  0
ENDBLK
  5
84A
330
D1F
100
AcDbEntity
  8
0
100
AcDbBlockEnd
  0
BLOCK
  5
D22
330
D21
100
AcDbEntity
  8
0
100
AcDbBlockBegin
  2
*D24
 70
     1
 10
0.0
 20
0.0
 30
0.0
  3
*D24
  1

  0
LINE
  5
8FC
330
D21
100
AcDbEntity
  8
0
  6
Continuous
 62
     0
100
AcDbLine
 10
0.000000000000048
 20
-39.80055763185373
 30
0.0
 11
-0.000000000000238
 21
-4710.93107267213
 31
0.0
  0
LINE
  5
8FD
330
D21
100
AcDbEntity
  8
0
  6
Continuous
 62
     0
100
AcDbLine
 10
369.5480068614215
 20
-3191.280664592949
 30
0.0
 11
369.5480068614214
 21
-4710.93107267213
 31
0.0
  0
LINE
  5
8FE
330
D21
100
AcDbEntity
  8
0
  6
Continuous
 62
     0
100
AcDbLine
 10
1.931851648806784
 20
-4708.931072672131
 30
0.0
 11
367.6161552126144
 21
-4708.931072672131
 31
0.0
  0
SOLID
  5
8FF
330
D21
100
AcDbEntity
  8
0
  6
Continuous
 62
     0
100
AcDbTrace
 10
1.931851648806784
 20
-4708.60909739733
 30
0.0
 11
1.931851648806784
 21
-4709.253047946933
 31
0.0
 12
-0.0000000000002379
 22
-4708.931072672131
 32
0.0
 13
-0.0000000000002379
 23
-4708.931072672131
 33
0.0
  0
SOLID
  5
900
330
D21
100
AcDbEntity
  8
0
  6
Continuous
 62
     0
100
AcDbTrace
 10
367.6161552126144
 20
-4708.60909739733
 30
0.0
 11
367.6161552126144
 21
-4709.253047946933
 31
0.0
 12
369.5480068614214
 22
-4708.931072672131
 32
0.0
 13
369.5480068614214
 23
-4708.931072672131
 33
0.0
  0
INSERT
  5
901
330
D21
100
AcDbEntity
  8
0
  6
Continuous
100
AcDbBlockReference
  2
*U25
 10
0.0
 20
0.0
 30
0.0
  0
POINT
  5
902
330
D21
100
AcDbEntity
  8
DEFPOINTS
  6
Continuous
 62
     0
100
AcDbPoint
 10
0.000000000000048
 20
-38.80055763185373
 30
0.0
  0
POINT
  5
903
330
D21
100
AcDbEntity
  8
DEFPOINTS
  6
Continuous
 62
     0
100
AcDbPoint
 10
369.5480068614215
 20
-3190.280664592948
 30
0.0
  0
POINT
  5
904
330
D21
100
AcDbEntity
  8
DEFPOINTS
  6
Continuous
 62
     0
100
AcDbPoint
 10
369.5480068614214
 20
-4708.931072672131
 30
0.0
  0
ENDBLK
  5
906
330
D21
100
AcDbEntity
  8
0
100
AcDbBlockEnd
  0
BLOCK
  5
D24
330
D23
100
AcDbEntity
  8
0
100
AcDbBlockBegin
  2
*U25
 70
     1
 10
0.0
 20
0.0
 30
0.0
  3
*U25
  1

  0
TEXT
  5
A0F
330
D23
100
AcDbEntity
  8
0
  6
Continuous
 62
     0
100
AcDbText
 10
177.9406700973772
 20
-4708.841072672128
 30
0.0
 40
2.0
  1
369.5480
100
AcDbText
  0
ENDBLK
  5
A11
330
D23
100
AcDbEntity
  8
0
100
AcDbBlockEnd
  0
BLOCK
  5
D28
330
D27
100
AcDbEntity
  8
0
100
AcDbBlockBegin
  2
*D26
 70
     1
 10
0.0
 20
0.0
 30
0.0
  3
*D26
  1

  0
LINE
  5
D2A
330
D27
100
AcDbEntity
  8
0
  6
Continuous
 62
     0
370
    -2
100
AcDbLine
 10
37.50000007007725
 20
-6.000000020868299
 30
0.0
 11
37.50000007007726
 21
65.01885819167546
 31
0.0
  0
LINE
  5
D2B
330
D27
100
AcDbEntity
  8
0
  6
Continuous
 62
     0
370
    -2
100
AcDbLine
 10
-37.49999998586304
 20
-5.99999931212801
 30
0.0
 11
-37.49999998586304
 21
65.01885819167546
 31
0.0
  0
LINE
  5
D2C
330
D27
100
AcDbEntity
  8
0
  6
Continuous
 62
     0
370
    -2
100
AcDbLine
 10
35.56814842127023
 20
63.01885819167546
 30
0.0
 11
-35.56814833705601
 21
63.01885819167546
 31
0.0
  0
SOLID
  5
D2D
330
D27
100
AcDbEntity
  8
0
  6
Continuous
 62
     0
100
AcDbTrace
 10
35.56814842127023
 20
63.34083346647663
 30
0.0
 11
35.56814842127023
 21
62.6968829168743
 31
0.0
 12
37.50000007007726
 22
63.01885819167546
 32
0.0
 13
37.50000007007726
 23
63.01885819167546
 33
0.0
  0
SOLID
  5
D2E
330
D27
100
AcDbEntity
  8
0
  6
Continuous
 62
     0
100
AcDbTrace
 10
-35.56814833705601
 20
63.34083346647663
 30
0.0
 11
-35.56814833705601
 21
62.6968829168743
 31
0.0
 12
-37.49999998586304
 22
63.01885819167546
 32
0.0
 13
-37.49999998586304
 23
63.01885819167546
 33
0.0
  0
MTEXT
  5
D2F
330
D27
100
AcDbEntity
  8
0
  6
Continuous
 62
     0
100
AcDbMText
 10
0.0000000421071108
 20
64.10885819167546
 30
0.0
 40
2.0
 41
0.0
 71
     5
 72
     1
  1
\A1;75.0000
 73
     1
 44
1.0
1001
ACAD
1000
MTEXTBEGIN
1070
    73
1070
     1
1070
    44
1040
1.0
1070
    74
1070
     0
1000
MTEXTEND
  0
POINT
  5
D30
330
D27
100
AcDbEntity
  8
DEFPOINTS
  6
Continuous
 62
     0
100
AcDbPoint
 10
37.50000007007725
 20
-7.000000020868299
 30
0.0
  0
POINT
  5
D31
330
D27
100
AcDbEntity
  8
DEFPOINTS
  6
Continuous
 62
     0
100
AcDbPoint
 10
-37.49999998586304
 20
-6.99999931212801
 30
0.0
  0
POINT
  5
D32
330
D27
100
AcDbEntity
  8
DEFPOINTS
  6
Continuous
 62
     0
100
AcDbPoint
 10
-37.49999998586304
 20
63.01885819167546
 30
0.0
  0
ENDBLK
  5
D29
330
D27
100
AcDbEntity
  8
0
100
AcDbBlockEnd
  0
BLOCK
  5
D4F
330
D4E
100
AcDbEntity
  8
0
100
AcDbBlockBegin
  2
A$C3B842846
 70
     0
 10
0.0
 20
0.0
 30
0.0
  3
A$C3B842846
  1

  0
SPLINE
  5
D50
330
D4E
100
AcDbEntity
  8
0
  6
Continuous
100
AcDbSpline
210
0.0
220
0.0
230
1.0
 70
    40
 71
     3
 72
    16
 73
    12
 74
    10
 42
0.0000000001
 43
0.0000000001
 44
0.0000000001
 40
0.0
 40
0.0
 40
0.0
 40
0.0
 40
0.30116309709258
 40
0.6023233984482827
 40
0.8542715763263105
 40
1.12453782195183
 40
1.264240074724317
 40
1.496859861670778
 40
1.592325720906699
 40
1.695778473168859
 40
1.793548811696092
 40
1.793548811696092
 40
1.793548811696092
 40
1.793548811696092
 10
-0.4210972461313816
 20
-0.0190104930845294
 30
0.0
 10
-0.4353441170209587
 20
-0.1183436527178074
 30
0.0
 10
-0.4638377265445256
 20
-0.3170090498614997
 30
0.0
 10
-0.5044556559076476
 20
-0.5993998636876254
 30
0.0
 10
-0.5228274266703458
 20
-0.8721051037611539
 30
0.0
 10
-0.5299895628665967
 20
-1.096848985943868
 30
0.0
 10
-0.4545410838598265
 20
-1.30006005947578
 30
0.0
 10
-0.3346427198142999
 20
-1.418126323403084
 30
0.0
 10
-0.1961695384173669
 20
-1.459229742533203
 30
0.0
 10
-0.0999832745174988
 20
-1.483962584363734
 30
0.0
 10
-0.0326943592672909
 20
-1.485463894333371
 30
0.0
 10
0.0
 20
-1.486193351292758
 30
0.0
 11
-0.4210972461313816
 21
-0.0190104930845294
 31
0.0
 11
-0.4638741030350105
 21
-0.3171201231937246
 31
0.0
 11
-0.5026577067875735
 21
-0.6157726959143055
 31
0.0
 11
-0.5210217300908937
 21
-0.8670507231752928
 31
0.0
 11
-0.5085549814322122
 21
-1.137029284736012
 31
0.0
 11
-0.4581700779241658
 21
-1.267329249924774
 31
0.0
 11
-0.2888386524578408
 21
-1.42682480982711
 31
0.0
 11
-0.1985804497771824
 21
-1.457924442116091
 31
0.0
 11
-0.0975985033876725
 21
-1.480399282582755
 31
0.0
 11
0.0
 21
-1.486193351292758
 31
0.0
  0
SPLINE
  5
D51
330
D4E
100
AcDbEntity
  8
0
  6
Continuous
100
AcDbSpline
210
0.0
220
0.0
230
1.0
 70
    40
 71
     3
 72
    21
 73
    17
 74
    15
 42
0.0000000001
 43
0.0000000001
 44
0.0000000001
 40
0.0
 40
0.0
 40
0.0
 40
0.0
 40
0.4116695297452284
 40
1.402190606816228
 40
1.981069944417065
 40
2.409717287860252
 40
2.838349195820288
 40
3.243272773677623
 40
3.648055543027106
 40
4.28567845923821
 40
4.550450198484013
 40
4.814111105213441
 40
5.039770018075164
 40
5.266068302087989
 40
5.416712402791462
 40
5.57014134846638
 40
5.57014134846638
 40
5.57014134846638
 40
5.57014134846638
 10
-0.5372834577650707
 20
-0.0269288808550066
 30
0.0
 10
-0.5595684320821368
 20
-0.1623314857216343
 30
0.0
 10
-0.6354734466696127
 20
-0.6235272919789847
 30
0.0
 10
-0.7320876625807471
 20
-1.276811420370487
 30
0.0
 10
-0.8263047634703186
 20
-1.93613069055318
 30
0.0
 10
-0.8921590727792349
 20
-2.410287897776576
 30
0.0
 10
-0.944394052219925
 20
-2.827844937684573
 30
0.0
 10
-0.9869817507283041
 20
-3.238263203359788
 30
0.0
 10
-1.013656145339924
 20
-3.721260513648394
 30
0.0
 10
-0.9374948714201465
 20
-4.155584807205613
 30
0.0
 10
-0.8262117558759401
 20
-4.527135704510468
 30
0.0
 10
-0.705434168526023
 20
-4.754666177222635
 30
0.0
 10
-0.5092655673728843
 20
-4.899920554718845
 30
0.0
 10
-0.3223926429850005
 20
-4.975740049372241
 30
0.0
 10
-0.1505705109068876
 20
-5.019802427397532
 30
0.0
 10
-0.0495806192344829
 20
-5.029830664748273
 30
0.0
 10
0.001376783230711
 20
-5.034890705097222
 30
0.0
 11
-0.5372834577650707
 21
-0.0269288808550066
 31
0.0
 11
-0.60349002052088
 21
-0.4332397135542081
 31
0.0
 11
-0.7511538043150523
 21
-1.412692321431425
 31
0.0
 11
-0.832956480598483
 21
-1.985762657126837
 31
0.0
 11
-0.8912016292158995
 21
-2.410434351148744
 31
0.0
 11
-0.943833864161121
 21
-2.835822597773086
 31
0.0
 11
-0.9837545537337177
 21
-3.238773515936617
 31
0.0
 11
-0.9973098436064731
 21
-3.643329253108522
 31
0.0
 11
-0.8990238869636471
 21
-4.273331518187273
 31
0.0
 11
-0.8175187220568886
 21
-4.525246150546669
 31
0.0
 11
-0.6831572568460303
 21
-4.752103088734099
 31
0.0
 11
-0.5053863331929165
 21
-4.89109749026687
 31
0.0
 11
-0.2970491267127784
 21
-4.979452013315789
 31
0.0
 11
-0.150863850919194
 21
-5.015832093276006
 31
0.0
 11
0.001376783230711
 21
-5.034890705097222
 31
0.0
  0
SPLINE
  5
D52
330
D4E
100
AcDbEntity
  8
0
  6
Continuous
100
AcDbSpline
210
0.0
220
0.0
230
1.0
 70
    40
 71
     3
 72
    23
 73
    19
 74
    17
 42
0.0000000001
 43
0.0000000001
 44
0.0000000001
 40
0.0
 40
0.0
 40
0.0
 40
0.0
 40
1.063129888826683
 40
2.13676478121983
 40
3.965945209999551
 40
6.165283062605446
 40
7.944012272298162
 40
9.040530689741519
 40
10.05028319532041
 40
11.06017887004221
 40
12.37411288683606
 40
13.68796587757402
 40
14.44267510680119
 40
16.11790164527555
 40
16.6507542473694
 40
17.68222326076007
 40
18.72253616588653
 40
19.26943913457333
 40
19.26943913457333
 40
19.26943913457333
 40
19.26943913457333
 10
-0.7649605730602929
 20
0.0
 30
0.0
 10
-0.8603954293215165
 20
-0.3412837282242243
 30
0.0
 10
-1.052208153150414
 20
-1.027223478895468
 30
0.0
 10
-1.403717078064429
 20
-2.301634524394091
 30
0.0
 10
-1.885125227659171
 20
-3.932905552720645
 30
0.0
 10
-2.433953845586402
 20
-5.789014155155905
 30
0.0
 10
-2.886096719287524
 20
-7.41971436164548
 30
0.0
 10
-3.161620140900689
 20
-8.685428615129165
 30
0.0
 10
-3.308917858262669
 20
-9.716053397148188
 30
0.0
 10
-3.314578041311412
 20
-10.82945480751467
 30
0.0
 10
-3.253210799624589
 20
-12.03980153748184
 30
0.0
 10
-3.159181380204304
 20
-13.16570390043984
 30
0.0
 10
-2.935049574516553
 20
-14.39206742689642
 30
0.0
 10
-2.628682978653415
 20
-15.35073698534728
 30
0.0
 10
-2.054777994342654
 20
-16.2637605212395
 30
0.0
 10
-1.510862966379699
 20
-16.96614960876335
 30
0.0
 10
-0.6901352121229327
 20
-17.33717381374999
 30
0.0
 10
-0.1768582187881057
 20
-17.46093413826546
 30
0.0
 10
0.0000003396756796
 20
-17.50357792100469
 30
0.0
 11
-0.7649605730602929
 21
0.0
 31
0.0
 11
-1.050664248671253
 21
-1.024020786048321
 31
0.0
 11
-1.339023921034055
 21
-2.058206737180352
 31
0.0
 11
-1.850327005932385
 21
-3.814472718290335
 31
0.0
 11
-2.467128657394496
 21
-5.925548916028997
 31
0.0
 11
-2.926876711442318
 21
-7.64383565816877
 31
0.0
 11
-3.154272574005979
 21
-8.716516300989088
 31
0.0
 11
-3.285905028375495
 21
-9.717652165634595
 31
0.0
 11
-3.30591271474455
 21
-10.72734962839656
 31
0.0
 11
-3.246029250158827
 21
-12.03991832037319
 31
0.0
 11
-3.116876497720568
 21
-13.34740799444665
 31
0.0
 11
-2.979953498442469
 21
-14.08959268369141
 31
0.0
 11
-2.416821244535071
 21
-15.66733347983569
 31
0.0
 11
-2.137362566770164
 21
-16.12102361966691
 31
0.0
 11
-1.459001269842417
 21
-16.89803988488638
 31
0.0
 11
-0.5286965802871891
 21
-17.36364070658262
 31
0.0
 11
0.0000003396756796
 21
-17.50357792100469
 31
0.0
  0
SPLINE
  5
D53
330
D4E
100
AcDbEntity
  8
0
  6
Continuous
100
AcDbSpline
210
0.0
220
0.0
230
1.0
 70
    40
 71
     3
 72
    29
 73
    25
 74
    23
 42
0.0000000001
 43
0.0000000001
 44
0.0000000001
 40
0.0
 40
0.0
 40
0.0
 40
0.0
 40
2.56066260171862
 40
5.136947150910302
 40
7.562837601248087
 40
9.988687065284604
 40
11.5427170882289
 40
14.396003455846
 40
16.85844356449787
 40
19.12980518937526
 40
22.28902627042874
 40
24.33975739942563
 40
25.84667539458405
 40
27.35365150221936
 40
29.73460576119808
 40
30.73268468068884
 40
31.81766951636556
 40
32.90251638099065
 40
34.13808829500732
 40
35.3730290622216
 40
36.60820931882814
 40
37.84384067051417
 40
39.1208397082746
 40
40.39749701996888
 40
40.39749701996888
 40
40.39749701996888
 40
40.39749701996888
 10
-0.9832826874534674
 20
0.0
 30
0.0
 10
-1.267119319287247
 20
-0.8049691898283493
 30
0.0
 10
-1.8365241976355
 20
-2.419818480587702
 30
0.0
 10
-2.718622706665249
 20
-4.78193035750659
 30
0.0
 10
-3.471953380179287
 20
-7.141096003342952
 30
0.0
 10
-4.113078621048912
 20
-9.177734805360406
 30
0.0
 10
-4.736740537928411
 20
-11.36909729642128
 30
0.0
 10
-5.214733501004658
 20
-13.61043335535842
 30
0.0
 10
-5.665511074280906
 20
-16.09879840970827
 30
0.0
 10
-6.070843086200421
 20
-18.69911584807271
 30
0.0
 10
-6.328288650529804
 20
-21.18041084247043
 30
0.0
 10
-6.50080621912587
 20
-23.41334506306501
 30
0.0
 10
-6.525526689816559
 20
-25.10267713873464
 30
0.0
 10
-6.435499731851116
 20
-26.89922080720829
 30
0.0
 10
-6.314943554301633
 20
-28.5237541301643
 30
0.0
 10
-6.14709811771958
 20
-30.00261752787361
 30
0.0
 10
-5.948737345486803
 20
-31.04182401039019
 30
0.0
 10
-5.604360110770652
 20
-32.12606177517881
 30
0.0
 10
-5.122053481482845
 20
-33.21139200785588
 30
0.0
 10
-4.488758231307095
 20
-34.27589849118657
 30
0.0
 10
-3.626566815751385
 20
-35.19013434136335
 30
0.0
 10
-2.488112628347374
 20
-35.74841610598389
 30
0.0
 10
-1.266180580464374
 20
-36.08128338010255
 30
0.0
 10
-0.4220225388774704
 20
-36.19641831959748
 30
0.0
 10
0.0
 20
-36.25397808576143
 30
0.0
 11
-0.9832826874534674
 21
0.0
 31
0.0
 11
-1.84218433652002
 21
-2.412318577027322
 31
0.0
 11
-2.715971000873906
 21
-4.835898355702061
 31
0.0
 11
-3.47034214796853
 21
-7.141515116890097
 31
0.0
 11
-4.1872999980677
 21
-9.458995874813975
 31
0.0
 11
-4.606272207200142
 21
-10.95548229312419
 31
0.0
 11
-5.226359397404301
 21
-13.7405738485626
 31
0.0
 11
-5.666538834966956
 21
-16.16335187212242
 31
0.0
 11
-6.009154241869694
 21
-18.40872451690068
 31
0.0
 11
-6.34971439572628
 21
-21.54953597583576
 31
0.0
 11
-6.49018215078572
 21
-23.59545067914707
 31
0.0
 11
-6.509275674441376
 21
-25.10224770644926
 31
0.0
 11
-6.445419512317151
 21
-26.60787029512891
 31
0.0
 11
-6.259137313768754
 21
-28.98152615178818
 31
0.0
 11
-6.138402604523022
 21
-29.97227569608037
 31
0.0
 11
-5.927835422698031
 21
-31.03663163071254
 31
0.0
 11
-5.602089419560712
 21
-32.07141772509483
 31
0.0
 11
-5.100190465921087
 21
-33.20045952903403
 31
0.0
 11
-4.450664763618839
 21
-34.25079045811141
 31
0.0
 11
-3.582767804169591
 21
-35.12966765891329
 31
0.0
 11
-2.489312715290665
 21
-35.70511601096084
 31
0.0
 11
-1.260898955207551
 21
-36.05400879747199
 31
0.0
 11
0.0
 21
-36.25397808576143
 31
0.0
  0
SPLINE
  5
D54
330
D4E
100
AcDbEntity
  8
0
  6
Continuous
100
AcDbSpline
210
0.0
220
0.0
230
1.0
 70
    40
 71
     3
 72
    16
 73
    12
 74
    10
 42
0.0000000001
 43
0.0000000001
 44
0.0000000001
 40
0.0
 40
0.0
 40
0.0
 40
0.0
 40
0.30116309709258
 40
0.6023233984482827
 40
0.8542715763263105
 40
1.12453782195183
 40
1.264240074724317
 40
1.496859861670778
 40
1.592325720906699
 40
1.695778473168859
 40
1.793548811696092
 40
1.793548811696092
 40
1.793548811696092
 40
1.793548811696092
 10
0.4210972461313816
 20
-0.0190104930845294
 30
0.0
 10
0.4353441170209587
 20
-0.1183436527178074
 30
0.0
 10
0.4638377265445256
 20
-0.3170090498614997
 30
0.0
 10
0.5044556559076476
 20
-0.5993998636876254
 30
0.0
 10
0.5228274266703458
 20
-0.8721051037611539
 30
0.0
 10
0.5299895628665967
 20
-1.096848985943868
 30
0.0
 10
0.4545410838598265
 20
-1.30006005947578
 30
0.0
 10
0.3346427198142999
 20
-1.418126323403084
 30
0.0
 10
0.1961695384173669
 20
-1.459229742533203
 30
0.0
 10
0.0999832745174988
 20
-1.483962584363734
 30
0.0
 10
0.0326943592672909
 20
-1.485463894333371
 30
0.0
 10
0.0
 20
-1.486193351292758
 30
0.0
 11
0.4210972461313816
 21
-0.0190104930845294
 31
0.0
 11
0.4638741030350105
 21
-0.3171201231937246
 31
0.0
 11
0.5026577067875735
 21
-0.6157726959143055
 31
0.0
 11
0.5210217300908937
 21
-0.8670507231752928
 31
0.0
 11
0.5085549814322122
 21
-1.137029284736012
 31
0.0
 11
0.4581700779241658
 21
-1.267329249924774
 31
0.0
 11
0.2888386524578408
 21
-1.42682480982711
 31
0.0
 11
0.1985804497771824
 21
-1.457924442116091
 31
0.0
 11
0.0975985033876725
 21
-1.480399282582755
 31
0.0
 11
0.0
 21
-1.486193351292758
 31
0.0
  0
SPLINE
  5
D55
330
D4E
100
AcDbEntity
  8
0
  6
Continuous
100
AcDbSpline
210
0.0
220
0.0
230
1.0
 70
    40
 71
     3
 72
    21
 73
    17
 74
    15
 42
0.0000000001
 43
0.0000000001
 44
0.0000000001
 40
0.0
 40
0.0
 40
0.0
 40
0.0
 40
0.4116695297452284
 40
1.402190606816228
 40
1.981069944417065
 40
2.409717287860252
 40
2.838349195820288
 40
3.243272773677623
 40
3.648055543027106
 40
4.28567845923821
 40
4.550450198484013
 40
4.814111105213441
 40
5.039770018075164
 40
5.266068302087989
 40
5.416712402791462
 40
5.57014134846638
 40
5.57014134846638
 40
5.57014134846638
 40
5.57014134846638
 10
0.5372834577650707
 20
-0.0269288808550066
 30
0.0
 10
0.5595684320821368
 20
-0.1623314857216343
 30
0.0
 10
0.6354734466696127
 20
-0.6235272919789847
 30
0.0
 10
0.7320876625807471
 20
-1.276811420370487
 30
0.0
 10
0.8263047634703186
 20
-1.93613069055318
 30
0.0
 10
0.8921590727792349
 20
-2.410287897776576
 30
0.0
 10
0.944394052219925
 20
-2.827844937684573
 30
0.0
 10
0.9869817507283041
 20
-3.238263203359788
 30
0.0
 10
1.013656145339924
 20
-3.721260513648394
 30
0.0
 10
0.9374948714201465
 20
-4.155584807205613
 30
0.0
 10
0.8262117558759401
 20
-4.527135704510468
 30
0.0
 10
0.705434168526023
 20
-4.754666177222635
 30
0.0
 10
0.5092655673728843
 20
-4.899920554718845
 30
0.0
 10
0.3223926429850005
 20
-4.975740049372241
 30
0.0
 10
0.1505705109068876
 20
-5.019802427397532
 30
0.0
 10
0.0495806192344829
 20
-5.029830664748273
 30
0.0
 10
-0.001376783230711
 20
-5.034890705097222
 30
0.0
 11
0.5372834577650707
 21
-0.0269288808550066
 31
0.0
 11
0.60349002052088
 21
-0.4332397135542081
 31
0.0
 11
0.7511538043150523
 21
-1.412692321431425
 31
0.0
 11
0.832956480598483
 21
-1.985762657126837
 31
0.0
 11
0.8912016292158995
 21
-2.410434351148744
 31
0.0
 11
0.943833864161121
 21
-2.835822597773086
 31
0.0
 11
0.9837545537337177
 21
-3.238773515936617
 31
0.0
 11
0.9973098436064731
 21
-3.643329253108522
 31
0.0
 11
0.8990238869636471
 21
-4.273331518187273
 31
0.0
 11
0.8175187220568886
 21
-4.525246150546669
 31
0.0
 11
0.6831572568460303
 21
-4.752103088734099
 31
0.0
 11
0.5053863331929165
 21
-4.89109749026687
 31
0.0
 11
0.2970491267127784
 21
-4.979452013315789
 31
0.0
 11
0.150863850919194
 21
-5.015832093276006
 31
0.0
 11
-0.001376783230711
 21
-5.034890705097222
 31
0.0
  0
SPLINE
  5
D56
330
D4E
100
AcDbEntity
  8
0
  6
Continuous
100
AcDbSpline
210
0.0
220
0.0
230
1.0
 70
    40
 71
     3
 72
    23
 73
    19
 74
    17
 42
0.0000000001
 43
0.0000000001
 44
0.0000000001
 40
0.0
 40
0.0
 40
0.0
 40
0.0
 40
1.063129888826683
 40
2.13676478121983
 40
3.965945209999551
 40
6.165283062605446
 40
7.944012272298162
 40
9.040530689741517
 40
10.05028319532041
 40
11.06017887004221
 40
12.37411288683606
 40
13.68796587757402
 40
14.44267510680119
 40
16.11790164527555
 40
16.6507542473694
 40
17.68222326076007
 40
18.72253616588653
 40
19.26943913457333
 40
19.26943913457333
 40
19.26943913457333
 40
19.26943913457333
 10
0.7649605730602929
 20
0.0
 30
0.0
 10
0.8603954293215165
 20
-0.3412837282242243
 30
0.0
 10
1.052208153150414
 20
-1.027223478895468
 30
0.0
 10
1.403717078064429
 20
-2.301634524394091
 30
0.0
 10
1.885125227659172
 20
-3.932905552720645
 30
0.0
 10
2.4339538455864
 20
-5.789014155155907
 30
0.0
 10
2.88609671928753
 20
-7.419714361645476
 30
0.0
 10
3.161620140900677
 20
-8.685428615129168
 30
0.0
 10
3.308917858262672
 20
-9.716053397148186
 30
0.0
 10
3.314578041311411
 20
-10.82945480751468
 30
0.0
 10
3.25321079962459
 20
-12.03980153748184
 30
0.0
 10
3.159181380204304
 20
-13.16570390043984
 30
0.0
 10
2.935049574516553
 20
-14.39206742689642
 30
0.0
 10
2.628682978653415
 20
-15.35073698534728
 30
0.0
 10
2.054777994342654
 20
-16.2637605212395
 30
0.0
 10
1.510862966379699
 20
-16.96614960876335
 30
0.0
 10
0.6901352121229327
 20
-17.33717381374999
 30
0.0
 10
0.1768582187881057
 20
-17.46093413826546
 30
0.0
 10
-0.0000003396756796
 20
-17.50357792100469
 30
0.0
 11
0.7649605730602929
 21
0.0
 31
0.0
 11
1.050664248671253
 21
-1.024020786048321
 31
0.0
 11
1.339023921034055
 21
-2.058206737180352
 31
0.0
 11
1.850327005932385
 21
-3.814472718290335
 31
0.0
 11
2.467128657394496
 21
-5.925548916028997
 31
0.0
 11
2.926876711442318
 21
-7.64383565816877
 31
0.0
 11
3.154272574005972
 21
-8.716516300989088
 31
0.0
 11
3.285905028375495
 21
-9.717652165634595
 31
0.0
 11
3.30591271474455
 21
-10.72734962839656
 31
0.0
 11
3.246029250158827
 21
-12.03991832037319
 31
0.0
 11
3.116876497720568
 21
-13.34740799444665
 31
0.0
 11
2.979953498442469
 21
-14.08959268369141
 31
0.0
 11
2.416821244535071
 21
-15.66733347983569
 31
0.0
 11
2.137362566770164
 21
-16.12102361966691
 31
0.0
 11
1.459001269842417
 21
-16.89803988488638
 31
0.0
 11
0.5286965802871891
 21
-17.36364070658262
 31
0.0
 11
-0.0000003396756796
 21
-17.50357792100469
 31
0.0
  0
SPLINE
  5
D57
330
D4E
100
AcDbEntity
  8
0
  6
Continuous
100
AcDbSpline
210
0.0
220
0.0
230
1.0
 70
    40
 71
     3
 72
    29
 73
    25
 74
    23
 42
0.0000000001
 43
0.0000000001
 44
0.0000000001
 40
0.0
 40
0.0
 40
0.0
 40
0.0
 40
2.56066260171862
 40
5.136947150910302
 40
7.562837601248086
 40
9.988687065284604
 40
11.5427170882289
 40
14.39600345584601
 40
16.85844356449787
 40
19.12980518937526
 40
22.28902627042874
 40
24.33975739942563
 40
25.84667539458405
 40
27.35365150221936
 40
29.73460576119807
 40
30.73268468068883
 40
31.81766951636556
 40
32.90251638099065
 40
34.13808829500732
 40
35.3730290622216
 40
36.60820931882815
 40
37.84384067051418
 40
39.1208397082746
 40
40.39749701996888
 40
40.39749701996888
 40
40.39749701996888
 40
40.39749701996888
 10
0.9832826874534674
 20
0.0
 30
0.0
 10
1.267119319287246
 20
-0.8049691898283494
 30
0.0
 10
1.836524197635499
 20
-2.419818480587702
 30
0.0
 10
2.718622706665254
 20
-4.78193035750659
 30
0.0
 10
3.471953380179273
 20
-7.141096003342953
 30
0.0
 10
4.11307862104892
 20
-9.177734805360408
 30
0.0
 10
4.736740537928394
 20
-11.36909729642128
 30
0.0
 10
5.214733501004675
 20
-13.61043335535841
 30
0.0
 10
5.665511074280903
 20
-16.09879840970827
 30
0.0
 10
6.070843086200425
 20
-18.6991158480727
 30
0.0
 10
6.328288650529795
 20
-21.18041084247044
 30
0.0
 10
6.500806219125888
 20
-23.41334506306502
 30
0.0
 10
6.52552668981654
 20
-25.10267713873463
 30
0.0
 10
6.435499731851139
 20
-26.8992208072083
 30
0.0
 10
6.314943554301614
 20
-28.52375413016431
 30
0.0
 10
6.147098117719584
 20
-30.0026175278736
 30
0.0
 10
5.948737345486792
 20
-31.04182401039019
 30
0.0
 10
5.604360110770658
 20
-32.12606177517881
 30
0.0
 10
5.122053481482842
 20
-33.21139200785589
 30
0.0
 10
4.488758231307105
 20
-34.27589849118658
 30
0.0
 10
3.626566815751386
 20
-35.19013434136335
 30
0.0
 10
2.488112628347375
 20
-35.74841610598389
 30
0.0
 10
1.266180580464374
 20
-36.08128338010255
 30
0.0
 10
0.4220225388774704
 20
-36.19641831959748
 30
0.0
 10
0.0
 20
-36.25397808576143
 30
0.0
 11
0.9832826874534674
 21
0.0
 31
0.0
 11
1.84218433652002
 21
-2.412318577027322
 31
0.0
 11
2.715971000873906
 21
-4.835898355702061
 31
0.0
 11
3.470342147968523
 21
-7.141515116890097
 31
0.0
 11
4.1872999980677
 21
-9.458995874813975
 31
0.0
 11
4.606272207200134
 21
-10.95548229312419
 31
0.0
 11
5.226359397404308
 21
-13.7405738485626
 31
0.0
 11
5.666538834966956
 21
-16.16335187212242
 31
0.0
 11
6.009154241869694
 21
-18.40872451690068
 31
0.0
 11
6.34971439572628
 21
-21.54953597583576
 31
0.0
 11
6.490182150785727
 21
-23.59545067914707
 31
0.0
 11
6.509275674441369
 21
-25.10224770644926
 31
0.0
 11
6.445419512317158
 21
-26.60787029512891
 31
0.0
 11
6.259137313768746
 21
-28.98152615178818
 31
0.0
 11
6.138402604523022
 21
-29.97227569608037
 31
0.0
 11
5.927835422698024
 21
-31.03663163071254
 31
0.0
 11
5.602089419560712
 21
-32.07141772509483
 31
0.0
 11
5.100190465921087
 21
-33.20045952903403
 31
0.0
 11
4.450664763618846
 21
-34.25079045811141
 31
0.0
 11
3.582767804169591
 21
-35.12966765891329
 31
0.0
 11
2.489312715290665
 21
-35.70511601096084
 31
0.0
 11
1.260898955207551
 21
-36.05400879747199
 31
0.0
 11
0.0
 21
-36.25397808576143
 31
0.0
  0
ENDBLK
  5
D58
330
D4E
100
AcDbEntity
  8
0
100
AcDbBlockEnd
  0
ENDSEC
  0
SECTION
  2
ENTITIES
  0
LINE
  5
7D5
102
{ACAD_REACTORS
330
DCE
330
DCF
102
}
330
CE0
100
AcDbEntity
  8
0
  6
Continuous
100
AcDbLine
 10
87.5
 20
-7.000000000001817
 30
0.0
 11
-87.5
 21
-6.999999999998181
 31
0.0
  0
LINE
  5
7D6
102
{ACAD_REACTORS
330
DCE
330
DCF
102
}
330
CE0
100
AcDbEntity
  8
0
  6
Continuous
100
AcDbLine
 10
0.000000000000048
 20
-38.80055763185373
 30
0.0
 11
0.000000000000048
 21
38.80055763185373
 31
0.0
  0
LINE
  5
7D7
102
{ACAD_REACTORS
330
DCE
330
DCF
102
}
330
CE0
100
AcDbEntity
  8
0
  6
Continuous
100
AcDbLine
 10
75.0
 20
0.0
 30
0.0
 11
75.0
 21
182.9999999999982
 31
0.0
  0
LINE
  5
7D8
102
{ACAD_REACTORS
330
DCE
330
DCF
102
}
330
CE0
100
AcDbEntity
  8
0
  6
Continuous
100
AcDbLine
 10
-75.0
 20
0.000000000001819
 30
0.0
 11
-75.0
 21
183.0
 31
0.0
  0
LINE
  5
7D9
102
{ACAD_REACTORS
330
DCF
102
}
330
CE0
100
AcDbEntity
  8
0
  6
Continuous
100
AcDbLine
 10
75.0
 20
183.0
 30
0.0
 11
-75.0
 21
183.0
 31
0.0
  0
LINE
  5
7DA
102
{ACAD_REACTORS
330
DCE
330
DCF
102
}
330
CE0
100
AcDbEntity
  8
0
  6
Continuous
100
AcDbLine
 10
87.5
 20
-0.000000000001819
 30
0.0
 11
-87.5
 21
0.000000000001819
 31
0.0
  0
LINE
  5
7DB
102
{ACAD_REACTORS
330
DCE
330
DCF
102
}
330
CE0
100
AcDbEntity
  8
0
  6
Continuous
100
AcDbLine
 10
-87.5
 20
-6.999999999998181
 30
0.0
 11
-87.5
 21
0.0
 31
0.0
  0
LINE
  5
7DC
102
{ACAD_REACTORS
330
DCE
330
DCF
102
}
330
CE0
100
AcDbEntity
  8
0
  6
Continuous
100
AcDbLine
 10
87.5
 20
-6.999999999998181
 30
0.0
 11
87.5
 21
0.0
 31
0.0
  0
TEXT
  5
7E5
102
{ACAD_REACTORS
330
DCF
102
}
330
CE0
100
AcDbEntity
  8
0
  6
Continuous
100
AcDbText
 10
664.2245010930601
 20
-150.1677825407604
 30
0.0
 40
160.0
  1
1.5m/s
 50
0.0000025044165917
 41
0.687499990065893
  7
STANDARD1
100
AcDbText
  0
TEXT
  5
7E6
102
{ACAD_REACTORS
330
DCF
102
}
330
CE0
100
AcDbEntity
  8
0
  6
Continuous
100
AcDbText
 10
42.64194270035647
 20
-695.7552815083738
 30
0.0
 40
160.0
  1
1m/s
 50
0.0000025044165917
 41
0.687499990065893
  7
STANDARD1
100
AcDbText
  0
TEXT
  5
7E7
102
{ACAD_REACTORS
330
DCF
102
}
330
CE0
100
AcDbEntity
  8
0
  6
Continuous
100
AcDbText
 10
104.5088112368281
 20
-1415.620833076159
 30
0.0
 40
160.0
  1
0.5m/s
 50
0.0000025044165917
 41
0.687499990065893
  7
STANDARD1
100
AcDbText
  0
TEXT
  5
7E8
102
{ACAD_REACTORS
330
DCF
102
}
330
CE0
100
AcDbEntity
  8
0
  6
Continuous
100
AcDbText
 10
104.508835702272
 20
-2145.224557255618
 30
0.0
 40
160.0
  1
0.3m/s
 50
0.0000025044165917
 41
0.687499990065893
  7
STANDARD1
100
AcDbText
  0
SPLINE
  5
DC9
102
{ACAD_REACTORS
330
DCE
330
DCF
102
}
330
CE0
100
AcDbEntity
  8
0
  6
Continuous
100
AcDbSpline
210
0.0
220
0.0
230
1.0
 70
    40
 71
     3
 72
    60
 73
    56
 74
    54
 42
0.0000000001
 43
0.0000000001
 44
0.0000000001
 40
0.0
 40
0.0
 40
0.0
 40
0.0
 40
1.250890409781311
 40
2.469012512367457
 40
3.125570517198
 40
3.490136806948511
 40
3.854687398074177
 40
4.323152788190014
 40
4.681051565257127
 40
5.036624495486901
 40
5.264171969987059
 40
5.468216148638905
 40
5.683151155523471
 40
5.904242748070796
 40
6.124979616172466
 40
6.349987169195055
 40
6.575264419198585
 40
6.843841561857919
 40
7.063594685467298
 40
7.283712862262659
 40
7.516147339465596
 40
7.747861802056445
 40
7.919168521769123
 40
8.091848277953285
 40
8.286595692325672
 40
8.481340637221478
 40
8.704862917317141
 40
8.927995735539976
 40
9.089769789365098
 40
9.252187165038369
 40
9.411490998210684
 40
9.559801014821253
 40
9.76022731788945
 40
9.951156126673708
 40
10.23525560547543
 40
10.61309957785822
 40
10.91807308514516
 40
11.27005694331764
 40
11.67590615188045
 40
12.11993978714939
 40
12.51703527892609
 40
12.90907739148902
 40
13.16650680275876
 40
13.41832881891682
 40
13.66279500257555
 40
13.77020407666307
 40
14.01806335499131
 40
14.26676492416345
 40
14.54480299580187
 40
14.82285651578684
 40
15.25627810129252
 40
16.43509008939393
 40
17.23185467501793
 40
18.13297992508933
 40
18.83642028540125
 40
18.83642028540125
 40
18.83642028540125
 40
18.83642028540125
 10
-27.75567504071041
 20
-7.0
 30
0.0
 10
-58.9680858760713
 20
-34.65918571877637
 30
0.0
 10
-120.5752676811764
 20
-89.25299752479498
 30
0.0
 10
-205.6222077698764
 20
-150.0793452301303
 30
0.0
 10
-257.1341454584226
 20
-204.5356338664082
 30
0.0
 10
-285.5510027962399
 20
-240.9047169528483
 30
0.0
 10
-309.4757436668528
 20
-273.0336973670759
 30
0.0
 10
-327.501185781133
 20
-308.28138560484
 30
0.0
 10
-347.4122008973155
 20
-343.0168870778139
 30
0.0
 10
-350.2673484380537
 20
-374.5908958456607
 30
0.0
 10
-345.7563578113298
 20
-402.0981279615571
 30
0.0
 10
-324.021472304479
 20
-414.3523648704708
 30
0.0
 10
-303.1375105077203
 20
-406.1802888364682
 30
0.0
 10
-281.9802936141428
 20
-401.8911481685354
 30
0.0
 10
-260.3205580352
 20
-395.3896069148793
 30
0.0
 10
-242.4961462663557
 20
-381.5155136106823
 30
0.0
 10
-222.9121146261614
 20
-367.7471463140257
 30
0.0
 10
-202.1631055132891
 20
-356.1268691996188
 30
0.0
 10
-179.0957550075007
 20
-348.6993685515213
 30
0.0
 10
-156.5416139316201
 20
-352.7288392201569
 30
0.0
 10
-134.561194124972
 20
-357.7977957187718
 30
0.0
 10
-113.9139563430663
 20
-364.5968553692938
 30
0.0
 10
-100.3470457635936
 20
-379.1273754116444
 30
0.0
 10
-93.73507907932392
 20
-395.9354557023218
 30
0.0
 10
-84.67062424445281
 20
-412.3348836480641
 30
0.0
 10
-75.3071599718057
 20
-430.5253155641414
 30
0.0
 10
-66.85970504417645
 20
-450.1049107087474
 30
0.0
 10
-57.86121338170779
 20
-468.5363114646357
 30
0.0
 10
-44.22898844458073
 20
-481.2789195448387
 30
0.0
 10
-29.47642401878061
 20
-487.9502066495028
 30
0.0
 10
-15.43578900379636
 20
-494.9880365916296
 30
0.0
 10
1.947269009258634
 20
-497.1249994683419
 30
0.0
 10
19.00865276389879
 20
-490.121020882781
 30
0.0
 10
38.45396316470456
 20
-478.0659211269367
 30
0.0
 10
52.49088529778474
 20
-452.3978093265086
 30
0.0
 10
74.65272816763956
 20
-429.1705950928456
 30
0.0
 10
98.03899494755292
 20
-403.2833778048045
 30
0.0
 10
131.5385928790649
 20
-388.817430414455
 30
0.0
 10
173.3060808628636
 20
-388.2627977720026
 30
0.0
 10
210.0463848169837
 20
-409.6914345130194
 30
0.0
 10
249.4291636350929
 20
-420.9842929380133
 30
0.0
 10
282.3214540689841
 20
-434.2554980465354
 30
0.0
 10
311.2657988797868
 20
-438.3361440979085
 30
0.0
 10
340.1939200597944
 20
-435.0419483151422
 30
0.0
 10
345.0918039930988
 20
-412.3885380880058
 30
0.0
 10
348.6485440591815
 20
-393.0208454501821
 30
0.0
 10
344.4598525198486
 20
-372.6070478591171
 30
0.0
 10
335.740268071239
 20
-348.4910946915152
 30
0.0
 10
324.8731916280697
 20
-323.8129291367532
 30
0.0
 10
306.6514600011243
 20
-296.2124838901518
 30
0.0
 10
267.1115048890098
 20
-247.1076184337726
 30
0.0
 10
212.7649675119332
 20
-187.9232074640006
 30
0.0
 10
147.8095082088099
 20
-117.4503227087052
 30
0.0
 10
94.25129344513267
 20
-57.76960846891848
 30
0.0
 10
53.65114649557026
 20
-22.87585563964376
 30
0.0
 10
35.85207251934657
 20
-7.578460566471107
 30
0.0
 11
-27.75567504071041
 21
-7.0
 31
0.0
 11
-122.8238418015392
 21
-88.29767426909461
 31
0.0
 11
-217.5733892076529
 21
-164.85313021069
 31
0.0
 11
-262.7972447213643
 21
-212.4502627876171
 31
0.0
 11
-285.4547017874234
 21
-241.011170257868
 31
0.0
 11
-306.6273441835573
 21
-270.6876011225483
 31
0.0
 11
-329.6289062821283
 21
-311.4984619121644
 31
0.0
 11
-344.9716786102211
 21
-343.8328813989847
 31
0.0
 11
-348.7554109886236
 21
-379.1882834814176
 31
0.0
 11
-342.2760480649096
 21
-401.0010409324324
 31
0.0
 11
-324.4860100153826
 21
-410.9937790263407
 31
0.0
 11
-303.3821655776457
 21
-406.9196752239706
 31
0.0
 11
-281.9393281604489
 21
-401.5326865985152
 31
0.0
 11
-261.1062063523469
 21
-394.2368874563972
 31
0.0
 11
-242.4268522488534
 21
-381.6923380643932
 31
0.0
 11
-223.9033622340779
 21
-368.8713119212157
 31
0.0
 11
-200.2288250679022
 21
-356.1885241536193
 31
0.0
 11
-178.9992759793733
 21
-350.5122050242426
 31
0.0
 11
-157.1073466581175
 21
-352.8064474155956
 31
0.0
 11
-134.4950626264518
 21
-358.1862683045563
 31
0.0
 11
-113.1403490638014
 21
-367.1802735522097
 31
0.0
 11
-101.342802925074
 21
-379.6011361346464
 31
0.0
 11
-93.69340782016948
 21
-395.0824066408832
 31
0.0
 11
-84.75330688990059
 21
-412.3838559849096
 31
0.0
 11
-75.93750494555511
 21
-429.748693205649
 31
0.0
 11
-66.67343478079494
 21
-450.090745731735
 31
0.0
 11
-55.64504451741427
 21
-469.4880948774103
 31
0.0
 11
-43.79251629167678
 21
-480.4983637010234
 31
0.0
 11
-29.43394979773561
 21
-488.0895169365335
 31
0.0
 11
-14.74899397259825
 21
-494.2644003401044
 31
0.0
 11
0.0000000000048
 21
-495.8218941816305
 31
0.0
 11
19.01880971223209
 21
-489.4979787215745
 31
0.0
 11
34.82550822472126
 21
-478.7888059069716
 31
0.0
 11
51.73589191484992
 21
-455.9597879253162
 31
0.0
 11
76.25594826551154
 21
-427.2121356521227
 31
0.0
 11
98.23944706266942
 21
-406.0741560394847
 31
0.0
 11
130.3691760738864
 21
-391.7003299028711
 31
0.0
 11
170.9540969301677
 21
-391.7003299028711
 31
0.0
 11
212.0089646680661
 21
-408.6164916284265
 31
0.0
 11
249.4891544869368
 21
-421.7345580650335
 31
0.0
 11
286.714380816538
 21
-434.0330419121614
 31
0.0
 11
312.2613294637899
 21
-437.2035990684819
 31
0.0
 11
336.6087521459939
 21
-430.773491219215
 31
0.0
 11
345.8330642502315
 21
-408.1339414063263
 31
0.0
 11
347.3978070830434
 21
-397.5076216374437
 31
0.0
 11
343.9310235558165
 21
-372.96533913338
 31
0.0
 11
335.8067645723874
 21
-349.4595713080773
 31
0.0
 11
324.1905713836018
 21
-324.1986182657843
 31
0.0
 11
309.2405903592773
 21
-300.7543083562849
 31
0.0
 11
282.511793009977
 21
-266.6351920124727
 31
0.0
 11
204.1319632389458
 21
-178.5864593811612
 31
0.0
 11
150.2692535557514
 21
-119.8740539234574
 31
0.0
 11
88.3243382657973
 21
-54.42869784005949
 31
0.0
 11
35.85207251934657
 21
-7.578460566471107
 31
0.0
  0
SPLINE
  5
DCA
102
{ACAD_REACTORS
330
DCE
330
DCF
102
}
330
CE0
100
AcDbEntity
  8
0
  6
Continuous
100
AcDbSpline
210
0.0
220
0.0
230
1.0
 70
    40
 71
     3
 72
    65
 73
    61
 74
    59
 42
0.0000000001
 43
0.0000000001
 44
0.0000000001
 40
0.0
 40
0.0
 40
0.0
 40
0.0
 40
1.462520225021723
 40
2.89713462115335
 40
4.314355036668723
 40
5.731676650678055
 40
6.68828106261465
 40
7.644414555472328
 40
8.349040986440222
 40
9.053055787504936
 40
9.570309756487807
 40
10.08776900405583
 40
10.4704115086388
 40
10.8483618067438
 40
11.32058726588225
 40
11.79500836839701
 40
12.76342212620465
 40
13.73718816556361
 40
14.36033684853273
 40
14.98341063416286
 40
15.7067861163539
 40
16.41942285955756
 40
17.1032528679439
 40
17.70755670212865
 40
18.31641909112999
 40
18.84414117306941
 40
19.37203661421138
 40
19.83305652130986
 40
20.29388171658376
 40
20.68118468691036
 40
20.87198898994612
 40
21.29408640142164
 40
21.60624803116397
 40
22.3904699773039
 40
23.06613433946971
 40
23.48201914598964
 40
23.89795424514665
 40
24.36124372544139
 40
24.81305838300263
 40
25.35944087646641
 40
25.91470462258048
 40
26.45049457742253
 40
26.98633556329796
 40
27.57118580478293
 40
28.34764663384455
 40
28.88587195957742
 40
29.42334713742225
 40
29.8843888488067
 40
30.34242338853362
 40
30.8340767379976
 40
31.32824801795984
 40
31.8151480496592
 40
32.30207935133343
 40
33.62736505134292
 40
35.98050025520141
 40
37.00175770990555
 40
39.17008651721977
 40
40.15426356159413
 40
42.23463753405805
 40
43.3604374790124
 40
43.3604374790124
 40
43.3604374790124
 40
43.3604374790124
 10
-68.41792870742224
 20
-8.187115837599208
 30
0.0
 10
-109.194420106769
 20
-34.91060241298385
 30
0.0
 10
-189.9693611578951
 20
-87.84767420925494
 30
0.0
 10
-306.5772572392903
 20
-172.1715600937708
 30
0.0
 10
-416.3905060751028
 20
-262.789987885427
 30
0.0
 10
-510.5678625698001
 20
-347.0910825797425
 30
0.0
 10
-591.4631769324312
 20
-423.0871704187668
 30
0.0
 10
-650.978276221361
 20
-487.1852489190228
 30
0.0
 10
-696.3036856144163
 20
-551.9117549570344
 30
0.0
 10
-725.196136244906
 20
-609.7090318271304
 30
0.0
 10
-739.46359864068
 20
-666.3808458169771
 30
0.0
 10
-741.5183627874848
 20
-713.6001939419834
 30
0.0
 10
-739.9104390972727
 20
-756.6784041468833
 30
0.0
 10
-718.1344523826918
 20
-794.4447842851075
 30
0.0
 10
-675.8618990815143
 20
-812.6318743017701
 30
0.0
 10
-613.5983262983104
 20
-826.2044824628514
 30
0.0
 10
-530.6533710753509
 20
-814.7782025355411
 30
0.0
 10
-455.3262429234627
 20
-773.2396913490522
 30
0.0
 10
-392.082679741688
 20
-734.8531780234796
 30
0.0
 10
-335.2068424479229
 20
-702.4375768075485
 30
0.0
 10
-273.4016661384343
 20
-670.4217715821332
 30
0.0
 10
-197.8414741372213
 20
-673.586277941577
 30
0.0
 10
-143.5900091747943
 20
-717.7392847399373
 30
0.0
 10
-112.9805772774708
 20
-774.8879152903318
 30
0.0
 10
-108.1675639056368
 20
-833.3578042671451
 30
0.0
 10
-95.33791035575525
 20
-887.4205886663862
 30
0.0
 10
-80.09083143288155
 20
-935.4539410898432
 30
0.0
 10
-62.90491418415473
 20
-981.3484065786983
 30
0.0
 10
-34.70122225353596
 20
-1014.574368656475
 30
0.0
 10
-7.289564244690037
 20
-1038.745483445014
 30
0.0
 10
27.21473570198722
 20
-1041.009012752474
 30
0.0
 10
55.73051749785193
 20
-1026.41070748645
 30
0.0
 10
97.75885355890608
 20
-998.9091277212921
 30
0.0
 10
142.247681212931
 20
-957.6690853135383
 30
0.0
 10
169.5809216902622
 20
-900.7877569732782
 30
0.0
 10
199.9713778895333
 20
-860.7308507056696
 30
0.0
 10
226.5465365530475
 20
-826.483041206173
 30
0.0
 10
251.8637907547479
 20
-791.0111993754214
 30
0.0
 10
298.8367167220456
 20
-761.928435660433
 30
0.0
 10
347.771602148434
 20
-795.3162470448578
 30
0.0
 10
385.1959850930238
 20
-832.4345072475272
 30
0.0
 10
421.9235310046444
 20
-873.0374788550923
 30
0.0
 10
456.8313175779778
 20
-915.658970725703
 30
0.0
 10
501.6653601734865
 20
-960.5939877429818
 30
0.0
 10
554.2008413337359
 20
-996.7532747150578
 30
0.0
 10
609.9379580464852
 20
-1023.583886940979
 30
0.0
 10
659.2854914405602
 20
-1038.659077197164
 30
0.0
 10
708.9529170886065
 20
-1038.97627895566
 30
0.0
 10
753.03889992461
 20
-1016.206281550116
 30
0.0
 10
777.4892792779759
 20
-972.7505975034128
 30
0.0
 10
790.0181044262558
 20
-925.19601252027
 30
0.0
 10
793.8602986860407
 20
-876.1136381540026
 30
0.0
 10
785.7423981174068
 20
-799.3963259778861
 30
0.0
 10
724.76609224946
 20
-671.1169068766841
 30
0.0
 10
625.2478619336196
 20
-550.2957685783176
 30
0.0
 10
510.998696901608
 20
-404.6632561472968
 30
0.0
 10
403.9437774299286
 20
-314.5575930906782
 30
0.0
 10
276.4138238287959
 20
-195.7229278521794
 30
0.0
 10
172.7221078487809
 20
-102.0585687315177
 30
0.0
 10
92.23711461243983
 20
-31.75138469863691
 30
0.0
 10
63.97601484400112
 20
-7.064070175833876
 30
0.0
 11
-68.41792870742224
 21
-8.187115837599208
 31
0.0
 11
-190.1175632878358
 21
-89.29724485346104
 31
0.0
 11
-306.1052843824292
 21
-173.7249252146074
 31
0.0
 11
-415.7635846021021
 21
-263.5035098240107
 31
0.0
 11
-521.5482104634567
 21
-357.8306984111482
 31
0.0
 11
-590.7312038785353
 21
-423.8960708198069
 31
0.0
 11
-654.7311102226649
 21
-494.9307422808961
 31
0.0
 11
-694.8474521977187
 21
-552.8588285493554
 31
0.0
 11
-725.2397042128084
 21
-616.3622097084176
 31
0.0
 11
-737.7149839171464
 21
-666.560656702163
 31
0.0
 11
-740.9082806550969
 21
-718.2079565820215
 31
0.0
 11
-736.7464561738378
 21
-756.2452025407196
 31
0.0
 11
-717.4054159916842
 21
-788.7165505732371
 31
0.0
 11
-675.7908504744753
 21
-811.0368726900691
 31
0.0
 11
-629.376894630986
 21
-820.8602391228081
 31
0.0
 11
-533.2318561860644
 21
-809.2678431006097
 31
0.0
 11
-445.5506149855501
 21
-766.9098103839492
 31
0.0
 11
-391.9594492150719
 21
-735.1115437295772
 31
0.0
 11
-337.7748483560325
 21
-704.3505545851883
 31
0.0
 11
-271.0283790990704
 21
-676.4645415305994
 31
0.0
 11
-199.9163973645728
 21
-681.1118344449273
 31
0.0
 11
-145.4194736792271
 21
-722.4194622215288
 31
0.0
 11
-117.0790399762309
 21
-775.7922179835284
 31
0.0
 11
-106.3309347436281
 21
-835.7222799000071
 31
0.0
 11
-94.72051292753853
 21
-887.2014413434232
 31
0.0
 11
-78.91092596968078
 21
-937.568026774706
 31
0.0
 11
-60.66870756197033
 21
-979.9073113101853
 31
0.0
 11
-31.905196642888
 21
-1015.910908985974
 31
0.0
 11
0.0000000000048
 21
-1037.867555711201
 31
0.0
 11
19.01767679443314
 21
-1039.413773649371
 31
0.0
 11
58.35554593733274
 21
-1024.110365563606
 31
0.0
 11
84.46462905247855
 21
-1007.0
 31
0.0
 11
140.535411173793
 21
-952.1720144417182
 31
0.0
 11
175.7034412170149
 21
-894.4794415584755
 31
0.0
 11
200.0451995734114
 21
-860.7588169637269
 31
0.0
 11
225.2798976497808
 21
-827.6947869597776
 31
0.0
 11
255.1593010972999
 21
-792.288676256425
 31
0.0
 11
295.6663847368326
 21
-772.2751552545692
 31
0.0
 11
345.1491168733056
 21
-795.4440462929214
 31
0.0
 11
385.5618782357759
 21
-833.5227410781469
 31
0.0
 11
421.5200769612723
 21
-873.2432232191539
 31
0.0
 11
456.4541053889477
 21
-913.8741139213511
 31
0.0
 11
498.1484334611728
 21
-954.8872954153051
 31
0.0
 11
561.9068324419366
 21
-999.2018613059958
 31
0.0
 11
610.5041875963687
 21
-1022.335431817192
 31
0.0
 11
662.3149203019259
 21
-1036.633810903881
 31
0.0
 11
708.3965928070358
 21
-1035.193652754654
 31
0.0
 11
748.8256504695435
 21
-1013.665817462869
 31
0.0
 11
775.3803980059296
 21
-972.2885828565033
 31
0.0
 11
788.6138549128061
 21
-924.6763138737188
 31
0.0
 11
792.3634924881338
 21
-876.1309059885016
 31
0.0
 11
787.2491983567863
 21
-827.7071006750031
 31
0.0
 11
736.6915932976738
 21
-705.2009765946807
 31
0.0
 11
597.9686116726007
 21
-515.126287997195
 31
0.0
 11
532.9956038211903
 21
-436.3343078302502
 31
0.0
 11
375.4777908557934
 21
-287.3221044209813
 31
0.0
 11
303.0107669472448
 21
-220.7294997822345
 31
0.0
 11
148.6178832404624
 21
-81.29350689030832
 31
0.0
 11
63.97601484400112
 21
-7.064070175833876
 31
0.0
  0
SPLINE
  5
DCB
102
{ACAD_REACTORS
330
DCE
330
DCF
102
}
330
CE0
100
AcDbEntity
  8
0
  6
Continuous
100
AcDbSpline
210
0.0
220
0.0
230
1.0
 70
    40
 71
     3
 72
    65
 73
    61
 74
    59
 42
0.0000000001
 43
0.0000000001
 44
0.0000000001
 40
0.0
 40
0.0
 40
0.0
 40
0.0
 40
160.2571233331298
 40
320.4880660276567
 40
540.1623622967178
 40
759.8562333241138
 40
919.8815640942669
 40
1079.843062609364
 40
1233.619956626864
 40
1387.3229513535
 40
1521.672041051724
 40
1655.938499153684
 40
1767.137044192034
 40
1877.768011532978
 40
1973.012520705097
 40
2068.261963567948
 40
2165.54241560723
 40
2263.250433354835
 40
2374.940531325036
 40
2486.424368368622
 40
2549.122209744443
 40
2648.477385456694
 40
2748.037530920469
 40
2842.63044155544
 40
2936.974881439833
 40
3041.172707409845
 40
3145.592679718527
 40
3236.179954060443
 40
3307.873605391076
 40
3384.580682260356
 40
3442.398862312504
 40
3520.836982264448
 40
3599.292209851056
 40
3669.147434943478
 40
3738.993793119443
 40
3835.803209234821
 40
3932.672844803518
 40
4029.586100578931
 40
4126.510125282845
 40
4233.851066896421
 40
4341.155770423729
 40
4421.40585763944
 40
4454.118073922264
 40
4567.05115043218
 40
4685.251743673119
 40
4803.107413278179
 40
4894.239530771534
 40
4985.585828420227
 40
5045.401029307686
 40
5105.134738660216
 40
5241.876898351289
 40
5364.587931326322
 40
5487.403656108963
 40
5662.045929315691
 40
5823.267051043425
 40
6154.811495026502
 40
6469.012633146684
 40
6863.483187149137
 40
7196.249273671904
 40
7365.895792608394
 40
7365.895792608394
 40
7365.895792608394
 40
7365.895792608394
 10
-68.41792870742224
 20
-8.187115837599208
 30
0.0
 10
-117.0533273362963
 20
-30.33157376765439
 30
0.0
 10
-214.3161792012386
 20
-74.6168719661091
 30
0.0
 10
-371.2175473105979
 20
-163.41786544164
 30
0.0
 10
-537.3009663721467
 20
-274.7954400052183
 30
0.0
 10
-699.9058901765804
 20
-390.8715217478206
 30
0.0
 10
-844.6589875367333
 20
-497.7564804403264
 30
0.0
 10
-964.1726617669444
 20
-601.4312138184464
 30
0.0
 10
-1069.869037746478
 20
-716.2786245372244
 30
0.0
 10
-1156.916669777235
 20
-835.8089439712124
 30
0.0
 10
-1217.870899738666
 20
-963.6849889591889
 30
0.0
 10
-1247.196760584355
 20
-1088.049274497597
 30
0.0
 10
-1248.769657466458
 20
-1207.437776349676
 30
0.0
 10
-1217.543154317148
 20
-1312.303546783333
 30
0.0
 10
-1141.684669703582
 20
-1384.276886612138
 30
0.0
 10
-1045.597513690107
 20
-1411.892885375348
 30
0.0
 10
-948.422062375274
 20
-1390.813157995006
 30
0.0
 10
-857.4636458748546
 20
-1343.719376199904
 30
0.0
 10
-769.2937766649894
 20
-1281.833434448846
 30
0.0
 10
-676.6727677675098
 20
-1254.305239794321
 30
0.0
 10
-587.0865608624113
 20
-1238.137835107481
 30
0.0
 10
-494.8113376922227
 20
-1261.200814587849
 30
0.0
 10
-439.3056342389023
 20
-1347.274389921932
 30
0.0
 10
-395.4651765235846
 20
-1431.507053335434
 30
0.0
 10
-336.2955781990662
 20
-1511.289384379058
 30
0.0
 10
-250.7654957625337
 20
-1567.666528030954
 30
0.0
 10
-160.3363448374917
 20
-1609.268877649211
 30
0.0
 10
-77.27522862555374
 20
-1642.258278266654
 30
0.0
 10
1.466592057754361
 20
-1655.831403392357
 30
0.0
 10
70.51450407833347
 20
-1660.448103766295
 30
0.0
 10
140.9175039263576
 20
-1647.439777634195
 30
0.0
 10
207.2699822839636
 20
-1619.973607451581
 30
0.0
 10
276.7482044303507
 20
-1590.591939547022
 30
0.0
 10
349.3251042272752
 20
-1575.431941926793
 30
0.0
 10
428.0777736806086
 20
-1591.61832388249
 30
0.0
 10
507.6724221072658
 20
-1629.443264250685
 30
0.0
 10
589.7675502769798
 20
-1681.618860605205
 30
0.0
 10
661.6527950228848
 20
-1746.865520434683
 30
0.0
 10
735.5784695204028
 20
-1814.915554107551
 30
0.0
 10
822.6009929993161
 20
-1872.541190349767
 30
0.0
 10
912.6807887594805
 20
-1913.262793976571
 30
0.0
 10
984.26657831041
 20
-1930.944360577105
 30
0.0
 10
1058.806177298275
 20
-1941.727496550016
 30
0.0
 10
1147.159963369415
 20
-1944.170759145974
 30
0.0
 10
1262.942597961384
 20
-1933.068779690881
 30
0.0
 10
1369.872931483983
 20
-1902.272462116808
 30
0.0
 10
1449.145871018482
 20
-1837.472298310431
 30
0.0
 10
1493.811449227113
 20
-1769.594689733144
 30
0.0
 10
1524.308952984501
 20
-1705.550978750474
 30
0.0
 10
1534.880620787262
 20
-1619.658938964193
 30
0.0
 10
1520.397138021026
 20
-1513.587464797168
 30
0.0
 10
1489.885591781433
 20
-1388.975850570973
 30
0.0
 10
1420.520994831846
 20
-1266.21801837183
 30
0.0
 10
1339.650282718363
 20
-1136.721981483026
 30
0.0
 10
1203.751200573007
 20
-959.691596018079
 30
0.0
 10
1003.916823861273
 20
-778.2295771804558
 30
0.0
 10
748.6313516475332
 20
-543.8216837741808
 30
0.0
 10
476.8891154028588
 20
-327.5885577769998
 30
0.0
 10
249.233304834003
 20
-133.219743443465
 30
0.0
 10
110.7401360553142
 20
-38.90929039092343
 30
0.0
 10
63.97601484400114
 20
-7.064070175833881
 30
0.0
 11
-68.41792870742224
 21
-8.187115837599208
 31
0.0
 11
-213.2813437446257
 21
-76.7213157874703
 31
0.0
 11
-353.0400158326621
 21
-155.0888382248007
 31
0.0
 11
-536.6685843508799
 21
-275.6597520691331
 31
0.0
 11
-715.7036429761184
 21
-402.9854947532403
 31
0.0
 11
-843.3992048027484
 21
-499.4321119975909
 31
0.0
 11
-963.6002995045465
 21
-604.9753630356595
 31
0.0
 11
-1067.647734593172
 21
-718.2072683678048
 31
0.0
 11
-1156.408810137791
 21
-843.690661914913
 31
0.0
 11
-1213.37259882042
 21
-965.3656580384486
 31
0.0
 11
-1243.631707805193
 21
-1096.177997267945
 31
0.0
 11
-1243.036339787998
 21
-1207.374948465224
 31
0.0
 11
-1206.906277208382
 21
-1311.939902024177
 31
0.0
 11
-1137.781916867813
 21
-1377.463480489834
 31
0.0
 11
-1046.232518347356
 21
-1403.753478516195
 31
0.0
 11
-950.4202216360038
 21
-1386.916312844304
 31
0.0
 11
-862.6053653633427
 21
-1344.074653796385
 31
0.0
 11
-766.4857895435016
 21
-1287.191395021882
 31
0.0
 11
-660.6154970809122
 21
-1252.261077304367
 31
0.0
 11
-598.4807939063841
 21
-1243.87668856094
 31
0.0
 11
-503.0027634200607
 21
-1271.361168458966
 31
0.0
 11
-440.262913500087
 21
-1348.665332620978
 31
0.0
 11
-393.0647149059133
 21
-1430.641846281053
 31
0.0
 11
-334.6773005342674
 21
-1504.748412657411
 31
0.0
 11
-249.7915750176064
 21
-1565.17688724007
 31
0.0
 11
-155.6408263748473
 21
-1610.334025623207
 31
0.0
 11
-70.47873412889096
 21
-1641.21237268047
 31
0.0
 11
0.0000000000048
 21
-1654.354962863037
 31
0.0
 11
76.65354918901359
 21
-1657.220104841676
 31
0.0
 11
133.5719395749856
 21
-1647.059456220019
 31
0.0
 11
207.1619540117991
 21
-1619.910820217722
 31
0.0
 11
280.4736619622326
 21
-1591.971310324802
 31
0.0
 11
349.3383415683419
 21
-1580.24917845978
 31
0.0
 11
418.1940267002481
 21
-1591.971310324802
 31
0.0
 11
506.7092701136614
 21
-1631.177365113121
 31
0.0
 11
588.0491432104825
 21
-1683.78488681682
 31
0.0
 11
661.561826410047
 21
-1746.936011539909
 31
0.0
 11
734.5783061494451
 21
-1810.676581440648
 31
0.0
 11
824.0153510143862
 21
-1870.032227779606
 31
0.0
 11
922.1440994669045
 21
-1913.449368706041
 31
0.0
 11
1000.000000000005
 21
-1932.905351084457
 31
0.0
 11
1032.371344448466
 21
-1937.61546283826
 31
0.0
 11
1145.224792113276
 21
-1941.855642098716
 31
0.0
 11
1262.764073760503
 21
-1929.369749565001
 31
0.0
 11
1374.428306073076
 21
-1891.67282555122
 31
0.0
 11
1445.466339155223
 21
-1834.58814551671
 31
0.0
 11
1497.430659089709
 21
-1759.462547030775
 31
0.0
 11
1521.227348545616
 21
-1704.584720651205
 31
0.0
 11
1530.130966202327
 21
-1645.518303579949
 31
0.0
 11
1517.278361086269
 21
-1509.381501874056
 31
0.0
 11
1484.664369766839
 21
-1391.08388911701
 31
0.0
 11
1428.507707680056
 21
-1281.858747518768
 31
0.0
 11
1334.803928995738
 21
-1134.483290094221
 31
0.0
 11
1236.111169190872
 21
-1007.0
 31
0.0
 11
1000.000000000005
 21
-774.2485572131297
 31
0.0
 11
766.1695262938059
 21
-564.3779666999464
 31
0.0
 11
462.3077495362366
 21
-312.832665410626
 31
0.0
 11
203.0180929821258
 21
-104.2609934517304
 31
0.0
 11
63.97601484400114
 21
-7.064070175833881
 31
0.0
  0
SPLINE
  5
DCC
102
{ACAD_REACTORS
330
DCE
330
DCF
102
}
330
CE0
100
AcDbEntity
  8
0
  6
Continuous
100
AcDbSpline
210
0.0
220
0.0
230
1.0
 70
    40
 71
     3
 72
    60
 73
    56
 74
    54
 42
0.0000000001
 43
0.0000000001
 44
0.0000000001
 40
0.0
 40
0.0
 40
0.0
 40
0.0
 40
322.4818201527099
 40
555.1339601551689
 40
787.774784420091
 40
993.3337770148545
 40
1198.869878194747
 40
1395.915179352639
 40
1592.911657675009
 40
1778.280775142241
 40
1864.313163254018
 40
1969.184425271426
 40
2074.150029302174
 40
2256.383948383221
 40
2438.093805933696
 40
2586.469489874474
 40
2735.784203367944
 40
2878.277575560804
 40
3020.57294653137
 40
3139.853251625321
 40
3336.713111016852
 40
3494.390146221102
 40
3656.019200696916
 40
3874.160714704704
 40
3996.383659390248
 40
4118.53065231569
 40
4210.112834092291
 40
4275.669204720059
 40
4432.733883835924
 40
4611.469375869136
 40
4790.125924631449
 40
4936.126479608426
 40
5082.226378698559
 40
5157.153207917733
 40
5243.390111223053
 40
5308.616054310847
 40
5385.157494463591
 40
5535.818300056895
 40
5686.479633325894
 40
5852.244915463884
 40
6017.978081983982
 40
6159.540228584023
 40
6300.619990177222
 40
6475.043042573301
 40
6649.734927909263
 40
6815.251924452846
 40
6981.031502351108
 40
7253.082945740179
 40
7525.055125640708
 40
7863.959748294497
 40
8203.171118549473
 40
8899.878756488611
 40
9189.066605190884
 40
9338.600015712385
 40
9614.43261972672
 40
9614.43261972672
 40
9614.43261972672
 40
9614.43261972672
 10
-68.41792870742224
 20
-8.187115837599208
 30
0.0
 10
-171.1859472186596
 20
-40.40009102290134
 30
0.0
 10
-348.0951976887393
 20
-95.85288049961903
 30
0.0
 10
-583.1129280958079
 20
-214.7607748403393
 30
0.0
 10
-773.7180840120966
 20
-331.8277615070944
 30
0.0
 10
-951.0770751846751
 20
-452.7127154220091
 30
0.0
 10
-1112.744347471514
 20
-575.3219469231384
 30
0.0
 10
-1261.767634301654
 20
-708.6643704877277
 30
0.0
 10
-1396.06895596202
 20
-848.23236723653
 30
0.0
 10
-1484.39403844352
 20
-977.8265024476336
 30
0.0
 10
-1546.057481714808
 20
-1086.952910746193
 30
0.0
 10
-1585.234297977027
 20
-1178.35974974956
 30
0.0
 10
-1604.331263117187
 20
-1308.525868203579
 30
0.0
 10
-1612.697618937301
 20
-1463.951343792557
 30
0.0
 10
-1598.498035321237
 20
-1637.868369796227
 30
0.0
 10
-1510.18844768286
 20
-1778.65772239301
 30
0.0
 10
-1385.700127882381
 20
-1859.78630349638
 30
0.0
 10
-1257.984039391737
 20
-1927.715412167813
 30
0.0
 10
-1127.156116653546
 20
-1966.152627066749
 30
0.0
 10
-974.113336131343
 20
-1973.458184086658
 30
0.0
 10
-815.8064260533542
 20
-1972.399478572434
 30
0.0
 10
-646.1301005987784
 20
-2004.848120822046
 30
0.0
 10
-473.7850504197572
 20
-2055.2028516515
 30
0.0
 10
-323.8530166080263
 20
-2132.311216930665
 30
0.0
 10
-195.9819151958749
 20
-2218.375673414839
 30
0.0
 10
-96.23974350681173
 20
-2270.179253725046
 30
0.0
 10
-8.584821120067966
 20
-2302.054771554815
 30
0.0
 10
92.48104427931835
 20
-2329.71009903691
 30
0.0
 10
225.1275178240263
 20
-2351.124865981732
 30
0.0
 10
396.5396692152328
 20
-2355.6630179947
 30
0.0
 10
564.6337335250517
 20
-2364.658040936323
 30
0.0
 10
717.5539024004059
 20
-2403.575878334518
 30
0.0
 10
830.9247338590973
 20
-2449.859247951274
 30
0.0
 10
924.8433254754129
 20
-2490.722714028693
 30
0.0
 10
993.1488169630343
 20
-2522.769084579928
 30
0.0
 10
1064.318243136364
 20
-2550.014927296551
 30
0.0
 10
1160.118965542633
 20
-2569.576100984245
 30
0.0
 10
1285.634525439662
 20
-2582.15581161114
 30
0.0
 10
1441.664319267486
 20
-2582.099848751556
 30
0.0
 10
1601.491395116655
 20
-2559.869088560037
 30
0.0
 10
1753.545121933754
 20
-2517.820498686231
 30
0.0
 10
1891.28998927263
 20
-2453.810720136623
 30
0.0
 10
1994.044696841919
 20
-2335.188864785535
 30
0.0
 10
2049.341867288092
 20
-2179.347703885033
 30
0.0
 10
2083.91020625414
 20
-2011.080808439838
 30
0.0
 10
2083.260312931951
 20
-1840.151038673108
 30
0.0
 10
2024.282406532934
 20
-1646.402082292565
 30
0.0
 10
1927.601261781677
 20
-1429.695925340386
 30
0.0
 10
1758.095394317158
 20
-1186.334284931671
 30
0.0
 10
1523.661700639688
 20
-970.9455137638585
 30
0.0
 10
1158.799296861671
 20
-693.4631606439266
 30
0.0
 10
783.4227402024359
 20
-459.7015900304422
 30
0.0
 10
460.9725929862401
 20
-261.2177456194971
 30
0.0
 10
270.4659105529799
 20
-117.6435229349
 30
0.0
 10
145.2035645414349
 20
-50.56304122069898
 30
0.0
 10
63.97601484400114
 20
-7.064070175833881
 30
0.0
 11
-68.41792870742224
 21
-8.187115837599208
 31
0.0
 11
-372.9102642988982
 21
-114.3894787823697
 31
0.0
 11
-581.4636083161847
 21
-217.5035949204191
 31
0.0
 11
-780.349405905563
 21
-338.1940776930851
 31
0.0
 11
-950.0887905999906
 21
-454.1382052724113
 31
0.0
 11
-1113.187014541982
 21
-579.2144149815287
 31
0.0
 11
-1260.12856376825
 21
-710.4966750907633
 31
0.0
 11
-1394.377408045156
 21
-854.6662290254648
 31
0.0
 11
-1499.999999999995
 21
-1007.0
 31
0.0
 11
-1541.750157835398
 21
-1082.22297604412
 31
0.0
 11
-1580.834673386238
 21
-1179.53886498976
 31
0.0
 11
-1599.383583436461
 21
-1282.852542523223
 31
0.0
 11
-1608.549846483153
 21
-1464.855786684959
 31
0.0
 11
-1581.920214050141
 21
-1644.603763050471
 31
0.0
 11
-1503.069473350666
 21
-1770.293477331465
 31
0.0
 11
-1382.900249126679
 21
-1858.917634393983
 31
0.0
 11
-1255.817586395649
 21
-1923.37194342049
 31
0.0
 11
-1118.92559400122
 21
-1962.212064660447
 31
0.0
 11
-999.999999999995
 21
-1971.40414139869
 31
0.0
 11
-803.3037237425425
 21
-1979.427803038199
 31
0.0
 11
-648.0561106030741
 21
-2007.0
 31
0.0
 11
-493.420432943126
 21
-2054.029336008434
 31
0.0
 11
-298.3087313286755
 21
-2151.585186815671
 31
0.0
 11
-194.7124615714191
 21
-2216.440881245591
 31
0.0
 11
-85.98129133648397
 21
-2272.095355459887
 31
0.0
 11
0.0000000000048
 21
-2303.631264501362
 31
0.0
 11
63.21730900808635
 21
-2320.986654778215
 31
0.0
 11
218.1634199994769
 21
-2346.696888429689
 31
0.0
 11
396.6313848124814
 21
-2356.472452242512
 31
0.0
 11
574.6452671970222
 21
-2371.612468558338
 31
0.0
 11
716.3577112729348
 21
-2406.737178487627
 31
0.0
 11
852.5975913292676
 21
-2459.499623430817
 31
0.0
 11
921.2488591096404
 21
-2489.516837974921
 31
0.0
 11
1000.000000000005
 21
-2524.660276909623
 31
0.0
 11
1061.250274356808
 21
-2547.084093331196
 31
0.0
 11
1135.954918217212
 21
-2563.751674029856
 31
0.0
 11
1285.77572605909
 21
-2579.63889781598
 31
0.0
 11
1436.434739330004
 21
-2578.80279816467
 31
0.0
 11
1600.668485413686
 21
-2556.321574674651
 31
0.0
 11
1760.043570678717
 21
-2510.856591648783
 31
0.0
 11
1885.59623722016
 21
-2445.462637231384
 31
0.0
 11
1979.482644248508
 21
-2340.159067935272
 31
0.0
 11
2045.334659904803
 21
-2178.644631301364
 31
0.0
 11
2078.385939191631
 21
-2007.107848832597
 31
0.0
 11
2075.283542389414
 21
-1841.619930001976
 31
0.0
 11
2032.256608567183
 21
-1681.521362194569
 31
0.0
 11
1920.002784617556
 21
-1433.708798229859
 31
0.0
 11
1764.31353228726
 21
-1210.707176377731
 31
0.0
 11
1520.580379057515
 21
-975.227892208629
 31
0.0
 11
1251.687386499518
 21
-768.4407739844427
 31
0.0
 11
667.6311194704503
 21
-388.5989520285091
 31
0.0
 11
424.6252529145301
 21
-231.8259930832413
 31
0.0
 11
302.6732941777568
 21
-145.2929900008552
 31
0.0
 11
63.97601484400114
 21
-7.064070175833881
 31
0.0
  0
LINE
  5
DCD
102
{ACAD_REACTORS
330
DCF
102
}
330
CE0
100
AcDbEntity
  8
0
  6
Continuous
100
AcDbLine
 10
564.3096740309847
 20
-92.54008847915974
 30
0.0
 11
94.28624666225005
 21
-263.7048239674423
 31
0.0
  0
ENDSEC
  0
SECTION
  2
OBJECTS
  0
DICTIONARY
  5
C81
330
0
100
AcDbDictionary
281
     1
  3
ACAD_COLOR
350
CD7
  3
ACAD_GROUP
350
C82
  3
ACAD_LAYOUT
350
CD6
  3
ACAD_MATERIAL
350
C85
  3
ACAD_MLEADERSTYLE
350
CDA
  3
ACAD_MLINESTYLE
350
CD3
  3
ACAD_PLOTSETTINGS
350
CD5
  3
ACAD_PLOTSTYLENAME
350
C83
  3
ACAD_SCALELIST
350
CB7
  3
ACAD_TABLESTYLE
350
CD8
  3
ACAD_VISUALSTYLE
350
C9E
  3
ACDB_RECOMPOSE_DATA
350
DD2
  3
AcDbVariableDictionary
350
D7C
  3
DWGPROPS
350
DD3
  0
DICTIONARY
  5
D7A
330
CC9
100
AcDbDictionary
280
     1
281
     1
  3
ADSK_XREC_LAYER_RECONCILED
360
D7B
  0
DICTIONARY
  5
CD7
102
{ACAD_REACTORS
330
C81
102
}
330
C81
100
AcDbDictionary
281
     1
  0
DICTIONARY
  5
C82
102
{ACAD_REACTORS
330
C81
102
}
330
C81
100
AcDbDictionary
281
     1
  3
*A1
350
D47
  3
*A2
350
D78
  3
*A4
350
DCE
  3
*A5
350
DCF
  0
DICTIONARY
  5
CD6
102
{ACAD_REACTORS
330
C81
102
}
330
C81
100
AcDbDictionary
281
     1
  3
Model
350
CE3
  3
レイアウト1
350
CDF
  0
DICTIONARY
  5
C85
102
{ACAD_REACTORS
330
C81
102
}
330
C81
100
AcDbDictionary
281
     1
  3
ByBlock
350
C8E
  3
ByLayer
350
C86
  3
Global
350
C96
  0
DICTIONARY
  5
CDA
102
{ACAD_REACTORS
330
C81
102
}
330
C81
100
AcDbDictionary
281
     1
  3
Standard
350
CDB
  0
DICTIONARY
  5
CD3
102
{ACAD_REACTORS
330
C81
102
}
330
C81
100
AcDbDictionary
281
     1
  3
Standard
350
CD4
  0
DICTIONARY
  5
CD5
102
{ACAD_REACTORS
330
C81
102
}
330
C81
100
AcDbDictionary
281
     1
  0
ACDBDICTIONARYWDFLT
  5
C83
102
{ACAD_REACTORS
330
C81
102
}
330
C81
100
AcDbDictionary
281
     1
  3
Normal
350
C84
100
AcDbDictionaryWithDefault
340
C84
  0
DICTIONARY
  5
CB7
102
{ACAD_REACTORS
330
C81
102
}
330
C81
100
AcDbDictionary
281
     1
  3
A0
350
CB8
  3
A1
350
CB9
  3
A2
350
CBA
  3
A3
350
CBB
  3
A4
350
CBC
  3
A5
350
CBD
  3
A6
350
CBE
  3
A7
350
CBF
  3
A8
350
CC0
  3
A9
350
CC1
  3
B0
350
CC2
  3
B1
350
CC3
  3
B2
350
CC4
  3
B3
350
CC5
  3
B4
350
CC6
  3
B5
350
CC7
  3
B6
350
CC8
  0
DICTIONARY
  5
CD8
102
{ACAD_REACTORS
330
C81
102
}
330
C81
100
AcDbDictionary
281
     1
  3
Standard
350
CD9
  0
DICTIONARY
  5
C9E
102
{ACAD_REACTORS
330
C81
102
}
330
C81
100
AcDbDictionary
281
     1
  3
2dWireframe
350
CA4
  3
Basic
350
CA3
  3
Brighten
350
CAA
  3
ColorChange
350
CAE
  3
Conceptual
350
CA7
  3
Dim
350
CA9
  3
EdgeColorOff
350
CB6
  3
Facepattern
350
CAD
  3
Flat
350
C9F
  3
FlatWithEdges
350
CA0
  3
Gouraud
350
CA1
  3
GouraudWithEdges
350
CA2
  3
Hidden
350
CA6
  3
JitterOff
350
CB4
  3
Linepattern
350
CAC
  3
OverhangOff
350
CB5
  3
Realistic
350
CA8
  3
Shaded
350
CB3
  3
Shaded with edges
350
CB2
  3
Shades of Gray
350
CAF
  3
Sketchy
350
CB0
  3
Thicken
350
CAB
  3
Wireframe
350
CA5
  3
X-Ray
350
CB1
  0
XRECORD
  5
DD2
102
{ACAD_REACTORS
330
C81
102
}
330
C81
100
AcDbXrecord
280
     1
 90
        1
330
CD9
  0
DICTIONARY
  5
D7C
102
{ACAD_REACTORS
330
C81
102
}
330
C81
100
AcDbDictionary
281
     1
  3
CANNOSCALE
350
D7F
  3
CMLEADERSTYLE
350
D7E
  3
CTABLESTYLE
350
D7D
  3
DIMASSOC
350
D82
  3
INDEXCTL
350
D81
  3
SORTENTS
350
D80
  3
XCLIPFRAME
350
D83
  0
XRECORD
  5
DD3
102
{ACAD_REACTORS
330
C81
102
}
330
C81
100
AcDbXrecord
280
     1
  1
DWGPROPS COOKIE
  2

  3

  4

  6

  7

  8
N110106
  9

300
=
301
=
302
=
303
=
304
=
305
=
306
=
307
=
308
=
309
=
 40
0.0797857175925926
 41
2453297.545854491
 42
2457466.622527766
  1

 90
        0
  0
XRECORD
  5
D7B
102
{ACAD_REACTORS
330
D7A
102
}
330
D7A
100
AcDbXrecord
280
     1
290
     1
  0
GROUP
  5
D47
102
{ACAD_REACTORS
330
C82
102
}
330
C82
100
AcDbGroup
300

 70
     1
 71
     1
  0
GROUP
  5
D78
102
{ACAD_REACTORS
330
C82
102
}
330
C82
100
AcDbGroup
300

 70
     1
 71
     1
  0
GROUP
  5
DCE
102
{ACAD_REACTORS
330
C82
102
}
330
C82
100
AcDbGroup
300

 70
     1
 71
     1
340
DCC
340
DCB
340
DCA
340
DC9
340
7DC
340
7DB
340
7DA
340
7D8
340
7D7
340
7D6
340
7D5
  0
GROUP
  5
DCF
102
{ACAD_REACTORS
330
C82
102
}
330
C82
100
AcDbGroup
300

 70
     1
 71
     1
340
DCD
340
DCC
340
DCB
340
DCA
340
DC9
340
7E8
340
7E7
340
7E6
340
7E5
340
7DC
340
7DB
340
7DA
340
7D9
340
7D8
340
7D7
340
7D6
340
7D5
  0
LAYOUT
  5
CE3
102
{ACAD_XDICTIONARY
360
E0B
102
}
102
{ACAD_REACTORS
330
CD6
102
}
330
CD6
100
AcDbPlotSettings
  1

  2
\\10.240.64.24\オンデマンドプリント
  4

  6

 40
0.0
 41
0.0
 42
0.0
 43
0.0
 44
0.0
 45
0.0
 46
0.0
 47
0.0
 48
0.0
 49
0.0
140
0.0
141
0.0
142
1.0
143
1.0
 70
  1712
 72
     0
 73
     0
 74
     0
  7

 75
     0
147
1.0
148
0.0
149
0.0
100
AcDbLayout
  1
Model
 70
     1
 71
     0
 10
0.0
 20
0.0
 11
12.0
 21
9.0
 12
0.0
 22
0.0
 32
0.0
 14
0.0
 24
0.0
 34
0.0
 15
0.0
 25
0.0
 35
0.0
146
0.0
 13
0.0
 23
0.0
 33
0.0
 16
1.0
 26
0.0
 36
0.0
 17
0.0
 27
1.0
 37
0.0
 76
     0
330
CE0
331
CE5
  0
LAYOUT
  5
CDF
102
{ACAD_XDICTIONARY
360
E09
102
}
102
{ACAD_REACTORS
330
CD6
102
}
330
CD6
100
AcDbPlotSettings
  1

  2
\\10.240.64.24\オンデマンドプリント
  4

  6

 40
0.0
 41
0.0
 42
0.0
 43
0.0
 44
0.0
 45
0.0
 46
0.0
 47
0.0
 48
0.0
 49
0.0
140
0.0
141
0.0
142
1.0
143
1.0
 70
   688
 72
     0
 73
     0
 74
     5
  7

 75
    16
147
1.0
148
0.0
149
0.0
100
AcDbLayout
  1
レイアウト1
 70
     1
 71
     1
 10
0.0
 20
0.0
 11
12.0
 21
9.0
 12
0.0
 22
0.0
 32
0.0
 14
1.000000000000000E+20
 24
1.000000000000000E+20
 34
1.000000000000000E+20
 15
-1.000000000000000E+20
 25
-1.000000000000000E+20
 35
-1.000000000000000E+20
146
0.0
 13
0.0
 23
0.0
 33
0.0
 16
1.0
 26
0.0
 36
0.0
 17
0.0
 27
1.0
 37
0.0
 76
     0
330
CDC
  0
MATERIAL
  5
C8E
102
{ACAD_XDICTIONARY
360
C8F
102
}
102
{ACAD_REACTORS
330
C85
102
}
330
C85
100
AcDbMaterial
  1
ByBlock
 72
     0
 43
0.0208333333333333
 43
0.0
 43
0.0
 43
0.0
 43
0.0
 43
0.0208333333333333
 43
0.0
 43
0.0
 43
0.0
 43
0.0
 43
1.0
 43
0.0
 43
0.0
 43
0.0
 43
0.0
 43
1.0
 77
     0
 47
0.0208333333333333
 47
0.0
 47
0.0
 47
0.0
 47
0.0
 47
0.0208333333333333
 47
0.0
 47
0.0
 47
0.0
 47
0.0
 47
1.0
 47
0.0
 47
0.0
 47
0.0
 47
0.0
 47
1.0
171
     0
 49
0.0208333333333333
 49
0.0
 49
0.0
 49
0.0
 49
0.0
 49
0.0208333333333333
 49
0.0
 49
0.0
 49
0.0
 49
0.0
 49
1.0
 49
0.0
 49
0.0
 49
0.0
 49
0.0
 49
1.0
175
     0
142
0.0208333333333333
142
0.0
142
0.0
142
0.0
142
0.0
142
0.0208333333333333
142
0.0
142
0.0
142
0.0
142
0.0
142
1.0
142
0.0
142
0.0
142
0.0
142
0.0
142
1.0
179
     0
144
0.0208333333333333
144
0.0
144
0.0
144
0.0
144
0.0
144
0.0208333333333333
144
0.0
144
0.0
144
0.0
144
0.0
144
1.0
144
0.0
144
0.0
144
0.0
144
0.0
144
1.0
147
0.0208333333333333
147
0.0
147
0.0
147
0.0
147
0.0
147
0.0208333333333333
147
0.0
147
0.0
147
0.0
147
0.0
147
1.0
147
0.0
147
0.0
147
0.0
147
0.0
147
1.0
  0
MATERIAL
  5
C86
102
{ACAD_XDICTIONARY
360
C87
102
}
102
{ACAD_REACTORS
330
C85
102
}
330
C85
100
AcDbMaterial
  1
ByLayer
 72
     0
 43
0.0208333333333333
 43
0.0
 43
0.0
 43
0.0
 43
0.0
 43
0.0208333333333333
 43
0.0
 43
0.0
 43
0.0
 43
0.0
 43
1.0
 43
0.0
 43
0.0
 43
0.0
 43
0.0
 43
1.0
 77
     0
 47
0.0208333333333333
 47
0.0
 47
0.0
 47
0.0
 47
0.0
 47
0.0208333333333333
 47
0.0
 47
0.0
 47
0.0
 47
0.0
 47
1.0
 47
0.0
 47
0.0
 47
0.0
 47
0.0
 47
1.0
171
     0
 49
0.0208333333333333
 49
0.0
 49
0.0
 49
0.0
 49
0.0
 49
0.0208333333333333
 49
0.0
 49
0.0
 49
0.0
 49
0.0
 49
1.0
 49
0.0
 49
0.0
 49
0.0
 49
0.0
 49
1.0
175
     0
142
0.0208333333333333
142
0.0
142
0.0
142
0.0
142
0.0
142
0.0208333333333333
142
0.0
142
0.0
142
0.0
142
0.0
142
1.0
142
0.0
142
0.0
142
0.0
142
0.0
142
1.0
179
     0
144
0.0208333333333333
144
0.0
144
0.0
144
0.0
144
0.0
144
0.0208333333333333
144
0.0
144
0.0
144
0.0
144
0.0
144
1.0
144
0.0
144
0.0
144
0.0
144
0.0
144
1.0
147
0.0208333333333333
147
0.0
147
0.0
147
0.0
147
0.0
147
0.0208333333333333
147
0.0
147
0.0
147
0.0
147
0.0
147
1.0
147
0.0
147
0.0
147
0.0
147
0.0
147
1.0
  0
MATERIAL
  5
C96
102
{ACAD_XDICTIONARY
360
C97
102
}
102
{ACAD_REACTORS
330
C85
102
}
330
C85
100
AcDbMaterial
  1
Global
 72
     0
 43
0.0208333333333333
 43
0.0
 43
0.0
 43
0.0
 43
0.0
 43
0.0208333333333333
 43
0.0
 43
0.0
 43
0.0
 43
0.0
 43
1.0
 43
0.0
 43
0.0
 43
0.0
 43
0.0
 43
1.0
 77
     0
 47
0.0208333333333333
 47
0.0
 47
0.0
 47
0.0
 47
0.0
 47
0.0208333333333333
 47
0.0
 47
0.0
 47
0.0
 47
0.0
 47
1.0
 47
0.0
 47
0.0
 47
0.0
 47
0.0
 47
1.0
171
     0
 49
0.0208333333333333
 49
0.0
 49
0.0
 49
0.0
 49
0.0
 49
0.0208333333333333
 49
0.0
 49
0.0
 49
0.0
 49
0.0
 49
1.0
 49
0.0
 49
0.0
 49
0.0
 49
0.0
 49
1.0
175
     0
142
0.0208333333333333
142
0.0
142
0.0
142
0.0
142
0.0
142
0.0208333333333333
142
0.0
142
0.0
142
0.0
142
0.0
142
1.0
142
0.0
142
0.0
142
0.0
142
0.0
142
1.0
179
     0
144
0.0208333333333333
144
0.0
144
0.0
144
0.0
144
0.0
144
0.0208333333333333
144
0.0
144
0.0
144
0.0
144
0.0
144
1.0
144
0.0
144
0.0
144
0.0
144
0.0
144
1.0
147
0.0208333333333333
147
0.0
147
0.0
147
0.0
147
0.0
147
0.0208333333333333
147
0.0
147
0.0
147
0.0
147
0.0
147
1.0
147
0.0
147
0.0
147
0.0
147
0.0
147
1.0
  0
MLEADERSTYLE
  5
CDB
102
{ACAD_REACTORS
330
CDA
102
}
330
CDA
100
AcDbMLeaderStyle
170
     2
171
     1
172
     0
 90
        2
 40
0.0
 41
0.0
173
     1
 91
-1056964608
340
CCF
 92
       -2
290
     1
 42
0.09
291
     1
 43
0.36
  3
Standard
 44
0.18
300

342
CCA
174
     1
178
     6
175
     1
176
     0
 93
-1056964608
 45
0.18
292
     0
297
     0
 46
0.18
 94
-1056964608
 47
1.0
 49
1.0
140
1.0
293
     1
141
0.0
294
     1
177
     0
142
1.0
295
     0
296
     0
143
0.125
1001
ACAD_MLEADERVER
1070
     2
  0
MLINESTYLE
  5
CD4
102
{ACAD_REACTORS
330
CD3
102
}
330
CD3
100
AcDbMlineStyle
  2
STANDARD
 70
     0
  3

 62
   256
 51
90.0
 52
90.0
 71
     2
 49
0.5
 62
   256
  6
BYLAYER
 49
-0.5
 62
   256
  6
BYLAYER
  0
ACDBPLACEHOLDER
  5
C84
102
{ACAD_REACTORS
330
C83
102
}
330
C83
  0
SCALE
  5
CB8
102
{ACAD_REACTORS
330
CB7
102
}
330
CB7
100
AcDbScale
 70
     0
300
1:1
140
1.0
141
1.0
290
     1
  0
SCALE
  5
CB9
102
{ACAD_REACTORS
330
CB7
102
}
330
CB7
100
AcDbScale
 70
     0
300
1/128" = 1'-0"
140
0.0078125
141
12.0
290
     0
  0
SCALE
  5
CBA
102
{ACAD_REACTORS
330
CB7
102
}
330
CB7
100
AcDbScale
 70
     0
300
1/64" = 1'-0"
140
0.015625
141
12.0
290
     0
  0
SCALE
  5
CBB
102
{ACAD_REACTORS
330
CB7
102
}
330
CB7
100
AcDbScale
 70
     0
300
1/32" = 1'-0"
140
0.03125
141
12.0
290
     0
  0
SCALE
  5
CBC
102
{ACAD_REACTORS
330
CB7
102
}
330
CB7
100
AcDbScale
 70
     0
300
1/16" = 1'-0"
140
0.0625
141
12.0
290
     0
  0
SCALE
  5
CBD
102
{ACAD_REACTORS
330
CB7
102
}
330
CB7
100
AcDbScale
 70
     0
300
3/32" = 1'-0"
140
0.09375
141
12.0
290
     0
  0
SCALE
  5
CBE
102
{ACAD_REACTORS
330
CB7
102
}
330
CB7
100
AcDbScale
 70
     0
300
1/8" = 1'-0"
140
0.125
141
12.0
290
     0
  0
SCALE
  5
CBF
102
{ACAD_REACTORS
330
CB7
102
}
330
CB7
100
AcDbScale
 70
     0
300
3/16" = 1'-0"
140
0.1875
141
12.0
290
     0
  0
SCALE
  5
CC0
102
{ACAD_REACTORS
330
CB7
102
}
330
CB7
100
AcDbScale
 70
     0
300
1/4" = 1'-0"
140
0.25
141
12.0
290
     0
  0
SCALE
  5
CC1
102
{ACAD_REACTORS
330
CB7
102
}
330
CB7
100
AcDbScale
 70
     0
300
3/8" = 1'-0"
140
0.375
141
12.0
290
     0
  0
SCALE
  5
CC2
102
{ACAD_REACTORS
330
CB7
102
}
330
CB7
100
AcDbScale
 70
     0
300
1/2" = 1'-0"
140
0.5
141
12.0
290
     0
  0
SCALE
  5
CC3
102
{ACAD_REACTORS
330
CB7
102
}
330
CB7
100
AcDbScale
 70
     0
300
3/4" = 1'-0"
140
0.75
141
12.0
290
     0
  0
SCALE
  5
CC4
102
{ACAD_REACTORS
330
CB7
102
}
330
CB7
100
AcDbScale
 70
     0
300
1" = 1'-0"
140
1.0
141
12.0
290
     0
  0
SCALE
  5
CC5
102
{ACAD_REACTORS
330
CB7
102
}
330
CB7
100
AcDbScale
 70
     0
300
1-1/2" = 1'-0"
140
1.5
141
12.0
290
     0
  0
SCALE
  5
CC6
102
{ACAD_REACTORS
330
CB7
102
}
330
CB7
100
AcDbScale
 70
     0
300
3" = 1'-0"
140
3.0
141
12.0
290
     0
  0
SCALE
  5
CC7
102
{ACAD_REACTORS
330
CB7
102
}
330
CB7
100
AcDbScale
 70
     0
300
6" = 1'-0"
140
6.0
141
12.0
290
     0
  0
SCALE
  5
CC8
102
{ACAD_REACTORS
330
CB7
102
}
330
CB7
100
AcDbScale
 70
     0
300
1'-0" = 1'-0"
140
12.0
141
12.0
290
     0
  0
TABLESTYLE
  5
CD9
102
{ACAD_XDICTIONARY
360
DD0
102
}
102
{ACAD_REACTORS
330
CD8
102
}
330
CD8
100
AcDbTableStyle
  3
Standard
 70
     0
 71
     0
 40
0.06
 41
0.06
280
     0
281
     0
  7
STANDARD
140
0.18
170
     2
 62
     0
 63
     7
283
     0
274
    -2
284
     1
 64
     0
275
    -2
285
     1
 65
     0
276
    -2
286
     1
 66
     0
277
    -2
287
     1
 67
     0
278
    -2
288
     1
 68
     0
279
    -2
289
     1
 69
     0
  7
STANDARD
140
0.25
170
     5
 62
     0
 63
     7
283
     0
274
    -2
284
     1
 64
     0
275
    -2
285
     1
 65
     0
276
    -2
286
     1
 66
     0
277
    -2
287
     1
 67
     0
278
    -2
288
     1
 68
     0
279
    -2
289
     1
 69
     0
  7
STANDARD
140
0.18
170
     5
 62
     0
 63
     7
283
     0
274
    -2
284
     1
 64
     0
275
    -2
285
     1
 65
     0
276
    -2
286
     1
 66
     0
277
    -2
287
     1
 67
     0
278
    -2
288
     1
 68
     0
279
    -2
289
     1
 69
     0
  0
VISUALSTYLE
  5
CA4
102
{ACAD_XDICTIONARY
360
DE1
102
}
102
{ACAD_REACTORS
330
C9E
102
}
330
C9E
100
AcDbVisualStyle
  2
2dWireframe
 70
     4
 71
     0
 72
     2
 73
     0
 90
        0
 40
-0.6
 41
-30.0
 62
     5
 63
     7
 74
     1
 91
        4
 64
     7
 65
   257
 75
     1
175
     1
 42
1.0
 92
        0
 66
   257
 43
1.0
 76
     1
 77
     6
 78
     2
 67
     7
 79
     5
170
     0
171
     0
290
     0
174
     0
 93
        1
 44
0.0
173
     0
291
     0
 45
0.0
1001
ACAD
1000
AcDbSavedByObjectVersion
1070
     0
  0
VISUALSTYLE
  5
CA3
102
{ACAD_XDICTIONARY
360
DDF
102
}
102
{ACAD_REACTORS
330
C9E
102
}
330
C9E
100
AcDbVisualStyle
  2
Basic
 70
     7
 71
     1
 72
     0
 73
     1
 90
        0
 40
-0.6
 41
-30.0
 62
     5
 63
     7
 74
     0
 91
        4
 64
     7
 65
   257
 75
     1
175
     1
 42
1.0
 92
        8
 66
     7
 43
1.0
 76
     1
 77
     6
 78
     2
 67
     7
 79
     5
170
     0
171
     0
290
     0
174
     0
 93
        1
 44
0.0
173
     0
291
     1
 45
0.0
1001
ACAD
1000
AcDbSavedByObjectVersion
1070
     0
  0
VISUALSTYLE
  5
CAA
102
{ACAD_XDICTIONARY
360
DED
102
}
102
{ACAD_REACTORS
330
C9E
102
}
330
C9E
100
AcDbVisualStyle
  2
Brighten
 70
    12
 71
     2
 72
     2
 73
     0
 90
        0
 40
-0.6
 41
-30.0
 62
     5
 63
     7
 74
     1
 91
        4
 64
     7
 65
   257
 75
     1
175
     1
 42
1.0
 92
        8
 66
     7
 43
1.0
 76
     1
 77
     6
 78
     2
 67
     7
 79
     5
170
     0
171
     0
290
     0
174
     0
 93
        1
 44
50.0
173
     0
291
     1
 45
0.0
1001
ACAD
1000
AcDbSavedByObjectVersion
1070
     0
  0
VISUALSTYLE
  5
CAE
102
{ACAD_XDICTIONARY
360
DF5
102
}
102
{ACAD_REACTORS
330
C9E
102
}
330
C9E
100
AcDbVisualStyle
  2
ColorChange
 70
    16
 71
     2
 72
     2
 73
     3
 90
        0
 40
-0.6
 41
-30.0
 62
     5
 63
     8
 74
     1
 91
        4
 64
     7
 65
   257
 75
     1
175
     1
 42
1.0
 92
        8
 66
     8
 43
1.0
 76
     1
 77
     6
 78
     2
 67
     7
 79
     5
170
     0
171
     0
290
     0
174
     0
 93
        1
 44
0.0
173
     0
291
     1
 45
0.0
1001
ACAD
1000
AcDbSavedByObjectVersion
1070
     0
  0
VISUALSTYLE
  5
CA7
102
{ACAD_XDICTIONARY
360
DE7
102
}
102
{ACAD_REACTORS
330
C9E
102
}
330
C9E
100
AcDbVisualStyle
  2
Conceptual
 70
     9
 71
     3
 72
     2
 73
     0
 90
        0
 40
-0.6
 41
-30.0
 62
     5
 63
     7
 74
     2
 91
        2
 64
     7
 65
   257
 75
     1
175
     1
 42
179.0
 92
        8
 66
     7
 43
1.0
 76
     1
 77
     6
 78
     2
 67
     7
 79
     3
170
     0
171
     0
290
     0
174
     0
 93
        1
 44
0.0
173
     0
291
     0
 45
0.0
1001
ACAD
1000
AcDbSavedByObjectVersion
1070
     0
  0
VISUALSTYLE
  5
CA9
102
{ACAD_XDICTIONARY
360
DEB
102
}
102
{ACAD_REACTORS
330
C9E
102
}
330
C9E
100
AcDbVisualStyle
  2
Dim
 70
    11
 71
     2
 72
     2
 73
     0
 90
        0
 40
-0.6
 41
-30.0
 62
     5
 63
     7
 74
     1
 91
        4
 64
     7
 65
   257
 75
     1
175
     1
 42
1.0
 92
        8
 66
     7
 43
1.0
 76
     1
 77
     6
 78
     2
 67
     7
 79
     5
170
     0
171
     0
290
     0
174
     0
 93
        1
 44
-50.0
173
     0
291
     1
 45
0.0
1001
ACAD
1000
AcDbSavedByObjectVersion
1070
     0
  0
VISUALSTYLE
  5
CB6
102
{ACAD_XDICTIONARY
360
E05
102
}
102
{ACAD_REACTORS
330
C9E
102
}
330
C9E
100
AcDbVisualStyle
  2
EdgeColorOff
 70
    22
 71
     2
 72
     2
 73
     0
 90
        0
 40
-0.6
 41
-30.0
 62
     5
 63
     7
 74
     1
 91
        4
 64
     7
 65
   257
 75
     1
175
     1
 42
1.0
 92
        8
 66
     7
 43
1.0
 76
     1
 77
     6
 78
     2
 67
     7
 79
     5
170
     0
171
     0
290
     0
174
     0
 93
        1
 44
0.0
173
     0
291
     1
 45
0.0
1001
ACAD
1000
AcDbSavedByObjectVersion
1070
     0
  0
VISUALSTYLE
  5
CAD
102
{ACAD_XDICTIONARY
360
DF3
102
}
102
{ACAD_REACTORS
330
C9E
102
}
330
C9E
100
AcDbVisualStyle
  2
Facepattern
 70
    15
 71
     2
 72
     2
 73
     0
 90
        0
 40
-0.6
 41
-30.0
 62
     5
 63
     7
 74
     1
 91
        4
 64
     7
 65
   257
 75
     1
175
     1
 42
1.0
 92
        8
 66
     7
 43
1.0
 76
     1
 77
     6
 78
     2
 67
     7
 79
     5
170
     0
171
     0
290
     0
174
     0
 93
        1
 44
0.0
173
     0
291
     1
 45
0.0
1001
ACAD
1000
AcDbSavedByObjectVersion
1070
     0
  0
VISUALSTYLE
  5
C9F
102
{ACAD_XDICTIONARY
360
DD7
102
}
102
{ACAD_REACTORS
330
C9E
102
}
330
C9E
100
AcDbVisualStyle
  2
Flat
 70
     0
 71
     2
 72
     1
 73
     1
 90
        2
 40
-0.6
 41
30.0
 62
     5
 63
     7
 74
     0
 91
        0
 64
     7
 65
   257
 75
     1
175
     1
 42
1.0
 92
        8
 66
     7
 43
1.0
 76
     1
 77
     6
 78
     2
 67
     7
 79
     5
170
     0
171
     0
290
     0
174
     0
 93
       13
 44
0.0
173
     0
291
     1
 45
0.0
1001
ACAD
1000
AcDbSavedByObjectVersion
1070
     0
  0
VISUALSTYLE
  5
CA0
102
{ACAD_XDICTIONARY
360
DD9
102
}
102
{ACAD_REACTORS
330
C9E
102
}
330
C9E
100
AcDbVisualStyle
  2
FlatWithEdges
 70
     1
 71
     2
 72
     1
 73
     1
 90
        2
 40
-0.6
 41
30.0
 62
     5
 63
     7
 74
     1
 91
        0
 64
     7
 65
   257
 75
     1
175
     1
 42
1.0
 92
        0
 66
   257
 43
1.0
 76
     1
 77
     6
 78
     2
 67
     7
 79
     5
170
     0
171
     0
290
     0
174
     0
 93
       13
 44
0.0
173
     0
291
     1
 45
0.0
1001
ACAD
1000
AcDbSavedByObjectVersion
1070
     0
  0
VISUALSTYLE
  5
CA1
102
{ACAD_XDICTIONARY
360
DDB
102
}
102
{ACAD_REACTORS
330
C9E
102
}
330
C9E
100
AcDbVisualStyle
  2
Gouraud
 70
     2
 71
     2
 72
     2
 73
     1
 90
        2
 40
-0.6
 41
30.0
 62
     5
 63
     7
 74
     0
 91
        0
 64
     7
 65
   257
 75
     1
175
     1
 42
1.0
 92
        0
 66
     7
 43
1.0
 76
     1
 77
     6
 78
     2
 67
     7
 79
     5
170
     0
171
     0
290
     0
174
     0
 93
       13
 44
0.0
173
     0
291
     1
 45
0.0
1001
ACAD
1000
AcDbSavedByObjectVersion
1070
     0
  0
VISUALSTYLE
  5
CA2
102
{ACAD_XDICTIONARY
360
DDD
102
}
102
{ACAD_REACTORS
330
C9E
102
}
330
C9E
100
AcDbVisualStyle
  2
GouraudWithEdges
 70
     3
 71
     2
 72
     2
 73
     1
 90
        2
 40
-0.6
 41
30.0
 62
     5
 63
     7
 74
     1
 91
        0
 64
     7
 65
   257
 75
     1
175
     1
 42
1.0
 92
        0
 66
   257
 43
1.0
 76
     1
 77
     6
 78
     2
 67
     7
 79
     5
170
     0
171
     0
290
     0
174
     0
 93
       13
 44
0.0
173
     0
291
     1
 45
0.0
1001
ACAD
1000
AcDbSavedByObjectVersion
1070
     0
  0
VISUALSTYLE
  5
CA6
102
{ACAD_XDICTIONARY
360
DE5
102
}
102
{ACAD_REACTORS
330
C9E
102
}
330
C9E
100
AcDbVisualStyle
  2
Hidden
 70
     6
 71
     1
 72
     2
 73
     2
 90
        0
 40
-0.6
 41
-30.0
 62
     5
 63
     7
 74
     2
 91
        2
 64
     7
 65
   257
 75
     2
175
     1
 42
40.0
 92
        0
 66
   257
 43
1.0
 76
     1
 77
     6
 78
     2
 67
     7
 79
     3
170
     0
171
     0
290
     0
174
     0
 93
        1
 44
0.0
173
     0
291
     0
 45
0.0
1001
ACAD
1000
AcDbSavedByObjectVersion
1070
     0
  0
VISUALSTYLE
  5
CB4
102
{ACAD_XDICTIONARY
360
E01
102
}
102
{ACAD_REACTORS
330
C9E
102
}
330
C9E
100
AcDbVisualStyle
  2
JitterOff
 70
    20
 71
     2
 72
     2
 73
     0
 90
        0
 40
-0.6
 41
-30.0
 62
     5
 63
     7
 74
     1
 91
        4
 64
     7
 65
   257
 75
     1
175
     1
 42
1.0
 92
       10
 66
     7
 43
1.0
 76
     1
 77
     6
 78
     2
 67
     7
 79
     5
170
     0
171
     0
290
     0
174
     0
 93
        1
 44
0.0
173
     0
291
     1
 45
0.0
1001
ACAD
1000
AcDbSavedByObjectVersion
1070
     0
  0
VISUALSTYLE
  5
CAC
102
{ACAD_XDICTIONARY
360
DF1
102
}
102
{ACAD_REACTORS
330
C9E
102
}
330
C9E
100
AcDbVisualStyle
  2
Linepattern
 70
    14
 71
     2
 72
     2
 73
     0
 90
        0
 40
-0.6
 41
-30.0
 62
     5
 63
     7
 74
     1
 91
        4
 64
     7
 65
   257
 75
     7
175
     7
 42
1.0
 92
        8
 66
     7
 43
1.0
 76
     1
 77
     6
 78
     2
 67
     7
 79
     5
170
     0
171
     0
290
     0
174
     0
 93
        1
 44
0.0
173
     0
291
     1
 45
0.0
1001
ACAD
1000
AcDbSavedByObjectVersion
1070
     0
  0
VISUALSTYLE
  5
CB5
102
{ACAD_XDICTIONARY
360
E03
102
}
102
{ACAD_REACTORS
330
C9E
102
}
330
C9E
100
AcDbVisualStyle
  2
OverhangOff
 70
    21
 71
     2
 72
     2
 73
     0
 90
        0
 40
-0.6
 41
-30.0
 62
     5
 63
     7
 74
     1
 91
        4
 64
     7
 65
   257
 75
     1
175
     1
 42
1.0
 92
        9
 66
     7
 43
1.0
 76
     1
 77
     6
 78
     2
 67
     7
 79
     5
170
     0
171
     0
290
     0
174
     0
 93
        1
 44
0.0
173
     0
291
     1
 45
0.0
1001
ACAD
1000
AcDbSavedByObjectVersion
1070
     0
  0
VISUALSTYLE
  5
CA8
102
{ACAD_XDICTIONARY
360
DE9
102
}
102
{ACAD_REACTORS
330
C9E
102
}
330
C9E
100
AcDbVisualStyle
  2
Realistic
 70
     8
 71
     2
 72
     3
 73
     0
 90
        2
 40
-0.6
 41
30.0
 62
     5
 63
     7
 74
     0
 91
        0
 64
     7
 65
   257
 75
     1
175
     1
 42
1.0
 92
        8
 66
   257
 43
1.0
 76
     1
 77
     6
 78
     2
 67
     7
 79
     3
170
     0
171
     0
290
     0
174
     0
 93
       13
 44
0.0
173
     0
291
     0
 45
0.0
1001
ACAD
1000
AcDbSavedByObjectVersion
1070
     0
  0
VISUALSTYLE
  5
CB3
102
{ACAD_XDICTIONARY
360
DFF
102
}
102
{ACAD_REACTORS
330
C9E
102
}
330
C9E
100
AcDbVisualStyle
  2
Shaded
 70
    27
 71
     2
 72
     2
 73
     1
 90
        2
 40
-0.6
 41
30.0
 62
     5
 63
     7
 74
     0
 91
        4
 64
     7
 65
   257
 75
     1
175
     1
 42
1.0
 92
        8
 66
   257
 43
1.0
 76
     1
 77
     6
 78
     2
 67
     8
 79
     3
170
     0
171
     0
290
     0
174
     0
 93
        5
 44
0.0
173
     0
291
     0
 45
0.0
1001
ACAD
1000
AcDbSavedByObjectVersion
1070
     0
  0
VISUALSTYLE
  5
CB2
102
{ACAD_XDICTIONARY
360
DFD
102
}
102
{ACAD_REACTORS
330
C9E
102
}
330
C9E
100
AcDbVisualStyle
  2
Shaded with edges
 70
    26
 71
     2
 72
     2
 73
     1
 90
        2
 40
-0.6
 41
30.0
 62
     5
 63
     7
 74
     1
 91
       10
 64
     7
 65
   257
 75
     2
175
     1
 42
1.0
 92
        8
 66
   257
 43
1.0
 76
     1
 77
     6
 78
     2
 67
     7
 79
     3
170
     0
171
     0
290
     0
174
     0
 93
        5
 44
0.0
173
     0
291
     0
 45
0.0
1001
ACAD
1000
AcDbSavedByObjectVersion
1070
     0
  0
VISUALSTYLE
  5
CAF
102
{ACAD_XDICTIONARY
360
DF7
102
}
102
{ACAD_REACTORS
330
C9E
102
}
330
C9E
100
AcDbVisualStyle
  2
Shades of Gray
 70
    23
 71
     2
 72
     2
 73
     3
 90
        0
 40
-0.6
 41
-30.0
 62
     5
 63
     7
 74
     2
 91
        2
 64
     7
 65
     7
 75
     1
175
     1
 42
40.0
 92
        8
 66
     7
 43
1.0
 76
     1
 77
     6
 78
     2
 67
     7
 79
     3
170
     0
171
     0
290
     0
174
     0
 93
        1
 44
0.0
173
     0
291
     0
 45
0.0
1001
ACAD
1000
AcDbSavedByObjectVersion
1070
     0
  0
VISUALSTYLE
  5
CB0
102
{ACAD_XDICTIONARY
360
DF9
102
}
102
{ACAD_REACTORS
330
C9E
102
}
330
C9E
100
AcDbVisualStyle
  2
Sketchy
 70
    24
 71
     1
 72
     2
 73
     2
 90
        0
 40
-0.6
 41
-30.0
 62
     5
 63
     7
 74
     2
 91
        2
 64
     7
 65
     7
 75
     1
175
     1
 42
40.0
 92
       11
 66
     7
 43
1.0
 76
     1
 77
     6
 78
     2
 67
     7
 79
     6
170
     0
171
     0
290
     0
174
     0
 93
        1
 44
0.0
173
     0
291
     0
 45
0.0
1001
ACAD
1000
AcDbSavedByObjectVersion
1070
     0
  0
VISUALSTYLE
  5
CAB
102
{ACAD_XDICTIONARY
360
DEF
102
}
102
{ACAD_REACTORS
330
C9E
102
}
330
C9E
100
AcDbVisualStyle
  2
Thicken
 70
    13
 71
     2
 72
     2
 73
     0
 90
        0
 40
-0.6
 41
-30.0
 62
     5
 63
     7
 74
     1
 91
        4
 64
     7
 65
   257
 75
     1
175
     1
 42
1.0
 92
       12
 66
     7
 43
1.0
 76
     1
 77
     6
 78
     2
 67
     7
 79
     5
170
     0
171
     0
290
     0
174
     0
 93
        1
 44
0.0
173
     0
291
     1
 45
0.0
1001
ACAD
1000
AcDbSavedByObjectVersion
1070
     0
  0
VISUALSTYLE
  5
CA5
102
{ACAD_XDICTIONARY
360
DE3
102
}
102
{ACAD_REACTORS
330
C9E
102
}
330
C9E
100
AcDbVisualStyle
  2
Wireframe
 70
     5
 71
     0
 72
     2
 73
     0
 90
        0
 40
-0.6
 41
-30.0
 62
     5
 63
     7
 74
     1
 91
        4
 64
     7
 65
   257
 75
     1
175
     1
 42
1.0
 92
        0
 66
   257
 43
1.0
 76
     1
 77
     6
 78
     2
 67
     7
 79
     3
170
     0
171
     0
290
     0
174
     0
 93
        1
 44
0.0
173
     0
291
     0
 45
0.0
1001
ACAD
1000
AcDbSavedByObjectVersion
1070
     0
  0
VISUALSTYLE
  5
CB1
102
{ACAD_XDICTIONARY
360
DFB
102
}
102
{ACAD_REACTORS
330
C9E
102
}
330
C9E
100
AcDbVisualStyle
  2
X-Ray
 70
    25
 71
     2
 72
     2
 73
     1
 90
        1
 40
0.5
 41
-30.0
 62
     5
 63
     7
 74
     1
 91
        0
 64
     7
 65
   257
 75
     1
175
     1
 42
1.0
 92
        8
 66
     7
 43
1.0
 76
     1
 77
     6
 78
     2
 67
     7
 79
     3
170
     0
171
     0
290
     0
174
     0
 93
       13
 44
0.0
173
     0
291
     0
 45
0.0
1001
ACAD
1000
AcDbSavedByObjectVersion
1070
     0
  0
DICTIONARYVAR
  5
D7F
102
{ACAD_REACTORS
330
D7C
102
}
330
D7C
100
DictionaryVariables
280
     0
  1
1:1
  0
DICTIONARYVAR
  5
D7E
102
{ACAD_REACTORS
330
D7C
102
}
330
D7C
100
DictionaryVariables
280
     0
  1
STANDARD
  0
DICTIONARYVAR
  5
D7D
102
{ACAD_REACTORS
330
D7C
102
}
330
D7C
100
DictionaryVariables
280
     0
  1
STANDARD
  0
DICTIONARYVAR
  5
D82
102
{ACAD_REACTORS
330
D7C
102
}
330
D7C
100
DictionaryVariables
280
     0
  1
1
  0
DICTIONARYVAR
  5
D81
102
{ACAD_REACTORS
330
D7C
102
}
330
D7C
100
DictionaryVariables
280
     0
  1
0
  0
DICTIONARYVAR
  5
D80
102
{ACAD_REACTORS
330
D7C
102
}
330
D7C
100
DictionaryVariables
280
     0
  1
127
  0
DICTIONARYVAR
  5
D83
102
{ACAD_REACTORS
330
D7C
102
}
330
D7C
100
DictionaryVariables
280
     0
  1
2
  0
DICTIONARY
  5
E0B
330
CE3
100
AcDbDictionary
280
     1
281
     1
  3
ACAD_XREC_ROUNDTRIP
360
E0C
  0
DICTIONARY
  5
E09
330
CDF
100
AcDbDictionary
280
     1
281
     1
  3
ACAD_XREC_ROUNDTRIP
360
E0A
  0
DICTIONARY
  5
C8F
330
C8E
100
AcDbDictionary
280
     1
281
     1
  3
ACAD_XREC_ROUNDTRIP
360
DD5
  3
BUMPTILE
360
C91
  3
DIFFUSETILE
360
C90
  3
OPACITYTILE
360
C94
  3
REFLECTIONTILE
360
C93
  3
REFRACTIONTILE
360
C95
  3
SPECULARTILE
360
C92
  0
DICTIONARY
  5
C87
330
C86
100
AcDbDictionary
280
     1
281
     1
  3
ACAD_XREC_ROUNDTRIP
360
DD4
  3
BUMPTILE
360
C89
  3
DIFFUSETILE
360
C88
  3
OPACITYTILE
360
C8C
  3
REFLECTIONTILE
360
C8B
  3
REFRACTIONTILE
360
C8D
  3
SPECULARTILE
360
C8A
  0
DICTIONARY
  5
C97
330
C96
100
AcDbDictionary
280
     1
281
     1
  3
ACAD_XREC_ROUNDTRIP
360
DD6
  3
BUMPTILE
360
C99
  3
DIFFUSETILE
360
C98
  3
OPACITYTILE
360
C9C
  3
REFLECTIONTILE
360
C9B
  3
REFRACTIONTILE
360
C9D
  3
SPECULARTILE
360
C9A
  0
DICTIONARY
  5
DD0
330
CD9
100
AcDbDictionary
280
     1
281
     1
  3
ACAD_ROUNDTRIP_2008_TABLESTYLE_CELLSTYLEMAP
360
DD1
  3
ACAD_XREC_ROUNDTRIP
360
E07
  0
DICTIONARY
  5
DE1
330
CA4
100
AcDbDictionary
280
     1
281
     1
  3
ACAD_XREC_ROUNDTRIP
360
DE2
  0
DICTIONARY
  5
DDF
330
CA3
100
AcDbDictionary
280
     1
281
     1
  3
ACAD_XREC_ROUNDTRIP
360
DE0
  0
DICTIONARY
  5
DED
330
CAA
100
AcDbDictionary
280
     1
281
     1
  3
ACAD_XREC_ROUNDTRIP
360
DEE
  0
DICTIONARY
  5
DF5
330
CAE
100
AcDbDictionary
280
     1
281
     1
  3
ACAD_XREC_ROUNDTRIP
360
DF6
  0
DICTIONARY
  5
DE7
330
CA7
100
AcDbDictionary
280
     1
281
     1
  3
ACAD_XREC_ROUNDTRIP
360
DE8
  0
DICTIONARY
  5
DEB
330
CA9
100
AcDbDictionary
280
     1
281
     1
  3
ACAD_XREC_ROUNDTRIP
360
DEC
  0
DICTIONARY
  5
E05
330
CB6
100
AcDbDictionary
280
     1
281
     1
  3
ACAD_XREC_ROUNDTRIP
360
E06
  0
DICTIONARY
  5
DF3
330
CAD
100
AcDbDictionary
280
     1
281
     1
  3
ACAD_XREC_ROUNDTRIP
360
DF4
  0
DICTIONARY
  5
DD7
330
C9F
100
AcDbDictionary
280
     1
281
     1
  3
ACAD_XREC_ROUNDTRIP
360
DD8
  0
DICTIONARY
  5
DD9
330
CA0
100
AcDbDictionary
280
     1
281
     1
  3
ACAD_XREC_ROUNDTRIP
360
DDA
  0
DICTIONARY
  5
DDB
330
CA1
100
AcDbDictionary
280
     1
281
     1
  3
ACAD_XREC_ROUNDTRIP
360
DDC
  0
DICTIONARY
  5
DDD
330
CA2
100
AcDbDictionary
280
     1
281
     1
  3
ACAD_XREC_ROUNDTRIP
360
DDE
  0
DICTIONARY
  5
DE5
330
CA6
100
AcDbDictionary
280
     1
281
     1
  3
ACAD_XREC_ROUNDTRIP
360
DE6
  0
DICTIONARY
  5
E01
330
CB4
100
AcDbDictionary
280
     1
281
     1
  3
ACAD_XREC_ROUNDTRIP
360
E02
  0
DICTIONARY
  5
DF1
330
CAC
100
AcDbDictionary
280
     1
281
     1
  3
ACAD_XREC_ROUNDTRIP
360
DF2
  0
DICTIONARY
  5
E03
330
CB5
100
AcDbDictionary
280
     1
281
     1
  3
ACAD_XREC_ROUNDTRIP
360
E04
  0
DICTIONARY
  5
DE9
330
CA8
100
AcDbDictionary
280
     1
281
     1
  3
ACAD_XREC_ROUNDTRIP
360
DEA
  0
DICTIONARY
  5
DFF
330
CB3
100
AcDbDictionary
280
     1
281
     1
  3
ACAD_XREC_ROUNDTRIP
360
E00
  0
DICTIONARY
  5
DFD
330
CB2
100
AcDbDictionary
280
     1
281
     1
  3
ACAD_XREC_ROUNDTRIP
360
DFE
  0
DICTIONARY
  5
DF7
330
CAF
100
AcDbDictionary
280
     1
281
     1
  3
ACAD_XREC_ROUNDTRIP
360
DF8
  0
DICTIONARY
  5
DF9
330
CB0
100
AcDbDictionary
280
     1
281
     1
  3
ACAD_XREC_ROUNDTRIP
360
DFA
  0
DICTIONARY
  5
DEF
330
CAB
100
AcDbDictionary
280
     1
281
     1
  3
ACAD_XREC_ROUNDTRIP
360
DF0
  0
DICTIONARY
  5
DE3
330
CA5
100
AcDbDictionary
280
     1
281
     1
  3
ACAD_XREC_ROUNDTRIP
360
DE4
  0
DICTIONARY
  5
DFB
330
CB1
100
AcDbDictionary
280
     1
281
     1
  3
ACAD_XREC_ROUNDTRIP
360
DFC
  0
XRECORD
  5
E0C
102
{ACAD_REACTORS
330
E0B
102
}
330
E0B
100
AcDbXrecord
280
     1
102
SHADEPLOT
 70
     0
102
SHADEPLOTRESLEVEL
 70
     2
102
SHADEPLOTCUSTOMDPI
 70
   300
  0
XRECORD
  5
E0A
102
{ACAD_REACTORS
330
E09
102
}
330
E09
100
AcDbXrecord
280
     1
102
SHADEPLOT
 70
     0
102
SHADEPLOTRESLEVEL
 70
     2
102
SHADEPLOTCUSTOMDPI
 70
   300
  0
XRECORD
  5
DD5
102
{ACAD_REACTORS
330
C8F
102
}
330
C8F
100
AcDbXrecord
280
     1
102
MATERIAL
148
0.0
149
0.0
149
0.0
 93
        0
 94
      127
282
     0
 72
     0
 77
     0
171
     0
175
     0
179
     0
273
     0
  0
XRECORD
  5
C91
102
{ACAD_REACTORS
330
C8F
102
}
330
C8F
100
AcDbXrecord
280
     1
270
     1
271
     1
  0
XRECORD
  5
C90
102
{ACAD_REACTORS
330
C8F
102
}
330
C8F
100
AcDbXrecord
280
     1
270
     1
271
     1
  0
XRECORD
  5
C94
102
{ACAD_REACTORS
330
C8F
102
}
330
C8F
100
AcDbXrecord
280
     1
270
     1
271
     1
  0
XRECORD
  5
C93
102
{ACAD_REACTORS
330
C8F
102
}
330
C8F
100
AcDbXrecord
280
     1
270
     1
271
     1
  0
XRECORD
  5
C95
102
{ACAD_REACTORS
330
C8F
102
}
330
C8F
100
AcDbXrecord
280
     1
270
     1
271
     1
  0
XRECORD
  5
C92
102
{ACAD_REACTORS
330
C8F
102
}
330
C8F
100
AcDbXrecord
280
     1
270
     1
271
     1
  0
XRECORD
  5
DD4
102
{ACAD_REACTORS
330
C87
102
}
330
C87
100
AcDbXrecord
280
     1
102
MATERIAL
148
0.0
149
0.0
149
0.0
 93
        0
 94
      127
282
     0
 72
     0
 77
     0
171
     0
175
     0
179
     0
273
     0
  0
XRECORD
  5
C89
102
{ACAD_REACTORS
330
C87
102
}
330
C87
100
AcDbXrecord
280
     1
270
     1
271
     1
  0
XRECORD
  5
C88
102
{ACAD_REACTORS
330
C87
102
}
330
C87
100
AcDbXrecord
280
     1
270
     1
271
     1
  0
XRECORD
  5
C8C
102
{ACAD_REACTORS
330
C87
102
}
330
C87
100
AcDbXrecord
280
     1
270
     1
271
     1
  0
XRECORD
  5
C8B
102
{ACAD_REACTORS
330
C87
102
}
330
C87
100
AcDbXrecord
280
     1
270
     1
271
     1
  0
XRECORD
  5
C8D
102
{ACAD_REACTORS
330
C87
102
}
330
C87
100
AcDbXrecord
280
     1
270
     1
271
     1
  0
XRECORD
  5
C8A
102
{ACAD_REACTORS
330
C87
102
}
330
C87
100
AcDbXrecord
280
     1
270
     1
271
     1
  0
XRECORD
  5
DD6
102
{ACAD_REACTORS
330
C97
102
}
330
C97
100
AcDbXrecord
280
     1
102
MATERIAL
148
0.0
149
0.0
149
0.0
 93
        0
 94
      127
282
     0
 72
     0
 77
     0
171
     0
175
     0
179
     0
273
     0
  0
XRECORD
  5
C99
102
{ACAD_REACTORS
330
C97
102
}
330
C97
100
AcDbXrecord
280
     1
270
     1
271
     1
  0
XRECORD
  5
C98
102
{ACAD_REACTORS
330
C97
102
}
330
C97
100
AcDbXrecord
280
     1
270
     1
271
     1
  0
XRECORD
  5
C9C
102
{ACAD_REACTORS
330
C97
102
}
330
C97
100
AcDbXrecord
280
     1
270
     1
271
     1
  0
XRECORD
  5
C9B
102
{ACAD_REACTORS
330
C97
102
}
330
C97
100
AcDbXrecord
280
     1
270
     1
271
     1
  0
XRECORD
  5
C9D
102
{ACAD_REACTORS
330
C97
102
}
330
C97
100
AcDbXrecord
280
     1
270
     1
271
     1
  0
XRECORD
  5
C9A
102
{ACAD_REACTORS
330
C97
102
}
330
C97
100
AcDbXrecord
280
     1
270
     1
271
     1
  0
CELLSTYLEMAP
  5
DD1
102
{ACAD_REACTORS
330
DD0
102
}
330
DD0
100
AcDbCellStyleMap
 90
        3
300
CELLSTYLE
  1
TABLEFORMAT_BEGIN
 90
        5
170
     1
 91
        0
 92
    32768
 62
   257
 93
        1
300
CONTENTFORMAT
  1
CONTENTFORMAT_BEGIN
 90
        0
 91
        0
 92
      512
 93
        0
300

 40
0.0
140
1.0
 94
        5
 62
     0
340
CCA
144
0.25
309
CONTENTFORMAT_END
171
     0
 94
        0
309
TABLEFORMAT_END
  1
CELLSTYLE_BEGIN
 90
        1
 91
        1
300
_TITLE
309
CELLSTYLE_END
300
CELLSTYLE
  1
TABLEFORMAT_BEGIN
 90
        5
170
     1
 91
        0
 92
        0
 62
   257
 93
        1
300
CONTENTFORMAT
  1
CONTENTFORMAT_BEGIN
 90
        0
 91
        0
 92
      512
 93
        0
300

 40
0.0
140
1.0
 94
        5
 62
     0
340
CCA
144
0.18
309
CONTENTFORMAT_END
171
     0
 94
        0
309
TABLEFORMAT_END
  1
CELLSTYLE_BEGIN
 90
        2
 91
        1
300
_HEADER
309
CELLSTYLE_END
300
CELLSTYLE
  1
TABLEFORMAT_BEGIN
 90
        5
170
     1
 91
        0
 92
        0
 62
   257
 93
        1
300
CONTENTFORMAT
  1
CONTENTFORMAT_BEGIN
 90
        0
 91
        0
 92
      512
 93
        0
300

 40
0.0
140
1.0
 94
        2
 62
     0
340
CCA
144
0.18
309
CONTENTFORMAT_END
171
     0
 94
        0
309
TABLEFORMAT_END
  1
CELLSTYLE_BEGIN
 90
        3
 91
        2
300
_DATA
309
CELLSTYLE_END
  0
XRECORD
  5
E07
102
{ACAD_REACTORS
330
DD0
102
}
330
DD0
100
AcDbXrecord
280
     1
102
ACAD_ROUNDTRIP_PRE2007_TABLESTYLE
 90
      512
 91
        0
  1

 92
      512
 93
        0
  2

 94
      512
 95
        0
  3

  0
XRECORD
  5
DE2
102
{ACAD_REACTORS
330
DE1
102
}
330
DE1
100
AcDbXrecord
280
     1
102
RTVSPropertyOp0
 70
     1
102
RTVSPropertyOp1
 70
     1
102
RTVSPropertyOp2
 70
     1
102
RTVSPropertyOp3
 70
     1
102
RTVSPropertyOp4
 70
     1
102
RTVSPropertyOp5
 70
     1
102
RTVSPropertyOp6
 70
     1
102
RTVSPropertyOp7
 70
     1
102
RTVSPropertyOp8
 70
     1
102
RTVSPropertyOp9
 70
     1
102
RTVSPropertyOp10
 70
     1
102
RTVSPropertyOp11
 70
     1
102
RTVSPropertyOp12
 70
     1
102
RTVSPropertyOp13
 70
     1
102
RTVSPropertyOp14
 70
     1
102
RTVSPropertyOp15
 70
     1
102
RTVSPropertyOp16
 70
     1
102
RTVSPropertyOp17
 70
     1
102
RTVSPropertyOp18
 70
     1
102
RTVSPropertyOp19
 70
     1
102
RTVSPropertyOp20
 70
     1
102
RTVSPropertyOp21
 70
     1
102
RTVSPropertyOp22
 70
     1
102
RTVSPropertyOp23
 70
     1
102
RTVSPropertyOp24
 70
     1
102
RTVSPropertyOp25
 70
     1
102
RTVSPropertyOp26
 70
     1
102
RTVSPropertyOp27
 70
     1
102
RTVSPropertyOp28
 70
     1
102
RTVSPropertyOp29
 70
     1
102
RTVSPropertyOp30
 70
     1
102
RTVSPropertyOp31
 70
     1
102
RTVSPropertyOp32
 70
     1
  0
XRECORD
  5
DE0
102
{ACAD_REACTORS
330
DDF
102
}
330
DDF
100
AcDbXrecord
280
     1
102
RTVSPropertyOp0
 70
     1
102
RTVSPropertyOp1
 70
     1
102
RTVSPropertyOp2
 70
     1
102
RTVSPropertyOp3
 70
     1
102
RTVSPropertyOp4
 70
     1
102
RTVSPropertyOp5
 70
     1
102
RTVSPropertyOp6
 70
     1
102
RTVSPropertyOp7
 70
     1
102
RTVSPropertyOp8
 70
     1
102
RTVSPropertyOp9
 70
     1
102
RTVSPropertyOp10
 70
     1
102
RTVSPropertyOp11
 70
     1
102
RTVSPropertyOp12
 70
     1
102
RTVSPropertyOp13
 70
     1
102
RTVSPropertyOp14
 70
     1
102
RTVSPropertyOp15
 70
     1
102
RTVSPropertyOp16
 70
     1
102
RTVSPropertyOp17
 70
     1
102
RTVSPropertyOp18
 70
     1
102
RTVSPropertyOp19
 70
     1
102
RTVSPropertyOp20
 70
     1
102
RTVSPropertyOp21
 70
     1
102
RTVSPropertyOp22
 70
     1
102
RTVSPropertyOp23
 70
     1
102
RTVSPropertyOp24
 70
     1
102
RTVSPropertyOp25
 70
     1
102
RTVSPropertyOp26
 70
     1
102
RTVSPropertyOp27
 70
     1
102
RTVSPropertyOp28
 70
     1
102
RTVSPropertyOp29
 70
     1
102
RTVSPropertyOp30
 70
     1
102
RTVSPropertyOp31
 70
     1
102
RTVSPropertyOp32
 70
     1
  0
XRECORD
  5
DEE
102
{ACAD_REACTORS
330
DED
102
}
330
DED
100
AcDbXrecord
280
     1
102
RTVSPropertyOp0
 70
     1
102
RTVSPropertyOp1
 70
     1
102
RTVSPropertyOp2
 70
     1
102
RTVSPropertyOp3
 70
     1
102
RTVSPropertyOp4
 70
     1
102
RTVSPropertyOp5
 70
     1
102
RTVSPropertyOp6
 70
     1
102
RTVSPropertyOp7
 70
     1
102
RTVSPropertyOp8
 70
     1
102
RTVSPropertyOp9
 70
     1
102
RTVSPropertyOp10
 70
     1
102
RTVSPropertyOp11
 70
     1
102
RTVSPropertyOp12
 70
     1
102
RTVSPropertyOp13
 70
     1
102
RTVSPropertyOp14
 70
     1
102
RTVSPropertyOp15
 70
     1
102
RTVSPropertyOp16
 70
     1
102
RTVSPropertyOp17
 70
     1
102
RTVSPropertyOp18
 70
     1
102
RTVSPropertyOp19
 70
     1
102
RTVSPropertyOp20
 70
     1
102
RTVSPropertyOp21
 70
     1
102
RTVSPropertyOp22
 70
     1
102
RTVSPropertyOp23
 70
     1
102
RTVSPropertyOp24
 70
     1
102
RTVSPropertyOp25
 70
     1
102
RTVSPropertyOp26
 70
     1
102
RTVSPropertyOp27
 70
     1
102
RTVSPropertyOp28
 70
     1
102
RTVSPropertyOp29
 70
     1
102
RTVSPropertyOp30
 70
     1
102
RTVSPropertyOp31
 70
     1
102
RTVSPropertyOp32
 70
     1
  0
XRECORD
  5
DF6
102
{ACAD_REACTORS
330
DF5
102
}
330
DF5
100
AcDbXrecord
280
     1
102
RTVSPropertyOp0
 70
     1
102
RTVSPropertyOp1
 70
     1
102
RTVSPropertyOp2
 70
     1
102
RTVSPropertyOp3
 70
     1
102
RTVSPropertyOp4
 70
     1
102
RTVSPropertyOp5
 70
     1
102
RTVSPropertyOp6
 70
     1
102
RTVSPropertyOp7
 70
     1
102
RTVSPropertyOp8
 70
     1
102
RTVSPropertyOp9
 70
     1
102
RTVSPropertyOp10
 70
     1
102
RTVSPropertyOp11
 70
     1
102
RTVSPropertyOp12
 70
     1
102
RTVSPropertyOp13
 70
     1
102
RTVSPropertyOp14
 70
     1
102
RTVSPropertyOp15
 70
     1
102
RTVSPropertyOp16
 70
     1
102
RTVSPropertyOp17
 70
     1
102
RTVSPropertyOp18
 70
     1
102
RTVSPropertyOp19
 70
     1
102
RTVSPropertyOp20
 70
     1
102
RTVSPropertyOp21
 70
     1
102
RTVSPropertyOp22
 70
     1
102
RTVSPropertyOp23
 70
     1
102
RTVSPropertyOp24
 70
     1
102
RTVSPropertyOp25
 70
     1
102
RTVSPropertyOp26
 70
     1
102
RTVSPropertyOp27
 70
     1
102
RTVSPropertyOp28
 70
     1
102
RTVSPropertyOp29
 70
     1
102
RTVSPropertyOp30
 70
     1
102
RTVSPropertyOp31
 70
     1
102
RTVSPropertyOp32
 70
     1
  0
XRECORD
  5
DE8
102
{ACAD_REACTORS
330
DE7
102
}
330
DE7
100
AcDbXrecord
280
     1
102
RTVSPropertyOp0
 70
     1
102
RTVSPropertyOp1
 70
     1
102
RTVSPropertyOp2
 70
     1
102
RTVSPropertyOp3
 70
     1
102
RTVSPropertyOp4
 70
     1
102
RTVSPropertyOp5
 70
     1
102
RTVSPropertyOp6
 70
     1
102
RTVSPropertyOp7
 70
     1
102
RTVSPropertyOp8
 70
     1
102
RTVSPropertyOp9
 70
     1
102
RTVSPropertyOp10
 70
     1
102
RTVSPropertyOp11
 70
     1
102
RTVSPropertyOp12
 70
     1
102
RTVSPropertyOp13
 70
     1
102
RTVSPropertyOp14
 70
     1
102
RTVSPropertyOp15
 70
     1
102
RTVSPropertyOp16
 70
     1
102
RTVSPropertyOp17
 70
     1
102
RTVSPropertyOp18
 70
     1
102
RTVSPropertyOp19
 70
     1
102
RTVSPropertyOp20
 70
     1
102
RTVSPropertyOp21
 70
     1
102
RTVSPropertyOp22
 70
     1
102
RTVSPropertyOp23
 70
     1
102
RTVSPropertyOp24
 70
     1
102
RTVSPropertyOp25
 70
     1
102
RTVSPropertyOp26
 70
     1
102
RTVSPropertyOp27
 70
     1
102
RTVSPropertyOp28
 70
     1
102
RTVSPropertyOp29
 70
     1
102
RTVSPropertyOp30
 70
     1
102
RTVSPropertyOp31
 70
     1
102
RTVSPropertyOp32
 70
     1
  0
XRECORD
  5
DEC
102
{ACAD_REACTORS
330
DEB
102
}
330
DEB
100
AcDbXrecord
280
     1
102
RTVSPropertyOp0
 70
     1
102
RTVSPropertyOp1
 70
     1
102
RTVSPropertyOp2
 70
     1
102
RTVSPropertyOp3
 70
     1
102
RTVSPropertyOp4
 70
     1
102
RTVSPropertyOp5
 70
     1
102
RTVSPropertyOp6
 70
     1
102
RTVSPropertyOp7
 70
     1
102
RTVSPropertyOp8
 70
     1
102
RTVSPropertyOp9
 70
     1
102
RTVSPropertyOp10
 70
     1
102
RTVSPropertyOp11
 70
     1
102
RTVSPropertyOp12
 70
     1
102
RTVSPropertyOp13
 70
     1
102
RTVSPropertyOp14
 70
     1
102
RTVSPropertyOp15
 70
     1
102
RTVSPropertyOp16
 70
     1
102
RTVSPropertyOp17
 70
     1
102
RTVSPropertyOp18
 70
     1
102
RTVSPropertyOp19
 70
     1
102
RTVSPropertyOp20
 70
     1
102
RTVSPropertyOp21
 70
     1
102
RTVSPropertyOp22
 70
     1
102
RTVSPropertyOp23
 70
     1
102
RTVSPropertyOp24
 70
     1
102
RTVSPropertyOp25
 70
     1
102
RTVSPropertyOp26
 70
     1
102
RTVSPropertyOp27
 70
     1
102
RTVSPropertyOp28
 70
     1
102
RTVSPropertyOp29
 70
     1
102
RTVSPropertyOp30
 70
     1
102
RTVSPropertyOp31
 70
     1
102
RTVSPropertyOp32
 70
     1
  0
XRECORD
  5
E06
102
{ACAD_REACTORS
330
E05
102
}
330
E05
100
AcDbXrecord
280
     1
102
RTVSPropertyOp0
 70
     0
102
RTVSPropertyOp1
 70
     0
102
RTVSPropertyOp2
 70
     0
102
RTVSPropertyOp3
 70
     0
102
RTVSPropertyOp4
 70
     0
102
RTVSPropertyOp5
 70
     0
102
RTVSPropertyOp6
 70
     0
102
RTVSPropertyOp7
 70
     0
102
RTVSPropertyOp8
 70
     0
102
RTVSPropertyOp9
 70
     0
102
RTVSPropertyOp10
 70
     0
102
RTVSPropertyOp11
 70
     0
102
RTVSPropertyOp12
 70
     0
102
RTVSPropertyOp13
 70
     0
102
RTVSPropertyOp14
 70
     2
102
RTVSPropertyOp15
 70
     0
102
RTVSPropertyOp16
 70
     0
102
RTVSPropertyOp17
 70
     0
102
RTVSPropertyOp18
 70
     0
102
RTVSPropertyOp19
 70
     0
102
RTVSPropertyOp20
 70
     0
102
RTVSPropertyOp21
 70
     0
102
RTVSPropertyOp22
 70
     0
102
RTVSPropertyOp23
 70
     0
102
RTVSPropertyOp24
 70
     0
102
RTVSPropertyOp25
 70
     0
102
RTVSPropertyOp26
 70
     0
102
RTVSPropertyOp27
 70
     0
102
RTVSPropertyOp28
 70
     0
102
RTVSPropertyOp29
 70
     0
102
RTVSPropertyOp30
 70
     0
102
RTVSPropertyOp31
 70
     0
102
RTVSPropertyOp32
 70
     0
  0
XRECORD
  5
DF4
102
{ACAD_REACTORS
330
DF3
102
}
330
DF3
100
AcDbXrecord
280
     1
102
RTVSPropertyOp0
 70
     1
102
RTVSPropertyOp1
 70
     1
102
RTVSPropertyOp2
 70
     1
102
RTVSPropertyOp3
 70
     1
102
RTVSPropertyOp4
 70
     1
102
RTVSPropertyOp5
 70
     1
102
RTVSPropertyOp6
 70
     1
102
RTVSPropertyOp7
 70
     1
102
RTVSPropertyOp8
 70
     1
102
RTVSPropertyOp9
 70
     1
102
RTVSPropertyOp10
 70
     1
102
RTVSPropertyOp11
 70
     1
102
RTVSPropertyOp12
 70
     1
102
RTVSPropertyOp13
 70
     1
102
RTVSPropertyOp14
 70
     1
102
RTVSPropertyOp15
 70
     1
102
RTVSPropertyOp16
 70
     1
102
RTVSPropertyOp17
 70
     1
102
RTVSPropertyOp18
 70
     1
102
RTVSPropertyOp19
 70
     1
102
RTVSPropertyOp20
 70
     1
102
RTVSPropertyOp21
 70
     1
102
RTVSPropertyOp22
 70
     1
102
RTVSPropertyOp23
 70
     1
102
RTVSPropertyOp24
 70
     1
102
RTVSPropertyOp25
 70
     1
102
RTVSPropertyOp26
 70
     1
102
RTVSPropertyOp27
 70
     1
102
RTVSPropertyOp28
 70
     1
102
RTVSPropertyOp29
 70
     1
102
RTVSPropertyOp30
 70
     1
102
RTVSPropertyOp31
 70
     1
102
RTVSPropertyOp32
 70
     1
  0
XRECORD
  5
DD8
102
{ACAD_REACTORS
330
DD7
102
}
330
DD7
100
AcDbXrecord
280
     1
102
RTVSPropertyOp0
 70
     1
102
RTVSPropertyOp1
 70
     1
102
RTVSPropertyOp2
 70
     1
102
RTVSPropertyOp3
 70
     1
102
RTVSPropertyOp4
 70
     1
102
RTVSPropertyOp5
 70
     1
102
RTVSPropertyOp6
 70
     1
102
RTVSPropertyOp7
 70
     1
102
RTVSPropertyOp8
 70
     1
102
RTVSPropertyOp9
 70
     1
102
RTVSPropertyOp10
 70
     1
102
RTVSPropertyOp11
 70
     1
102
RTVSPropertyOp12
 70
     1
102
RTVSPropertyOp13
 70
     1
102
RTVSPropertyOp14
 70
     1
102
RTVSPropertyOp15
 70
     1
102
RTVSPropertyOp16
 70
     1
102
RTVSPropertyOp17
 70
     1
102
RTVSPropertyOp18
 70
     1
102
RTVSPropertyOp19
 70
     1
102
RTVSPropertyOp20
 70
     1
102
RTVSPropertyOp21
 70
     1
102
RTVSPropertyOp22
 70
     1
102
RTVSPropertyOp23
 70
     1
102
RTVSPropertyOp24
 70
     1
102
RTVSPropertyOp25
 70
     1
102
RTVSPropertyOp26
 70
     1
102
RTVSPropertyOp27
 70
     1
102
RTVSPropertyOp28
 70
     1
102
RTVSPropertyOp29
 70
     1
102
RTVSPropertyOp30
 70
     1
102
RTVSPropertyOp31
 70
     1
102
RTVSPropertyOp32
 70
     1
  0
XRECORD
  5
DDA
102
{ACAD_REACTORS
330
DD9
102
}
330
DD9
100
AcDbXrecord
280
     1
102
RTVSPropertyOp0
 70
     1
102
RTVSPropertyOp1
 70
     1
102
RTVSPropertyOp2
 70
     1
102
RTVSPropertyOp3
 70
     1
102
RTVSPropertyOp4
 70
     1
102
RTVSPropertyOp5
 70
     1
102
RTVSPropertyOp6
 70
     1
102
RTVSPropertyOp7
 70
     1
102
RTVSPropertyOp8
 70
     1
102
RTVSPropertyOp9
 70
     1
102
RTVSPropertyOp10
 70
     1
102
RTVSPropertyOp11
 70
     1
102
RTVSPropertyOp12
 70
     1
102
RTVSPropertyOp13
 70
     1
102
RTVSPropertyOp14
 70
     1
102
RTVSPropertyOp15
 70
     1
102
RTVSPropertyOp16
 70
     1
102
RTVSPropertyOp17
 70
     1
102
RTVSPropertyOp18
 70
     1
102
RTVSPropertyOp19
 70
     1
102
RTVSPropertyOp20
 70
     1
102
RTVSPropertyOp21
 70
     1
102
RTVSPropertyOp22
 70
     1
102
RTVSPropertyOp23
 70
     1
102
RTVSPropertyOp24
 70
     1
102
RTVSPropertyOp25
 70
     1
102
RTVSPropertyOp26
 70
     1
102
RTVSPropertyOp27
 70
     1
102
RTVSPropertyOp28
 70
     1
102
RTVSPropertyOp29
 70
     1
102
RTVSPropertyOp30
 70
     1
102
RTVSPropertyOp31
 70
     1
102
RTVSPropertyOp32
 70
     1
  0
XRECORD
  5
DDC
102
{ACAD_REACTORS
330
DDB
102
}
330
DDB
100
AcDbXrecord
280
     1
102
RTVSPropertyOp0
 70
     1
102
RTVSPropertyOp1
 70
     1
102
RTVSPropertyOp2
 70
     1
102
RTVSPropertyOp3
 70
     1
102
RTVSPropertyOp4
 70
     1
102
RTVSPropertyOp5
 70
     1
102
RTVSPropertyOp6
 70
     1
102
RTVSPropertyOp7
 70
     1
102
RTVSPropertyOp8
 70
     1
102
RTVSPropertyOp9
 70
     1
102
RTVSPropertyOp10
 70
     1
102
RTVSPropertyOp11
 70
     1
102
RTVSPropertyOp12
 70
     1
102
RTVSPropertyOp13
 70
     1
102
RTVSPropertyOp14
 70
     1
102
RTVSPropertyOp15
 70
     1
102
RTVSPropertyOp16
 70
     1
102
RTVSPropertyOp17
 70
     1
102
RTVSPropertyOp18
 70
     1
102
RTVSPropertyOp19
 70
     1
102
RTVSPropertyOp20
 70
     1
102
RTVSPropertyOp21
 70
     1
102
RTVSPropertyOp22
 70
     1
102
RTVSPropertyOp23
 70
     1
102
RTVSPropertyOp24
 70
     1
102
RTVSPropertyOp25
 70
     1
102
RTVSPropertyOp26
 70
     1
102
RTVSPropertyOp27
 70
     1
102
RTVSPropertyOp28
 70
     1
102
RTVSPropertyOp29
 70
     1
102
RTVSPropertyOp30
 70
     1
102
RTVSPropertyOp31
 70
     1
102
RTVSPropertyOp32
 70
     1
  0
XRECORD
  5
DDE
102
{ACAD_REACTORS
330
DDD
102
}
330
DDD
100
AcDbXrecord
280
     1
102
RTVSPropertyOp0
 70
     1
102
RTVSPropertyOp1
 70
     1
102
RTVSPropertyOp2
 70
     1
102
RTVSPropertyOp3
 70
     1
102
RTVSPropertyOp4
 70
     1
102
RTVSPropertyOp5
 70
     1
102
RTVSPropertyOp6
 70
     1
102
RTVSPropertyOp7
 70
     1
102
RTVSPropertyOp8
 70
     1
102
RTVSPropertyOp9
 70
     1
102
RTVSPropertyOp10
 70
     1
102
RTVSPropertyOp11
 70
     1
102
RTVSPropertyOp12
 70
     1
102
RTVSPropertyOp13
 70
     1
102
RTVSPropertyOp14
 70
     1
102
RTVSPropertyOp15
 70
     1
102
RTVSPropertyOp16
 70
     1
102
RTVSPropertyOp17
 70
     1
102
RTVSPropertyOp18
 70
     1
102
RTVSPropertyOp19
 70
     1
102
RTVSPropertyOp20
 70
     1
102
RTVSPropertyOp21
 70
     1
102
RTVSPropertyOp22
 70
     1
102
RTVSPropertyOp23
 70
     1
102
RTVSPropertyOp24
 70
     1
102
RTVSPropertyOp25
 70
     1
102
RTVSPropertyOp26
 70
     1
102
RTVSPropertyOp27
 70
     1
102
RTVSPropertyOp28
 70
     1
102
RTVSPropertyOp29
 70
     1
102
RTVSPropertyOp30
 70
     1
102
RTVSPropertyOp31
 70
     1
102
RTVSPropertyOp32
 70
     1
  0
XRECORD
  5
DE6
102
{ACAD_REACTORS
330
DE5
102
}
330
DE5
100
AcDbXrecord
280
     1
102
RTVSPropertyOp0
 70
     1
102
RTVSPropertyOp1
 70
     1
102
RTVSPropertyOp2
 70
     1
102
RTVSPropertyOp3
 70
     1
102
RTVSPropertyOp4
 70
     1
102
RTVSPropertyOp5
 70
     1
102
RTVSPropertyOp6
 70
     1
102
RTVSPropertyOp7
 70
     1
102
RTVSPropertyOp8
 70
     1
102
RTVSPropertyOp9
 70
     1
102
RTVSPropertyOp10
 70
     1
102
RTVSPropertyOp11
 70
     1
102
RTVSPropertyOp12
 70
     1
102
RTVSPropertyOp13
 70
     1
102
RTVSPropertyOp14
 70
     1
102
RTVSPropertyOp15
 70
     1
102
RTVSPropertyOp16
 70
     1
102
RTVSPropertyOp17
 70
     1
102
RTVSPropertyOp18
 70
     1
102
RTVSPropertyOp19
 70
     1
102
RTVSPropertyOp20
 70
     1
102
RTVSPropertyOp21
 70
     1
102
RTVSPropertyOp22
 70
     1
102
RTVSPropertyOp23
 70
     1
102
RTVSPropertyOp24
 70
     1
102
RTVSPropertyOp25
 70
     1
102
RTVSPropertyOp26
 70
     1
102
RTVSPropertyOp27
 70
     1
102
RTVSPropertyOp28
 70
     1
102
RTVSPropertyOp29
 70
     1
102
RTVSPropertyOp30
 70
     1
102
RTVSPropertyOp31
 70
     1
102
RTVSPropertyOp32
 70
     1
  0
XRECORD
  5
E02
102
{ACAD_REACTORS
330
E01
102
}
330
E01
100
AcDbXrecord
280
     1
102
RTVSPropertyOp0
 70
     0
102
RTVSPropertyOp1
 70
     0
102
RTVSPropertyOp2
 70
     0
102
RTVSPropertyOp3
 70
     0
102
RTVSPropertyOp4
 70
     0
102
RTVSPropertyOp5
 70
     0
102
RTVSPropertyOp6
 70
     0
102
RTVSPropertyOp7
 70
     0
102
RTVSPropertyOp8
 70
     0
102
RTVSPropertyOp9
 70
     0
102
RTVSPropertyOp10
 70
     0
102
RTVSPropertyOp11
 70
     0
102
RTVSPropertyOp12
 70
     0
102
RTVSPropertyOp13
 70
     0
102
RTVSPropertyOp14
 70
     2
102
RTVSPropertyOp15
 70
     0
102
RTVSPropertyOp16
 70
     0
102
RTVSPropertyOp17
 70
     0
102
RTVSPropertyOp18
 70
     0
102
RTVSPropertyOp19
 70
     0
102
RTVSPropertyOp20
 70
     0
102
RTVSPropertyOp21
 70
     0
102
RTVSPropertyOp22
 70
     0
102
RTVSPropertyOp23
 70
     0
102
RTVSPropertyOp24
 70
     0
102
RTVSPropertyOp25
 70
     0
102
RTVSPropertyOp26
 70
     0
102
RTVSPropertyOp27
 70
     0
102
RTVSPropertyOp28
 70
     0
102
RTVSPropertyOp29
 70
     0
102
RTVSPropertyOp30
 70
     0
102
RTVSPropertyOp31
 70
     0
102
RTVSPropertyOp32
 70
     0
  0
XRECORD
  5
DF2
102
{ACAD_REACTORS
330
DF1
102
}
330
DF1
100
AcDbXrecord
280
     1
102
RTVSPropertyOp0
 70
     1
102
RTVSPropertyOp1
 70
     1
102
RTVSPropertyOp2
 70
     1
102
RTVSPropertyOp3
 70
     1
102
RTVSPropertyOp4
 70
     1
102
RTVSPropertyOp5
 70
     1
102
RTVSPropertyOp6
 70
     1
102
RTVSPropertyOp7
 70
     1
102
RTVSPropertyOp8
 70
     1
102
RTVSPropertyOp9
 70
     1
102
RTVSPropertyOp10
 70
     1
102
RTVSPropertyOp11
 70
     1
102
RTVSPropertyOp12
 70
     1
102
RTVSPropertyOp13
 70
     1
102
RTVSPropertyOp14
 70
     1
102
RTVSPropertyOp15
 70
     1
102
RTVSPropertyOp16
 70
     1
102
RTVSPropertyOp17
 70
     1
102
RTVSPropertyOp18
 70
     1
102
RTVSPropertyOp19
 70
     1
102
RTVSPropertyOp20
 70
     1
102
RTVSPropertyOp21
 70
     1
102
RTVSPropertyOp22
 70
     1
102
RTVSPropertyOp23
 70
     1
102
RTVSPropertyOp24
 70
     1
102
RTVSPropertyOp25
 70
     1
102
RTVSPropertyOp26
 70
     1
102
RTVSPropertyOp27
 70
     1
102
RTVSPropertyOp28
 70
     1
102
RTVSPropertyOp29
 70
     1
102
RTVSPropertyOp30
 70
     1
102
RTVSPropertyOp31
 70
     1
102
RTVSPropertyOp32
 70
     1
  0
XRECORD
  5
E04
102
{ACAD_REACTORS
330
E03
102
}
330
E03
100
AcDbXrecord
280
     1
102
RTVSPropertyOp0
 70
     0
102
RTVSPropertyOp1
 70
     0
102
RTVSPropertyOp2
 70
     0
102
RTVSPropertyOp3
 70
     0
102
RTVSPropertyOp4
 70
     0
102
RTVSPropertyOp5
 70
     0
102
RTVSPropertyOp6
 70
     0
102
RTVSPropertyOp7
 70
     0
102
RTVSPropertyOp8
 70
     0
102
RTVSPropertyOp9
 70
     0
102
RTVSPropertyOp10
 70
     0
102
RTVSPropertyOp11
 70
     0
102
RTVSPropertyOp12
 70
     0
102
RTVSPropertyOp13
 70
     0
102
RTVSPropertyOp14
 70
     2
102
RTVSPropertyOp15
 70
     0
102
RTVSPropertyOp16
 70
     0
102
RTVSPropertyOp17
 70
     0
102
RTVSPropertyOp18
 70
     0
102
RTVSPropertyOp19
 70
     0
102
RTVSPropertyOp20
 70
     0
102
RTVSPropertyOp21
 70
     0
102
RTVSPropertyOp22
 70
     0
102
RTVSPropertyOp23
 70
     0
102
RTVSPropertyOp24
 70
     0
102
RTVSPropertyOp25
 70
     0
102
RTVSPropertyOp26
 70
     0
102
RTVSPropertyOp27
 70
     0
102
RTVSPropertyOp28
 70
     0
102
RTVSPropertyOp29
 70
     0
102
RTVSPropertyOp30
 70
     0
102
RTVSPropertyOp31
 70
     0
102
RTVSPropertyOp32
 70
     0
  0
XRECORD
  5
DEA
102
{ACAD_REACTORS
330
DE9
102
}
330
DE9
100
AcDbXrecord
280
     1
102
RTVSPropertyOp0
 70
     1
102
RTVSPropertyOp1
 70
     1
102
RTVSPropertyOp2
 70
     1
102
RTVSPropertyOp3
 70
     1
102
RTVSPropertyOp4
 70
     1
102
RTVSPropertyOp5
 70
     1
102
RTVSPropertyOp6
 70
     1
102
RTVSPropertyOp7
 70
     1
102
RTVSPropertyOp8
 70
     1
102
RTVSPropertyOp9
 70
     1
102
RTVSPropertyOp10
 70
     1
102
RTVSPropertyOp11
 70
     1
102
RTVSPropertyOp12
 70
     1
102
RTVSPropertyOp13
 70
     1
102
RTVSPropertyOp14
 70
     1
102
RTVSPropertyOp15
 70
     1
102
RTVSPropertyOp16
 70
     1
102
RTVSPropertyOp17
 70
     1
102
RTVSPropertyOp18
 70
     1
102
RTVSPropertyOp19
 70
     1
102
RTVSPropertyOp20
 70
     1
102
RTVSPropertyOp21
 70
     1
102
RTVSPropertyOp22
 70
     1
102
RTVSPropertyOp23
 70
     1
102
RTVSPropertyOp24
 70
     1
102
RTVSPropertyOp25
 70
     1
102
RTVSPropertyOp26
 70
     1
102
RTVSPropertyOp27
 70
     1
102
RTVSPropertyOp28
 70
     1
102
RTVSPropertyOp29
 70
     1
102
RTVSPropertyOp30
 70
     1
102
RTVSPropertyOp31
 70
     1
102
RTVSPropertyOp32
 70
     1
  0
XRECORD
  5
E00
102
{ACAD_REACTORS
330
DFF
102
}
330
DFF
100
AcDbXrecord
280
     1
102
RTVSPropertyOp0
 70
     1
102
RTVSPropertyOp1
 70
     1
102
RTVSPropertyOp2
 70
     1
102
RTVSPropertyOp3
 70
     1
102
RTVSPropertyOp4
 70
     1
102
RTVSPropertyOp5
 70
     1
102
RTVSPropertyOp6
 70
     1
102
RTVSPropertyOp7
 70
     1
102
RTVSPropertyOp8
 70
     1
102
RTVSPropertyOp9
 70
     1
102
RTVSPropertyOp10
 70
     1
102
RTVSPropertyOp11
 70
     1
102
RTVSPropertyOp12
 70
     1
102
RTVSPropertyOp13
 70
     1
102
RTVSPropertyOp14
 70
     1
102
RTVSPropertyOp15
 70
     1
102
RTVSPropertyOp16
 70
     1
102
RTVSPropertyOp17
 70
     1
102
RTVSPropertyOp18
 70
     1
102
RTVSPropertyOp19
 70
     1
102
RTVSPropertyOp20
 70
     1
102
RTVSPropertyOp21
 70
     1
102
RTVSPropertyOp22
 70
     1
102
RTVSPropertyOp23
 70
     1
102
RTVSPropertyOp24
 70
     1
102
RTVSPropertyOp25
 70
     1
102
RTVSPropertyOp26
 70
     1
102
RTVSPropertyOp27
 70
     1
102
RTVSPropertyOp28
 70
     1
102
RTVSPropertyOp29
 70
     1
102
RTVSPropertyOp30
 70
     1
102
RTVSPropertyOp31
 70
     1
102
RTVSPropertyOp32
 70
     1
  0
XRECORD
  5
DFE
102
{ACAD_REACTORS
330
DFD
102
}
330
DFD
100
AcDbXrecord
280
     1
102
RTVSPropertyOp0
 70
     1
102
RTVSPropertyOp1
 70
     1
102
RTVSPropertyOp2
 70
     1
102
RTVSPropertyOp3
 70
     1
102
RTVSPropertyOp4
 70
     1
102
RTVSPropertyOp5
 70
     1
102
RTVSPropertyOp6
 70
     1
102
RTVSPropertyOp7
 70
     1
102
RTVSPropertyOp8
 70
     1
102
RTVSPropertyOp9
 70
     1
102
RTVSPropertyOp10
 70
     1
102
RTVSPropertyOp11
 70
     1
102
RTVSPropertyOp12
 70
     1
102
RTVSPropertyOp13
 70
     1
102
RTVSPropertyOp14
 70
     1
102
RTVSPropertyOp15
 70
     1
102
RTVSPropertyOp16
 70
     1
102
RTVSPropertyOp17
 70
     1
102
RTVSPropertyOp18
 70
     1
102
RTVSPropertyOp19
 70
     1
102
RTVSPropertyOp20
 70
     1
102
RTVSPropertyOp21
 70
     1
102
RTVSPropertyOp22
 70
     1
102
RTVSPropertyOp23
 70
     1
102
RTVSPropertyOp24
 70
     1
102
RTVSPropertyOp25
 70
     1
102
RTVSPropertyOp26
 70
     1
102
RTVSPropertyOp27
 70
     1
102
RTVSPropertyOp28
 70
     1
102
RTVSPropertyOp29
 70
     1
102
RTVSPropertyOp30
 70
     1
102
RTVSPropertyOp31
 70
     1
102
RTVSPropertyOp32
 70
     1
  0
XRECORD
  5
DF8
102
{ACAD_REACTORS
330
DF7
102
}
330
DF7
100
AcDbXrecord
280
     1
102
RTVSPropertyOp0
 70
     1
102
RTVSPropertyOp1
 70
     1
102
RTVSPropertyOp2
 70
     1
102
RTVSPropertyOp3
 70
     1
102
RTVSPropertyOp4
 70
     1
102
RTVSPropertyOp5
 70
     1
102
RTVSPropertyOp6
 70
     1
102
RTVSPropertyOp7
 70
     1
102
RTVSPropertyOp8
 70
     1
102
RTVSPropertyOp9
 70
     1
102
RTVSPropertyOp10
 70
     1
102
RTVSPropertyOp11
 70
     1
102
RTVSPropertyOp12
 70
     1
102
RTVSPropertyOp13
 70
     1
102
RTVSPropertyOp14
 70
     1
102
RTVSPropertyOp15
 70
     1
102
RTVSPropertyOp16
 70
     1
102
RTVSPropertyOp17
 70
     1
102
RTVSPropertyOp18
 70
     1
102
RTVSPropertyOp19
 70
     1
102
RTVSPropertyOp20
 70
     1
102
RTVSPropertyOp21
 70
     1
102
RTVSPropertyOp22
 70
     1
102
RTVSPropertyOp23
 70
     1
102
RTVSPropertyOp24
 70
     1
102
RTVSPropertyOp25
 70
     1
102
RTVSPropertyOp26
 70
     1
102
RTVSPropertyOp27
 70
     1
102
RTVSPropertyOp28
 70
     1
102
RTVSPropertyOp29
 70
     1
102
RTVSPropertyOp30
 70
     1
102
RTVSPropertyOp31
 70
     1
102
RTVSPropertyOp32
 70
     1
  0
XRECORD
  5
DFA
102
{ACAD_REACTORS
330
DF9
102
}
330
DF9
100
AcDbXrecord
280
     1
102
RTVSPropertyOp0
 70
     1
102
RTVSPropertyOp1
 70
     1
102
RTVSPropertyOp2
 70
     1
102
RTVSPropertyOp3
 70
     1
102
RTVSPropertyOp4
 70
     1
102
RTVSPropertyOp5
 70
     1
102
RTVSPropertyOp6
 70
     1
102
RTVSPropertyOp7
 70
     1
102
RTVSPropertyOp8
 70
     1
102
RTVSPropertyOp9
 70
     1
102
RTVSPropertyOp10
 70
     1
102
RTVSPropertyOp11
 70
     1
102
RTVSPropertyOp12
 70
     1
102
RTVSPropertyOp13
 70
     1
102
RTVSPropertyOp14
 70
     1
102
RTVSPropertyOp15
 70
     1
102
RTVSPropertyOp16
 70
     1
102
RTVSPropertyOp17
 70
     1
102
RTVSPropertyOp18
 70
     1
102
RTVSPropertyOp19
 70
     1
102
RTVSPropertyOp20
 70
     1
102
RTVSPropertyOp21
 70
     1
102
RTVSPropertyOp22
 70
     1
102
RTVSPropertyOp23
 70
     1
102
RTVSPropertyOp24
 70
     1
102
RTVSPropertyOp25
 70
     1
102
RTVSPropertyOp26
 70
     1
102
RTVSPropertyOp27
 70
     1
102
RTVSPropertyOp28
 70
     1
102
RTVSPropertyOp29
 70
     1
102
RTVSPropertyOp30
 70
     1
102
RTVSPropertyOp31
 70
     1
102
RTVSPropertyOp32
 70
     1
  0
XRECORD
  5
DF0
102
{ACAD_REACTORS
330
DEF
102
}
330
DEF
100
AcDbXrecord
280
     1
102
RTVSPropertyOp0
 70
     1
102
RTVSPropertyOp1
 70
     1
102
RTVSPropertyOp2
 70
     1
102
RTVSPropertyOp3
 70
     1
102
RTVSPropertyOp4
 70
     1
102
RTVSPropertyOp5
 70
     1
102
RTVSPropertyOp6
 70
     1
102
RTVSPropertyOp7
 70
     1
102
RTVSPropertyOp8
 70
     1
102
RTVSPropertyOp9
 70
     1
102
RTVSPropertyOp10
 70
     1
102
RTVSPropertyOp11
 70
     1
102
RTVSPropertyOp12
 70
     1
102
RTVSPropertyOp13
 70
     1
102
RTVSPropertyOp14
 70
     1
102
RTVSPropertyOp15
 70
     1
102
RTVSPropertyOp16
 70
     1
102
RTVSPropertyOp17
 70
     1
102
RTVSPropertyOp18
 70
     1
102
RTVSPropertyOp19
 70
     1
102
RTVSPropertyOp20
 70
     1
102
RTVSPropertyOp21
 70
     1
102
RTVSPropertyOp22
 70
     1
102
RTVSPropertyOp23
 70
     1
102
RTVSPropertyOp24
 70
     1
102
RTVSPropertyOp25
 70
     1
102
RTVSPropertyOp26
 70
     1
102
RTVSPropertyOp27
 70
     1
102
RTVSPropertyOp28
 70
     1
102
RTVSPropertyOp29
 70
     1
102
RTVSPropertyOp30
 70
     1
102
RTVSPropertyOp31
 70
     1
102
RTVSPropertyOp32
 70
     1
  0
XRECORD
  5
DE4
102
{ACAD_REACTORS
330
DE3
102
}
330
DE3
100
AcDbXrecord
280
     1
102
RTVSPropertyOp0
 70
     1
102
RTVSPropertyOp1
 70
     1
102
RTVSPropertyOp2
 70
     1
102
RTVSPropertyOp3
 70
     1
102
RTVSPropertyOp4
 70
     1
102
RTVSPropertyOp5
 70
     1
102
RTVSPropertyOp6
 70
     1
102
RTVSPropertyOp7
 70
     1
102
RTVSPropertyOp8
 70
     1
102
RTVSPropertyOp9
 70
     1
102
RTVSPropertyOp10
 70
     1
102
RTVSPropertyOp11
 70
     1
102
RTVSPropertyOp12
 70
     1
102
RTVSPropertyOp13
 70
     1
102
RTVSPropertyOp14
 70
     1
102
RTVSPropertyOp15
 70
     1
102
RTVSPropertyOp16
 70
     1
102
RTVSPropertyOp17
 70
     1
102
RTVSPropertyOp18
 70
     1
102
RTVSPropertyOp19
 70
     1
102
RTVSPropertyOp20
 70
     1
102
RTVSPropertyOp21
 70
     1
102
RTVSPropertyOp22
 70
     1
102
RTVSPropertyOp23
 70
     1
102
RTVSPropertyOp24
 70
     1
102
RTVSPropertyOp25
 70
     1
102
RTVSPropertyOp26
 70
     1
102
RTVSPropertyOp27
 70
     1
102
RTVSPropertyOp28
 70
     1
102
RTVSPropertyOp29
 70
     1
102
RTVSPropertyOp30
 70
     1
102
RTVSPropertyOp31
 70
     1
102
RTVSPropertyOp32
 70
     1
  0
XRECORD
  5
DFC
102
{ACAD_REACTORS
330
DFB
102
}
330
DFB
100
AcDbXrecord
280
     1
102
RTVSPropertyOp0
 70
     1
102
RTVSPropertyOp1
 70
     1
102
RTVSPropertyOp2
 70
     1
102
RTVSPropertyOp3
 70
     1
102
RTVSPropertyOp4
 70
     1
102
RTVSPropertyOp5
 70
     1
102
RTVSPropertyOp6
 70
     1
102
RTVSPropertyOp7
 70
     1
102
RTVSPropertyOp8
 70
     1
102
RTVSPropertyOp9
 70
     1
102
RTVSPropertyOp10
 70
     1
102
RTVSPropertyOp11
 70
     1
102
RTVSPropertyOp12
 70
     1
102
RTVSPropertyOp13
 70
     1
102
RTVSPropertyOp14
 70
     1
102
RTVSPropertyOp15
 70
     1
102
RTVSPropertyOp16
 70
     1
102
RTVSPropertyOp17
 70
     1
102
RTVSPropertyOp18
 70
     1
102
RTVSPropertyOp19
 70
     1
102
RTVSPropertyOp20
 70
     1
102
RTVSPropertyOp21
 70
     1
102
RTVSPropertyOp22
 70
     1
102
RTVSPropertyOp23
 70
     1
102
RTVSPropertyOp24
 70
     1
102
RTVSPropertyOp25
 70
     1
102
RTVSPropertyOp26
 70
     1
102
RTVSPropertyOp27
 70
     1
102
RTVSPropertyOp28
 70
     1
102
RTVSPropertyOp29
 70
     1
102
RTVSPropertyOp30
 70
     1
102
RTVSPropertyOp31
 70
     1
102
RTVSPropertyOp32
 70
     1
  0
ENDSEC
  0
EOF
