  0
SECTION
  2
HEADER
  9
$FILLMODE
 70
1
  9
$TEXTSTYLE
  7
STANDARD1
  9
$ACADVER
  1
AC1009
  9
$DIMASZ
 40
1.931851648807023
  9
$DIMEXE
 40
2.000000000000000
  9
$DIMEXO
 40
1.000000000000000
  9
$DIMLFAC
 40
1.000000000000000
  9
$DIMSCALE
 40
1.000000000000000
  9
$DIMTAD
 70
1
  9
$DIMTFAC
 40
0.625000000000000
  9
$DIMTXT
 40
2.000000000000000
  9
$LUPREC
 70
3
  9
$TEXTSIZE
 40
20.000000000000000
  9
$REGENMODE
 70
1
  0
ENDSEC
  0
SECTION
  2
TABLES
  0
TABLE
  2
LTYPE
 70
4
  0
LTYPE
  2
CONTINUOUS
 70
64
  3
Solid line
 72
65
 73
0
 40
0.0
  0
LTYPE
  2
DASHED
 70
64
  3
-- -- -- -- -- -- -- -- -- -- -- -- -- -- --
 72
65
 73
2
 40
0.75
 49
0.5
 49
-0.25
  0
LTYPE
  2
DASHDOT
 70
64
  3
__ . __ . __ . __ . __ . __ . __ . __ . __ . __
 72
65
 73
4
 40
1.0
 49
0.5
 49
-0.25
 49
0.0
 49
-0.25
  0
LTYPE
  2
DIVIDE
 70
64
  3
__ . . __ . . __ . . __ . . __ . . __ . . __
 72
65
 73
6
 40
1.25
 49
0.5
 49
-0.25
 49
0.0
 49
-0.25
 49
0.0
 49
-0.25
  0
ENDTAB
  0
TABLE
  2
LAYER
 70
3
  0
LAYER
  2
0
 70
64
 62
3
  6
CONTINUOUS
  0
LAYER
  2
1
 70
64
 62
4
  6
CONTINUOUS
  0
LAYER
  2
4
 70
64
 62
4
  6
CONTINUOUS
  0
ENDTAB
  0
TABLE
  2
STYLE
 70
4
  0
STYLE
  2
STANDARD1
 70
64
 40
0.0
 41
1.0
 50
0.0
 71
0
 42
20.000000000000000
  3
MONOTXT
  4
BIGFONT
  0
STYLE
  2
STANDARD2
 70
68
 40
0.0
 41
1.0
 50
0.0
 71
0
 42
20.000000000000000
  3
MONOTXT
  4
BIGFONT
  0
STYLE
  2
STANDARD3
 70
64
 40
0.0
 41
1.0
 50
0.0
 71
0
 42
20.000000000000000
  3
MONOTXT
  4

  0
STYLE
  2
STANDARD4
 70
68
 40
0.0
 41
1.0
 50
0.0
 71
0
 42
20.000000000000000
  3
MONOTXT
  4

  0
ENDTAB
  0
TABLE
  2
VIEW
 70
0
  0
ENDTAB
  0
ENDSEC
  0
SECTION
  2
BLOCKS
  0
ENDSEC
  0
SECTION
  2
ENTITIES
  0
LINE
  8
1
  6
DASHDOT
 62
4
 10
-533.301656944599020
 20
3171.909313830739800
 11
-570.801656952279700
 21
3171.909313830739800
  0
LINE
  8
1
  6
DASHDOT
 62
4
 10
-633.301656965079020
 20
3171.909313830739800
 11
-670.801656972758790
 21
3171.909313830739800
  0
LINE
  8
1
  6
DASHDOT
 62
4
 10
-533.301656944599020
 20
3851.909314031443500
 11
-570.801656952279700
 21
3851.909314031443500
  0
LINE
  8
1
  6
DASHDOT
 62
4
 10
-633.301656965079020
 20
3851.909314031443500
 11
-670.801656972758790
 21
3851.909314031443500
  0
LINE
  8
1
  6
DASHDOT
 62
4
 10
-552.051656948439810
 20
3139.409313824082300
 11
-552.051656948439810
 21
3176.409313831660300
  0
LINE
  8
1
  6
DASHDOT
 62
4
 10
-552.051656948439810
 20
3167.409313829815800
 11
-552.051656948439810
 21
3204.409313837391900
  0
LINE
  8
1
  6
CONTINUOUS
 62
3
 10
-546.051656947210180
 20
3171.909313830739800
 11
-546.051656947210180
 21
3157.909313827871300
  0
LINE
  8
1
  6
CONTINUOUS
 62
3
 10
-546.051656947210180
 20
3171.909313830734400
 11
-546.051656947210180
 21
3185.909313833604800
  0
LINE
  8
1
  6
CONTINUOUS
 62
3
 10
-558.051656949667630
 20
3171.909313830739800
 11
-558.051656949667630
 21
3157.909313827871300
  0
LINE
  8
1
  6
CONTINUOUS
 62
3
 10
-558.051656949667630
 20
3171.909313830734400
 11
-558.051656949667630
 21
3185.909313833604800
  0
ARC
  8
1
  6
CONTINUOUS
 62
3
 10
-552.051656948439810
 20
3157.909313827871300
 40
6.000000001227818
 50
180.000000000000000
 51
0.000000000000000
  0
ARC
  8
1
  6
CONTINUOUS
 62
3
 10
-552.051656948439810
 20
3185.909313833604800
 40
6.000000001229637
 50
0.000000000000000
 51
180.000000000000000
  0
LINE
  8
1
  6
DASHDOT
 62
4
 10
-652.051656968919810
 20
3139.409313824082300
 11
-652.051656968919810
 21
3176.409313831660300
  0
LINE
  8
1
  6
DASHDOT
 62
4
 10
-652.051656968919810
 20
3167.409313829815800
 11
-652.051656968919810
 21
3204.409313837391900
  0
LINE
  8
1
  6
CONTINUOUS
 62
3
 10
-646.051656967690180
 20
3171.909313830734400
 11
-646.051656967690180
 21
3185.909313833604800
  0
ARC
  8
1
  6
CONTINUOUS
 62
3
 10
-652.051656968919810
 20
3157.909313827871300
 40
6.000000001228727
 50
180.000000000000000
 51
0.000000000000000
  0
LINE
  8
1
  6
CONTINUOUS
 62
3
 10
-646.051656967690180
 20
3171.909313830739800
 11
-646.051656967690180
 21
3157.909313827871300
  0
LINE
  8
1
  6
CONTINUOUS
 62
3
 10
-658.051656970148540
 20
3171.909313830739800
 11
-658.051656970148540
 21
3157.909313827871300
  0
LINE
  8
1
  6
CONTINUOUS
 62
3
 10
-658.051656970148540
 20
3171.909313830734400
 11
-658.051656970148540
 21
3185.909313833604800
  0
ARC
  8
1
  6
CONTINUOUS
 62
3
 10
-652.051656968919810
 20
3185.909313833604800
 40
6.000000001229637
 50
0.000000000000000
 51
180.000000000000000
  0
ARC
  8
1
  6
CONTINUOUS
 62
3
 10
-552.051656948439810
 20
3865.909314034310200
 40
6.000000001229637
 50
0.000000000000000
 51
180.000000000000000
  0
LINE
  8
1
  6
CONTINUOUS
 62
3
 10
-546.051656947210180
 20
3851.909314031443500
 11
-546.051656947210180
 21
3865.909314034310200
  0
LINE
  8
1
  6
CONTINUOUS
 62
3
 10
-558.051656949667630
 20
3851.909314031443500
 11
-558.051656949667630
 21
3865.909314034310200
  0
LINE
  8
1
  6
CONTINUOUS
 62
3
 10
-558.051656949667630
 20
3851.909314031443500
 11
-558.051656949667630
 21
3837.909314028576800
  0
ARC
  8
1
  6
CONTINUOUS
 62
3
 10
-552.051656948439810
 20
3837.909314028576800
 40
6.000000001227818
 50
180.000000000000000
 51
0.000000000000000
  0
LINE
  8
1
  6
CONTINUOUS
 62
3
 10
-546.051656947210180
 20
3851.909314031443500
 11
-546.051656947210180
 21
3837.909314028576800
  0
LINE
  8
1
  6
DASHDOT
 62
4
 10
-552.051656948439810
 20
3884.409314038097400
 11
-552.051656948439810
 21
3847.409314030521300
  0
LINE
  8
1
  6
DASHDOT
 62
4
 10
-552.051656948439810
 20
3856.409314032365700
 11
-552.051656948439810
 21
3819.409314024789600
  0
LINE
  8
1
  6
DASHDOT
 62
4
 10
-652.051656968919810
 20
3856.409314032365700
 11
-652.051656968919810
 21
3819.409314024789600
  0
LINE
  8
1
  6
DASHDOT
 62
4
 10
-652.051656968919810
 20
3884.409314038097400
 11
-652.051656968919810
 21
3847.409314030521300
  0
LINE
  8
1
  6
CONTINUOUS
 62
3
 10
-646.051656967690180
 20
3851.909314031443500
 11
-646.051656967690180
 21
3837.909314028576800
  0
ARC
  8
1
  6
CONTINUOUS
 62
3
 10
-652.051656968919810
 20
3837.909314028576800
 40
6.000000001228727
 50
180.000000000000000
 51
0.000000000000000
  0
LINE
  8
1
  6
CONTINUOUS
 62
3
 10
-658.051656970148540
 20
3851.909314031443500
 11
-658.051656970148540
 21
3837.909314028576800
  0
ARC
  8
1
  6
CONTINUOUS
 62
3
 10
-652.051656968919810
 20
3865.909314034310200
 40
6.000000001229637
 50
0.000000000000000
 51
180.000000000000000
  0
LINE
  8
1
  6
CONTINUOUS
 62
3
 10
-646.051656967690180
 20
3851.909314031443500
 11
-646.051656967690180
 21
3865.909314034310200
  0
LINE
  8
1
  6
CONTINUOUS
 62
3
 10
-658.051656970148540
 20
3851.909314031443500
 11
-658.051656970148540
 21
3865.909314034310200
  0
ARC
  8
1
  6
CONTINUOUS
 62
3
 10
-537.051656945367540
 20
3871.909314035539900
 40
10.000000002049092
 50
0.000000000000000
 51
90.000000000000000
  0
ARC
  8
1
  6
CONTINUOUS
 62
3
 10
-667.051656971991180
 20
3871.909314035539900
 40
10.000000002050001
 50
90.000000000000000
 51
180.000000000000000
  0
ARC
  8
1
  6
CONTINUOUS
 62
3
 10
-537.051656945367540
 20
3151.909313826639800
 40
10.000000002046363
 50
270.000000000000000
 51
0.000000000000000
  0
ARC
  8
1
  6
CONTINUOUS
 62
3
 10
-667.051656971991180
 20
3151.909313826639800
 40
10.000000002047273
 50
180.000000000000000
 51
270.000000000000000
  0
LINE
  8
1
  6
CONTINUOUS
 62
3
 10
-677.051656974038450
 20
3811.909314023252600
 11
-677.051656974038450
 21
3871.909314035539900
  0
ARC
  8
1
  6
CONTINUOUS
 62
3
 10
-578.004348147213020
 20
3814.209314023723000
 40
2.300000000470391
 50
270.000000000000000
 51
314.999999999983970
  0
LINE
  8
1
  6
CONTINUOUS
 62
3
 10
-562.051656950486180
 20
3826.909314026321200
 11
-576.378002550150090
 21
3812.582968426659100
  0
LINE
  8
1
  6
CONTINUOUS
 62
3
 10
-562.051656950486180
 20
3826.909314026321200
 11
-547.725311350825900
 21
3812.582968426659100
  0
ARC
  8
1
  6
CONTINUOUS
 62
3
 10
-546.098965753762970
 20
3814.209314023723000
 40
2.300000000472817
 50
225.000000000016030
 51
270.000000000000000
  0
LINE
  8
1
  6
CONTINUOUS
 62
3
 10
-562.051656950486180
 20
3811.909314023252600
 11
-562.051656950486180
 21
3826.909314026321200
  0
LINE
  8
1
  6
CONTINUOUS
 62
3
 10
-677.051656974038450
 20
3811.909314023252600
 11
-527.051656943318450
 21
3811.909314023252600
  0
LINE
  8
1
  6
CONTINUOUS
 62
3
 10
-642.051656966870720
 20
3811.909314023252600
 11
-642.051656966870720
 21
3826.909314026321200
  0
LINE
  8
1
  6
CONTINUOUS
 62
3
 10
-642.051656966870720
 20
3826.909314026321200
 11
-627.725311367209540
 21
3812.582968426659100
  0
LINE
  8
1
  6
CONTINUOUS
 62
3
 10
-642.051656966870720
 20
3826.909314026321200
 11
-656.378002566534630
 21
3812.582968426659100
  0
ARC
  8
1
  6
CONTINUOUS
 62
3
 10
-626.098965770147520
 20
3814.209314023723000
 40
2.300000000472174
 50
225.000000000032060
 51
270.000000000000000
  0
ARC
  8
1
  6
CONTINUOUS
 62
3
 10
-658.004348163596660
 20
3814.209314023723000
 40
2.300000000470391
 50
270.000000000000000
 51
314.999999999967940
  0
LINE
  8
1
  6
CONTINUOUS
 62
3
 10
-527.051656943318450
 20
3811.909314023252600
 11
-527.051656943318450
 21
3871.909314035539900
  0
LINE
  8
1
  6
CONTINUOUS
 62
3
 10
-667.051656971991180
 20
3881.909314037589900
 11
-537.051656945367540
 21
3881.909314037589900
  0
LINE
  8
1
  6
CONTINUOUS
 62
3
 10
-527.051656943318450
 20
3211.909313838928900
 11
-527.051656943318450
 21
3151.909313826639800
  0
LINE
  8
1
  6
CONTINUOUS
 62
3
 10
-562.051656950486180
 20
3196.909313835856700
 11
-576.378002550150090
 21
3211.235659435518800
  0
LINE
  8
1
  6
CONTINUOUS
 62
3
 10
-562.051656950486180
 20
3196.909313835856700
 11
-547.725311350825900
 21
3211.235659435518800
  0
LINE
  8
1
  6
CONTINUOUS
 62
3
 10
-562.051656950486180
 20
3211.909313838928900
 11
-562.051656950486180
 21
3196.909313835856700
  0
LINE
  8
1
  6
CONTINUOUS
 62
3
 10
-642.051656966870720
 20
3211.909313838928900
 11
-642.051656966870720
 21
3196.909313835856700
  0
LINE
  8
1
  6
CONTINUOUS
 62
3
 10
-642.051656966870720
 20
3196.909313835856700
 11
-627.725311367209540
 21
3211.235659435518800
  0
LINE
  8
1
  6
CONTINUOUS
 62
3
 10
-642.051656966870720
 20
3196.909313835856700
 11
-656.378002566534630
 21
3211.235659435518800
  0
LINE
  8
1
  6
CONTINUOUS
 62
3
 10
-667.051656971991180
 20
3141.909313824593500
 11
-537.051656945367540
 21
3141.909313824593500
  0
LINE
  8
1
  6
CONTINUOUS
 62
3
 10
-677.051656974038450
 20
3211.909313838928900
 11
-677.051656974038450
 21
3151.909313826639800
  0
LINE
  8
1
  6
CONTINUOUS
 62
3
 10
-677.051656974038450
 20
3211.909313838928900
 11
-527.051656943318450
 21
3211.909313838928900
  0
ARC
  8
1
  6
CONTINUOUS
 62
3
 10
-578.004348147213020
 20
3209.609313838456700
 40
2.300000000471531
 50
44.999999999983984
 51
90.000000000000000
  0
ARC
  8
1
  6
CONTINUOUS
 62
3
 10
-546.098965753762970
 20
3209.609313838456700
 40
2.300000000472210
 50
90.000000000000000
 51
135.000000000016030
  0
ARC
  8
1
  6
CONTINUOUS
 62
3
 10
-626.098965770147520
 20
3209.609313838456700
 40
2.300000000472210
 50
90.000000000000000
 51
135.000000000000000
  0
ARC
  8
1
  6
CONTINUOUS
 62
3
 10
-658.004348163596660
 20
3209.609313838456700
 40
2.300000000470888
 50
45.000000000000000
 51
90.000000000000000
  0
LINE
  8
1
  6
CONTINUOUS
 62
3
 10
-501.851656938157250
 20
3226.909313842001200
 11
-479.418908571636170
 21
3226.909313842001200
  0
LINE
  8
1
  6
CONTINUOUS
 62
3
 10
-479.418908571636170
 20
3796.909314020180300
 11
-479.418908571636170
 21
3226.909313842001200
  0
LINE
  8
1
  6
CONTINUOUS
 62
3
 10
-626.851656963758610
 20
3226.909313842001200
 11
-606.851656959662250
 21
3226.909313842001200
  0
LINE
  8
1
  6
CONTINUOUS
 62
3
 10
-626.851656963758610
 20
3226.909313842001200
 11
-626.851656963758610
 21
3511.909313931088000
  0
LINE
  8
1
  6
CONTINUOUS
 62
3
 10
-606.851656959662250
 20
3226.909313842001200
 11
-501.851656938157250
 21
3226.909313842001200
  0
LINE
  8
1
  6
CONTINUOUS
 62
3
 10
-626.851656963758610
 20
3511.909313931088000
 11
-626.851656963758610
 21
3796.909314020180300
  0
LINE
  8
1
  6
CONTINUOUS
 62
3
 10
-626.851656963758610
 20
3796.909314020180300
 11
-606.851656959662250
 21
3796.909314020180300
  0
LINE
  8
1
  6
CONTINUOUS
 62
3
 10
-606.851656959662250
 20
3796.909314020180300
 11
-501.851656938157250
 21
3796.909314020180300
  0
LINE
  8
1
  6
CONTINUOUS
 62
3
 10
-501.851656938157250
 20
3796.909314020180300
 11
-479.418908571636170
 21
3796.909314020180300
  0
ARC
  8
1
  6
CONTINUOUS
 62
3
 10
-480.652471598611560
 20
3226.809313841979000
 40
0.400000000081491
 50
180.000000000000000
 51
270.000000000000000
  0
ARC
  8
1
  6
CONTINUOUS
 62
3
 10
-474.251656932505280
 20
3225.809313841775300
 40
0.600000000122236
 50
0.000000000000000
 51
90.000000000000000
  0
ARC
  8
1
  6
CONTINUOUS
 62
3
 10
-626.451656963675300
 20
3226.809313841979000
 40
0.400000000079672
 50
270.000000000000000
 51
0.000000000000000
  0
ARC
  8
1
  6
CONTINUOUS
 62
3
 10
-626.451656963675300
 20
3225.809313841775300
 40
0.600000000124055
 50
90.000000000000000
 51
180.000000000000000
  0
LINE
  8
1
  6
CONTINUOUS
 62
3
 10
-474.251656932505280
 20
3226.409313841899300
 11
-626.451656963675300
 21
3226.409313841899300
  0
LINE
  8
1
  6
CONTINUOUS
 62
3
 10
-473.651656932383050
 20
3216.909313839953000
 11
-473.651656932383050
 21
3225.809313841775300
  0
LINE
  8
1
  6
CONTINUOUS
 62
3
 10
-627.051656963798450
 20
3215.909313839747500
 11
-627.051656963798450
 21
3225.809313841775300
  0
ARC
  8
1
  6
CONTINUOUS
 62
3
 10
-478.651656933407140
 20
3216.909313839953000
 40
5.000000001024091
 50
270.000000000000000
 51
0.000000000000000
  0
LINE
  8
1
  6
CONTINUOUS
 62
3
 10
-623.051656962979910
 20
3211.909313838928900
 11
-478.601656933396040
 21
3211.909313838928900
  0
ARC
  8
1
  6
CONTINUOUS
 62
3
 10
-623.051656962979910
 20
3215.909313839747500
 40
4.000000000818545
 50
180.000000000000000
 51
270.000000000000000
  0
ARC
  8
1
  6
CONTINUOUS
 62
3
 10
-626.451656963675300
 20
3797.009314020200700
 40
0.400000000081491
 50
0.000000000000000
 51
90.000000000000000
  0
ARC
  8
1
  6
CONTINUOUS
 62
3
 10
-626.451656963675300
 20
3798.009314020404400
 40
0.600000000123146
 50
180.000000000000000
 51
270.000000000000000
  0
LINE
  8
1
  6
CONTINUOUS
 62
3
 10
-474.251656932505280
 20
3797.409314020280400
 11
-626.451656963675300
 21
3797.409314020280400
  0
LINE
  8
1
  6
CONTINUOUS
 62
3
 10
-627.051656963798450
 20
3807.909314022430400
 11
-627.051656963798450
 21
3798.009314020404400
  0
ARC
  8
1
  6
CONTINUOUS
 62
3
 10
-480.652471598611560
 20
3797.009314020200700
 40
0.400000000079672
 50
90.000000000000000
 51
180.000000000000000
  0
ARC
  8
1
  6
CONTINUOUS
 62
3
 10
-474.251656932505280
 20
3798.009314020404400
 40
0.600000000124055
 50
270.000000000000000
 51
0.000000000000000
  0
ARC
  8
1
  6
CONTINUOUS
 62
3
 10
-478.651656933407140
 20
3806.909314022226700
 40
5.000000001024091
 50
0.000000000000000
 51
90.000000000000000
  0
LINE
  8
1
  6
CONTINUOUS
 62
3
 10
-473.651656932383050
 20
3806.909314022226700
 11
-473.651656932383050
 21
3798.009314020404400
  0
LINE
  8
1
  6
CONTINUOUS
 62
3
 10
-623.051656962979910
 20
3811.909314023252600
 11
-478.601656933396040
 21
3811.909314023252600
  0
ARC
  8
1
  6
CONTINUOUS
 62
3
 10
-623.051656962979910
 20
3807.909314022430400
 40
4.000000000822183
 50
90.000000000000000
 51
180.000000000000000
  0
LINE
  8
1
  6
CONTINUOUS
 62
3
 10
-479.418908571636170
 20
3226.909313842001200
 11
-473.851656932423790
 21
3226.909313842001200
  0
LINE
  8
1
  6
CONTINUOUS
 62
3
 10
-479.418908571636170
 20
3796.909314020180300
 11
-473.851656932423790
 21
3796.909314020180300
  0
LINE
  8
1
  6
CONTINUOUS
 62
3
 10
-473.851656932423790
 20
3511.909313931090800
 11
-473.851656932423790
 21
3797.562100424794200
  0
LINE
  8
1
  6
CONTINUOUS
 62
3
 10
-473.851656932423790
 20
3511.909313931090800
 11
-473.851656932423790
 21
3226.256527437385600
  0
LINE
  8
1
  6
DASHDOT
 62
4
 10
-704.606938811925830
 20
3511.909313931090800
 11
-422.810193634629290
 21
3511.909313931090800
  0
POLYLINE
  8
4
  6
CONTINUOUS
 62
3
 66
1
  0
VERTEX
  8
4
  6
CONTINUOUS
 62
3
 10
-473.851656931928180
 20
3796.909314020229900
  0
VERTEX
  8
4
  6
CONTINUOUS
 62
3
 10
-24.222244581325683
 20
3850.002261291595500
  0
VERTEX
  8
4
  6
CONTINUOUS
 62
3
 10
425.433893801636030
 20
3902.908511389082800
  0
VERTEX
  8
4
  6
CONTINUOUS
 62
3
 10
875.143484249316090
 20
3955.441367138815600
  0
VERTEX
  8
4
  6
CONTINUOUS
 62
3
 10
1100.026675882538000
 20
3981.509429266437100
  0
VERTEX
  8
4
  6
CONTINUOUS
 62
3
 10
1324.933252794074200
 20
4007.414131366916100
  0
VERTEX
  8
4
  6
CONTINUOUS
 62
3
 10
1549.866555737969700
 20
4033.132136293517800
  0
VERTEX
  8
4
  6
CONTINUOUS
 62
3
 10
1774.829925468269300
 20
4058.640106899506500
  0
VERTEX
  8
4
  6
CONTINUOUS
 62
3
 10
1999.826702739017500
 20
4083.914706038149200
  0
VERTEX
  8
4
  6
CONTINUOUS
 62
3
 10
2224.860228304260100
 20
4108.932596562710400
  0
VERTEX
  8
4
  6
CONTINUOUS
 62
3
 10
2449.933842918041600
 20
4133.670441326455100
  0
VERTEX
  8
4
  6
CONTINUOUS
 62
3
 10
2675.050887334406100
 20
4158.104903182649700
  0
VERTEX
  8
4
  6
CONTINUOUS
 62
3
 10
2900.214702307400300
 20
4182.212644984558200
  0
VERTEX
  8
4
  6
CONTINUOUS
 62
3
 10
3125.428628591067500
 20
4205.970329585445100
  0
VERTEX
  8
4
  6
CONTINUOUS
 62
3
 10
3125.428628591067500
 20
4205.970329585445100
  0
VERTEX
  8
4
  6
CONTINUOUS
 62
3
 10
3404.063148132705900
 20
4234.963571719671600
  0
VERTEX
  8
4
  6
CONTINUOUS
 62
3
 10
3543.381388235889100
 20
4249.467360899541700
  0
VERTEX
  8
4
  6
CONTINUOUS
 62
3
 10
3682.684448071446700
 20
4264.094012822928600
  0
VERTEX
  8
4
  6
CONTINUOUS
 62
3
 10
3821.960452272476700
 20
4278.932090491091900
  0
VERTEX
  8
4
  6
CONTINUOUS
 62
3
 10
3961.197525472076400
 20
4294.070156905289900
  0
VERTEX
  8
4
  6
CONTINUOUS
 62
3
 10
4100.383792303346100
 20
4309.596775066781400
  0
VERTEX
  8
4
  6
CONTINUOUS
 62
3
 10
4239.507377399380900
 20
4325.600507976825600
  0
VERTEX
  8
4
  6
CONTINUOUS
 62
3
 10
4309.041953244528500
 20
4333.808968400449000
  0
VERTEX
  8
4
  6
CONTINUOUS
 62
3
 10
4378.556405393281200
 20
4342.169918636682300
  0
VERTEX
  8
4
  6
CONTINUOUS
 62
3
 10
4448.049249424774600
 20
4350.694429060683400
  0
VERTEX
  8
4
  6
CONTINUOUS
 62
3
 10
4517.519000918146000
 20
4359.393570047610400
  0
VERTEX
  8
4
  6
CONTINUOUS
 62
3
 10
4586.964175452531900
 20
4368.278411972619300
  0
VERTEX
  8
4
  6
CONTINUOUS
 62
3
 10
4656.383288607071300
 20
4377.360025210868100
  0
VERTEX
  8
4
  6
CONTINUOUS
 62
3
 10
4725.774855960900800
 20
4386.649480137515600
  0
VERTEX
  8
4
  6
CONTINUOUS
 62
3
 10
4795.137393093156800
 20
4396.157847127716200
  0
VERTEX
  8
4
  6
CONTINUOUS
 62
3
 10
4864.469415582978400
 20
4405.896196556628600
  0
VERTEX
  8
4
  6
CONTINUOUS
 62
3
 10
4933.769439009500300
 20
4415.875598799411800
  0
VERTEX
  8
4
  6
CONTINUOUS
 62
3
 10
5003.035978951862500
 20
4426.107124231221000
  0
VERTEX
  8
4
  6
CONTINUOUS
 62
3
 10
5072.267550989200600
 20
4436.601843227214000
  0
VERTEX
  8
4
  6
CONTINUOUS
 62
3
 10
5141.462670700651900
 20
4447.370826162548800
  0
VERTEX
  8
4
  6
CONTINUOUS
 62
3
 10
5210.619853665355500
 20
4458.425143412382600
  0
VERTEX
  8
4
  6
CONTINUOUS
 62
3
 10
5279.737615462445300
 20
4469.775865351873100
  0
VERTEX
  8
4
  6
CONTINUOUS
 62
3
 10
5348.814471671063100
 20
4481.434062356176600
  0
VERTEX
  8
4
  6
CONTINUOUS
 62
3
 10
5348.814471671063100
 20
4481.434062356176600
  0
VERTEX
  8
4
  6
CONTINUOUS
 62
3
 10
5434.694099461078600
 20
4496.384796570932800
  0
VERTEX
  8
4
  6
CONTINUOUS
 62
3
 10
5520.495528603087200
 20
4511.852765457422700
  0
VERTEX
  8
4
  6
CONTINUOUS
 62
3
 10
5606.206174232915100
 20
4527.862140063060900
  0
VERTEX
  8
4
  6
CONTINUOUS
 62
3
 10
5691.813451486385000
 20
4544.437091435257600
  0
VERTEX
  8
4
  6
CONTINUOUS
 62
3
 10
5734.574394201930800
 20
4552.944211861132300
  0
VERTEX
  8
4
  6
CONTINUOUS
 62
3
 10
5777.304775499322200
 20
4561.601790621427400
  0
VERTEX
  8
4
  6
CONTINUOUS
 62
3
 10
5820.003022270537300
 20
4570.412849097068800
  0
VERTEX
  8
4
  6
CONTINUOUS
 62
3
 10
5862.667561407553000
 20
4579.380408668982500
  0
VERTEX
  8
4
  6
CONTINUOUS
 62
3
 10
5905.296819802348200
 20
4588.507490718097000
  0
VERTEX
  8
4
  6
CONTINUOUS
 62
3
 10
5947.889224346899900
 20
4597.797116625336500
  0
VERTEX
  8
4
  6
CONTINUOUS
 62
3
 10
5990.443201933187100
 20
4607.252307771629600
  0
VERTEX
  8
4
  6
CONTINUOUS
 62
3
 10
6032.957179453189400
 20
4616.876085537901400
  0
VERTEX
  8
4
  6
CONTINUOUS
 62
3
 10
6075.429583798883000
 20
4626.671471305078700
  0
VERTEX
  8
4
  6
CONTINUOUS
 62
3
 10
6117.858841862245800
 20
4636.641486454089300
  0
VERTEX
  8
4
  6
CONTINUOUS
 62
3
 10
6160.243380535256600
 20
4646.789152365859100
  0
VERTEX
  8
4
  6
CONTINUOUS
 62
3
 10
6202.581626709892600
 20
4657.117490421314900
  0
VERTEX
  8
4
  6
CONTINUOUS
 62
3
 10
6244.872007278133400
 20
4667.629522001382600
  0
VERTEX
  8
4
  6
CONTINUOUS
 62
3
 10
6287.112949131957100
 20
4678.328268486990100
  0
VERTEX
  8
4
  6
CONTINUOUS
 62
3
 10
6329.302879163340500
 20
4689.216751259062200
  0
VERTEX
  8
4
  6
CONTINUOUS
 62
3
 10
6371.440224264262700
 20
4700.297991698527800
  0
VERTEX
  8
4
  6
CONTINUOUS
 62
3
 10
6413.523411326701500
 20
4711.575011186312600
  0
VERTEX
  8
4
  6
CONTINUOUS
 62
3
 10
6455.550867242634900
 20
4723.050831103341800
  0
VERTEX
  8
4
  6
CONTINUOUS
 62
3
 10
6497.521018904040800
 20
4734.728472830543100
  0
VERTEX
  8
4
  6
CONTINUOUS
 62
3
 10
6539.432293202898100
 20
4746.610957748842300
  0
VERTEX
  8
4
  6
CONTINUOUS
 62
3
 10
6581.283117031183800
 20
4758.701307239167400
  0
VERTEX
  8
4
  6
CONTINUOUS
 62
3
 10
6623.071917280875800
 20
4771.002542682444100
  0
VERTEX
  8
4
  6
CONTINUOUS
 62
3
 10
6664.797120843954000
 20
4783.517685459599300
  0
VERTEX
  8
4
  6
CONTINUOUS
 62
3
 10
6706.457154612395200
 20
4796.249756951558100
  0
VERTEX
  8
4
  6
CONTINUOUS
 62
3
 10
6706.457154612395200
 20
4796.249756951558100
  0
VERTEX
  8
4
  6
CONTINUOUS
 62
3
 10
6744.652262522804400
 20
4808.131393470327600
  0
VERTEX
  8
4
  6
CONTINUOUS
 62
3
 10
6782.795376638256100
 20
4820.184056000887700
  0
VERTEX
  8
4
  6
CONTINUOUS
 62
3
 10
6820.890775548854400
 20
4832.393325871189500
  0
VERTEX
  8
4
  6
CONTINUOUS
 62
3
 10
6858.942737844707200
 20
4844.744784409184800
  0
VERTEX
  8
4
  6
CONTINUOUS
 62
3
 10
6934.933466952598800
 20
4869.816592800063500
  0
VERTEX
  8
4
  6
CONTINUOUS
 62
3
 10
7010.801792682779700
 20
4895.284131797137900
  0
VERTEX
  8
4
  6
CONTINUOUS
 62
3
 10
7086.581943756098600
 20
4921.032052024021100
  0
VERTEX
  8
4
  6
CONTINUOUS
 62
3
 10
7162.308148893404000
 20
4946.945004104325600
  0
VERTEX
  8
4
  6
CONTINUOUS
 62
3
 10
7313.735636243372900
 20
4998.804606319659800
  0
VERTEX
  8
4
  6
CONTINUOUS
 62
3
 10
7389.505375897734700
 20
5024.520557701914200
  0
VERTEX
  8
4
  6
CONTINUOUS
 62
3
 10
7465.358084499481300
 20
5049.940143432047100
  0
VERTEX
  8
4
  6
CONTINUOUS
 62
3
 10
7541.327990769459600
 20
5074.948014133669900
  0
VERTEX
  8
4
  6
CONTINUOUS
 62
3
 10
7579.367589505302000
 20
5087.261509668669500
  0
VERTEX
  8
4
  6
CONTINUOUS
 62
3
 10
7617.449323428520100
 20
5099.428820430398400
  0
VERTEX
  8
4
  6
CONTINUOUS
 62
3
 10
7655.577471129221500
 20
5111.435527746806700
  0
VERTEX
  8
4
  6
CONTINUOUS
 62
3
 10
7693.756311197511400
 20
5123.267212945845100
  0
VERTEX
  8
4
  6
CONTINUOUS
 62
3
 10
7731.990122223496700
 20
5134.909457355466700
  0
VERTEX
  8
4
  6
CONTINUOUS
 62
3
 10
7770.283182797283200
 20
5146.347842303623100
  0
VERTEX
  8
4
  6
CONTINUOUS
 62
3
 10
7808.639771508977000
 20
5157.567949118266400
  0
VERTEX
  8
4
  6
CONTINUOUS
 62
3
 10
7847.064166948683100
 20
5168.555359127347400
  0
VERTEX
  8
4
  6
CONTINUOUS
 62
3
 10
7885.560647706510300
 20
5179.295653658819000
  0
VERTEX
  8
4
  6
CONTINUOUS
 62
3
 10
7924.133492372562600
 20
5189.774414040632100
  0
VERTEX
  8
4
  6
CONTINUOUS
 62
3
 10
7924.133492372562600
 20
5189.774414040632100
  0
VERTEX
  8
4
  6
CONTINUOUS
 62
3
 10
7961.501931505436000
 20
5199.646107669215800
  0
VERTEX
  8
4
  6
CONTINUOUS
 62
3
 10
7998.943178238795600
 20
5209.264030420587000
  0
VERTEX
  8
4
  6
CONTINUOUS
 62
3
 10
8036.454660789264400
 20
5218.632354240559800
  0
VERTEX
  8
4
  6
CONTINUOUS
 62
3
 10
8074.033807373467400
 20
5227.755251074944700
  0
VERTEX
  8
4
  6
CONTINUOUS
 62
3
 10
8111.678046208027800
 20
5236.636892869551000
  0
VERTEX
  8
4
  6
CONTINUOUS
 62
3
 10
8149.384805509569600
 20
5245.281451570192100
  0
VERTEX
  8
4
  6
CONTINUOUS
 62
3
 10
8187.151513494716700
 20
5253.693099122679100
  0
VERTEX
  8
4
  6
CONTINUOUS
 62
3
 10
8224.975598380093300
 20
5261.876007472823400
  0
VERTEX
  8
4
  6
CONTINUOUS
 62
3
 10
8262.854488382321500
 20
5269.834348566435400
  0
VERTEX
  8
4
  6
CONTINUOUS
 62
3
 10
8300.785611718027200
 20
5277.572294349328300
  0
VERTEX
  8
4
  6
CONTINUOUS
 62
3
 10
8338.766396603834400
 20
5285.094016767312500
  0
VERTEX
  8
4
  6
CONTINUOUS
 62
3
 10
8376.794271256363600
 20
5292.403687766199300
  0
VERTEX
  8
4
  6
CONTINUOUS
 62
3
 10
8414.866663892244100
 20
5299.505479291799900
  0
VERTEX
  8
4
  6
CONTINUOUS
 62
3
 10
8452.981002728094600
 20
5306.403563289926800
  0
VERTEX
  8
4
  6
CONTINUOUS
 62
3
 10
8491.134715980540900
 20
5313.102111706389200
  0
VERTEX
  8
4
  6
CONTINUOUS
 62
3
 10
8529.325231866208900
 20
5319.605296487000500
  0
VERTEX
  8
4
  6
CONTINUOUS
 62
3
 10
8567.549978601720800
 20
5325.917289577571000
  0
VERTEX
  8
4
  6
CONTINUOUS
 62
3
 10
8605.806384403698800
 20
5332.042262923912900
  0
VERTEX
  8
4
  6
CONTINUOUS
 62
3
 10
8644.091877488766800
 20
5337.984388471837500
  0
VERTEX
  8
4
  6
CONTINUOUS
 62
3
 10
8682.403886073550900
 20
5343.747838167154400
  0
VERTEX
  8
4
  6
CONTINUOUS
 62
3
 10
8720.739838374673100
 20
5349.336783955676800
  0
VERTEX
  8
4
  6
CONTINUOUS
 62
3
 10
8759.097162608759400
 20
5354.755397783216700
  0
VERTEX
  8
4
  6
CONTINUOUS
 62
3
 10
8797.473286992431900
 20
5360.007851595583800
  0
VERTEX
  8
4
  6
CONTINUOUS
 62
3
 10
8835.865639742314700
 20
5365.098317338590300
  0
VERTEX
  8
4
  6
CONTINUOUS
 62
3
 10
8874.271649075031700
 20
5370.030966958047400
  0
VERTEX
  8
4
  6
CONTINUOUS
 62
3
 10
8912.688743207207200
 20
5374.809972399766600
  0
VERTEX
  8
4
  6
CONTINUOUS
 62
3
 10
8989.545898736425400
 20
5383.923738533235300
  0
VERTEX
  8
4
  6
CONTINUOUS
 62
3
 10
9066.416532062961800
 20
5392.472991305488900
  0
VERTEX
  8
4
  6
CONTINUOUS
 62
3
 10
9143.280068919808400
 20
5400.491106283017900
  0
VERTEX
  8
4
  6
CONTINUOUS
 62
3
 10
9143.280068919808400
 20
5400.491106283017900
  0
VERTEX
  8
4
  6
CONTINUOUS
 62
3
 10
9224.672952709883200
 20
5408.433629521532600
  0
VERTEX
  8
4
  6
CONTINUOUS
 62
3
 10
9306.050809663102000
 20
5415.806813242868900
  0
VERTEX
  8
4
  6
CONTINUOUS
 62
3
 10
9387.429659083296400
 20
5422.599799488644700
  0
VERTEX
  8
4
  6
CONTINUOUS
 62
3
 10
9468.825520274293000
 20
5428.801730300479000
  0
VERTEX
  8
4
  6
CONTINUOUS
 62
3
 10
9509.534836316290200
 20
5431.677656806673400
  0
VERTEX
  8
4
  6
CONTINUOUS
 62
3
 10
9550.254412539925400
 20
5434.401747719988600
  0
VERTEX
  8
4
  6
CONTINUOUS
 62
3
 10
9590.986251358173800
 20
5436.972645795625800
  0
VERTEX
  8
4
  6
CONTINUOUS
 62
3
 10
9631.732355184018200
 20
5439.388993788790700
  0
VERTEX
  8
4
  6
CONTINUOUS
 62
3
 10
9672.494726430435500
 20
5441.649434454682700
  0
VERTEX
  8
4
  6
CONTINUOUS
 62
3
 10
9713.275367510406800
 20
5443.752610548504900
  0
VERTEX
  8
4
  6
CONTINUOUS
 62
3
 10
9754.076280836907200
 20
5445.697164825458500
  0
VERTEX
  8
4
  6
CONTINUOUS
 62
3
 10
9794.899468822917700
 20
5447.481740040746400
  0
VERTEX
  8
4
  6
CONTINUOUS
 62
3
 10
9835.746933881415300
 20
5449.104978949571900
  0
VERTEX
  8
4
  6
CONTINUOUS
 62
3
 10
9876.620678425380900
 20
5450.565524307136000
  0
VERTEX
  8
4
  6
CONTINUOUS
 62
3
 10
9917.522704867793400
 20
5451.862018868640000
  0
VERTEX
  8
4
  6
CONTINUOUS
 62
3
 10
9958.455015621628300
 20
5452.993105389286900
  0
VERTEX
  8
4
  6
CONTINUOUS
 62
3
 10
9999.419613099866200
 20
5453.957426624280700
  0
VERTEX
  8
4
  6
CONTINUOUS
 62
3
 10
10040.418499715488000
 20
5454.753625328821700
  0
VERTEX
  8
4
  6
CONTINUOUS
 62
3
 10
10081.453677881469000
 20
5455.380344258112000
  0
VERTEX
  8
4
  6
CONTINUOUS
 62
3
 10
10122.527150010788000
 20
5455.836226167355600
  0
VERTEX
  8
4
  6
CONTINUOUS
 62
3
 10
10163.640918516426000
 20
5456.119913811753600
  0
VERTEX
  8
4
  6
CONTINUOUS
 62
3
 10
10204.796985811361000
 20
5456.230049946507300
  0
VERTEX
  8
4
  6
CONTINUOUS
 62
3
 10
10245.997354308572000
 20
5456.165277326819700
  0
VERTEX
  8
4
  6
CONTINUOUS
 62
3
 10
10287.244026421036000
 20
5455.924238707893000
  0
VERTEX
  8
4
  6
CONTINUOUS
 62
3
 10
10328.539004561733000
 20
5455.505576844930100
  0
VERTEX
  8
4
  6
CONTINUOUS
 62
3
 10
10369.884291143644000
 20
5454.907934493132400
  0
VERTEX
  8
4
  6
CONTINUOUS
 62
3
 10
10411.281888579742000
 20
5454.129954407701900
  0
VERTEX
  8
4
  6
CONTINUOUS
 62
3
 10
10452.733799283010000
 20
5453.170279343841700
  0
VERTEX
  8
4
  6
CONTINUOUS
 62
3
 10
10452.733799283010000
 20
5453.170279343841700
  0
VERTEX
  8
4
  6
CONTINUOUS
 62
3
 10
10515.445658190681000
 20
5451.352825707803300
  0
VERTEX
  8
4
  6
CONTINUOUS
 62
3
 10
10546.830083441547000
 20
5450.248025188455400
  0
VERTEX
  8
4
  6
CONTINUOUS
 62
3
 10
10578.223003125116000
 20
5448.991474915064800
  0
VERTEX
  8
4
  6
CONTINUOUS
 62
3
 10
10609.616540167397000
 20
5447.567399422763600
  0
VERTEX
  8
4
  6
CONTINUOUS
 62
3
 10
10641.002817494400000
 20
5445.960023246683700
  0
VERTEX
  8
4
  6
CONTINUOUS
 62
3
 10
10672.373958032134000
 20
5444.153570921957900
  0
VERTEX
  8
4
  6
CONTINUOUS
 62
3
 10
10703.722084706612000
 20
5442.132266983719100
  0
VERTEX
  8
4
  6
CONTINUOUS
 62
3
 10
10735.039320443840000
 20
5439.880335967099200
  0
VERTEX
  8
4
  6
CONTINUOUS
 62
3
 10
10766.317788169832000
 20
5437.382002407230200
  0
VERTEX
  8
4
  6
CONTINUOUS
 62
3
 10
10797.549610810596000
 20
5434.621490839244900
  0
VERTEX
  8
4
  6
CONTINUOUS
 62
3
 10
10828.726911292142000
 20
5431.583025798275200
  0
VERTEX
  8
4
  6
CONTINUOUS
 62
3
 10
10859.841812540482000
 20
5428.250831819454100
  0
VERTEX
  8
4
  6
CONTINUOUS
 62
3
 10
10890.886437481623000
 20
5424.609133437914400
  0
VERTEX
  8
4
  6
CONTINUOUS
 62
3
 10
10921.852909041579000
 20
5420.642155188787000
  0
VERTEX
  8
4
  6
CONTINUOUS
 62
3
 10
10952.733350146360000
 20
5416.334121607204000
  0
VERTEX
  8
4
  6
CONTINUOUS
 62
3
 10
10983.519883721972000
 20
5411.669257228299100
  0
VERTEX
  8
4
  6
CONTINUOUS
 62
3
 10
11014.204632694429000
 20
5406.631786587204300
  0
VERTEX
  8
4
  6
CONTINUOUS
 62
3
 10
11044.779719989739000
 20
5401.205934219051400
  0
VERTEX
  8
4
  6
CONTINUOUS
 62
3
 10
11075.237268533914000
 20
5395.375924658974300
  0
VERTEX
  8
4
  6
CONTINUOUS
 62
3
 10
11105.569401252963000
 20
5389.125982442104000
  0
VERTEX
  8
4
  6
CONTINUOUS
 62
3
 10
11135.768241072897000
 20
5382.440332103573400
  0
VERTEX
  8
4
  6
CONTINUOUS
 62
3
 10
11165.825910919727000
 20
5375.303198178513400
  0
VERTEX
  8
4
  6
CONTINUOUS
 62
3
 10
11195.734533719460000
 20
5367.698805202058800
  0
VERTEX
  8
4
  6
CONTINUOUS
 62
3
 10
11225.486232398108000
 20
5359.611377709340600
  0
VERTEX
  8
4
  6
CONTINUOUS
 62
3
 10
11255.073129881682000
 20
5351.025140235490700
  0
VERTEX
  8
4
  6
CONTINUOUS
 62
3
 10
11284.487349096190000
 20
5341.924317315641000
  0
VERTEX
  8
4
  6
CONTINUOUS
 62
3
 10
11313.721012967644000
 20
5332.293133484925400
  0
VERTEX
  8
4
  6
CONTINUOUS
 62
3
 10
11342.766244422055000
 20
5322.115813278476700
  0
VERTEX
  8
4
  6
CONTINUOUS
 62
3
 10
11357.215736407244000
 20
5316.817422201580500
  0
VERTEX
  8
4
  6
CONTINUOUS
 62
3
 10
11371.615166385428000
 20
5311.376581231425000
  0
VERTEX
  8
4
  6
CONTINUOUS
 62
3
 10
11385.963549722355000
 20
5305.791318434901800
  0
VERTEX
  8
4
  6
CONTINUOUS
 62
3
 10
11400.259901783778000
 20
5300.059661878904100
  0
VERTEX
  8
4
  6
CONTINUOUS
 62
3
 10
11414.503237935448000
 20
5294.179639630321600
  0
VERTEX
  8
4
  6
CONTINUOUS
 62
3
 10
11428.692573543117000
 20
5288.149279756045900
  0
VERTEX
  8
4
  6
CONTINUOUS
 62
3
 10
11428.692573543117000
 20
5288.149279756045900
  0
VERTEX
  8
4
  6
CONTINUOUS
 62
3
 10
11448.006021967990000
 20
5279.657846732348800
  0
VERTEX
  8
4
  6
CONTINUOUS
 62
3
 10
11467.213854086261000
 20
5270.885491242102900
  0
VERTEX
  8
4
  6
CONTINUOUS
 62
3
 10
11486.313265983209000
 20
5261.836082294285000
  0
VERTEX
  8
4
  6
CONTINUOUS
 62
3
 10
11505.301453744114000
 20
5252.513488897878200
  0
VERTEX
  8
4
  6
CONTINUOUS
 62
3
 10
11524.175613454248000
 20
5242.921580061862200
  0
VERTEX
  8
4
  6
CONTINUOUS
 62
3
 10
11542.932941198891000
 20
5233.064224795216400
  0
VERTEX
  8
4
  6
CONTINUOUS
 62
3
 10
11561.570633063322000
 20
5222.945292106922400
  0
VERTEX
  8
4
  6
CONTINUOUS
 62
3
 10
11580.085885132819000
 20
5212.568651005960400
  0
VERTEX
  8
4
  6
CONTINUOUS
 62
3
 10
11598.475893492657000
 20
5201.938170501311100
  0
VERTEX
  8
4
  6
CONTINUOUS
 62
3
 10
11616.737854228116000
 20
5191.057719601954000
  0
VERTEX
  8
4
  6
CONTINUOUS
 62
3
 10
11634.868963424472000
 20
5179.931167316870400
  0
VERTEX
  8
4
  6
CONTINUOUS
 62
3
 10
11652.866417167006000
 20
5168.562382655040000
  0
VERTEX
  8
4
  6
CONTINUOUS
 62
3
 10
11670.727411540994000
 20
5156.955234625444100
  0
VERTEX
  8
4
  6
CONTINUOUS
 62
3
 10
11688.449142631712000
 20
5145.113592237061300
  0
VERTEX
  8
4
  6
CONTINUOUS
 62
3
 10
11706.028806524438000
 20
5133.041324498874000
  0
VERTEX
  8
4
  6
CONTINUOUS
 62
3
 10
11723.463599304454000
 20
5120.742300419861700
  0
VERTEX
  8
4
  6
CONTINUOUS
 62
3
 10
11740.750717057033000
 20
5108.220389009005000
  0
VERTEX
  8
4
  6
CONTINUOUS
 62
3
 10
11757.887355867455000
 20
5095.479459275284200
  0
VERTEX
  8
4
  6
CONTINUOUS
 62
3
 10
11774.870711820996000
 20
5082.523380227679800
  0
VERTEX
  8
4
  6
CONTINUOUS
 62
3
 10
11791.697981002937000
 20
5069.356020875172400
  0
VERTEX
  8
4
  6
CONTINUOUS
 62
3
 10
11808.366359498553000
 20
5055.981250226741400
  0
VERTEX
  8
4
  6
CONTINUOUS
 62
3
 10
11824.873043393123000
 20
5042.402937291368300
  0
VERTEX
  8
4
  6
CONTINUOUS
 62
3
 10
11841.215228771921000
 20
5028.624951078034400
  0
VERTEX
  8
4
  6
CONTINUOUS
 62
3
 10
11857.390111720231000
 20
5014.651160595717600
  0
VERTEX
  8
4
  6
CONTINUOUS
 62
3
 10
11873.394888323327000
 20
5000.485434853400000
  0
VERTEX
  8
4
  6
CONTINUOUS
 62
3
 10
11889.226754666488000
 20
4986.131642860061200
  0
VERTEX
  8
4
  6
CONTINUOUS
 62
3
 10
11904.882906834991000
 20
4971.593653624681800
  0
VERTEX
  8
4
  6
CONTINUOUS
 62
3
 10
11920.360540914112000
 20
4956.875336156243100
  0
VERTEX
  8
4
  6
CONTINUOUS
 62
3
 10
11935.656852989131000
 20
4941.980559463724600
  0
VERTEX
  8
4
  6
CONTINUOUS
 62
3
 10
11950.769039145327000
 20
4926.913192556107800
  0
VERTEX
  8
4
  6
CONTINUOUS
 62
3
 10
11965.694295467976000
 20
4911.677104442371300
  0
VERTEX
  8
4
  6
CONTINUOUS
 62
3
 10
11980.429818042353000
 20
4896.276164131497400
  0
VERTEX
  8
4
  6
CONTINUOUS
 62
3
 10
11980.429818042353000
 20
4896.276164131497400
  0
VERTEX
  8
4
  6
CONTINUOUS
 62
3
 10
11992.645530940079000
 20
4883.229445466729900
  0
VERTEX
  8
4
  6
CONTINUOUS
 62
3
 10
12004.725682806954000
 20
4870.070698527315500
  0
VERTEX
  8
4
  6
CONTINUOUS
 62
3
 10
12016.670260758528000
 20
4856.801228567304900
  0
VERTEX
  8
4
  6
CONTINUOUS
 62
3
 10
12028.479251910339000
 20
4843.422340840754300
  0
VERTEX
  8
4
  6
CONTINUOUS
 62
3
 10
12040.152643377929000
 20
4829.935340601714400
  0
VERTEX
  8
4
  6
CONTINUOUS
 62
3
 10
12051.690422276840000
 20
4816.341533104239700
  0
VERTEX
  8
4
  6
CONTINUOUS
 62
3
 10
12063.092575722614000
 20
4802.642223602382700
  0
VERTEX
  8
4
  6
CONTINUOUS
 62
3
 10
12074.359090830796000
 20
4788.838717350196000
  0
VERTEX
  8
4
  6
CONTINUOUS
 62
3
 10
12085.489954716922000
 20
4774.932319601734000
  0
VERTEX
  8
4
  6
CONTINUOUS
 62
3
 10
12096.485154496542000
 20
4760.924335611047400
  0
VERTEX
  8
4
  6
CONTINUOUS
 62
3
 10
12107.344677285191000
 20
4746.816070632192300
  0
VERTEX
  8
4
  6
CONTINUOUS
 62
3
 10
12118.068510198416000
 20
4732.608829919219700
  0
VERTEX
  8
4
  6
CONTINUOUS
 62
3
 10
12128.656640351755000
 20
4718.303918726183800
  0
VERTEX
  8
4
  6
CONTINUOUS
 62
3
 10
12139.109054860755000
 20
4703.902642307135500
  0
VERTEX
  8
4
  6
CONTINUOUS
 62
3
 10
12149.425740840953000
 20
4689.406305916130800
  0
VERTEX
  8
4
  6
CONTINUOUS
 62
3
 10
12159.606685407896000
 20
4674.816214807220600
  0
VERTEX
  8
4
  6
CONTINUOUS
 62
3
 10
12169.651875677122000
 20
4660.133674234459200
  0
VERTEX
  8
4
  6
CONTINUOUS
 62
3
 10
12179.561298764176000
 20
4645.359989451899300
  0
VERTEX
  8
4
  6
CONTINUOUS
 62
3
 10
12189.334941784600000
 20
4630.496465713593400
  0
VERTEX
  8
4
  6
CONTINUOUS
 62
3
 10
12198.972791853932000
 20
4615.544408273595800
  0
VERTEX
  8
4
  6
CONTINUOUS
 62
3
 10
12208.474836087720000
 20
4600.505122385958200
  0
VERTEX
  8
4
  6
CONTINUOUS
 62
3
 10
12217.841061601502000
 20
4585.379913304734100
  0
VERTEX
  8
4
  6
CONTINUOUS
 62
3
 10
12227.071455510820000
 20
4570.170086283978000
  0
VERTEX
  8
4
  6
CONTINUOUS
 62
3
 10
12236.166004931219000
 20
4554.876946577741400
  0
VERTEX
  8
4
  6
CONTINUOUS
 62
3
 10
12245.124696978240000
 20
4539.501799440076900
  0
VERTEX
  8
4
  6
CONTINUOUS
 62
3
 10
12253.947518767423000
 20
4524.045950125038900
  0
VERTEX
  8
4
  6
CONTINUOUS
 62
3
 10
12262.634457414313000
 20
4508.510703886680900
  0
VERTEX
  8
4
  6
CONTINUOUS
 62
3
 10
12271.185500034451000
 20
4492.897365979053600
  0
VERTEX
  8
4
  6
CONTINUOUS
 62
3
 10
12279.600633743379000
 20
4477.207241656211400
  0
VERTEX
  8
4
  6
CONTINUOUS
 62
3
 10
12287.879845656640000
 20
4461.441636172208700
  0
VERTEX
  8
4
  6
CONTINUOUS
 62
3
 10
12296.023122889771000
 20
4445.601854781096300
  0
VERTEX
  8
4
  6
CONTINUOUS
 62
3
 10
12304.030452558323000
 20
4429.689202736928600
  0
VERTEX
  8
4
  6
CONTINUOUS
 62
3
 10
12304.030452558323000
 20
4429.689202736928600
  0
VERTEX
  8
4
  6
CONTINUOUS
 62
3
 10
12312.445815529194000
 20
4412.587104467581400
  0
VERTEX
  8
4
  6
CONTINUOUS
 62
3
 10
12320.704675649170000
 20
4395.404939034559000
  0
VERTEX
  8
4
  6
CONTINUOUS
 62
3
 10
12328.806125436241000
 20
4378.144539891132800
  0
VERTEX
  8
4
  6
CONTINUOUS
 62
3
 10
12336.749257408391000
 20
4360.807740490576200
  0
VERTEX
  8
4
  6
CONTINUOUS
 62
3
 10
12344.533164083608000
 20
4343.396374286160600
  0
VERTEX
  8
4
  6
CONTINUOUS
 62
3
 10
12352.156937979885000
 20
4325.912274731157600
  0
VERTEX
  8
4
  6
CONTINUOUS
 62
3
 10
12359.619671615204000
 20
4308.357275278840500
  0
VERTEX
  8
4
  6
CONTINUOUS
 62
3
 10
12366.920457507552000
 20
4290.733209382480700
  0
VERTEX
  8
4
  6
CONTINUOUS
 62
3
 10
12374.058388174920000
 20
4273.041910495349800
  0
VERTEX
  8
4
  6
CONTINUOUS
 62
3
 10
12381.032556135292000
 20
4255.285212070721200
  0
VERTEX
  8
4
  6
CONTINUOUS
 62
3
 10
12387.842053906657000
 20
4237.464947561866200
  0
VERTEX
  8
4
  6
CONTINUOUS
 62
3
 10
12394.485974007002000
 20
4219.582950422055500
  0
VERTEX
  8
4
  6
CONTINUOUS
 62
3
 10
12400.963408954314000
 20
4201.641054104563400
  0
VERTEX
  8
4
  6
CONTINUOUS
 62
3
 10
12407.273451266584000
 20
4183.641092062662200
  0
VERTEX
  8
4
  6
CONTINUOUS
 62
3
 10
12413.415193461798000
 20
4165.584897749621600
  0
VERTEX
  8
4
  6
CONTINUOUS
 62
3
 10
12419.387728057940000
 20
4147.474304618715900
  0
VERTEX
  8
4
  6
CONTINUOUS
 62
3
 10
12425.190147573001000
 20
4129.311146123216500
  0
VERTEX
  8
4
  6
CONTINUOUS
 62
3
 10
12430.821544524966000
 20
4111.097255716395000
  0
VERTEX
  8
4
  6
CONTINUOUS
 62
3
 10
12436.281011431823000
 20
4092.834466851524200
  0
VERTEX
  8
4
  6
CONTINUOUS
 62
3
 10
12441.567640811561000
 20
4074.524612981876100
  0
VERTEX
  8
4
  6
CONTINUOUS
 62
3
 10
12446.680525182167000
 20
4056.169527560722600
  0
VERTEX
  8
4
  6
CONTINUOUS
 62
3
 10
12451.618757061627000
 20
4037.771044041336200
  0
VERTEX
  8
4
  6
CONTINUOUS
 62
3
 10
12456.381428967930000
 20
4019.330995876988300
  0
VERTEX
  8
4
  6
CONTINUOUS
 62
3
 10
12460.967633419062000
 20
4000.851216520951300
  0
VERTEX
  8
4
  6
CONTINUOUS
 62
3
 10
12465.376462933012000
 20
3982.333539426497700
  0
VERTEX
  8
4
  6
CONTINUOUS
 62
3
 10
12469.607010027764000
 20
3963.779798046899000
  0
VERTEX
  8
4
  6
CONTINUOUS
 62
3
 10
12473.658367221311000
 20
3945.191825835428100
  0
VERTEX
  8
4
  6
CONTINUOUS
 62
3
 10
12477.529627031635000
 20
3926.571456245355900
  0
VERTEX
  8
4
  6
CONTINUOUS
 62
3
 10
12481.219881976729000
 20
3907.920522729955300
  0
VERTEX
  8
4
  6
CONTINUOUS
 62
3
 10
12484.728224574575000
 20
3889.240858742498900
  0
VERTEX
  8
4
  6
CONTINUOUS
 62
3
 10
12488.053747343165000
 20
3870.534297736257900
  0
VERTEX
  8
4
  6
CONTINUOUS
 62
3
 10
12491.195542800484000
 20
3851.802673164504100
  0
VERTEX
  8
4
  6
CONTINUOUS
 62
3
 10
12491.195542800484000
 20
3851.802673164504100
  0
VERTEX
  8
4
  6
CONTINUOUS
 62
3
 10
12494.511977201513000
 20
3830.701747997826300
  0
VERTEX
  8
4
  6
CONTINUOUS
 62
3
 10
12497.609337205574000
 20
3809.573259646875200
  0
VERTEX
  8
4
  6
CONTINUOUS
 62
3
 10
12500.502227772465000
 20
3788.419045657269600
  0
VERTEX
  8
4
  6
CONTINUOUS
 62
3
 10
12503.205253861982000
 20
3767.240943574626700
  0
VERTEX
  8
4
  6
CONTINUOUS
 62
3
 10
12505.733020433926000
 20
3746.040790944565700
  0
VERTEX
  8
4
  6
CONTINUOUS
 62
3
 10
12508.100132448093000
 20
3724.820425312704200
  0
VERTEX
  8
4
  6
CONTINUOUS
 62
3
 10
12512.410812642288000
 20
3682.326405226052000
  0
VERTEX
  8
4
  6
CONTINUOUS
 62
3
 10
12516.254134122951000
 20
3639.773583679618200
  0
VERTEX
  8
4
  6
CONTINUOUS
 62
3
 10
12519.746936568466000
 20
3597.176661038346500
  0
VERTEX
  8
4
  6
CONTINUOUS
 62
3
 10
12523.006059657213000
 20
3554.550337667184100
  0
VERTEX
  8
4
  6
CONTINUOUS
 62
3
 10
12526.148343067576000
 20
3511.909313931075300
  0
SEQEND
  8
4
  0
TEXT
  8
4
  6
CONTINUOUS
 62
3
 10
10039.171875000000000
 20
3175.016845703125000
 40
640.000000000000000
  1
0.3m/s
 50
0.000002504478167
 41
0.576250016689301
  7
STANDARD1
  0
TEXT
  8
4
  6
CONTINUOUS
 62
3
 10
7416.998535156250000
 20
3225.605468750000000
 40
640.000000000000000
  1
0.5m/s
 50
0.000002504478167
 41
0.576250016689301
  7
STANDARD1
  0
TEXT
  8
4
  6
CONTINUOUS
 62
3
 10
5562.084960937500000
 20
3208.742675781250000
 40
640.000000000000000
  1
1m/s
 50
0.000002504478167
 41
0.576250016689301
  7
STANDARD1
  0
POLYLINE
  8
4
  6
CONTINUOUS
 62
3
 66
1
  0
VERTEX
  8
4
  6
CONTINUOUS
 62
3
 10
-473.851656931928180
 20
3796.909314020229900
  0
VERTEX
  8
4
  6
CONTINUOUS
 62
3
 10
679.531511341389660
 20
3905.893331522385800
  0
VERTEX
  8
4
  6
CONTINUOUS
 62
3
 10
1256.260385511453000
 20
3960.251652168376500
  0
VERTEX
  8
4
  6
CONTINUOUS
 62
3
 10
1833.034007721601500
 20
4014.449547088263000
  0
VERTEX
  8
4
  6
CONTINUOUS
 62
3
 10
2409.867293985196700
 20
4068.433541040009500
  0
VERTEX
  8
4
  6
CONTINUOUS
 62
3
 10
2986.775160315601200
 20
4122.150158781581900
  0
VERTEX
  8
4
  6
CONTINUOUS
 62
3
 10
3563.772522726176700
 20
4175.545925070946400
  0
VERTEX
  8
4
  6
CONTINUOUS
 62
3
 10
4140.874297230284400
 20
4228.567364666067100
  0
VERTEX
  8
4
  6
CONTINUOUS
 62
3
 10
4140.874297230284400
 20
4228.567364666067100
  0
VERTEX
  8
4
  6
CONTINUOUS
 62
3
 10
4320.243835091947400
 20
4244.920991221899400
  0
VERTEX
  8
4
  6
CONTINUOUS
 62
3
 10
4499.635507504162900
 20
4260.997319508572200
  0
VERTEX
  8
4
  6
CONTINUOUS
 62
3
 10
4589.342959884672400
 20
4268.857752178812000
  0
VERTEX
  8
4
  6
CONTINUOUS
 62
3
 10
4679.059924764351300
 20
4276.560366735167900
  0
VERTEX
  8
4
  6
CONTINUOUS
 62
3
 10
4768.787728430378600
 20
4284.075665328775400
  0
VERTEX
  8
4
  6
CONTINUOUS
 62
3
 10
4858.527697169933200
 20
4291.374150110768800
  0
VERTEX
  8
4
  6
CONTINUOUS
 62
3
 10
4948.281157270190300
 20
4298.426323232282800
  0
VERTEX
  8
4
  6
CONTINUOUS
 62
3
 10
5038.049435018328900
 20
4305.202686844456400
  0
VERTEX
  8
4
  6
CONTINUOUS
 62
3
 10
5127.833856701526200
 20
4311.673743098421300
  0
VERTEX
  8
4
  6
CONTINUOUS
 62
3
 10
5217.635748606959200
 20
4317.809994145313800
  0
VERTEX
  8
4
  6
CONTINUOUS
 62
3
 10
5307.456437021806800
 20
4323.581942136268500
  0
VERTEX
  8
4
  6
CONTINUOUS
 62
3
 10
5397.297248233245200
 20
4328.960089222422500
  0
VERTEX
  8
4
  6
CONTINUOUS
 62
3
 10
5487.159508528453400
 20
4333.914937554909600
  0
VERTEX
  8
4
  6
CONTINUOUS
 62
3
 10
5577.044544194607600
 20
4338.416989284864000
  0
VERTEX
  8
4
  6
CONTINUOUS
 62
3
 10
5577.044544194607600
 20
4338.416989284864000
  0
VERTEX
  8
4
  6
CONTINUOUS
 62
3
 10
5662.586944692828200
 20
4342.227683803915200
  0
VERTEX
  8
4
  6
CONTINUOUS
 62
3
 10
5705.367251473378900
 20
4343.913694408305700
  0
VERTEX
  8
4
  6
CONTINUOUS
 62
3
 10
5748.154122592435700
 20
4345.423818316241500
  0
VERTEX
  8
4
  6
CONTINUOUS
 62
3
 10
5790.947928038154700
 20
4346.735808832949300
  0
VERTEX
  8
4
  6
CONTINUOUS
 62
3
 10
5833.749037798695100
 20
4347.827419263656300
  0
VERTEX
  8
4
  6
CONTINUOUS
 62
3
 10
5876.557821862212200
 20
4348.676402913587500
  0
VERTEX
  8
4
  6
CONTINUOUS
 62
3
 10
5919.374650216866900
 20
4349.260513087971000
  0
VERTEX
  8
4
  6
CONTINUOUS
 62
3
 10
5962.199892850814600
 20
4349.557503092033600
  0
VERTEX
  8
4
  6
CONTINUOUS
 62
3
 10
6005.033919752215300
 20
4349.545126231003500
  0
VERTEX
  8
4
  6
CONTINUOUS
 62
3
 10
6047.877100909225200
 20
4349.201135810105400
  0
VERTEX
  8
4
  6
CONTINUOUS
 62
3
 10
6090.729806310001500
 20
4348.503285134565900
  0
VERTEX
  8
4
  6
CONTINUOUS
 62
3
 10
6133.592405942703400
 20
4347.429327509612400
  0
VERTEX
  8
4
  6
CONTINUOUS
 62
3
 10
6176.465269795489800
 20
4345.957016240472500
  0
VERTEX
  8
4
  6
CONTINUOUS
 62
3
 10
6219.348767856516100
 20
4344.064104632372600
  0
VERTEX
  8
4
  6
CONTINUOUS
 62
3
 10
6262.243270113942300
 20
4341.728345990536600
  0
VERTEX
  8
4
  6
CONTINUOUS
 62
3
 10
6262.243270113942300
 20
4341.728345990536600
  0
VERTEX
  8
4
  6
CONTINUOUS
 62
3
 10
6298.139048969886100
 20
4339.413806519810400
  0
VERTEX
  8
4
  6
CONTINUOUS
 62
3
 10
6334.026861791077000
 20
4336.737983773116900
  0
VERTEX
  8
4
  6
CONTINUOUS
 62
3
 10
6369.890779890254600
 20
4333.665189661160200
  0
VERTEX
  8
4
  6
CONTINUOUS
 62
3
 10
6405.714874580157800
 20
4330.159736094641600
  0
VERTEX
  8
4
  6
CONTINUOUS
 62
3
 10
6441.483217173525200
 20
4326.185934984264300
  0
VERTEX
  8
4
  6
CONTINUOUS
 62
3
 10
6477.179878983097300
 20
4321.708098240730600
  0
VERTEX
  8
4
  6
CONTINUOUS
 62
3
 10
6512.788931321611000
 20
4316.690537774743500
  0
VERTEX
  8
4
  6
CONTINUOUS
 62
3
 10
6530.555626224451800
 20
4313.968208617925500
  0
VERTEX
  8
4
  6
CONTINUOUS
 62
3
 10
6548.294445501805100
 20
4311.097565497007100
  0
VERTEX
  8
4
  6
CONTINUOUS
 62
3
 10
6566.003398067763600
 20
4308.074147400826400
  0
VERTEX
  8
4
  6
CONTINUOUS
 62
3
 10
6583.680492836419900
 20
4304.893493318222700
  0
VERTEX
  8
4
  6
CONTINUOUS
 62
3
 10
6601.323738721866000
 20
4301.551142238032300
  0
VERTEX
  8
4
  6
CONTINUOUS
 62
3
 10
6618.931144638194400
 20
4298.042633149093500
  0
VERTEX
  8
4
  6
CONTINUOUS
 62
3
 10
6636.500719499497800
 20
4294.363505040244500
  0
VERTEX
  8
4
  6
CONTINUOUS
 62
3
 10
6654.030472219868900
 20
4290.509296900321700
  0
VERTEX
  8
4
  6
CONTINUOUS
 62
3
 10
6671.518411713397700
 20
4286.475547718165200
  0
VERTEX
  8
4
  6
CONTINUOUS
 62
3
 10
6688.962546894179500
 20
4282.257796482611400
  0
VERTEX
  8
4
  6
CONTINUOUS
 62
3
 10
6706.360886676304300
 20
4277.851582182498500
  0
VERTEX
  8
4
  6
CONTINUOUS
 62
3
 10
6723.711439973865700
 20
4273.252443806663900
  0
VERTEX
  8
4
  6
CONTINUOUS
 62
3
 10
6741.012215700956400
 20
4268.455920343945800
  0
VERTEX
  8
4
  6
CONTINUOUS
 62
3
 10
6758.261222771669100
 20
4263.457550783182300
  0
VERTEX
  8
4
  6
CONTINUOUS
 62
3
 10
6775.456470100094500
 20
4258.252874113210100
  0
VERTEX
  8
4
  6
CONTINUOUS
 62
3
 10
6792.595966600325500
 20
4252.837429322869900
  0
VERTEX
  8
4
  6
CONTINUOUS
 62
3
 10
6809.677721186455500
 20
4247.206755400996400
  0
VERTEX
  8
4
  6
CONTINUOUS
 62
3
 10
6826.699742772576400
 20
4241.356391336428700
  0
VERTEX
  8
4
  6
CONTINUOUS
 62
3
 10
6826.699742772576400
 20
4241.356391336428700
  0
VERTEX
  8
4
  6
CONTINUOUS
 62
3
 10
6847.885076467175200
 20
4233.728794927646000
  0
VERTEX
  8
4
  6
CONTINUOUS
 62
3
 10
6868.956421547349200
 20
4225.742531853213200
  0
VERTEX
  8
4
  6
CONTINUOUS
 62
3
 10
6889.896207009436700
 20
4217.389076213146800
  0
VERTEX
  8
4
  6
CONTINUOUS
 62
3
 10
6910.686861849770100
 20
4208.659902107465300
  0
VERTEX
  8
4
  6
CONTINUOUS
 62
3
 10
6931.310815064682200
 20
4199.546483636186200
  0
VERTEX
  8
4
  6
CONTINUOUS
 62
3
 10
6951.750495650507200
 20
4190.040294899327800
  0
VERTEX
  8
4
  6
CONTINUOUS
 62
3
 10
6971.988332603580600
 20
4180.132809996907800
  0
VERTEX
  8
4
  6
CONTINUOUS
 62
3
 10
6992.006754920234900
 20
4169.815503028942700
  0
VERTEX
  8
4
  6
CONTINUOUS
 62
3
 10
7011.788191596803700
 20
4159.079848095450900
  0
VERTEX
  8
4
  6
CONTINUOUS
 62
3
 10
7031.315071629620400
 20
4147.917319296449000
  0
VERTEX
  8
4
  6
CONTINUOUS
 62
3
 10
7050.569824015021400
 20
4136.319390731956400
  0
VERTEX
  8
4
  6
CONTINUOUS
 62
3
 10
7069.534877749340000
 20
4124.277536501991600
  0
VERTEX
  8
4
  6
CONTINUOUS
 62
3
 10
7088.192661828907100
 20
4111.783230706570100
  0
VERTEX
  8
4
  6
CONTINUOUS
 62
3
 10
7106.525605250060800
 20
4098.827947445709500
  0
VERTEX
  8
4
  6
CONTINUOUS
 62
3
 10
7124.516137009133700
 20
4085.403160819429100
  0
VERTEX
  8
4
  6
CONTINUOUS
 62
3
 10
7133.377507576743500
 20
4078.512039400511600
  0
VERTEX
  8
4
  6
CONTINUOUS
 62
3
 10
7142.146686102458300
 20
4071.500344927746500
  0
VERTEX
  8
4
  6
CONTINUOUS
 62
3
 10
7142.146686102458300
 20
4071.500344927746500
  0
VERTEX
  8
4
  6
CONTINUOUS
 62
3
 10
7154.606919766264600
 20
4061.190851260868800
  0
VERTEX
  8
4
  6
CONTINUOUS
 62
3
 10
7166.862591415077100
 20
4050.630763168324400
  0
VERTEX
  8
4
  6
CONTINUOUS
 62
3
 10
7178.904843458871300
 20
4039.821691424854600
  0
VERTEX
  8
4
  6
CONTINUOUS
 62
3
 10
7190.724818307626300
 20
4028.765246805199200
  0
VERTEX
  8
4
  6
CONTINUOUS
 62
3
 10
7202.313658371316700
 20
4017.463040084098800
  0
VERTEX
  8
4
  6
CONTINUOUS
 62
3
 10
7213.662506059921700
 20
4005.916682036293400
  0
VERTEX
  8
4
  6
CONTINUOUS
 62
3
 10
7224.762503783415900
 20
3994.127783436522800
  0
VERTEX
  8
4
  6
CONTINUOUS
 62
3
 10
7235.604793951777500
 20
3982.097955059528400
  0
VERTEX
  8
4
  6
CONTINUOUS
 62
3
 10
7246.180518974983900
 20
3969.828807680050000
  0
VERTEX
  8
4
  6
CONTINUOUS
 62
3
 10
7256.480821263011400
 20
3957.321952072827100
  0
VERTEX
  8
4
  6
CONTINUOUS
 62
3
 10
7266.496843225836500
 20
3944.578999012601300
  0
VERTEX
  8
4
  6
CONTINUOUS
 62
3
 10
7276.219727273437500
 20
3931.601559274111900
  0
VERTEX
  8
4
  6
CONTINUOUS
 62
3
 10
7285.640615815791500
 20
3918.391243632098800
  0
VERTEX
  8
4
  6
CONTINUOUS
 62
3
 10
7294.750651262873400
 20
3904.949662861304200
  0
VERTEX
  8
4
  6
CONTINUOUS
 62
3
 10
7303.540976024661200
 20
3891.278427736466700
  0
VERTEX
  8
4
  6
CONTINUOUS
 62
3
 10
7312.002732511133200
 20
3877.379149032326500
  0
VERTEX
  8
4
  6
CONTINUOUS
 62
3
 10
7312.002732511133200
 20
3877.379149032326500
  0
VERTEX
  8
4
  6
CONTINUOUS
 62
3
 10
7320.808883666311000
 20
3862.031643128591900
  0
VERTEX
  8
4
  6
CONTINUOUS
 62
3
 10
7329.205048190332500
 20
3846.432839645282000
  0
VERTEX
  8
4
  6
CONTINUOUS
 62
3
 10
7337.179133226875800
 20
3830.598451367491200
  0
VERTEX
  8
4
  6
CONTINUOUS
 62
3
 10
7344.719045919620800
 20
3814.544191080315200
  0
VERTEX
  8
4
  6
CONTINUOUS
 62
3
 10
7351.812693412244700
 20
3798.285771568848800
  0
VERTEX
  8
4
  6
CONTINUOUS
 62
3
 10
7358.447982848424500
 20
3781.838905618186300
  0
VERTEX
  8
4
  6
CONTINUOUS
 62
3
 10
7364.612821371840300
 20
3765.219306013423200
  0
VERTEX
  8
4
  6
CONTINUOUS
 62
3
 10
7370.295116126169900
 20
3748.442685539654100
  0
VERTEX
  8
4
  6
CONTINUOUS
 62
3
 10
7375.482774255091500
 20
3731.524756981974000
  0
VERTEX
  8
4
  6
CONTINUOUS
 62
3
 10
7380.163702902284100
 20
3714.481233125477000
  0
VERTEX
  8
4
  6
CONTINUOUS
 62
3
 10
7384.325809211424700
 20
3697.327826755259100
  0
VERTEX
  8
4
  6
CONTINUOUS
 62
3
 10
7387.957000326194200
 20
3680.080250656414100
  0
VERTEX
  8
4
  6
CONTINUOUS
 62
3
 10
7391.045183390268000
 20
3662.754217614037300
  0
VERTEX
  8
4
  6
CONTINUOUS
 62
3
 10
7393.578265547324900
 20
3645.365440413224000
  0
VERTEX
  8
4
  6
CONTINUOUS
 62
3
 10
7395.544153941044900
 20
3627.929631839068400
  0
VERTEX
  8
4
  6
CONTINUOUS
 62
3
 10
7396.930755715105100
 20
3610.462504676666000
  0
VERTEX
  8
4
  6
CONTINUOUS
 62
3
 10
7396.930755715105100
 20
3610.462504676666000
  0
VERTEX
  8
4
  6
CONTINUOUS
 62
3
 10
7397.552092500387500
 20
3598.346326274134300
  0
VERTEX
  8
4
  6
CONTINUOUS
 62
3
 10
7397.924894571558100
 20
3586.223589335193100
  0
VERTEX
  8
4
  6
CONTINUOUS
 62
3
 10
7398.084666887773000
 20
3574.095230793615000
  0
VERTEX
  8
4
  6
CONTINUOUS
 62
3
 10
7398.066914408194000
 20
3561.962187583173500
  0
VERTEX
  8
4
  6
CONTINUOUS
 62
3
 10
7397.640854898285400
 20
3537.685794890790000
  0
VERTEX
  8
4
  6
CONTINUOUS
 62
3
 10
7396.930755715105100
 20
3513.401906728224300
  0
SEQEND
  8
4
  0
POLYLINE
  8
4
  6
CONTINUOUS
 62
3
 66
1
  0
VERTEX
  8
4
  6
CONTINUOUS
 62
3
 10
-473.851656932423790
 20
3796.909314020180300
  0
VERTEX
  8
4
  6
CONTINUOUS
 62
3
 10
88.641232549480037
 20
3852.982951320946100
  0
VERTEX
  8
4
  6
CONTINUOUS
 62
3
 10
369.857374006047170
 20
3881.149142411814000
  0
VERTEX
  8
4
  6
CONTINUOUS
 62
3
 10
651.037151521352600
 20
3909.470580431262500
  0
VERTEX
  8
4
  6
CONTINUOUS
 62
3
 10
932.168443781642280
 20
3937.999014355486500
  0
VERTEX
  8
4
  6
CONTINUOUS
 62
3
 10
1213.239129473162400
 20
3966.786193160679400
  0
VERTEX
  8
4
  6
CONTINUOUS
 62
3
 10
1494.237087282158700
 20
3995.883865823035200
  0
VERTEX
  8
4
  6
CONTINUOUS
 62
3
 10
1775.150195894877700
 20
4025.343781318746600
  0
VERTEX
  8
4
  6
CONTINUOUS
 62
3
 10
2055.966333997565000
 20
4055.217688624008600
  0
VERTEX
  8
4
  6
CONTINUOUS
 62
3
 10
2336.673380276467500
 20
4085.557336715015000
  0
VERTEX
  8
4
  6
CONTINUOUS
 62
3
 10
2617.259213417830300
 20
4116.414474567958700
  0
VERTEX
  8
4
  6
CONTINUOUS
 62
3
 10
2757.502887151386400
 20
4132.053273710218500
  0
VERTEX
  8
4
  6
CONTINUOUS
 62
3
 10
2897.711712107900000
 20
4147.840851159035100
  0
VERTEX
  8
4
  6
CONTINUOUS
 62
3
 10
3037.884173123151900
 20
4163.783675536433300
  0
VERTEX
  8
4
  6
CONTINUOUS
 62
3
 10
3178.018755032922400
 20
4179.888215464436100
  0
VERTEX
  8
4
  6
CONTINUOUS
 62
3
 10
3318.113942672993300
 20
4196.160939565069400
  0
VERTEX
  8
4
  6
CONTINUOUS
 62
3
 10
3458.168220879144400
 20
4212.608316460356900
  0
VERTEX
  8
4
  6
CONTINUOUS
 62
3
 10
3598.180074487157100
 20
4229.236814772320900
  0
VERTEX
  8
4
  6
CONTINUOUS
 62
3
 10
3738.147988332811100
 20
4246.052903122988900
  0
VERTEX
  8
4
  6
CONTINUOUS
 62
3
 10
3878.070447251888300
 20
4263.063050134384000
  0
VERTEX
  8
4
  6
CONTINUOUS
 62
3
 10
4017.945936080168400
 20
4280.273724428529900
  0
VERTEX
  8
4
  6
CONTINUOUS
 62
3
 10
4017.945936080168400
 20
4280.273724428529900
  0
VERTEX
  8
4
  6
CONTINUOUS
 62
3
 10
4175.938138409072100
 20
4299.965486963412300
  0
VERTEX
  8
4
  6
CONTINUOUS
 62
3
 10
4333.882755068862900
 20
4319.904983942158700
  0
VERTEX
  8
4
  6
CONTINUOUS
 62
3
 10
4491.794102260100800
 20
4340.075674958137800
  0
VERTEX
  8
4
  6
CONTINUOUS
 62
3
 10
4649.686496183347100
 20
4360.461019604718800
  0
VERTEX
  8
4
  6
CONTINUOUS
 62
3
 10
4807.574253039161700
 20
4381.044477475269600
  0
VERTEX
  8
4
  6
CONTINUOUS
 62
3
 10
4965.471689028106100
 20
4401.809508163159100
  0
VERTEX
  8
4
  6
CONTINUOUS
 62
3
 10
5281.352863207625900
 20
4443.818126364429200
  0
VERTEX
  8
4
  6
CONTINUOUS
 62
3
 10
5597.444548326395300
 20
4486.354550955477900
  0
VERTEX
  8
4
  6
CONTINUOUS
 62
3
 10
5913.861273988897700
 20
4529.286458683252900
  0
VERTEX
  8
4
  6
CONTINUOUS
 62
3
 10
6548.127965363051800
 20
4615.807430536780900
  0
VERTEX
  8
4
  6
CONTINUOUS
 62
3
 10
6548.127965363051800
 20
4615.807430536780900
  0
VERTEX
  8
4
  6
CONTINUOUS
 62
3
 10
6713.496209815620200
 20
4638.243288706934400
  0
VERTEX
  8
4
  6
CONTINUOUS
 62
3
 10
6796.226519998859700
 20
4649.246725483073500
  0
VERTEX
  8
4
  6
CONTINUOUS
 62
3
 10
6878.976064731674300
 20
4659.992851955115800
  0
VERTEX
  8
4
  6
CONTINUOUS
 62
3
 10
6961.736175947768100
 20
4670.395931549457600
  0
VERTEX
  8
4
  6
CONTINUOUS
 62
3
 10
7044.498185580844600
 20
4680.370227692497800
  0
VERTEX
  8
4
  6
CONTINUOUS
 62
3
 10
7127.253425564607800
 20
4689.830003810629900
  0
VERTEX
  8
4
  6
CONTINUOUS
 62
3
 10
7168.625798167279800
 20
4694.340154181105400
  0
VERTEX
  8
4
  6
CONTINUOUS
 62
3
 10
7209.993227832762400
 20
4698.689523330253000
  0
VERTEX
  8
4
  6
CONTINUOUS
 62
3
 10
7251.354631052769000
 20
4702.867394186371700
  0
VERTEX
  8
4
  6
CONTINUOUS
 62
3
 10
7292.708924319011200
 20
4706.863049677762300
  0
VERTEX
  8
4
  6
CONTINUOUS
 62
3
 10
7334.055024123202200
 20
4710.665772732723800
  0
VERTEX
  8
4
  6
CONTINUOUS
 62
3
 10
7375.391846957057200
 20
4714.264846279555100
  0
VERTEX
  8
4
  6
CONTINUOUS
 62
3
 10
7416.718309312285800
 20
4717.649553246556900
  0
VERTEX
  8
4
  6
CONTINUOUS
 62
3
 10
7458.033327680605000
 20
4720.809176562028400
  0
VERTEX
  8
4
  6
CONTINUOUS
 62
3
 10
7499.335818553725400
 20
4723.732999154269200
  0
VERTEX
  8
4
  6
CONTINUOUS
 62
3
 10
7540.624698423358500
 20
4726.410303951578500
  0
VERTEX
  8
4
  6
CONTINUOUS
 62
3
 10
7581.898883781219400
 20
4728.830373882256000
  0
VERTEX
  8
4
  6
CONTINUOUS
 62
3
 10
7623.157291119021500
 20
4730.982491874601700
  0
VERTEX
  8
4
  6
CONTINUOUS
 62
3
 10
7664.398836928477100
 20
4732.855940856913500
  0
VERTEX
  8
4
  6
CONTINUOUS
 62
3
 10
7705.622437701298600
 20
4734.440003757494200
  0
VERTEX
  8
4
  6
CONTINUOUS
 62
3
 10
7746.827009929199400
 20
4735.723963504640800
  0
VERTEX
  8
4
  6
CONTINUOUS
 62
3
 10
7788.011470103892900
 20
4736.697103026654100
  0
VERTEX
  8
4
  6
CONTINUOUS
 62
3
 10
7829.174734717091300
 20
4737.348705251833100
  0
VERTEX
  8
4
  6
CONTINUOUS
 62
3
 10
7870.315720260508000
 20
4737.668053108476700
  0
VERTEX
  8
4
  6
CONTINUOUS
 62
3
 10
7870.315720260508000
 20
4737.668053108476700
  0
VERTEX
  8
4
  6
CONTINUOUS
 62
3
 10
7907.453542378923900
 20
4737.658871414573700
  0
VERTEX
  8
4
  6
CONTINUOUS
 62
3
 10
7944.580288280471000
 20
4737.343179524359600
  0
VERTEX
  8
4
  6
CONTINUOUS
 62
3
 10
7981.703938058250100
 20
4736.694221045079800
  0
VERTEX
  8
4
  6
CONTINUOUS
 62
3
 10
8018.832471805360900
 20
4735.685239583981500
  0
VERTEX
  8
4
  6
CONTINUOUS
 62
3
 10
8055.973869614905200
 20
4734.289478748309200
  0
VERTEX
  8
4
  6
CONTINUOUS
 62
3
 10
8093.136111579983700
 20
4732.480182145309300
  0
VERTEX
  8
4
  6
CONTINUOUS
 62
3
 10
8130.327177793695200
 20
4730.230593382227200
  0
VERTEX
  8
4
  6
CONTINUOUS
 62
3
 10
8167.555048349142500
 20
4727.513956066308300
  0
VERTEX
  8
4
  6
CONTINUOUS
 62
3
 10
8204.827703339424300
 20
4724.303513804798100
  0
VERTEX
  8
4
  6
CONTINUOUS
 62
3
 10
8242.153122857642300
 20
4720.572510204944600
  0
VERTEX
  8
4
  6
CONTINUOUS
 62
3
 10
8279.539286996896400
 20
4716.294188873991500
  0
VERTEX
  8
4
  6
CONTINUOUS
 62
3
 10
8316.994175850286400
 20
4711.441793419184300
  0
VERTEX
  8
4
  6
CONTINUOUS
 62
3
 10
8335.749885823876000
 20
4708.791956522600200
  0
VERTEX
  8
4
  6
CONTINUOUS
 62
3
 10
8354.525769510914000
 20
4705.988567447769100
  0
VERTEX
  8
4
  6
CONTINUOUS
 62
3
 10
8373.322824423034000
 20
4703.028281645598300
  0
VERTEX
  8
4
  6
CONTINUOUS
 62
3
 10
8392.142048071877100
 20
4699.907754566992500
  0
VERTEX
  8
4
  6
CONTINUOUS
 62
3
 10
8410.984437969080300
 20
4696.623641662857200
  0
VERTEX
  8
4
  6
CONTINUOUS
 62
3
 10
8429.850991626281000
 20
4693.172598384098800
  0
VERTEX
  8
4
  6
CONTINUOUS
 62
3
 10
8448.742706555114600
 20
4689.551280181623000
  0
VERTEX
  8
4
  6
CONTINUOUS
 62
3
 10
8467.660580267222000
 20
4685.756342506335400
  0
VERTEX
  8
4
  6
CONTINUOUS
 62
3
 10
8467.660580267222000
 20
4685.756342506335400
  0
VERTEX
  8
4
  6
CONTINUOUS
 62
3
 10
8495.530935681650600
 20
4679.852940098660800
  0
VERTEX
  8
4
  6
CONTINUOUS
 62
3
 10
8523.434688274088300
 20
4673.561618621955900
  0
VERTEX
  8
4
  6
CONTINUOUS
 62
3
 10
8551.346484777155600
 20
4666.877306341112700
  0
VERTEX
  8
4
  6
CONTINUOUS
 62
3
 10
8579.240971923469300
 20
4659.794931521019000
  0
VERTEX
  8
4
  6
CONTINUOUS
 62
3
 10
8607.092796445649600
 20
4652.309422426564200
  0
VERTEX
  8
4
  6
CONTINUOUS
 62
3
 10
8634.876605076311500
 20
4644.415707322640600
  0
VERTEX
  8
4
  6
CONTINUOUS
 62
3
 10
8662.567044548075500
 20
4636.108714474135000
  0
VERTEX
  8
4
  6
CONTINUOUS
 62
3
 10
8690.138761593561900
 20
4627.383372145937800
  0
VERTEX
  8
4
  6
CONTINUOUS
 62
3
 10
8717.566402945385600
 20
4618.234608602939300
  0
VERTEX
  8
4
  6
CONTINUOUS
 62
3
 10
8744.824615336168800
 20
4608.657352110029000
  0
VERTEX
  8
4
  6
CONTINUOUS
 62
3
 10
8771.888045498524700
 20
4598.646530932098400
  0
VERTEX
  8
4
  6
CONTINUOUS
 62
3
 10
8798.731340165075400
 20
4588.197073334034900
  0
VERTEX
  8
4
  6
CONTINUOUS
 62
3
 10
8825.329146068437700
 20
4577.303907580728300
  0
VERTEX
  8
4
  6
CONTINUOUS
 62
3
 10
8851.656109941232000
 20
4565.961961937069600
  0
VERTEX
  8
4
  6
CONTINUOUS
 62
3
 10
8877.686878516075000
 20
4554.166164667947700
  0
VERTEX
  8
4
  6
CONTINUOUS
 62
3
 10
8903.396098525585300
 20
4541.911444038253600
  0
VERTEX
  8
4
  6
CONTINUOUS
 62
3
 10
8928.758416702381500
 20
4529.192728312876200
  0
VERTEX
  8
4
  6
CONTINUOUS
 62
3
 10
8953.748479779080300
 20
4516.004945756703800
  0
VERTEX
  8
4
  6
CONTINUOUS
 62
3
 10
8966.095992758837400
 20
4509.233569499847400
  0
VERTEX
  8
4
  6
CONTINUOUS
 62
3
 10
8978.340934488302100
 20
4502.343024634627000
  0
VERTEX
  8
4
  6
CONTINUOUS
 62
3
 10
8990.480135809051700
 20
4495.332677194152000
  0
VERTEX
  8
4
  6
CONTINUOUS
 62
3
 10
9002.510427562665400
 20
4488.201893211536100
  0
VERTEX
  8
4
  6
CONTINUOUS
 62
3
 10
9014.428640590718700
 20
4480.950038719887700
  0
VERTEX
  8
4
  6
CONTINUOUS
 62
3
 10
9026.231605734788900
 20
4473.576479752320700
  0
VERTEX
  8
4
  6
CONTINUOUS
 62
3
 10
9037.916153836453300
 20
4466.080582341945000
  0
VERTEX
  8
4
  6
CONTINUOUS
 62
3
 10
9049.479115737289200
 20
4458.461712521871000
  0
VERTEX
  8
4
  6
CONTINUOUS
 62
3
 10
9060.917322278874100
 20
4450.719236325210700
  0
VERTEX
  8
4
  6
CONTINUOUS
 62
3
 10
9072.227604302785000
 20
4442.852519785075900
  0
VERTEX
  8
4
  6
CONTINUOUS
 62
3
 10
9083.406792650599500
 20
4434.860928934576800
  0
VERTEX
  8
4
  6
CONTINUOUS
 62
3
 10
9094.451718163894800
 20
4426.743829806824600
  0
VERTEX
  8
4
  6
CONTINUOUS
 62
3
 10
9105.359211684248300
 20
4418.500588434931200
  0
VERTEX
  8
4
  6
CONTINUOUS
 62
3
 10
9116.126104053237200
 20
4410.130570852007600
  0
VERTEX
  8
4
  6
CONTINUOUS
 62
3
 10
9126.749226112438900
 20
4401.633143091165900
  0
VERTEX
  8
4
  6
CONTINUOUS
 62
3
 10
9137.225408703430700
 20
4393.007671185516300
  0
VERTEX
  8
4
  6
CONTINUOUS
 62
3
 10
9147.551482667788200
 20
4384.253521168169800
  0
VERTEX
  8
4
  6
CONTINUOUS
 62
3
 10
9157.724278847092100
 20
4375.370059072238300
  0
VERTEX
  8
4
  6
CONTINUOUS
 62
3
 10
9167.740628082916400
 20
4366.356650930832100
  0
VERTEX
  8
4
  6
CONTINUOUS
 62
3
 10
9177.597361216841800
 20
4357.212662777063100
  0
VERTEX
  8
4
  6
CONTINUOUS
 62
3
 10
9187.291309090444000
 20
4347.937460644042400
  0
VERTEX
  8
4
  6
CONTINUOUS
 62
3
 10
9196.819302545300200
 20
4338.530410564881100
  0
VERTEX
  8
4
  6
CONTINUOUS
 62
3
 10
9206.178172422985900
 20
4328.990878572691100
  0
VERTEX
  8
4
  6
CONTINUOUS
 62
3
 10
9215.364749565080300
 20
4319.318230700582700
  0
VERTEX
  8
4
  6
CONTINUOUS
 62
3
 10
9224.375864813162500
 20
4309.511832981666900
  0
VERTEX
  8
4
  6
CONTINUOUS
 62
3
 10
9233.208349008804400
 20
4299.571051449056500
  0
VERTEX
  8
4
  6
CONTINUOUS
 62
3
 10
9241.859032993586900
 20
4289.495252135860900
  0
VERTEX
  8
4
  6
CONTINUOUS
 62
3
 10
9250.324747609085500
 20
4279.283801075193000
  0
VERTEX
  8
4
  6
CONTINUOUS
 62
3
 10
9250.324747609085500
 20
4279.283801075193000
  0
VERTEX
  8
4
  6
CONTINUOUS
 62
3
 10
9257.985813655235700
 20
4269.721239947422900
  0
VERTEX
  8
4
  6
CONTINUOUS
 62
3
 10
9265.488549510811900
 20
4260.043985973958100
  0
VERTEX
  8
4
  6
CONTINUOUS
 62
3
 10
9272.835468353445300
 20
4250.253859676160600
  0
VERTEX
  8
4
  6
CONTINUOUS
 62
3
 10
9280.029083360761400
 20
4240.352681575389400
  0
VERTEX
  8
4
  6
CONTINUOUS
 62
3
 10
9287.071907710389500
 20
4230.342272193004600
  0
VERTEX
  8
4
  6
CONTINUOUS
 62
3
 10
9293.966454579960600
 20
4220.224452050366400
  0
VERTEX
  8
4
  6
CONTINUOUS
 62
3
 10
9300.715237147098400
 20
4210.001041668835600
  0
VERTEX
  8
4
  6
CONTINUOUS
 62
3
 10
9307.320768589432200
 20
4199.673861569772300
  0
VERTEX
  8
4
  6
CONTINUOUS
 62
3
 10
9313.785562084591200
 20
4189.244732274536500
  0
VERTEX
  8
4
  6
CONTINUOUS
 62
3
 10
9320.112130810204700
 20
4178.715474304488500
  0
VERTEX
  8
4
  6
CONTINUOUS
 62
3
 10
9326.302987943898200
 20
4168.087908180989000
  0
VERTEX
  8
4
  6
CONTINUOUS
 62
3
 10
9332.360646663299100
 20
4157.363854425397200
  0
VERTEX
  8
4
  6
CONTINUOUS
 62
3
 10
9338.287620146040400
 20
4146.545133559073300
  0
VERTEX
  8
4
  6
CONTINUOUS
 62
3
 10
9344.086421569745700
 20
4135.633566103378100
  0
VERTEX
  8
4
  6
CONTINUOUS
 62
3
 10
9349.759564112044200
 20
4124.630972579671800
  0
VERTEX
  8
4
  6
CONTINUOUS
 62
3
 10
9355.309560950565400
 20
4113.539173509314400
  0
VERTEX
  8
4
  6
CONTINUOUS
 62
3
 10
9366.050170226782900
 20
4091.095240814088400
  0
VERTEX
  8
4
  6
CONTINUOUS
 62
3
 10
9376.328354819428600
 20
4068.316332188582200
  0
VERTEX
  8
4
  6
CONTINUOUS
 62
3
 10
9386.164220149521500
 20
4045.217011803676100
  0
VERTEX
  8
4
  6
CONTINUOUS
 62
3
 10
9395.577871638086400
 20
4021.811843830252700
  0
VERTEX
  8
4
  6
CONTINUOUS
 62
3
 10
9404.589414706153500
 20
3998.115392439193800
  0
VERTEX
  8
4
  6
CONTINUOUS
 62
3
 10
9413.218954774743900
 20
3974.142221801381300
  0
VERTEX
  8
4
  6
CONTINUOUS
 62
3
 10
9421.486597264884000
 20
3949.906896087696600
  0
VERTEX
  8
4
  6
CONTINUOUS
 62
3
 10
9429.412447597596800
 20
3925.423979469021100
  0
VERTEX
  8
4
  6
CONTINUOUS
 62
3
 10
9437.016611193910600
 20
3900.708036116237500
  0
VERTEX
  8
4
  6
CONTINUOUS
 62
3
 10
9444.319193474848400
 20
3875.773630200227200
  0
VERTEX
  8
4
  6
CONTINUOUS
 62
3
 10
9451.340299861436500
 20
3850.635325891872100
  0
VERTEX
  8
4
  6
CONTINUOUS
 62
3
 10
9458.100035774698000
 20
3825.307687362053900
  0
VERTEX
  8
4
  6
CONTINUOUS
 62
3
 10
9464.618506635659300
 20
3799.805278781654100
  0
VERTEX
  8
4
  6
CONTINUOUS
 62
3
 10
9470.915817865347000
 20
3774.142664321554500
  0
VERTEX
  8
4
  6
CONTINUOUS
 62
3
 10
9477.012074884783900
 20
3748.334408152637500
  0
VERTEX
  8
4
  6
CONTINUOUS
 62
3
 10
9482.927383114994900
 20
3722.395074445784300
  0
VERTEX
  8
4
  6
CONTINUOUS
 62
3
 10
9488.681847977004500
 20
3696.339227371877300
  0
VERTEX
  8
4
  6
CONTINUOUS
 62
3
 10
9494.295574891841200
 20
3670.181431101797000
  0
VERTEX
  8
4
  6
CONTINUOUS
 62
3
 10
9505.181236564087200
 20
3617.618247656646400
  0
VERTEX
  8
4
  6
CONTINUOUS
 62
3
 10
9515.745211499932300
 20
3564.822037477388200
  0
VERTEX
  8
4
  6
CONTINUOUS
 62
3
 10
9526.148343067576200
 20
3511.909313931075300
  0
SEQEND
  8
4
  0
LINE
  8
4
  6
CONTINUOUS
 62
3
 10
-473.851656932423790
 20
3511.909313931078900
 11
-473.851656932423790
 21
3211.909313931102600
  0
POLYLINE
  8
4
  6
CONTINUOUS
 62
3
 66
1
  0
VERTEX
  8
4
  6
CONTINUOUS
 62
3
 10
-473.851656931928180
 20
3226.909313841951600
  0
VERTEX
  8
4
  6
CONTINUOUS
 62
3
 10
-24.222244581325683
 20
3173.816366570586100
  0
VERTEX
  8
4
  6
CONTINUOUS
 62
3
 10
425.433893801636030
 20
3120.910116473098700
  0
VERTEX
  8
4
  6
CONTINUOUS
 62
3
 10
875.143484249316090
 20
3068.377260723365900
  0
VERTEX
  8
4
  6
CONTINUOUS
 62
3
 10
1100.026675882538000
 20
3042.309198595744400
  0
VERTEX
  8
4
  6
CONTINUOUS
 62
3
 10
1324.933252794074200
 20
3016.404496495265400
  0
VERTEX
  8
4
  6
CONTINUOUS
 62
3
 10
1549.866555737969700
 20
2990.686491568663800
  0
VERTEX
  8
4
  6
CONTINUOUS
 62
3
 10
1774.829925468269300
 20
2965.178520962674600
  0
VERTEX
  8
4
  6
CONTINUOUS
 62
3
 10
1999.826702739017500
 20
2939.903921824032300
  0
VERTEX
  8
4
  6
CONTINUOUS
 62
3
 10
2224.860228304260100
 20
2914.886031299471100
  0
VERTEX
  8
4
  6
CONTINUOUS
 62
3
 10
2449.933842918041600
 20
2890.148186535726400
  0
VERTEX
  8
4
  6
CONTINUOUS
 62
3
 10
2675.050887334406100
 20
2865.713724679532800
  0
VERTEX
  8
4
  6
CONTINUOUS
 62
3
 10
2900.214702307400300
 20
2841.605982877624700
  0
VERTEX
  8
4
  6
CONTINUOUS
 62
3
 10
3125.428628591067500
 20
2817.848298276736400
  0
VERTEX
  8
4
  6
CONTINUOUS
 62
3
 10
3125.428628591067500
 20
2817.848298276736400
  0
VERTEX
  8
4
  6
CONTINUOUS
 62
3
 10
3404.063148132705900
 20
2788.855056142510900
  0
VERTEX
  8
4
  6
CONTINUOUS
 62
3
 10
3543.381388235889100
 20
2774.351266962640700
  0
VERTEX
  8
4
  6
CONTINUOUS
 62
3
 10
3682.684448071446700
 20
2759.724615039253400
  0
VERTEX
  8
4
  6
CONTINUOUS
 62
3
 10
3821.960452272476700
 20
2744.886537371090500
  0
VERTEX
  8
4
  6
CONTINUOUS
 62
3
 10
3961.197525472076400
 20
2729.748470956892600
  0
VERTEX
  8
4
  6
CONTINUOUS
 62
3
 10
4100.383792303346100
 20
2714.221852795400100
  0
VERTEX
  8
4
  6
CONTINUOUS
 62
3
 10
4239.507377399380900
 20
2698.218119885355500
  0
VERTEX
  8
4
  6
CONTINUOUS
 62
3
 10
4309.041953244528500
 20
2690.009659461732100
  0
VERTEX
  8
4
  6
CONTINUOUS
 62
3
 10
4378.556405393281200
 20
2681.648709225498400
  0
VERTEX
  8
4
  6
CONTINUOUS
 62
3
 10
4448.049249424774600
 20
2673.124198801497200
  0
VERTEX
  8
4
  6
CONTINUOUS
 62
3
 10
4517.519000918146000
 20
2664.425057814570200
  0
VERTEX
  8
4
  6
CONTINUOUS
 62
3
 10
4586.964175452531900
 20
2655.540215889561300
  0
VERTEX
  8
4
  6
CONTINUOUS
 62
3
 10
4656.383288607071300
 20
2646.458602651312500
  0
VERTEX
  8
4
  6
CONTINUOUS
 62
3
 10
4725.774855960900800
 20
2637.169147724665900
  0
VERTEX
  8
4
  6
CONTINUOUS
 62
3
 10
4795.137393093156800
 20
2627.660780734465300
  0
VERTEX
  8
4
  6
CONTINUOUS
 62
3
 10
4864.469415582978400
 20
2617.922431305552400
  0
VERTEX
  8
4
  6
CONTINUOUS
 62
3
 10
4933.769439009500300
 20
2607.943029062770200
  0
VERTEX
  8
4
  6
CONTINUOUS
 62
3
 10
5003.035978951862500
 20
2597.711503630961000
  0
VERTEX
  8
4
  6
CONTINUOUS
 62
3
 10
5072.267550989200600
 20
2587.216784634967600
  0
VERTEX
  8
4
  6
CONTINUOUS
 62
3
 10
5141.462670700651900
 20
2576.447801699632700
  0
VERTEX
  8
4
  6
CONTINUOUS
 62
3
 10
5210.619853665355500
 20
2565.393484449799000
  0
VERTEX
  8
4
  6
CONTINUOUS
 62
3
 10
5279.737615462445300
 20
2554.042762510308400
  0
VERTEX
  8
4
  6
CONTINUOUS
 62
3
 10
5348.814471671063100
 20
2542.384565506004900
  0
VERTEX
  8
4
  6
CONTINUOUS
 62
3
 10
5348.814471671063100
 20
2542.384565506004900
  0
VERTEX
  8
4
  6
CONTINUOUS
 62
3
 10
5434.694099461078600
 20
2527.433831291248700
  0
VERTEX
  8
4
  6
CONTINUOUS
 62
3
 10
5520.495528603087200
 20
2511.965862404758800
  0
VERTEX
  8
4
  6
CONTINUOUS
 62
3
 10
5606.206174232915100
 20
2495.956487799120600
  0
VERTEX
  8
4
  6
CONTINUOUS
 62
3
 10
5691.813451486385000
 20
2479.381536426924000
  0
VERTEX
  8
4
  6
CONTINUOUS
 62
3
 10
5734.574394201930800
 20
2470.874416001049200
  0
VERTEX
  8
4
  6
CONTINUOUS
 62
3
 10
5777.304775499322200
 20
2462.216837240754100
  0
VERTEX
  8
4
  6
CONTINUOUS
 62
3
 10
5820.003022270537300
 20
2453.405778765113200
  0
VERTEX
  8
4
  6
CONTINUOUS
 62
3
 10
5862.667561407553000
 20
2444.438219193199100
  0
VERTEX
  8
4
  6
CONTINUOUS
 62
3
 10
5905.296819802348200
 20
2435.311137144085000
  0
VERTEX
  8
4
  6
CONTINUOUS
 62
3
 10
5947.889224346899900
 20
2426.021511236845100
  0
VERTEX
  8
4
  6
CONTINUOUS
 62
3
 10
5990.443201933187100
 20
2416.566320090552800
  0
VERTEX
  8
4
  6
CONTINUOUS
 62
3
 10
6032.957179453189400
 20
2406.942542324280600
  0
VERTEX
  8
4
  6
CONTINUOUS
 62
3
 10
6075.429583798883000
 20
2397.147156557102300
  0
VERTEX
  8
4
  6
CONTINUOUS
 62
3
 10
6117.858841862245800
 20
2387.177141408091800
  0
VERTEX
  8
4
  6
CONTINUOUS
 62
3
 10
6160.243380535256600
 20
2377.029475496322000
  0
VERTEX
  8
4
  6
CONTINUOUS
 62
3
 10
6202.581626709892600
 20
2366.701137440866200
  0
VERTEX
  8
4
  6
CONTINUOUS
 62
3
 10
6244.872007278133400
 20
2356.189105860798000
  0
VERTEX
  8
4
  6
CONTINUOUS
 62
3
 10
6287.112949131957100
 20
2345.490359375191000
  0
VERTEX
  8
4
  6
CONTINUOUS
 62
3
 10
6329.302879163340500
 20
2334.601876603118400
  0
VERTEX
  8
4
  6
CONTINUOUS
 62
3
 10
6371.440224264262700
 20
2323.520636163653800
  0
VERTEX
  8
4
  6
CONTINUOUS
 62
3
 10
6413.523411326701500
 20
2312.243616675869800
  0
VERTEX
  8
4
  6
CONTINUOUS
 62
3
 10
6455.550867242634900
 20
2300.767796758840600
  0
VERTEX
  8
4
  6
CONTINUOUS
 62
3
 10
6497.521018904040800
 20
2289.090155031640300
  0
VERTEX
  8
4
  6
CONTINUOUS
 62
3
 10
6539.432293202898100
 20
2277.207670113340100
  0
VERTEX
  8
4
  6
CONTINUOUS
 62
3
 10
6581.283117031183800
 20
2265.117320623015500
  0
VERTEX
  8
4
  6
CONTINUOUS
 62
3
 10
6623.071917280875800
 20
2252.816085179738400
  0
VERTEX
  8
4
  6
CONTINUOUS
 62
3
 10
6664.797120843954000
 20
2240.300942402583100
  0
VERTEX
  8
4
  6
CONTINUOUS
 62
3
 10
6706.457154612395200
 20
2227.568870910623400
  0
VERTEX
  8
4
  6
CONTINUOUS
 62
3
 10
6706.457154612395200
 20
2227.568870910623400
  0
VERTEX
  8
4
  6
CONTINUOUS
 62
3
 10
6744.652262522804400
 20
2215.687234391854000
  0
VERTEX
  8
4
  6
CONTINUOUS
 62
3
 10
6782.795376638256100
 20
2203.634571861293800
  0
VERTEX
  8
4
  6
CONTINUOUS
 62
3
 10
6820.890775548854400
 20
2191.425301990992000
  0
VERTEX
  8
4
  6
CONTINUOUS
 62
3
 10
6858.942737844707200
 20
2179.073843452996700
  0
VERTEX
  8
4
  6
CONTINUOUS
 62
3
 10
6934.933466952598800
 20
2154.002035062118000
  0
VERTEX
  8
4
  6
CONTINUOUS
 62
3
 10
7010.801792682779700
 20
2128.534496065043600
  0
VERTEX
  8
4
  6
CONTINUOUS
 62
3
 10
7086.581943756098600
 20
2102.786575838160400
  0
VERTEX
  8
4
  6
CONTINUOUS
 62
3
 10
7162.308148893404000
 20
2076.873623757855100
  0
VERTEX
  8
4
  6
CONTINUOUS
 62
3
 10
7313.735636243372900
 20
2025.014021542521700
  0
VERTEX
  8
4
  6
CONTINUOUS
 62
3
 10
7389.505375897734700
 20
1999.298070160266700
  0
VERTEX
  8
4
  6
CONTINUOUS
 62
3
 10
7465.358084499481300
 20
1973.878484430134200
  0
VERTEX
  8
4
  6
CONTINUOUS
 62
3
 10
7541.327990769459600
 20
1948.870613728510800
  0
VERTEX
  8
4
  6
CONTINUOUS
 62
3
 10
7579.367589505302000
 20
1936.557118193510600
  0
VERTEX
  8
4
  6
CONTINUOUS
 62
3
 10
7617.449323428520100
 20
1924.389807431782600
  0
VERTEX
  8
4
  6
CONTINUOUS
 62
3
 10
7655.577471129221500
 20
1912.383100115374900
  0
VERTEX
  8
4
  6
CONTINUOUS
 62
3
 10
7693.756311197511400
 20
1900.551414916335900
  0
VERTEX
  8
4
  6
CONTINUOUS
 62
3
 10
7731.990122223496700
 20
1888.909170506714000
  0
VERTEX
  8
4
  6
CONTINUOUS
 62
3
 10
7770.283182797283200
 20
1877.470785558557500
  0
VERTEX
  8
4
  6
CONTINUOUS
 62
3
 10
7808.639771508977000
 20
1866.250678743914500
  0
VERTEX
  8
4
  6
CONTINUOUS
 62
3
 10
7847.064166948683100
 20
1855.263268734833200
  0
VERTEX
  8
4
  6
CONTINUOUS
 62
3
 10
7885.560647706510300
 20
1844.522974203362100
  0
VERTEX
  8
4
  6
CONTINUOUS
 62
3
 10
7924.133492372562600
 20
1834.044213821549400
  0
VERTEX
  8
4
  6
CONTINUOUS
 62
3
 10
7924.133492372562600
 20
1834.044213821549400
  0
VERTEX
  8
4
  6
CONTINUOUS
 62
3
 10
7961.501931505436000
 20
1824.172520192966200
  0
VERTEX
  8
4
  6
CONTINUOUS
 62
3
 10
7998.943178238795600
 20
1814.554597441594100
  0
VERTEX
  8
4
  6
CONTINUOUS
 62
3
 10
8036.454660789264400
 20
1805.186273621621700
  0
VERTEX
  8
4
  6
CONTINUOUS
 62
3
 10
8074.033807373467400
 20
1796.063376787237800
  0
VERTEX
  8
4
  6
CONTINUOUS
 62
3
 10
8111.678046208027800
 20
1787.181734992630900
  0
VERTEX
  8
4
  6
CONTINUOUS
 62
3
 10
8149.384805509569600
 20
1778.537176291989500
  0
VERTEX
  8
4
  6
CONTINUOUS
 62
3
 10
8187.151513494716700
 20
1770.125528739502400
  0
VERTEX
  8
4
  6
CONTINUOUS
 62
3
 10
8224.975598380093300
 20
1761.942620389357900
  0
VERTEX
  8
4
  6
CONTINUOUS
 62
3
 10
8262.854488382321500
 20
1753.984279295745200
  0
VERTEX
  8
4
  6
CONTINUOUS
 62
3
 10
8300.785611718027200
 20
1746.246333512852300
  0
VERTEX
  8
4
  6
CONTINUOUS
 62
3
 10
8338.766396603834400
 20
1738.724611094868100
  0
VERTEX
  8
4
  6
CONTINUOUS
 62
3
 10
8376.794271256363600
 20
1731.414940095981400
  0
VERTEX
  8
4
  6
CONTINUOUS
 62
3
 10
8414.866663892244100
 20
1724.313148570380700
  0
VERTEX
  8
4
  6
CONTINUOUS
 62
3
 10
8452.981002728094600
 20
1717.415064572254800
  0
VERTEX
  8
4
  6
CONTINUOUS
 62
3
 10
8491.134715980540900
 20
1710.716516155791900
  0
VERTEX
  8
4
  6
CONTINUOUS
 62
3
 10
8529.325231866208900
 20
1704.213331375180600
  0
VERTEX
  8
4
  6
CONTINUOUS
 62
3
 10
8567.549978601720800
 20
1697.901338284609900
  0
VERTEX
  8
4
  6
CONTINUOUS
 62
3
 10
8605.806384403698800
 20
1691.776364938268200
  0
VERTEX
  8
4
  6
CONTINUOUS
 62
3
 10
8644.091877488766800
 20
1685.834239390344200
  0
VERTEX
  8
4
  6
CONTINUOUS
 62
3
 10
8682.403886073550900
 20
1680.070789695026600
  0
VERTEX
  8
4
  6
CONTINUOUS
 62
3
 10
8720.739838374673100
 20
1674.481843906503900
  0
VERTEX
  8
4
  6
CONTINUOUS
 62
3
 10
8759.097162608759400
 20
1669.063230078964600
  0
VERTEX
  8
4
  6
CONTINUOUS
 62
3
 10
8797.473286992431900
 20
1663.810776266597500
  0
VERTEX
  8
4
  6
CONTINUOUS
 62
3
 10
8835.865639742314700
 20
1658.720310523591300
  0
VERTEX
  8
4
  6
CONTINUOUS
 62
3
 10
8874.271649075031700
 20
1653.787660904134300
  0
VERTEX
  8
4
  6
CONTINUOUS
 62
3
 10
8912.688743207207200
 20
1649.008655462415600
  0
VERTEX
  8
4
  6
CONTINUOUS
 62
3
 10
8989.545898736425400
 20
1639.894889328946400
  0
VERTEX
  8
4
  6
CONTINUOUS
 62
3
 10
9066.416532062961800
 20
1631.345636556692600
  0
VERTEX
  8
4
  6
CONTINUOUS
 62
3
 10
9143.280068919808400
 20
1623.327521579163700
  0
VERTEX
  8
4
  6
CONTINUOUS
 62
3
 10
9143.280068919808400
 20
1623.327521579163700
  0
VERTEX
  8
4
  6
CONTINUOUS
 62
3
 10
9224.672952709883200
 20
1615.384998340649400
  0
VERTEX
  8
4
  6
CONTINUOUS
 62
3
 10
9306.050809663102000
 20
1608.011814619312900
  0
VERTEX
  8
4
  6
CONTINUOUS
 62
3
 10
9387.429659083296400
 20
1601.218828373536600
  0
VERTEX
  8
4
  6
CONTINUOUS
 62
3
 10
9468.825520274293000
 20
1595.016897561702500
  0
VERTEX
  8
4
  6
CONTINUOUS
 62
3
 10
9509.534836316290200
 20
1592.140971055508300
  0
VERTEX
  8
4
  6
CONTINUOUS
 62
3
 10
9550.254412539925400
 20
1589.416880142193100
  0
VERTEX
  8
4
  6
CONTINUOUS
 62
3
 10
9590.986251358173800
 20
1586.845982066554600
  0
VERTEX
  8
4
  6
CONTINUOUS
 62
3
 10
9631.732355184018200
 20
1584.429634073390600
  0
VERTEX
  8
4
  6
CONTINUOUS
 62
3
 10
9672.494726430435500
 20
1582.169193407499100
  0
VERTEX
  8
4
  6
CONTINUOUS
 62
3
 10
9713.275367510406800
 20
1580.066017313677300
  0
VERTEX
  8
4
  6
CONTINUOUS
 62
3
 10
9754.076280836907200
 20
1578.121463036723300
  0
VERTEX
  8
4
  6
CONTINUOUS
 62
3
 10
9794.899468822917700
 20
1576.336887821435100
  0
VERTEX
  8
4
  6
CONTINUOUS
 62
3
 10
9835.746933881415300
 20
1574.713648912610100
  0
VERTEX
  8
4
  6
CONTINUOUS
 62
3
 10
9876.620678425380900
 20
1573.253103555046900
  0
VERTEX
  8
4
  6
CONTINUOUS
 62
3
 10
9917.522704867793400
 20
1571.956608993542000
  0
VERTEX
  8
4
  6
CONTINUOUS
 62
3
 10
9958.455015621628300
 20
1570.825522472894100
  0
VERTEX
  8
4
  6
CONTINUOUS
 62
3
 10
9999.419613099866200
 20
1569.861201237900800
  0
VERTEX
  8
4
  6
CONTINUOUS
 62
3
 10
10040.418499715488000
 20
1569.065002533360000
  0
VERTEX
  8
4
  6
CONTINUOUS
 62
3
 10
10081.453677881469000
 20
1568.438283604069100
  0
VERTEX
  8
4
  6
CONTINUOUS
 62
3
 10
10122.527150010788000
 20
1567.982401694826000
  0
VERTEX
  8
4
  6
CONTINUOUS
 62
3
 10
10163.640918516426000
 20
1567.698714050428400
  0
VERTEX
  8
4
  6
CONTINUOUS
 62
3
 10
10204.796985811361000
 20
1567.588577915674700
  0
VERTEX
  8
4
  6
CONTINUOUS
 62
3
 10
10245.997354308572000
 20
1567.653350535362300
  0
VERTEX
  8
4
  6
CONTINUOUS
 62
3
 10
10287.244026421036000
 20
1567.894389154288500
  0
VERTEX
  8
4
  6
CONTINUOUS
 62
3
 10
10328.539004561733000
 20
1568.313051017251800
  0
VERTEX
  8
4
  6
CONTINUOUS
 62
3
 10
10369.884291143644000
 20
1568.910693369049600
  0
VERTEX
  8
4
  6
CONTINUOUS
 62
3
 10
10411.281888579742000
 20
1569.688673454479600
  0
VERTEX
  8
4
  6
CONTINUOUS
 62
3
 10
10452.733799283010000
 20
1570.648348518339800
  0
VERTEX
  8
4
  6
CONTINUOUS
 62
3
 10
10452.733799283010000
 20
1570.648348518339800
  0
VERTEX
  8
4
  6
CONTINUOUS
 62
3
 10
10515.445658190681000
 20
1572.465802154377600
  0
VERTEX
  8
4
  6
CONTINUOUS
 62
3
 10
10546.830083441547000
 20
1573.570602673725500
  0
VERTEX
  8
4
  6
CONTINUOUS
 62
3
 10
10578.223003125116000
 20
1574.827152947116500
  0
VERTEX
  8
4
  6
CONTINUOUS
 62
3
 10
10609.616540167397000
 20
1576.251228439417700
  0
VERTEX
  8
4
  6
CONTINUOUS
 62
3
 10
10641.002817494400000
 20
1577.858604615497400
  0
VERTEX
  8
4
  6
CONTINUOUS
 62
3
 10
10672.373958032134000
 20
1579.665056940222900
  0
VERTEX
  8
4
  6
CONTINUOUS
 62
3
 10
10703.722084706612000
 20
1581.686360878461800
  0
VERTEX
  8
4
  6
CONTINUOUS
 62
3
 10
10735.039320443840000
 20
1583.938291895081600
  0
VERTEX
  8
4
  6
CONTINUOUS
 62
3
 10
10766.317788169832000
 20
1586.436625454950400
  0
VERTEX
  8
4
  6
CONTINUOUS
 62
3
 10
10797.549610810596000
 20
1589.197137022935700
  0
VERTEX
  8
4
  6
CONTINUOUS
 62
3
 10
10828.726911292142000
 20
1592.235602063905200
  0
VERTEX
  8
4
  6
CONTINUOUS
 62
3
 10
10859.841812540482000
 20
1595.567796042726100
  0
VERTEX
  8
4
  6
CONTINUOUS
 62
3
 10
10890.886437481623000
 20
1599.209494424266700
  0
VERTEX
  8
4
  6
CONTINUOUS
 62
3
 10
10921.852909041579000
 20
1603.176472673394300
  0
VERTEX
  8
4
  6
CONTINUOUS
 62
3
 10
10952.733350146360000
 20
1607.484506254976600
  0
VERTEX
  8
4
  6
CONTINUOUS
 62
3
 10
10983.519883721972000
 20
1612.149370633881300
  0
VERTEX
  8
4
  6
CONTINUOUS
 62
3
 10
11014.204632694429000
 20
1617.186841274975900
  0
VERTEX
  8
4
  6
CONTINUOUS
 62
3
 10
11044.779719989739000
 20
1622.612693643128300
  0
VERTEX
  8
4
  6
CONTINUOUS
 62
3
 10
11075.237268533914000
 20
1628.442703203205800
  0
VERTEX
  8
4
  6
CONTINUOUS
 62
3
 10
11105.569401252963000
 20
1634.692645420076600
  0
VERTEX
  8
4
  6
CONTINUOUS
 62
3
 10
11135.768241072897000
 20
1641.378295758607700
  0
VERTEX
  8
4
  6
CONTINUOUS
 62
3
 10
11165.825910919727000
 20
1648.515429683667200
  0
VERTEX
  8
4
  6
CONTINUOUS
 62
3
 10
11195.734533719460000
 20
1656.119822660122300
  0
VERTEX
  8
4
  6
CONTINUOUS
 62
3
 10
11225.486232398108000
 20
1664.207250152841000
  0
VERTEX
  8
4
  6
CONTINUOUS
 62
3
 10
11255.073129881682000
 20
1672.793487626691100
  0
VERTEX
  8
4
  6
CONTINUOUS
 62
3
 10
11284.487349096190000
 20
1681.894310546540100
  0
VERTEX
  8
4
  6
CONTINUOUS
 62
3
 10
11313.721012967644000
 20
1691.525494377255700
  0
VERTEX
  8
4
  6
CONTINUOUS
 62
3
 10
11342.766244422055000
 20
1701.702814583705300
  0
VERTEX
  8
4
  6
CONTINUOUS
 62
3
 10
11357.215736407244000
 20
1707.001205660601700
  0
VERTEX
  8
4
  6
CONTINUOUS
 62
3
 10
11371.615166385428000
 20
1712.442046630756700
  0
VERTEX
  8
4
  6
CONTINUOUS
 62
3
 10
11385.963549722355000
 20
1718.027309427279300
  0
VERTEX
  8
4
  6
CONTINUOUS
 62
3
 10
11400.259901783778000
 20
1723.758965983277400
  0
VERTEX
  8
4
  6
CONTINUOUS
 62
3
 10
11414.503237935448000
 20
1729.638988231860400
  0
VERTEX
  8
4
  6
CONTINUOUS
 62
3
 10
11428.692573543117000
 20
1735.669348106135700
  0
VERTEX
  8
4
  6
CONTINUOUS
 62
3
 10
11428.692573543117000
 20
1735.669348106135700
  0
VERTEX
  8
4
  6
CONTINUOUS
 62
3
 10
11448.006021967990000
 20
1744.160781129832000
  0
VERTEX
  8
4
  6
CONTINUOUS
 62
3
 10
11467.213854086261000
 20
1752.933136620079000
  0
VERTEX
  8
4
  6
CONTINUOUS
 62
3
 10
11486.313265983209000
 20
1761.982545567896300
  0
VERTEX
  8
4
  6
CONTINUOUS
 62
3
 10
11505.301453744114000
 20
1771.305138964303300
  0
VERTEX
  8
4
  6
CONTINUOUS
 62
3
 10
11524.175613454248000
 20
1780.897047800319300
  0
VERTEX
  8
4
  6
CONTINUOUS
 62
3
 10
11542.932941198891000
 20
1790.754403066964600
  0
VERTEX
  8
4
  6
CONTINUOUS
 62
3
 10
11561.570633063322000
 20
1800.873335755258500
  0
VERTEX
  8
4
  6
CONTINUOUS
 62
3
 10
11580.085885132819000
 20
1811.249976856220400
  0
VERTEX
  8
4
  6
CONTINUOUS
 62
3
 10
11598.475893492657000
 20
1821.880457360870200
  0
VERTEX
  8
4
  6
CONTINUOUS
 62
3
 10
11616.737854228116000
 20
1832.760908260227100
  0
VERTEX
  8
4
  6
CONTINUOUS
 62
3
 10
11634.868963424472000
 20
1843.887460545310900
  0
VERTEX
  8
4
  6
CONTINUOUS
 62
3
 10
11652.866417167006000
 20
1855.256245207141300
  0
VERTEX
  8
4
  6
CONTINUOUS
 62
3
 10
11670.727411540994000
 20
1866.863393236737900
  0
VERTEX
  8
4
  6
CONTINUOUS
 62
3
 10
11688.449142631712000
 20
1878.705035625120200
  0
VERTEX
  8
4
  6
CONTINUOUS
 62
3
 10
11706.028806524438000
 20
1890.777303363307500
  0
VERTEX
  8
4
  6
CONTINUOUS
 62
3
 10
11723.463599304454000
 20
1903.076327442319800
  0
VERTEX
  8
4
  6
CONTINUOUS
 62
3
 10
11740.750717057033000
 20
1915.598238853176600
  0
VERTEX
  8
4
  6
CONTINUOUS
 62
3
 10
11757.887355867455000
 20
1928.339168586897400
  0
VERTEX
  8
4
  6
CONTINUOUS
 62
3
 10
11774.870711820996000
 20
1941.295247634501700
  0
VERTEX
  8
4
  6
CONTINUOUS
 62
3
 10
11791.697981002937000
 20
1954.462606987009400
  0
VERTEX
  8
4
  6
CONTINUOUS
 62
3
 10
11808.366359498553000
 20
1967.837377635439900
  0
VERTEX
  8
4
  6
CONTINUOUS
 62
3
 10
11824.873043393123000
 20
1981.415690570812800
  0
VERTEX
  8
4
  6
CONTINUOUS
 62
3
 10
11841.215228771921000
 20
1995.193676784147800
  0
VERTEX
  8
4
  6
CONTINUOUS
 62
3
 10
11857.390111720231000
 20
2009.167467266464200
  0
VERTEX
  8
4
  6
CONTINUOUS
 62
3
 10
11873.394888323327000
 20
2023.333193008782000
  0
VERTEX
  8
4
  6
CONTINUOUS
 62
3
 10
11889.226754666488000
 20
2037.686985002120300
  0
VERTEX
  8
4
  6
CONTINUOUS
 62
3
 10
11904.882906834991000
 20
2052.224974237499300
  0
VERTEX
  8
4
  6
CONTINUOUS
 62
3
 10
11920.360540914112000
 20
2066.943291705938000
  0
VERTEX
  8
4
  6
CONTINUOUS
 62
3
 10
11935.656852989131000
 20
2081.838068398456000
  0
VERTEX
  8
4
  6
CONTINUOUS
 62
3
 10
11950.769039145327000
 20
2096.905435306073700
  0
VERTEX
  8
4
  6
CONTINUOUS
 62
3
 10
11965.694295467976000
 20
2112.141523419809800
  0
VERTEX
  8
4
  6
CONTINUOUS
 62
3
 10
11980.429818042353000
 20
2127.542463730684200
  0
VERTEX
  8
4
  6
CONTINUOUS
 62
3
 10
11980.429818042353000
 20
2127.542463730684200
  0
VERTEX
  8
4
  6
CONTINUOUS
 62
3
 10
11992.645530940079000
 20
2140.589182395451600
  0
VERTEX
  8
4
  6
CONTINUOUS
 62
3
 10
12004.725682806954000
 20
2153.747929334866100
  0
VERTEX
  8
4
  6
CONTINUOUS
 62
3
 10
12016.670260758528000
 20
2167.017399294875800
  0
VERTEX
  8
4
  6
CONTINUOUS
 62
3
 10
12028.479251910339000
 20
2180.396287021427300
  0
VERTEX
  8
4
  6
CONTINUOUS
 62
3
 10
12040.152643377929000
 20
2193.883287260467100
  0
VERTEX
  8
4
  6
CONTINUOUS
 62
3
 10
12051.690422276840000
 20
2207.477094757941800
  0
VERTEX
  8
4
  6
CONTINUOUS
 62
3
 10
12063.092575722614000
 20
2221.176404259798800
  0
VERTEX
  8
4
  6
CONTINUOUS
 62
3
 10
12074.359090830796000
 20
2234.979910511985500
  0
VERTEX
  8
4
  6
CONTINUOUS
 62
3
 10
12085.489954716922000
 20
2248.886308260448500
  0
VERTEX
  8
4
  6
CONTINUOUS
 62
3
 10
12096.485154496542000
 20
2262.894292251134200
  0
VERTEX
  8
4
  6
CONTINUOUS
 62
3
 10
12107.344677285191000
 20
2277.002557229990100
  0
VERTEX
  8
4
  6
CONTINUOUS
 62
3
 10
12118.068510198416000
 20
2291.209797942962700
  0
VERTEX
  8
4
  6
CONTINUOUS
 62
3
 10
12128.656640351755000
 20
2305.514709135999500
  0
VERTEX
  8
4
  6
CONTINUOUS
 62
3
 10
12139.109054860755000
 20
2319.915985555047000
  0
VERTEX
  8
4
  6
CONTINUOUS
 62
3
 10
12149.425740840953000
 20
2334.412321946051600
  0
VERTEX
  8
4
  6
CONTINUOUS
 62
3
 10
12159.606685407896000
 20
2349.002413054961400
  0
VERTEX
  8
4
  6
CONTINUOUS
 62
3
 10
12169.651875677122000
 20
2363.684953627723200
  0
VERTEX
  8
4
  6
CONTINUOUS
 62
3
 10
12179.561298764176000
 20
2378.458638410282700
  0
VERTEX
  8
4
  6
CONTINUOUS
 62
3
 10
12189.334941784600000
 20
2393.322162148588200
  0
VERTEX
  8
4
  6
CONTINUOUS
 62
3
 10
12198.972791853932000
 20
2408.274219588585800
  0
VERTEX
  8
4
  6
CONTINUOUS
 62
3
 10
12208.474836087720000
 20
2423.313505476222900
  0
VERTEX
  8
4
  6
CONTINUOUS
 62
3
 10
12217.841061601502000
 20
2438.438714557446900
  0
VERTEX
  8
4
  6
CONTINUOUS
 62
3
 10
12227.071455510820000
 20
2453.648541578203500
  0
VERTEX
  8
4
  6
CONTINUOUS
 62
3
 10
12236.166004931219000
 20
2468.941681284440600
  0
VERTEX
  8
4
  6
CONTINUOUS
 62
3
 10
12245.124696978240000
 20
2484.316828422104700
  0
VERTEX
  8
4
  6
CONTINUOUS
 62
3
 10
12253.947518767423000
 20
2499.772677737142200
  0
VERTEX
  8
4
  6
CONTINUOUS
 62
3
 10
12262.634457414313000
 20
2515.307923975501100
  0
VERTEX
  8
4
  6
CONTINUOUS
 62
3
 10
12271.185500034451000
 20
2530.921261883128000
  0
VERTEX
  8
4
  6
CONTINUOUS
 62
3
 10
12279.600633743379000
 20
2546.611386205969700
  0
VERTEX
  8
4
  6
CONTINUOUS
 62
3
 10
12287.879845656640000
 20
2562.376991689972800
  0
VERTEX
  8
4
  6
CONTINUOUS
 62
3
 10
12296.023122889771000
 20
2578.216773081085200
  0
VERTEX
  8
4
  6
CONTINUOUS
 62
3
 10
12304.030452558323000
 20
2594.129425125253000
  0
VERTEX
  8
4
  6
CONTINUOUS
 62
3
 10
12304.030452558323000
 20
2594.129425125253000
  0
VERTEX
  8
4
  6
CONTINUOUS
 62
3
 10
12312.445815529194000
 20
2611.231523394600100
  0
VERTEX
  8
4
  6
CONTINUOUS
 62
3
 10
12320.704675649170000
 20
2628.413688827622500
  0
VERTEX
  8
4
  6
CONTINUOUS
 62
3
 10
12328.806125436241000
 20
2645.674087971047800
  0
VERTEX
  8
4
  6
CONTINUOUS
 62
3
 10
12336.749257408391000
 20
2663.010887371604900
  0
VERTEX
  8
4
  6
CONTINUOUS
 62
3
 10
12344.533164083608000
 20
2680.422253576020500
  0
VERTEX
  8
4
  6
CONTINUOUS
 62
3
 10
12352.156937979885000
 20
2697.906353131023000
  0
VERTEX
  8
4
  6
CONTINUOUS
 62
3
 10
12359.619671615204000
 20
2715.461352583340600
  0
VERTEX
  8
4
  6
CONTINUOUS
 62
3
 10
12366.920457507552000
 20
2733.085418479700800
  0
VERTEX
  8
4
  6
CONTINUOUS
 62
3
 10
12374.058388174920000
 20
2750.776717366831700
  0
VERTEX
  8
4
  6
CONTINUOUS
 62
3
 10
12381.032556135292000
 20
2768.533415791460800
  0
VERTEX
  8
4
  6
CONTINUOUS
 62
3
 10
12387.842053906657000
 20
2786.353680300316200
  0
VERTEX
  8
4
  6
CONTINUOUS
 62
3
 10
12394.485974007002000
 20
2804.235677440126000
  0
VERTEX
  8
4
  6
CONTINUOUS
 62
3
 10
12400.963408954314000
 20
2822.177573757618100
  0
VERTEX
  8
4
  6
CONTINUOUS
 62
3
 10
12407.273451266584000
 20
2840.177535799519800
  0
VERTEX
  8
4
  6
CONTINUOUS
 62
3
 10
12413.415193461798000
 20
2858.233730112559900
  0
VERTEX
  8
4
  6
CONTINUOUS
 62
3
 10
12419.387728057940000
 20
2876.344323243465600
  0
VERTEX
  8
4
  6
CONTINUOUS
 62
3
 10
12425.190147573001000
 20
2894.507481738965000
  0
VERTEX
  8
4
  6
CONTINUOUS
 62
3
 10
12430.821544524966000
 20
2912.721372145786500
  0
VERTEX
  8
4
  6
CONTINUOUS
 62
3
 10
12436.281011431823000
 20
2930.984161010656900
  0
VERTEX
  8
4
  6
CONTINUOUS
 62
3
 10
12441.567640811561000
 20
2949.294014880305000
  0
VERTEX
  8
4
  6
CONTINUOUS
 62
3
 10
12446.680525182167000
 20
2967.649100301458500
  0
VERTEX
  8
4
  6
CONTINUOUS
 62
3
 10
12451.618757061627000
 20
2986.047583820844900
  0
VERTEX
  8
4
  6
CONTINUOUS
 62
3
 10
12456.381428967930000
 20
3004.487631985192800
  0
VERTEX
  8
4
  6
CONTINUOUS
 62
3
 10
12460.967633419062000
 20
3022.967411341229800
  0
VERTEX
  8
4
  6
CONTINUOUS
 62
3
 10
12465.376462933012000
 20
3041.485088435683800
  0
VERTEX
  8
4
  6
CONTINUOUS
 62
3
 10
12469.607010027764000
 20
3060.038829815282500
  0
VERTEX
  8
4
  6
CONTINUOUS
 62
3
 10
12473.658367221311000
 20
3078.626802026753500
  0
VERTEX
  8
4
  6
CONTINUOUS
 62
3
 10
12477.529627031635000
 20
3097.247171616825700
  0
VERTEX
  8
4
  6
CONTINUOUS
 62
3
 10
12481.219881976729000
 20
3115.898105132226200
  0
VERTEX
  8
4
  6
CONTINUOUS
 62
3
 10
12484.728224574575000
 20
3134.577769119682700
  0
VERTEX
  8
4
  6
CONTINUOUS
 62
3
 10
12488.053747343165000
 20
3153.284330125923600
  0
VERTEX
  8
4
  6
CONTINUOUS
 62
3
 10
12491.195542800484000
 20
3172.015954697677400
  0
VERTEX
  8
4
  6
CONTINUOUS
 62
3
 10
12491.195542800484000
 20
3172.015954697677400
  0
VERTEX
  8
4
  6
CONTINUOUS
 62
3
 10
12494.511977201513000
 20
3193.116879864355300
  0
VERTEX
  8
4
  6
CONTINUOUS
 62
3
 10
12497.609337205574000
 20
3214.245368215306400
  0
VERTEX
  8
4
  6
CONTINUOUS
 62
3
 10
12500.502227772465000
 20
3235.399582204911900
  0
VERTEX
  8
4
  6
CONTINUOUS
 62
3
 10
12503.205253861982000
 20
3256.577684287554800
  0
VERTEX
  8
4
  6
CONTINUOUS
 62
3
 10
12505.733020433926000
 20
3277.777836917615800
  0
VERTEX
  8
4
  6
CONTINUOUS
 62
3
 10
12508.100132448093000
 20
3298.998202549477400
  0
VERTEX
  8
4
  6
CONTINUOUS
 62
3
 10
12512.410812642288000
 20
3341.492222636129600
  0
VERTEX
  8
4
  6
CONTINUOUS
 62
3
 10
12516.254134122951000
 20
3384.045044182563300
  0
VERTEX
  8
4
  6
CONTINUOUS
 62
3
 10
12519.746936568466000
 20
3426.641966823835000
  0
VERTEX
  8
4
  6
CONTINUOUS
 62
3
 10
12523.006059657213000
 20
3469.268290194997500
  0
VERTEX
  8
4
  6
CONTINUOUS
 62
3
 10
12526.148343067576000
 20
3511.909313931106200
  0
SEQEND
  8
4
  0
POLYLINE
  8
4
  6
CONTINUOUS
 62
3
 66
1
  0
VERTEX
  8
4
  6
CONTINUOUS
 62
3
 10
-473.851656932423790
 20
3226.909313842001200
  0
VERTEX
  8
4
  6
CONTINUOUS
 62
3
 10
88.641232549480037
 20
3170.835676541235400
  0
VERTEX
  8
4
  6
CONTINUOUS
 62
3
 10
369.857374006047170
 20
3142.669485450367600
  0
VERTEX
  8
4
  6
CONTINUOUS
 62
3
 10
651.037151521352600
 20
3114.348047430919000
  0
VERTEX
  8
4
  6
CONTINUOUS
 62
3
 10
932.168443781642280
 20
3085.819613506695100
  0
VERTEX
  8
4
  6
CONTINUOUS
 62
3
 10
1213.239129473162400
 20
3057.032434701502100
  0
VERTEX
  8
4
  6
CONTINUOUS
 62
3
 10
1494.237087282158700
 20
3027.934762039146300
  0
VERTEX
  8
4
  6
CONTINUOUS
 62
3
 10
1775.150195894877700
 20
2998.474846543435000
  0
VERTEX
  8
4
  6
CONTINUOUS
 62
3
 10
2055.966333997565000
 20
2968.600939238172900
  0
VERTEX
  8
4
  6
CONTINUOUS
 62
3
 10
2336.673380276467500
 20
2938.261291147166500
  0
VERTEX
  8
4
  6
CONTINUOUS
 62
3
 10
2617.259213417830300
 20
2907.404153294222400
  0
VERTEX
  8
4
  6
CONTINUOUS
 62
3
 10
2757.502887151386400
 20
2891.765354151963000
  0
VERTEX
  8
4
  6
CONTINUOUS
 62
3
 10
2897.711712107900000
 20
2875.977776703146900
  0
VERTEX
  8
4
  6
CONTINUOUS
 62
3
 10
3037.884173123151900
 20
2860.034952325749600
  0
VERTEX
  8
4
  6
CONTINUOUS
 62
3
 10
3178.018755032922400
 20
2843.930412397746300
  0
VERTEX
  8
4
  6
CONTINUOUS
 62
3
 10
3318.113942672993300
 20
2827.657688297113100
  0
VERTEX
  8
4
  6
CONTINUOUS
 62
3
 10
3458.168220879144400
 20
2811.210311401825500
  0
VERTEX
  8
4
  6
CONTINUOUS
 62
3
 10
3598.180074487157100
 20
2794.581813089859700
  0
VERTEX
  8
4
  6
CONTINUOUS
 62
3
 10
3738.147988332811100
 20
2777.765724739191700
  0
VERTEX
  8
4
  6
CONTINUOUS
 62
3
 10
3878.070447251888300
 20
2760.755577727797100
  0
VERTEX
  8
4
  6
CONTINUOUS
 62
3
 10
4017.945936080168400
 20
2743.544903433651600
  0
VERTEX
  8
4
  6
CONTINUOUS
 62
3
 10
4017.945936080168400
 20
2743.544903433651600
  0
VERTEX
  8
4
  6
CONTINUOUS
 62
3
 10
4175.938138409072100
 20
2723.853140898769700
  0
VERTEX
  8
4
  6
CONTINUOUS
 62
3
 10
4333.882755068862900
 20
2703.913643920023300
  0
VERTEX
  8
4
  6
CONTINUOUS
 62
3
 10
4491.794102260100800
 20
2683.742952904043700
  0
VERTEX
  8
4
  6
CONTINUOUS
 62
3
 10
4649.686496183347100
 20
2663.357608257463200
  0
VERTEX
  8
4
  6
CONTINUOUS
 62
3
 10
4807.574253039161700
 20
2642.774150386912000
  0
VERTEX
  8
4
  6
CONTINUOUS
 62
3
 10
4965.471689028106100
 20
2622.009119699022400
  0
VERTEX
  8
4
  6
CONTINUOUS
 62
3
 10
5281.352863207625900
 20
2580.000501497752300
  0
VERTEX
  8
4
  6
CONTINUOUS
 62
3
 10
5597.444548326395300
 20
2537.464076906703700
  0
VERTEX
  8
4
  6
CONTINUOUS
 62
3
 10
5913.861273988897700
 20
2494.532169178928600
  0
VERTEX
  8
4
  6
CONTINUOUS
 62
3
 10
6548.127965363051800
 20
2408.011197325400600
  0
VERTEX
  8
4
  6
CONTINUOUS
 62
3
 10
6548.127965363051800
 20
2408.011197325400600
  0
VERTEX
  8
4
  6
CONTINUOUS
 62
3
 10
6713.496209815620200
 20
2385.575339155247500
  0
VERTEX
  8
4
  6
CONTINUOUS
 62
3
 10
6796.226519998859700
 20
2374.571902379108900
  0
VERTEX
  8
4
  6
CONTINUOUS
 62
3
 10
6878.976064731674300
 20
2363.825775907066600
  0
VERTEX
  8
4
  6
CONTINUOUS
 62
3
 10
6961.736175947768100
 20
2353.422696312724400
  0
VERTEX
  8
4
  6
CONTINUOUS
 62
3
 10
7044.498185580844600
 20
2343.448400169684600
  0
VERTEX
  8
4
  6
CONTINUOUS
 62
3
 10
7127.253425564607800
 20
2333.988624051551600
  0
VERTEX
  8
4
  6
CONTINUOUS
 62
3
 10
7168.625798167279800
 20
2329.478473681076100
  0
VERTEX
  8
4
  6
CONTINUOUS
 62
3
 10
7209.993227832762400
 20
2325.129104531928500
  0
VERTEX
  8
4
  6
CONTINUOUS
 62
3
 10
7251.354631052769000
 20
2320.951233675809400
  0
VERTEX
  8
4
  6
CONTINUOUS
 62
3
 10
7292.708924319011200
 20
2316.955578184418800
  0
VERTEX
  8
4
  6
CONTINUOUS
 62
3
 10
7334.055024123202200
 20
2313.152855129457300
  0
VERTEX
  8
4
  6
CONTINUOUS
 62
3
 10
7375.391846957057200
 20
2309.553781582625600
  0
VERTEX
  8
4
  6
CONTINUOUS
 62
3
 10
7416.718309312285800
 20
2306.169074615623700
  0
VERTEX
  8
4
  6
CONTINUOUS
 62
3
 10
7458.033327680605000
 20
2303.009451300152300
  0
VERTEX
  8
4
  6
CONTINUOUS
 62
3
 10
7499.335818553725400
 20
2300.085628707911400
  0
VERTEX
  8
4
  6
CONTINUOUS
 62
3
 10
7540.624698423358500
 20
2297.408323910602100
  0
VERTEX
  8
4
  6
CONTINUOUS
 62
3
 10
7581.898883781219400
 20
2294.988253979924600
  0
VERTEX
  8
4
  6
CONTINUOUS
 62
3
 10
7623.157291119021500
 20
2292.836135987579400
  0
VERTEX
  8
4
  6
CONTINUOUS
 62
3
 10
7664.398836928477100
 20
2290.962687005266200
  0
VERTEX
  8
4
  6
CONTINUOUS
 62
3
 10
7705.622437701298600
 20
2289.378624104686400
  0
VERTEX
  8
4
  6
CONTINUOUS
 62
3
 10
7746.827009929199400
 20
2288.094664357539800
  0
VERTEX
  8
4
  6
CONTINUOUS
 62
3
 10
7788.011470103892900
 20
2287.121524835527000
  0
VERTEX
  8
4
  6
CONTINUOUS
 62
3
 10
7829.174734717091300
 20
2286.469922610348500
  0
VERTEX
  8
4
  6
CONTINUOUS
 62
3
 10
7870.315720260508000
 20
2286.150574753704900
  0
VERTEX
  8
4
  6
CONTINUOUS
 62
3
 10
7870.315720260508000
 20
2286.150574753704900
  0
VERTEX
  8
4
  6
CONTINUOUS
 62
3
 10
7907.453542378923900
 20
2286.159756447607800
  0
VERTEX
  8
4
  6
CONTINUOUS
 62
3
 10
7944.580288280471000
 20
2286.475448337822400
  0
VERTEX
  8
4
  6
CONTINUOUS
 62
3
 10
7981.703938058250100
 20
2287.124406817101800
  0
VERTEX
  8
4
  6
CONTINUOUS
 62
3
 10
8018.832471805360900
 20
2288.133388278200100
  0
VERTEX
  8
4
  6
CONTINUOUS
 62
3
 10
8055.973869614905200
 20
2289.529149113872300
  0
VERTEX
  8
4
  6
CONTINUOUS
 62
3
 10
8093.136111579983700
 20
2291.338445716872200
  0
VERTEX
  8
4
  6
CONTINUOUS
 62
3
 10
8130.327177793695200
 20
2293.588034479954300
  0
VERTEX
  8
4
  6
CONTINUOUS
 62
3
 10
8167.555048349142500
 20
2296.304671795873200
  0
VERTEX
  8
4
  6
CONTINUOUS
 62
3
 10
8204.827703339424300
 20
2299.515114057382600
  0
VERTEX
  8
4
  6
CONTINUOUS
 62
3
 10
8242.153122857642300
 20
2303.246117657236900
  0
VERTEX
  8
4
  6
CONTINUOUS
 62
3
 10
8279.539286996896400
 20
2307.524438988190000
  0
VERTEX
  8
4
  6
CONTINUOUS
 62
3
 10
8316.994175850286400
 20
2312.376834442997300
  0
VERTEX
  8
4
  6
CONTINUOUS
 62
3
 10
8335.749885823876000
 20
2315.026671339581300
  0
VERTEX
  8
4
  6
CONTINUOUS
 62
3
 10
8354.525769510914000
 20
2317.830060414412400
  0
VERTEX
  8
4
  6
CONTINUOUS
 62
3
 10
8373.322824423034000
 20
2320.790346216583200
  0
VERTEX
  8
4
  6
CONTINUOUS
 62
3
 10
8392.142048071877100
 20
2323.910873295189000
  0
VERTEX
  8
4
  6
CONTINUOUS
 62
3
 10
8410.984437969080300
 20
2327.194986199324400
  0
VERTEX
  8
4
  6
CONTINUOUS
 62
3
 10
8429.850991626281000
 20
2330.646029478082700
  0
VERTEX
  8
4
  6
CONTINUOUS
 62
3
 10
8448.742706555114600
 20
2334.267347680558500
  0
VERTEX
  8
4
  6
CONTINUOUS
 62
3
 10
8467.660580267222000
 20
2338.062285355846100
  0
VERTEX
  8
4
  6
CONTINUOUS
 62
3
 10
8467.660580267222000
 20
2338.062285355846100
  0
VERTEX
  8
4
  6
CONTINUOUS
 62
3
 10
8495.530935681650600
 20
2343.965687763520700
  0
VERTEX
  8
4
  6
CONTINUOUS
 62
3
 10
8523.434688274088300
 20
2350.257009240224800
  0
VERTEX
  8
4
  6
CONTINUOUS
 62
3
 10
8551.346484777155600
 20
2356.941321521068900
  0
VERTEX
  8
4
  6
CONTINUOUS
 62
3
 10
8579.240971923469300
 20
2364.023696341162600
  0
VERTEX
  8
4
  6
CONTINUOUS
 62
3
 10
8607.092796445649600
 20
2371.509205435616900
  0
VERTEX
  8
4
  6
CONTINUOUS
 62
3
 10
8634.876605076311500
 20
2379.402920539541400
  0
VERTEX
  8
4
  6
CONTINUOUS
 62
3
 10
8662.567044548075500
 20
2387.709913388046500
  0
VERTEX
  8
4
  6
CONTINUOUS
 62
3
 10
8690.138761593561900
 20
2396.435255716243300
  0
VERTEX
  8
4
  6
CONTINUOUS
 62
3
 10
8717.566402945385600
 20
2405.584019259241400
  0
VERTEX
  8
4
  6
CONTINUOUS
 62
3
 10
8744.824615336168800
 20
2415.161275752150700
  0
VERTEX
  8
4
  6
CONTINUOUS
 62
3
 10
8771.888045498524700
 20
2425.172096930082300
  0
VERTEX
  8
4
  6
CONTINUOUS
 62
3
 10
8798.731340165075400
 20
2435.621554528145700
  0
VERTEX
  8
4
  6
CONTINUOUS
 62
3
 10
8825.329146068437700
 20
2446.514720281452400
  0
VERTEX
  8
4
  6
CONTINUOUS
 62
3
 10
8851.656109941232000
 20
2457.856665925111000
  0
VERTEX
  8
4
  6
CONTINUOUS
 62
3
 10
8877.686878516075000
 20
2469.652463194233000
  0
VERTEX
  8
4
  6
CONTINUOUS
 62
3
 10
8903.396098525585300
 20
2481.907183823927900
  0
VERTEX
  8
4
  6
CONTINUOUS
 62
3
 10
8928.758416702381500
 20
2494.625899549306700
  0
VERTEX
  8
4
  6
CONTINUOUS
 62
3
 10
8953.748479779080300
 20
2507.813682105479100
  0
VERTEX
  8
4
  6
CONTINUOUS
 62
3
 10
8966.095992758837400
 20
2514.585058362334600
  0
VERTEX
  8
4
  6
CONTINUOUS
 62
3
 10
8978.340934488302100
 20
2521.475603227555400
  0
VERTEX
  8
4
  6
CONTINUOUS
 62
3
 10
8990.480135809051700
 20
2528.485950668029500
  0
VERTEX
  8
4
  6
CONTINUOUS
 62
3
 10
9002.510427562665400
 20
2535.616734650646300
  0
VERTEX
  8
4
  6
CONTINUOUS
 62
3
 10
9014.428640590718700
 20
2542.868589142293800
  0
VERTEX
  8
4
  6
CONTINUOUS
 62
3
 10
9026.231605734788900
 20
2550.242148109861300
  0
VERTEX
  8
4
  6
CONTINUOUS
 62
3
 10
9037.916153836453300
 20
2557.738045520237400
  0
VERTEX
  8
4
  6
CONTINUOUS
 62
3
 10
9049.479115737289200
 20
2565.356915340311400
  0
VERTEX
  8
4
  6
CONTINUOUS
 62
3
 10
9060.917322278874100
 20
2573.099391536971800
  0
VERTEX
  8
4
  6
CONTINUOUS
 62
3
 10
9072.227604302785000
 20
2580.966108077106600
  0
VERTEX
  8
4
  6
CONTINUOUS
 62
3
 10
9083.406792650599500
 20
2588.957698927605600
  0
VERTEX
  8
4
  6
CONTINUOUS
 62
3
 10
9094.451718163894800
 20
2597.074798055357400
  0
VERTEX
  8
4
  6
CONTINUOUS
 62
3
 10
9105.359211684248300
 20
2605.318039427250800
  0
VERTEX
  8
4
  6
CONTINUOUS
 62
3
 10
9116.126104053237200
 20
2613.688057010173900
  0
VERTEX
  8
4
  6
CONTINUOUS
 62
3
 10
9126.749226112438900
 20
2622.185484771016500
  0
VERTEX
  8
4
  6
CONTINUOUS
 62
3
 10
9137.225408703430700
 20
2630.810956676666100
  0
VERTEX
  8
4
  6
CONTINUOUS
 62
3
 10
9147.551482667788200
 20
2639.565106694012700
  0
VERTEX
  8
4
  6
CONTINUOUS
 62
3
 10
9157.724278847092100
 20
2648.448568789944600
  0
VERTEX
  8
4
  6
CONTINUOUS
 62
3
 10
9167.740628082916400
 20
2657.461976931350800
  0
VERTEX
  8
4
  6
CONTINUOUS
 62
3
 10
9177.597361216841800
 20
2666.605965085119400
  0
VERTEX
  8
4
  6
CONTINUOUS
 62
3
 10
9187.291309090444000
 20
2675.881167218140000
  0
VERTEX
  8
4
  6
CONTINUOUS
 62
3
 10
9196.819302545300200
 20
2685.288217297300900
  0
VERTEX
  8
4
  6
CONTINUOUS
 62
3
 10
9206.178172422985900
 20
2694.827749289491300
  0
VERTEX
  8
4
  6
CONTINUOUS
 62
3
 10
9215.364749565080300
 20
2704.500397161599700
  0
VERTEX
  8
4
  6
CONTINUOUS
 62
3
 10
9224.375864813162500
 20
2714.306794880514600
  0
VERTEX
  8
4
  6
CONTINUOUS
 62
3
 10
9233.208349008804400
 20
2724.247576413125000
  0
VERTEX
  8
4
  6
CONTINUOUS
 62
3
 10
9241.859032993586900
 20
2734.323375726320100
  0
VERTEX
  8
4
  6
CONTINUOUS
 62
3
 10
9250.324747609085500
 20
2744.534826786988600
  0
VERTEX
  8
4
  6
CONTINUOUS
 62
3
 10
9250.324747609085500
 20
2744.534826786988600
  0
VERTEX
  8
4
  6
CONTINUOUS
 62
3
 10
9257.985813655235700
 20
2754.097387914758700
  0
VERTEX
  8
4
  6
CONTINUOUS
 62
3
 10
9265.488549510811900
 20
2763.774641888222500
  0
VERTEX
  8
4
  6
CONTINUOUS
 62
3
 10
9272.835468353445300
 20
2773.564768186020000
  0
VERTEX
  8
4
  6
CONTINUOUS
 62
3
 10
9280.029083360761400
 20
2783.465946286792100
  0
VERTEX
  8
4
  6
CONTINUOUS
 62
3
 10
9287.071907710389500
 20
2793.476355669176900
  0
VERTEX
  8
4
  6
CONTINUOUS
 62
3
 10
9293.966454579960600
 20
2803.594175811814200
  0
VERTEX
  8
4
  6
CONTINUOUS
 62
3
 10
9300.715237147098400
 20
2813.817586193345100
  0
VERTEX
  8
4
  6
CONTINUOUS
 62
3
 10
9307.320768589432200
 20
2824.144766292408800
  0
VERTEX
  8
4
  6
CONTINUOUS
 62
3
 10
9313.785562084591200
 20
2834.573895587645000
  0
VERTEX
  8
4
  6
CONTINUOUS
 62
3
 10
9320.112130810204700
 20
2845.103153557692600
  0
VERTEX
  8
4
  6
CONTINUOUS
 62
3
 10
9326.302987943898200
 20
2855.730719681192600
  0
VERTEX
  8
4
  6
CONTINUOUS
 62
3
 10
9332.360646663299100
 20
2866.454773436784800
  0
VERTEX
  8
4
  6
CONTINUOUS
 62
3
 10
9338.287620146040400
 20
2877.273494303108700
  0
VERTEX
  8
4
  6
CONTINUOUS
 62
3
 10
9344.086421569745700
 20
2888.185061758803800
  0
VERTEX
  8
4
  6
CONTINUOUS
 62
3
 10
9349.759564112044200
 20
2899.187655282509700
  0
VERTEX
  8
4
  6
CONTINUOUS
 62
3
 10
9355.309560950565400
 20
2910.279454352866700
  0
VERTEX
  8
4
  6
CONTINUOUS
 62
3
 10
9366.050170226782900
 20
2932.723387048092700
  0
VERTEX
  8
4
  6
CONTINUOUS
 62
3
 10
9376.328354819428600
 20
2955.502295673599300
  0
VERTEX
  8
4
  6
CONTINUOUS
 62
3
 10
9386.164220149521500
 20
2978.601616058505400
  0
VERTEX
  8
4
  6
CONTINUOUS
 62
3
 10
9395.577871638086400
 20
3002.006784031928900
  0
VERTEX
  8
4
  6
CONTINUOUS
 62
3
 10
9404.589414706153500
 20
3025.703235422987700
  0
VERTEX
  8
4
  6
CONTINUOUS
 62
3
 10
9413.218954774743900
 20
3049.676406060800200
  0
VERTEX
  8
4
  6
CONTINUOUS
 62
3
 10
9421.486597264884000
 20
3073.911731774484900
  0
VERTEX
  8
4
  6
CONTINUOUS
 62
3
 10
9429.412447597596800
 20
3098.394648393160400
  0
VERTEX
  8
4
  6
CONTINUOUS
 62
3
 10
9437.016611193910600
 20
3123.110591745944000
  0
VERTEX
  8
4
  6
CONTINUOUS
 62
3
 10
9444.319193474848400
 20
3148.044997661954300
  0
VERTEX
  8
4
  6
CONTINUOUS
 62
3
 10
9451.340299861436500
 20
3173.183301970309500
  0
VERTEX
  8
4
  6
CONTINUOUS
 62
3
 10
9458.100035774698000
 20
3198.510940500127600
  0
VERTEX
  8
4
  6
CONTINUOUS
 62
3
 10
9464.618506635659300
 20
3224.013349080527400
  0
VERTEX
  8
4
  6
CONTINUOUS
 62
3
 10
9470.915817865347000
 20
3249.675963540627000
  0
VERTEX
  8
4
  6
CONTINUOUS
 62
3
 10
9477.012074884783900
 20
3275.484219709544000
  0
VERTEX
  8
4
  6
CONTINUOUS
 62
3
 10
9482.927383114994900
 20
3301.423553416397200
  0
VERTEX
  8
4
  6
CONTINUOUS
 62
3
 10
9488.681847977004500
 20
3327.479400490304200
  0
VERTEX
  8
4
  6
CONTINUOUS
 62
3
 10
9494.295574891841200
 20
3353.637196760384500
  0
VERTEX
  8
4
  6
CONTINUOUS
 62
3
 10
9505.181236564087200
 20
3406.200380205535100
  0
VERTEX
  8
4
  6
CONTINUOUS
 62
3
 10
9515.745211499932300
 20
3458.996590384793300
  0
VERTEX
  8
4
  6
CONTINUOUS
 62
3
 10
9526.148343067576200
 20
3511.909313931106200
  0
SEQEND
  8
4
  0
POLYLINE
  8
4
  6
CONTINUOUS
 62
3
 66
1
  0
VERTEX
  8
4
  6
CONTINUOUS
 62
3
 10
-473.851656931928180
 20
3226.909313841951600
  0
VERTEX
  8
4
  6
CONTINUOUS
 62
3
 10
679.531511341389660
 20
3117.925296339795800
  0
VERTEX
  8
4
  6
CONTINUOUS
 62
3
 10
1256.260385511453000
 20
3063.566975693805000
  0
VERTEX
  8
4
  6
CONTINUOUS
 62
3
 10
1833.034007721601500
 20
3009.369080773918500
  0
VERTEX
  8
4
  6
CONTINUOUS
 62
3
 10
2409.867293985196700
 20
2955.385086822171600
  0
VERTEX
  8
4
  6
CONTINUOUS
 62
3
 10
2986.775160315601200
 20
2901.668469080598700
  0
VERTEX
  8
4
  6
CONTINUOUS
 62
3
 10
3563.772522726176700
 20
2848.272702791234700
  0
VERTEX
  8
4
  6
CONTINUOUS
 62
3
 10
4140.874297230284400
 20
2795.251263196114500
  0
VERTEX
  8
4
  6
CONTINUOUS
 62
3
 10
4140.874297230284400
 20
2795.251263196114500
  0
VERTEX
  8
4
  6
CONTINUOUS
 62
3
 10
4320.243835091947400
 20
2778.897636640282100
  0
VERTEX
  8
4
  6
CONTINUOUS
 62
3
 10
4499.635507504162900
 20
2762.821308353609300
  0
VERTEX
  8
4
  6
CONTINUOUS
 62
3
 10
4589.342959884672400
 20
2754.960875683369100
  0
VERTEX
  8
4
  6
CONTINUOUS
 62
3
 10
4679.059924764351300
 20
2747.258261127013200
  0
VERTEX
  8
4
  6
CONTINUOUS
 62
3
 10
4768.787728430378600
 20
2739.742962533406200
  0
VERTEX
  8
4
  6
CONTINUOUS
 62
3
 10
4858.527697169933200
 20
2732.444477751412700
  0
VERTEX
  8
4
  6
CONTINUOUS
 62
3
 10
4948.281157270190300
 20
2725.392304629897800
  0
VERTEX
  8
4
  6
CONTINUOUS
 62
3
 10
5038.049435018328900
 20
2718.615941017725200
  0
VERTEX
  8
4
  6
CONTINUOUS
 62
3
 10
5127.833856701526200
 20
2712.144884763760300
  0
VERTEX
  8
4
  6
CONTINUOUS
 62
3
 10
5217.635748606959200
 20
2706.008633716867700
  0
VERTEX
  8
4
  6
CONTINUOUS
 62
3
 10
5307.456437021806800
 20
2700.236685725912600
  0
VERTEX
  8
4
  6
CONTINUOUS
 62
3
 10
5397.297248233245200
 20
2694.858538639759400
  0
VERTEX
  8
4
  6
CONTINUOUS
 62
3
 10
5487.159508528453400
 20
2689.903690307272900
  0
VERTEX
  8
4
  6
CONTINUOUS
 62
3
 10
5577.044544194607600
 20
2685.401638577317500
  0
VERTEX
  8
4
  6
CONTINUOUS
 62
3
 10
5577.044544194607600
 20
2685.401638577317500
  0
VERTEX
  8
4
  6
CONTINUOUS
 62
3
 10
5662.586944692828200
 20
2681.590944058265400
  0
VERTEX
  8
4
  6
CONTINUOUS
 62
3
 10
5705.367251473378900
 20
2679.904933453875400
  0
VERTEX
  8
4
  6
CONTINUOUS
 62
3
 10
5748.154122592435700
 20
2678.394809545940000
  0
VERTEX
  8
4
  6
CONTINUOUS
 62
3
 10
5790.947928038154700
 20
2677.082819029232300
  0
VERTEX
  8
4
  6
CONTINUOUS
 62
3
 10
5833.749037798695100
 20
2675.991208598526100
  0
VERTEX
  8
4
  6
CONTINUOUS
 62
3
 10
5876.557821862212200
 20
2675.142224948594000
  0
VERTEX
  8
4
  6
CONTINUOUS
 62
3
 10
5919.374650216866900
 20
2674.558114774209600
  0
VERTEX
  8
4
  6
CONTINUOUS
 62
3
 10
5962.199892850814600
 20
2674.261124770146100
  0
VERTEX
  8
4
  6
CONTINUOUS
 62
3
 10
6005.033919752215300
 20
2674.273501631177200
  0
VERTEX
  8
4
  6
CONTINUOUS
 62
3
 10
6047.877100909225200
 20
2674.617492052075200
  0
VERTEX
  8
4
  6
CONTINUOUS
 62
3
 10
6090.729806310001500
 20
2675.315342727615200
  0
VERTEX
  8
4
  6
CONTINUOUS
 62
3
 10
6133.592405942703400
 20
2676.389300352569100
  0
VERTEX
  8
4
  6
CONTINUOUS
 62
3
 10
6176.465269795489800
 20
2677.861611621709000
  0
VERTEX
  8
4
  6
CONTINUOUS
 62
3
 10
6219.348767856516100
 20
2679.754523229810300
  0
VERTEX
  8
4
  6
CONTINUOUS
 62
3
 10
6262.243270113942300
 20
2682.090281871644900
  0
VERTEX
  8
4
  6
CONTINUOUS
 62
3
 10
6262.243270113942300
 20
2682.090281871644900
  0
VERTEX
  8
4
  6
CONTINUOUS
 62
3
 10
6298.139048969886100
 20
2684.404821342371200
  0
VERTEX
  8
4
  6
CONTINUOUS
 62
3
 10
6334.026861791077000
 20
2687.080644089064700
  0
VERTEX
  8
4
  6
CONTINUOUS
 62
3
 10
6369.890779890254600
 20
2690.153438201021800
  0
VERTEX
  8
4
  6
CONTINUOUS
 62
3
 10
6405.714874580157800
 20
2693.658891767540800
  0
VERTEX
  8
4
  6
CONTINUOUS
 62
3
 10
6441.483217173525200
 20
2697.632692877918100
  0
VERTEX
  8
4
  6
CONTINUOUS
 62
3
 10
6477.179878983097300
 20
2702.110529621451400
  0
VERTEX
  8
4
  6
CONTINUOUS
 62
3
 10
6512.788931321611000
 20
2707.128090087438100
  0
VERTEX
  8
4
  6
CONTINUOUS
 62
3
 10
6530.555626224451800
 20
2709.850419244256000
  0
VERTEX
  8
4
  6
CONTINUOUS
 62
3
 10
6548.294445501805100
 20
2712.721062365174500
  0
VERTEX
  8
4
  6
CONTINUOUS
 62
3
 10
6566.003398067763600
 20
2715.744480461354700
  0
VERTEX
  8
4
  6
CONTINUOUS
 62
3
 10
6583.680492836419900
 20
2718.925134543958800
  0
VERTEX
  8
4
  6
CONTINUOUS
 62
3
 10
6601.323738721866000
 20
2722.267485624149200
  0
VERTEX
  8
4
  6
CONTINUOUS
 62
3
 10
6618.931144638194400
 20
2725.775994713088000
  0
VERTEX
  8
4
  6
CONTINUOUS
 62
3
 10
6636.500719499497800
 20
2729.455122821937500
  0
VERTEX
  8
4
  6
CONTINUOUS
 62
3
 10
6654.030472219868900
 20
2733.309330961859400
  0
VERTEX
  8
4
  6
CONTINUOUS
 62
3
 10
6671.518411713397700
 20
2737.343080144016300
  0
VERTEX
  8
4
  6
CONTINUOUS
 62
3
 10
6688.962546894179500
 20
2741.560831379570100
  0
VERTEX
  8
4
  6
CONTINUOUS
 62
3
 10
6706.360886676304300
 20
2745.967045679683500
  0
VERTEX
  8
4
  6
CONTINUOUS
 62
3
 10
6723.711439973865700
 20
2750.566184055517600
  0
VERTEX
  8
4
  6
CONTINUOUS
 62
3
 10
6741.012215700956400
 20
2755.362707518235800
  0
VERTEX
  8
4
  6
CONTINUOUS
 62
3
 10
6758.261222771669100
 20
2760.361077078999200
  0
VERTEX
  8
4
  6
CONTINUOUS
 62
3
 10
6775.456470100094500
 20
2765.565753748970100
  0
VERTEX
  8
4
  6
CONTINUOUS
 62
3
 10
6792.595966600325500
 20
2770.981198539311700
  0
VERTEX
  8
4
  6
CONTINUOUS
 62
3
 10
6809.677721186455500
 20
2776.611872461185200
  0
VERTEX
  8
4
  6
CONTINUOUS
 62
3
 10
6826.699742772576400
 20
2782.462236525752800
  0
VERTEX
  8
4
  6
CONTINUOUS
 62
3
 10
6826.699742772576400
 20
2782.462236525752800
  0
VERTEX
  8
4
  6
CONTINUOUS
 62
3
 10
6847.885076467175200
 20
2790.089832934535500
  0
VERTEX
  8
4
  6
CONTINUOUS
 62
3
 10
6868.956421547349200
 20
2798.076096008968300
  0
VERTEX
  8
4
  6
CONTINUOUS
 62
3
 10
6889.896207009436700
 20
2806.429551649034200
  0
VERTEX
  8
4
  6
CONTINUOUS
 62
3
 10
6910.686861849770100
 20
2815.158725754715300
  0
VERTEX
  8
4
  6
CONTINUOUS
 62
3
 10
6931.310815064682200
 20
2824.272144225994000
  0
VERTEX
  8
4
  6
CONTINUOUS
 62
3
 10
6951.750495650507200
 20
2833.778332962852800
  0
VERTEX
  8
4
  6
CONTINUOUS
 62
3
 10
6971.988332603580600
 20
2843.685817865273700
  0
VERTEX
  8
4
  6
CONTINUOUS
 62
3
 10
6992.006754920234900
 20
2854.003124833238900
  0
VERTEX
  8
4
  6
CONTINUOUS
 62
3
 10
7011.788191596803700
 20
2864.738779766730700
  0
VERTEX
  8
4
  6
CONTINUOUS
 62
3
 10
7031.315071629620400
 20
2875.901308565731600
  0
VERTEX
  8
4
  6
CONTINUOUS
 62
3
 10
7050.569824015021400
 20
2887.499237130224200
  0
VERTEX
  8
4
  6
CONTINUOUS
 62
3
 10
7069.534877749340000
 20
2899.541091360190000
  0
VERTEX
  8
4
  6
CONTINUOUS
 62
3
 10
7088.192661828907100
 20
2912.035397155611500
  0
VERTEX
  8
4
  6
CONTINUOUS
 62
3
 10
7106.525605250060800
 20
2924.990680416471200
  0
VERTEX
  8
4
  6
CONTINUOUS
 62
3
 10
7124.516137009133700
 20
2938.415467042751500
  0
VERTEX
  8
4
  6
CONTINUOUS
 62
3
 10
7133.377507576743500
 20
2945.306588461669000
  0
VERTEX
  8
4
  6
CONTINUOUS
 62
3
 10
7142.146686102458300
 20
2952.318282934435000
  0
VERTEX
  8
4
  6
CONTINUOUS
 62
3
 10
7142.146686102458300
 20
2952.318282934435000
  0
VERTEX
  8
4
  6
CONTINUOUS
 62
3
 10
7154.606919766264600
 20
2962.627776601312700
  0
VERTEX
  8
4
  6
CONTINUOUS
 62
3
 10
7166.862591415077100
 20
2973.187864693857100
  0
VERTEX
  8
4
  6
CONTINUOUS
 62
3
 10
7178.904843458871300
 20
2983.996936437326900
  0
VERTEX
  8
4
  6
CONTINUOUS
 62
3
 10
7190.724818307626300
 20
2995.053381056982300
  0
VERTEX
  8
4
  6
CONTINUOUS
 62
3
 10
7202.313658371316700
 20
3006.355587778082700
  0
VERTEX
  8
4
  6
CONTINUOUS
 62
3
 10
7213.662506059921700
 20
3017.901945825888100
  0
VERTEX
  8
4
  6
CONTINUOUS
 62
3
 10
7224.762503783415900
 20
3029.690844425658700
  0
VERTEX
  8
4
  6
CONTINUOUS
 62
3
 10
7235.604793951777500
 20
3041.720672802653100
  0
VERTEX
  8
4
  6
CONTINUOUS
 62
3
 10
7246.180518974983900
 20
3053.989820182131600
  0
VERTEX
  8
4
  6
CONTINUOUS
 62
3
 10
7256.480821263011400
 20
3066.496675789354400
  0
VERTEX
  8
4
  6
CONTINUOUS
 62
3
 10
7266.496843225836500
 20
3079.239628849580200
  0
VERTEX
  8
4
  6
CONTINUOUS
 62
3
 10
7276.219727273437500
 20
3092.217068588069700
  0
VERTEX
  8
4
  6
CONTINUOUS
 62
3
 10
7285.640615815791500
 20
3105.427384230082700
  0
VERTEX
  8
4
  6
CONTINUOUS
 62
3
 10
7294.750651262873400
 20
3118.868965000877300
  0
VERTEX
  8
4
  6
CONTINUOUS
 62
3
 10
7303.540976024661200
 20
3132.540200125714800
  0
VERTEX
  8
4
  6
CONTINUOUS
 62
3
 10
7312.002732511133200
 20
3146.439478829855000
  0
VERTEX
  8
4
  6
CONTINUOUS
 62
3
 10
7312.002732511133200
 20
3146.439478829855000
  0
VERTEX
  8
4
  6
CONTINUOUS
 62
3
 10
7320.808883666311000
 20
3161.786984733589600
  0
VERTEX
  8
4
  6
CONTINUOUS
 62
3
 10
7329.205048190332500
 20
3177.385788216899500
  0
VERTEX
  8
4
  6
CONTINUOUS
 62
3
 10
7337.179133226875800
 20
3193.220176494690300
  0
VERTEX
  8
4
  6
CONTINUOUS
 62
3
 10
7344.719045919620800
 20
3209.274436781866400
  0
VERTEX
  8
4
  6
CONTINUOUS
 62
3
 10
7351.812693412244700
 20
3225.532856293332800
  0
VERTEX
  8
4
  6
CONTINUOUS
 62
3
 10
7358.447982848424500
 20
3241.979722243995200
  0
VERTEX
  8
4
  6
CONTINUOUS
 62
3
 10
7364.612821371840300
 20
3258.599321848758300
  0
VERTEX
  8
4
  6
CONTINUOUS
 62
3
 10
7370.295116126169900
 20
3275.375942322527400
  0
VERTEX
  8
4
  6
CONTINUOUS
 62
3
 10
7375.482774255091500
 20
3292.293870880207600
  0
VERTEX
  8
4
  6
CONTINUOUS
 62
3
 10
7380.163702902284100
 20
3309.337394736704500
  0
VERTEX
  8
4
  6
CONTINUOUS
 62
3
 10
7384.325809211424700
 20
3326.490801106922400
  0
VERTEX
  8
4
  6
CONTINUOUS
 62
3
 10
7387.957000326194200
 20
3343.738377205767400
  0
VERTEX
  8
4
  6
CONTINUOUS
 62
3
 10
7391.045183390268000
 20
3361.064410248144200
  0
VERTEX
  8
4
  6
CONTINUOUS
 62
3
 10
7393.578265547324900
 20
3378.453187448957600
  0
VERTEX
  8
4
  6
CONTINUOUS
 62
3
 10
7395.544153941044900
 20
3395.888996023113100
  0
VERTEX
  8
4
  6
CONTINUOUS
 62
3
 10
7396.930755715105100
 20
3413.356123185515600
  0
VERTEX
  8
4
  6
CONTINUOUS
 62
3
 10
7396.930755715105100
 20
3413.356123185515600
  0
VERTEX
  8
4
  6
CONTINUOUS
 62
3
 10
7397.552092500387500
 20
3425.472301588047200
  0
VERTEX
  8
4
  6
CONTINUOUS
 62
3
 10
7397.924894571558100
 20
3437.595038526988400
  0
VERTEX
  8
4
  6
CONTINUOUS
 62
3
 10
7398.084666887773000
 20
3449.723397068566600
  0
VERTEX
  8
4
  6
CONTINUOUS
 62
3
 10
7398.066914408194000
 20
3461.856440279008000
  0
VERTEX
  8
4
  6
CONTINUOUS
 62
3
 10
7397.640854898285400
 20
3486.132832971391500
  0
VERTEX
  8
4
  6
CONTINUOUS
 62
3
 10
7396.930755715105100
 20
3510.416721133957300
  0
SEQEND
  8
4
  0
ENDSEC
  0
EOF
