  0
SECTION
  2
HEADER
  9
$FILLMODE
 70
1
  9
$TEXTSTYLE
  7
STANDARD1
  9
$ACADVER
  1
AC1009
  9
$DIMASZ
 40
1.931851648807023
  9
$DIMEXE
 40
2.000000000000000
  9
$DIMEXO
 40
1.000000000000000
  9
$DIMLFAC
 40
1.000000000000000
  9
$DIMSCALE
 40
1.000000000000000
  9
$DIMTAD
 70
1
  9
$DIMTFAC
 40
0.625000000000000
  9
$DIMTXT
 40
2.000000000000000
  9
$LUPREC
 70
3
  9
$TEXTSIZE
 40
20.000000000000000
  9
$REGENMODE
 70
1
  0
ENDSEC
  0
SECTION
  2
TABLES
  0
TABLE
  2
LTYPE
 70
4
  0
LTYPE
  2
CONTINUOUS
 70
64
  3
Solid line
 72
65
 73
0
 40
0.0
  0
LTYPE
  2
DASHED
 70
64
  3
-- -- -- -- -- -- -- -- -- -- -- -- -- -- --
 72
65
 73
2
 40
0.75
 49
0.5
 49
-0.25
  0
LTYPE
  2
DASHDOT
 70
64
  3
__ . __ . __ . __ . __ . __ . __ . __ . __ . __
 72
65
 73
4
 40
1.0
 49
0.5
 49
-0.25
 49
0.0
 49
-0.25
  0
LTYPE
  2
DIVIDE
 70
64
  3
__ . . __ . . __ . . __ . . __ . . __ . . __
 72
65
 73
6
 40
1.25
 49
0.5
 49
-0.25
 49
0.0
 49
-0.25
 49
0.0
 49
-0.25
  0
ENDTAB
  0
TABLE
  2
LAYER
 70
3
  0
LAYER
  2
0
 70
64
 62
3
  6
CONTINUOUS
  0
LAYER
  2
1
 70
64
 62
4
  6
CONTINUOUS
  0
LAYER
  2
4
 70
64
 62
4
  6
CONTINUOUS
  0
ENDTAB
  0
TABLE
  2
STYLE
 70
4
  0
STYLE
  2
STANDARD1
 70
64
 40
0.0
 41
1.0
 50
0.0
 71
0
 42
20.000000000000000
  3
MONOTXT
  4
BIGFONT
  0
STYLE
  2
STANDARD2
 70
68
 40
0.0
 41
1.0
 50
0.0
 71
0
 42
20.000000000000000
  3
MONOTXT
  4
BIGFONT
  0
STYLE
  2
STANDARD3
 70
64
 40
0.0
 41
1.0
 50
0.0
 71
0
 42
20.000000000000000
  3
MONOTXT
  4

  0
STYLE
  2
STANDARD4
 70
68
 40
0.0
 41
1.0
 50
0.0
 71
0
 42
20.000000000000000
  3
MONOTXT
  4

  0
ENDTAB
  0
TABLE
  2
VIEW
 70
0
  0
ENDTAB
  0
ENDSEC
  0
SECTION
  2
BLOCKS
  0
BLOCK
  8
1
  2
SYM1
 70
64
 10
0.000000000000000
 20
0.000000000000000
  0
POINT
  8
1
  6
CONTINUOUS
 62
3
 10
0.000000000000000
 20
0.000000000000000
  0
CIRCLE
  8
1
  6
CONTINUOUS
 62
3
 10
0.000000000000000
 20
0.000000000000000
 40
3.899999618530273
  0
LINE
  8
1
  6
CONTINUOUS
 62
3
 10
0.000001070378062
 20
4.599999954039447
 11
4.000000095779171
 21
2.299999682491432
  0
LINE
  8
1
  6
CONTINUOUS
 62
3
 10
4.000000000000000
 20
2.299999237060547
 11
4.000000000000000
 21
-2.299999237060547
  0
LINE
  8
1
  6
CONTINUOUS
 62
3
 10
4.000000095779171
 20
-2.299999682491432
 11
0.000001070378062
 21
-4.599999954039447
  0
LINE
  8
1
  6
CONTINUOUS
 62
3
 10
-0.000001070378062
 20
-4.599999954039447
 11
-4.000000095779171
 21
-2.299999682491432
  0
LINE
  8
1
  6
CONTINUOUS
 62
3
 10
-4.000000000000000
 20
-2.299999237060547
 11
-4.000000000000000
 21
2.299999237060547
  0
LINE
  8
1
  6
CONTINUOUS
 62
3
 10
-4.000000095779171
 20
2.299999682491432
 11
-0.000001070378062
 21
4.599999954039447
  0
ENDBLK
  8
1
  0
ENDSEC
  0
SECTION
  2
ENTITIES
  0
LINE
  8
1
  6
CONTINUOUS
 62
3
 10
-540.316723716672870
 20
-5382.360560065414600
 11
-486.584587887071620
 21
-5404.617139461307500
  0
INSERT
  8
1
  2
SYM1
 10
-559.883951765996470
 20
-5477.299286297170500
 50
67.500000000000000
  0
LINE
  8
1
  6
DASHDOT
 62
4
 10
-615.316723716672870
 20
-5429.838280355266800
 11
-615.316723716672870
 21
-5478.838280355265900
  0
LINE
  8
1
  6
DASHDOT
 62
4
 10
-590.816723716671050
 20
-5454.338280355264900
 11
-639.816723716669230
 21
-5454.338280355264900
  0
CIRCLE
  8
1
  6
CONTINUOUS
 62
4
 10
-615.316723716672870
 20
-5454.338280355264900
 40
4.000000000000455
  0
CIRCLE
  8
1
  6
CONTINUOUS
 62
4
 10
-615.316723716672870
 20
-5454.338280355264900
 40
3.000000000000682
  0
POINT
  8
1
  6
CONTINUOUS
 62
3
 10
-615.316723716672870
 20
-5439.338280355265900
  0
POINT
  8
1
  6
CONTINUOUS
 62
3
 10
-615.316723716672870
 20
-5454.338280355264900
  0
LINE
  8
1
  6
CONTINUOUS
 62
4
 10
-615.316723541928010
 20
-5446.838280468575200
 11
-621.816723361647970
 21
-5450.588281190323000
  0
LINE
  8
1
  6
CONTINUOUS
 62
4
 10
-608.816724071690490
 20
-5450.588281190323000
 11
-615.316723891414090
 21
-5446.838280468575200
  0
LINE
  8
1
  6
CONTINUOUS
 62
4
 10
-621.816723361647970
 20
-5458.088279520209700
 11
-615.316723541928010
 21
-5461.838280241955500
  0
LINE
  8
1
  6
CONTINUOUS
 62
4
 10
-621.816723716672870
 20
-5450.588281308939300
 11
-621.816723716672870
 21
-5458.088279401591500
  0
LINE
  8
1
  6
CONTINUOUS
 62
4
 10
-608.816723716669230
 20
-5458.088279401591500
 11
-608.816723716669230
 21
-5450.588281308939300
  0
LINE
  8
1
  6
CONTINUOUS
 62
4
 10
-615.316723891414090
 20
-5461.838280241955500
 11
-608.816724071690490
 21
-5458.088279520209700
  0
CIRCLE
  8
1
  6
CONTINUOUS
 62
3
 10
-675.316723716671050
 20
-5454.338280355264900
 40
2.500000000000000
  0
CIRCLE
  8
1
  6
CONTINUOUS
 62
3
 10
-670.749495667349270
 20
-5477.299286297171400
 40
2.500000000000000
  0
CIRCLE
  8
1
  6
CONTINUOUS
 62
3
 10
-657.743130587863790
 20
-5496.764687226458600
 40
2.500000000000000
  0
CIRCLE
  8
1
  6
CONTINUOUS
 62
3
 10
-674.163840540866890
 20
-5466.043699676233700
 40
2.500000000000000
  0
LINE
  8
1
  6
CONTINUOUS
 62
3
 10
-690.316723716672870
 20
-5327.038280355265700
 11
-690.316723716672870
 21
-5454.338280355264900
  0
CIRCLE
  8
1
  6
CONTINUOUS
 62
3
 10
-556.469606892478850
 20
-5466.043699676233700
 40
2.500000000000000
  0
CIRCLE
  8
1
  6
CONTINUOUS
 62
3
 10
-592.355717774766390
 20
-5509.771052305943200
 40
2.500000000000000
  0
CIRCLE
  8
1
  6
CONTINUOUS
 62
3
 10
-615.316723716672870
 20
-5514.338280355265900
 40
2.500000000000000
  0
CIRCLE
  8
1
  6
CONTINUOUS
 62
3
 10
-572.890316845478310
 20
-5496.764687226458600
 40
2.500000000000000
  0
ARC
  8
1
  6
CONTINUOUS
 62
3
 10
-615.316723716672870
 20
-5454.338280355264900
 40
75.000000000000000
 50
180.000000000000000
 51
0.000000000000000
  0
CIRCLE
  8
1
  6
CONTINUOUS
 62
3
 10
-638.277729658575710
 20
-5509.771052305943200
 40
2.500000000000000
  0
LINE
  8
1
  6
CONTINUOUS
 62
3
 10
-690.316723716672870
 20
-5327.038280355265700
 11
-540.316723716672870
 21
-5327.038280355265700
  0
LINE
  8
1
  6
CONTINUOUS
 62
3
 10
-690.316723716672870
 20
-5329.338280355266800
 11
-540.316723716672870
 21
-5329.338280355264900
  0
LINE
  8
1
  6
CONTINUOUS
 62
3
 10
-540.316723716672870
 20
-5327.038280355265700
 11
-540.316723716672870
 21
-5454.338280355264900
  0
LINE
  8
1
  6
CONTINUOUS
 62
3
 10
-653.690378119941900
 20
-5343.664625951993900
 11
-639.364032523213840
 21
-5329.338280355264900
  0
ARC
  8
1
  6
CONTINUOUS
 62
3
 10
-655.316723716672870
 20
-5342.038280355266600
 40
2.299999999997559
 50
225.000000000000000
 51
315.000000000064060
  0
LINE
  8
1
  6
CONTINUOUS
 62
3
 10
-655.316723716672870
 20
-5329.338280355266800
 11
-655.316723716672870
 21
-5344.338280355265900
  0
LINE
  8
1
  6
CONTINUOUS
 62
3
 10
-656.943069313400200
 20
-5343.664625951993900
 11
-671.269414910130080
 21
-5329.338280355264900
  0
LINE
  8
1
  6
CONTINUOUS
 62
3
 10
-573.690378119943720
 20
-5343.664625951993900
 11
-559.364032523212020
 21
-5329.338280355264900
  0
LINE
  8
1
  6
CONTINUOUS
 62
3
 10
-576.943069313400200
 20
-5343.664625951993900
 11
-591.269414910130080
 21
-5329.338280355264900
  0
ARC
  8
1
  6
CONTINUOUS
 62
3
 10
-575.316723716671050
 20
-5342.038280355266600
 40
2.299999999998845
 50
224.999999999967970
 51
315.000000000000000
  0
LINE
  8
1
  6
CONTINUOUS
 62
3
 10
-575.316723716671050
 20
-5329.338280355264900
 11
-575.316723716671050
 21
-5344.338280355265900
  0
ARC
  8
1
  6
DASHED
 62
3
 10
-597.544441247097210
 20
-5367.531679363052700
 40
8.200000000000607
 50
67.499999999999716
 51
157.499999999998690
  0
LINE
  8
1
  6
DASHED
 62
3
 10
-665.473517036764180
 20
-5510.099342789957500
 11
-605.120253413692130
 21
-5364.393675217657800
  0
ARC
  8
1
  6
CONTINUOUS
 62
3
 10
-664.131358478622360
 20
-5528.286718020014600
 40
8.200000000002287
 50
157.500000000004550
 51
247.499999999999720
  0
LINE
  8
1
  6
CONTINUOUS
 62
3
 10
-671.707170645217270
 20
-5525.148713874620600
 11
-665.473517036764180
 21
-5510.099342789957500
  0
LINE
  8
1
  6
CONTINUOUS
 62
3
 10
-667.269362624016370
 20
-5535.862530186607700
 11
-559.447513409384780
 21
-5580.523802451455600
  0
ARC
  8
1
  6
CONTINUOUS
 62
3
 10
-866.427180653238110
 20
-5350.324923438433900
 40
400.200000000000390
 50
326.240633201576030
 51
348.759366798423400
  0
CIRCLE
  8
1
  6
CONTINUOUS
 62
3
 10
-555.316723716672870
 20
-5454.338280355264900
 40
2.500000000000000
  0
LINE
  8
1
  6
DASHED
 62
3
 10
-594.406437101703200
 20
-5359.955867196459600
 11
-540.316723716672870
 21
-5382.360560065411800
  0
ARC
  8
1
  6
CONTINUOUS
 62
3
 10
-494.697476653211420
 20
-5424.203385550546000
 40
21.200000000001690
 50
348.759366798422890
 51
67.499999999999503
  0
ARC
  8
1
  6
CONTINUOUS
 62
3
 10
-551.334624643244980
 20
-5560.937556362217000
 40
21.199999999999296
 50
247.499999999999520
 51
326.240633201578190
  0
LINE
  8
4
  6
CONTINUOUS
 62
4
 10
7911.083206686158500
 20
-8244.339465735673000
 11
8362.968025513397200
 21
-7144.977891574806600
  0
POLYLINE
  8
4
  6
CONTINUOUS
 62
3
 66
1
  0
VERTEX
  8
4
  6
CONTINUOUS
 62
3
 10
-533.709393959682300
 20
-5572.718527216198700
  0
VERTEX
  8
4
  6
CONTINUOUS
 62
3
 10
-190.215752834773440
 20
-5745.359831833035100
  0
VERTEX
  8
4
  6
CONTINUOUS
 62
3
 10
153.404183251556190
 20
-5917.778570534388600
  0
VERTEX
  8
4
  6
CONTINUOUS
 62
3
 10
325.300979080697740
 20
-6003.834925818169700
  0
VERTEX
  8
4
  6
CONTINUOUS
 62
3
 10
497.276709260727390
 20
-6089.752177404775500
  0
VERTEX
  8
4
  6
CONTINUOUS
 62
3
 10
669.347160661822610
 20
-6175.502504554768200
  0
VERTEX
  8
4
  6
CONTINUOUS
 62
3
 10
841.528120154161000
 20
-6261.058086528713800
  0
VERTEX
  8
4
  6
CONTINUOUS
 62
3
 10
1013.835374607920200
 20
-6346.391102587176600
  0
VERTEX
  8
4
  6
CONTINUOUS
 62
3
 10
1186.284710893277900
 20
-6431.473731990721700
  0
VERTEX
  8
4
  6
CONTINUOUS
 62
3
 10
1358.891915880411500
 20
-6516.278153999912300
  0
VERTEX
  8
4
  6
CONTINUOUS
 62
3
 10
1531.672776439498400
 20
-6600.776547875313600
  0
VERTEX
  8
4
  6
CONTINUOUS
 62
3
 10
1704.643079440716500
 20
-6684.941092877490500
  0
VERTEX
  8
4
  6
CONTINUOUS
 62
3
 10
1877.818611754243600
 20
-6768.743968267008300
  0
VERTEX
  8
4
  6
CONTINUOUS
 62
3
 10
2051.215160250257200
 20
-6852.157353304430200
  0
VERTEX
  8
4
  6
CONTINUOUS
 62
3
 10
2224.848511798934400
 20
-6935.153427250323100
  0
VERTEX
  8
4
  6
CONTINUOUS
 62
3
 10
2224.848511798934400
 20
-6935.153427250323100
  0
VERTEX
  8
4
  6
CONTINUOUS
 62
3
 10
2465.192173773426500
 20
-7049.430841239433000
  0
VERTEX
  8
4
  6
CONTINUOUS
 62
3
 10
2585.271817659383500
 20
-7106.716104603747200
  0
VERTEX
  8
4
  6
CONTINUOUS
 62
3
 10
2705.144258460794800
 20
-7164.347433187731400
  0
VERTEX
  8
4
  6
CONTINUOUS
 62
3
 10
2764.968618716432000
 20
-7193.351081540185100
  0
VERTEX
  8
4
  6
CONTINUOUS
 62
3
 10
2824.700187414895900
 20
-7222.511097721258900
  0
VERTEX
  8
4
  6
CONTINUOUS
 62
3
 10
2884.325300960841600
 20
-7251.850765572187800
  0
VERTEX
  8
4
  6
CONTINUOUS
 62
3
 10
2943.830295758922600
 20
-7281.393368934206600
  0
VERTEX
  8
4
  6
CONTINUOUS
 62
3
 10
3003.201508213794100
 20
-7311.162191648547400
  0
VERTEX
  8
4
  6
CONTINUOUS
 62
3
 10
3062.425274730109800
 20
-7341.180517556445000
  0
VERTEX
  8
4
  6
CONTINUOUS
 62
3
 10
3121.487931712524200
 20
-7371.471630499134300
  0
VERTEX
  8
4
  6
CONTINUOUS
 62
3
 10
3180.375815565692400
 20
-7402.058814317850200
  0
VERTEX
  8
4
  6
CONTINUOUS
 62
3
 10
3180.375815565692400
 20
-7402.058814317850200
  0
VERTEX
  8
4
  6
CONTINUOUS
 62
3
 10
3224.927588913182300
 20
-7425.471934046610800
  0
VERTEX
  8
4
  6
CONTINUOUS
 62
3
 10
3269.379695993483400
 20
-7449.060367769217900
  0
VERTEX
  8
4
  6
CONTINUOUS
 62
3
 10
3313.740920362867700
 20
-7472.815633232877200
  0
VERTEX
  8
4
  6
CONTINUOUS
 62
3
 10
3358.020045577608000
 20
-7496.729248184796200
  0
VERTEX
  8
4
  6
CONTINUOUS
 62
3
 10
3402.225855193977600
 20
-7520.792730372184500
  0
VERTEX
  8
4
  6
CONTINUOUS
 62
3
 10
3446.367132768248700
 20
-7544.997597542248500
  0
VERTEX
  8
4
  6
CONTINUOUS
 62
3
 10
3534.491226015588800
 20
-7593.797557819236300
  0
VERTEX
  8
4
  6
CONTINUOUS
 62
3
 10
3622.462593769810600
 20
-7643.061270993421200
  0
VERTEX
  8
4
  6
CONTINUOUS
 62
3
 10
3710.351504481096500
 20
-7692.720879042464700
  0
VERTEX
  8
4
  6
CONTINUOUS
 62
3
 10
3798.228226599629100
 20
-7742.708523944030300
  0
VERTEX
  8
4
  6
CONTINUOUS
 62
3
 10
3886.163028575590900
 20
-7792.956347675779400
  0
VERTEX
  8
4
  6
CONTINUOUS
 62
3
 10
3886.163028575590900
 20
-7792.956347675779400
  0
VERTEX
  8
4
  6
CONTINUOUS
 62
3
 10
3951.513446482683300
 20
-7830.517717744356600
  0
VERTEX
  8
4
  6
CONTINUOUS
 62
3
 10
3984.080689327952800
 20
-7849.501920677512300
  0
VERTEX
  8
4
  6
CONTINUOUS
 62
3
 10
4016.504196643692500
 20
-7868.709103062752500
  0
VERTEX
  8
4
  6
CONTINUOUS
 62
3
 10
4048.730149836893400
 20
-7888.204740539704300
  0
VERTEX
  8
4
  6
CONTINUOUS
 62
3
 10
4080.704730314546400
 20
-7908.054308747998200
  0
VERTEX
  8
4
  6
CONTINUOUS
 62
3
 10
4112.374119483642100
 20
-7928.323283327261400
  0
VERTEX
  8
4
  6
CONTINUOUS
 62
3
 10
4128.077549017165400
 20
-7938.635509143390700
  0
VERTEX
  8
4
  6
CONTINUOUS
 62
3
 10
4143.684498751171300
 20
-7949.077139917122600
  0
VERTEX
  8
4
  6
CONTINUOUS
 62
3
 10
4159.188241361533100
 20
-7959.656360103412200
  0
VERTEX
  8
4
  6
CONTINUOUS
 62
3
 10
4174.582049524124200
 20
-7970.381354157211700
  0
VERTEX
  8
4
  6
CONTINUOUS
 62
3
 10
4189.859195914819800
 20
-7981.260306533475200
  0
VERTEX
  8
4
  6
CONTINUOUS
 62
3
 10
4205.012953209492500
 20
-7992.301401687156600
  0
VERTEX
  8
4
  6
CONTINUOUS
 62
3
 10
4220.036594084017500
 20
-8003.512824073210100
  0
VERTEX
  8
4
  6
CONTINUOUS
 62
3
 10
4234.923391214268100
 20
-8014.902758146588000
  0
VERTEX
  8
4
  6
CONTINUOUS
 62
3
 10
4249.666617276117900
 20
-8026.479388362244200
  0
VERTEX
  8
4
  6
CONTINUOUS
 62
3
 10
4264.259544945440200
 20
-8038.250899175132900
  0
VERTEX
  8
4
  6
CONTINUOUS
 62
3
 10
4278.695446898109400
 20
-8050.225475040207100
  0
VERTEX
  8
4
  6
CONTINUOUS
 62
3
 10
4292.967595809999700
 20
-8062.411300412421000
  0
VERTEX
  8
4
  6
CONTINUOUS
 62
3
 10
4307.069264356984600
 20
-8074.816559746726900
  0
VERTEX
  8
4
  6
CONTINUOUS
 62
3
 10
4320.993725214937500
 20
-8087.449437498080400
  0
VERTEX
  8
4
  6
CONTINUOUS
 62
3
 10
4334.734251059733700
 20
-8100.318118121433100
  0
VERTEX
  8
4
  6
CONTINUOUS
 62
3
 10
4348.284114567244600
 20
-8113.430786071740800
  0
VERTEX
  8
4
  6
CONTINUOUS
 62
3
 10
4361.636588413346500
 20
-8126.795625803955800
  0
VERTEX
  8
4
  6
CONTINUOUS
 62
3
 10
4374.784945273911900
 20
-8140.420821773030200
  0
VERTEX
  8
4
  6
CONTINUOUS
 62
3
 10
4374.784945273911900
 20
-8140.420821773030200
  0
VERTEX
  8
4
  6
CONTINUOUS
 62
3
 10
4386.414920749190100
 20
-8152.890223134315400
  0
VERTEX
  8
4
  6
CONTINUOUS
 62
3
 10
4397.848036541212400
 20
-8165.576139909047900
  0
VERTEX
  8
4
  6
CONTINUOUS
 62
3
 10
4409.057631613856800
 20
-8178.478314942707600
  0
VERTEX
  8
4
  6
CONTINUOUS
 62
3
 10
4420.017044930999000
 20
-8191.596491080775200
  0
VERTEX
  8
4
  6
CONTINUOUS
 62
3
 10
4430.699615456515900
 20
-8204.930411168730600
  0
VERTEX
  8
4
  6
CONTINUOUS
 62
3
 10
4441.078682154286100
 20
-8218.479818052052000
  0
VERTEX
  8
4
  6
CONTINUOUS
 62
3
 10
4451.127583988184600
 20
-8232.244454576219100
  0
VERTEX
  8
4
  6
CONTINUOUS
 62
3
 10
4460.819659922088200
 20
-8246.224063586712900
  0
VERTEX
  8
4
  6
CONTINUOUS
 62
3
 10
4470.128248919874700
 20
-8260.418387929014000
  0
VERTEX
  8
4
  6
CONTINUOUS
 62
3
 10
4479.026689945421800
 20
-8274.827170448601500
  0
VERTEX
  8
4
  6
CONTINUOUS
 62
3
 10
4487.488321962604500
 20
-8289.450153990956100
  0
VERTEX
  8
4
  6
CONTINUOUS
 62
3
 10
4495.486483935299500
 20
-8304.287081401555000
  0
VERTEX
  8
4
  6
CONTINUOUS
 62
3
 10
4502.994514827385500
 20
-8319.337695525882700
  0
VERTEX
  8
4
  6
CONTINUOUS
 62
3
 10
4509.985753602738400
 20
-8334.601739209414500
  0
VERTEX
  8
4
  6
CONTINUOUS
 62
3
 10
4516.433539225235100
 20
-8350.078955297633000
  0
VERTEX
  8
4
  6
CONTINUOUS
 62
3
 10
4519.445305530373800
 20
-8357.897422632711800
  0
VERTEX
  8
4
  6
CONTINUOUS
 62
3
 10
4522.311210658752300
 20
-8365.769086636017200
  0
VERTEX
  8
4
  6
CONTINUOUS
 62
3
 10
4522.311210658752300
 20
-8365.769086636017200
  0
VERTEX
  8
4
  6
CONTINUOUS
 62
3
 10
4527.323019927946000
 20
-8380.757829183054100
  0
VERTEX
  8
4
  6
CONTINUOUS
 62
3
 10
4531.870357803234600
 20
-8395.912083966453800
  0
VERTEX
  8
4
  6
CONTINUOUS
 62
3
 10
4536.019577340888600
 20
-8411.208206381015800
  0
VERTEX
  8
4
  6
CONTINUOUS
 62
3
 10
4539.837031597178800
 20
-8426.622551821550600
  0
VERTEX
  8
4
  6
CONTINUOUS
 62
3
 10
4543.389073628379300
 20
-8442.131475682861500
  0
VERTEX
  8
4
  6
CONTINUOUS
 62
3
 10
4546.742056490763400
 20
-8457.711333359753600
  0
VERTEX
  8
4
  6
CONTINUOUS
 62
3
 10
4553.116256934170500
 20
-8488.989271739508700
  0
SEQEND
  8
4
  0
POLYLINE
  8
4
  6
CONTINUOUS
 62
3
 66
1
  0
VERTEX
  8
4
  6
CONTINUOUS
 62
3
 10
-473.851657196722950
 20
-5428.350712655770600
  0
VERTEX
  8
4
  6
CONTINUOUS
 62
3
 10
11.411690920367107
 20
-5620.138731015164900
  0
VERTEX
  8
4
  6
CONTINUOUS
 62
3
 10
253.995696689961190
 20
-5716.148831107888300
  0
VERTEX
  8
4
  6
CONTINUOUS
 62
3
 10
496.522500512814080
 20
-5812.298240296245200
  0
VERTEX
  8
4
  6
CONTINUOUS
 62
3
 10
738.973035073345500
 20
-5908.633394945445600
  0
VERTEX
  8
4
  6
CONTINUOUS
 62
3
 10
981.328233055974810
 20
-6005.200731420698500
  0
VERTEX
  8
4
  6
CONTINUOUS
 62
3
 10
1223.569027145121700
 20
-6102.046686087216600
  0
VERTEX
  8
4
  6
CONTINUOUS
 62
3
 10
1465.676350025206100
 20
-6199.217695310211600
  0
VERTEX
  8
4
  6
CONTINUOUS
 62
3
 10
1707.631134380647400
 20
-6296.760195454891800
  0
VERTEX
  8
4
  6
CONTINUOUS
 62
3
 10
1949.414312895865100
 20
-6394.720622886469800
  0
VERTEX
  8
4
  6
CONTINUOUS
 62
3
 10
2191.006818255279100
 20
-6493.145413970155500
  0
VERTEX
  8
4
  6
CONTINUOUS
 62
3
 10
2432.389583143308300
 20
-6592.081005071160700
  0
VERTEX
  8
4
  6
CONTINUOUS
 62
3
 10
2552.996354374435200
 20
-6641.754861992285400
  0
VERTEX
  8
4
  6
CONTINUOUS
 62
3
 10
2673.543540244373600
 20
-6691.573832554694500
  0
VERTEX
  8
4
  6
CONTINUOUS
 62
3
 10
2794.028757338675000
 20
-6741.543721304037700
  0
VERTEX
  8
4
  6
CONTINUOUS
 62
3
 10
2914.449622242893400
 20
-6791.670332785968600
  0
VERTEX
  8
4
  6
CONTINUOUS
 62
3
 10
3034.803751542579400
 20
-6841.959471546137100
  0
VERTEX
  8
4
  6
CONTINUOUS
 62
3
 10
3155.088761823287300
 20
-6892.416942130194000
  0
VERTEX
  8
4
  6
CONTINUOUS
 62
3
 10
3275.302269670568900
 20
-6943.048549083792800
  0
VERTEX
  8
4
  6
CONTINUOUS
 62
3
 10
3395.441891669976000
 20
-6993.860096952583300
  0
VERTEX
  8
4
  6
CONTINUOUS
 62
3
 10
3395.441891669976000
 20
-6993.860096952583300
  0
VERTEX
  8
4
  6
CONTINUOUS
 62
3
 10
3644.344293540731500
 20
-7099.637561504937400
  0
VERTEX
  8
4
  6
CONTINUOUS
 62
3
 10
3768.793365708255400
 20
-7152.530194972399800
  0
VERTEX
  8
4
  6
CONTINUOUS
 62
3
 10
3893.305450333655200
 20
-7205.267828650318700
  0
VERTEX
  8
4
  6
CONTINUOUS
 62
3
 10
4017.928871144265000
 20
-7257.732262100893400
  0
VERTEX
  8
4
  6
CONTINUOUS
 62
3
 10
4142.711951867419000
 20
-7309.805294886323300
  0
VERTEX
  8
4
  6
CONTINUOUS
 62
3
 10
4205.178465860992200
 20
-7335.658098392796100
  0
VERTEX
  8
4
  6
CONTINUOUS
 62
3
 10
4267.703016230451800
 20
-7361.368726568807700
  0
VERTEX
  8
4
  6
CONTINUOUS
 62
3
 10
4330.291643441713900
 20
-7386.922404359631400
  0
VERTEX
  8
4
  6
CONTINUOUS
 62
3
 10
4392.950387960696400
 20
-7412.304356710545100
  0
VERTEX
  8
4
  6
CONTINUOUS
 62
3
 10
4392.950387960696400
 20
-7412.304356710545100
  0
VERTEX
  8
4
  6
CONTINUOUS
 62
3
 10
4490.701402802337700
 20
-7451.468973913124500
  0
VERTEX
  8
4
  6
CONTINUOUS
 62
3
 10
4588.643407217882700
 20
-7490.158917803612000
  0
VERTEX
  8
4
  6
CONTINUOUS
 62
3
 10
4686.782613265579100
 20
-7528.352011202898200
  0
VERTEX
  8
4
  6
CONTINUOUS
 62
3
 10
4785.125233003679600
 20
-7566.026076931871100
  0
VERTEX
  8
4
  6
CONTINUOUS
 62
3
 10
4883.677478490431900
 20
-7603.158937811423100
  0
VERTEX
  8
4
  6
CONTINUOUS
 62
3
 10
4933.034152157753900
 20
-7621.515486064196000
  0
VERTEX
  8
4
  6
CONTINUOUS
 62
3
 10
4982.445561784083100
 20
-7639.728416662445900
  0
VERTEX
  8
4
  6
CONTINUOUS
 62
3
 10
5031.912483876700200
 20
-7657.794957458786500
  0
VERTEX
  8
4
  6
CONTINUOUS
 62
3
 10
5081.435694942885700
 20
-7675.712336305829000
  0
VERTEX
  8
4
  6
CONTINUOUS
 62
3
 10
5131.015971489920000
 20
-7693.477781056182700
  0
VERTEX
  8
4
  6
CONTINUOUS
 62
3
 10
5180.654090025087500
 20
-7711.088519562461400
  0
VERTEX
  8
4
  6
CONTINUOUS
 62
3
 10
5180.654090025087500
 20
-7711.088519562461400
  0
VERTEX
  8
4
  6
CONTINUOUS
 62
3
 10
5264.230664543776600
 20
-7740.326745150878200
  0
VERTEX
  8
4
  6
CONTINUOUS
 62
3
 10
5347.987397413357000
 20
-7769.050643724978700
  0
VERTEX
  8
4
  6
CONTINUOUS
 62
3
 10
5389.937858883728000
 20
-7783.198056547263100
  0
VERTEX
  8
4
  6
CONTINUOUS
 62
3
 10
5431.938802726617700
 20
-7797.190891014690400
  0
VERTEX
  8
4
  6
CONTINUOUS
 62
3
 10
5473.992043203623300
 20
-7811.020481593503100
  0
VERTEX
  8
4
  6
CONTINUOUS
 62
3
 10
5516.099394576343900
 20
-7824.678162749939500
  0
VERTEX
  8
4
  6
CONTINUOUS
 62
3
 10
5558.262671106376700
 20
-7838.155268950242300
  0
VERTEX
  8
4
  6
CONTINUOUS
 62
3
 10
5600.483687055322700
 20
-7851.443134660650700
  0
VERTEX
  8
4
  6
CONTINUOUS
 62
3
 10
5642.764256684777100
 20
-7864.533094347405500
  0
VERTEX
  8
4
  6
CONTINUOUS
 62
3
 10
5685.106194256341000
 20
-7877.416482476748600
  0
VERTEX
  8
4
  6
CONTINUOUS
 62
3
 10
5727.511314031609800
 20
-7890.084633514920800
  0
VERTEX
  8
4
  6
CONTINUOUS
 62
3
 10
5769.981430272184300
 20
-7902.528881928161400
  0
VERTEX
  8
4
  6
CONTINUOUS
 62
3
 10
5812.518357239662700
 20
-7914.740562182712000
  0
VERTEX
  8
4
  6
CONTINUOUS
 62
3
 10
5855.123909195641300
 20
-7926.711008744812700
  0
VERTEX
  8
4
  6
CONTINUOUS
 62
3
 10
5855.123909195641300
 20
-7926.711008744812700
  0
VERTEX
  8
4
  6
CONTINUOUS
 62
3
 10
5905.646115626830600
 20
-7940.548216429535400
  0
VERTEX
  8
4
  6
CONTINUOUS
 62
3
 10
5956.279374876885400
 20
-7953.974074877536600
  0
VERTEX
  8
4
  6
CONTINUOUS
 62
3
 10
6007.036054753069000
 20
-7966.927342327730000
  0
VERTEX
  8
4
  6
CONTINUOUS
 62
3
 10
6057.928523062642900
 20
-7979.346777019028200
  0
VERTEX
  8
4
  6
CONTINUOUS
 62
3
 10
6083.429542819720200
 20
-7985.337169029751700
  0
VERTEX
  8
4
  6
CONTINUOUS
 62
3
 10
6108.969147612870100
 20
-7991.171137190342100
  0
VERTEX
  8
4
  6
CONTINUOUS
 62
3
 10
6134.548883417999600
 20
-7996.841026280664700
  0
VERTEX
  8
4
  6
CONTINUOUS
 62
3
 10
6160.170296211014800
 20
-8002.339181080584200
  0
VERTEX
  8
4
  6
CONTINUOUS
 62
3
 10
6185.834931967825500
 20
-8007.657946369963600
  0
VERTEX
  8
4
  6
CONTINUOUS
 62
3
 10
6211.544336664337600
 20
-8012.789666928667400
  0
VERTEX
  8
4
  6
CONTINUOUS
 62
3
 10
6237.300056276461000
 20
-8017.726687536559400
  0
VERTEX
  8
4
  6
CONTINUOUS
 62
3
 10
6263.103636780102500
 20
-8022.461352973503400
  0
VERTEX
  8
4
  6
CONTINUOUS
 62
3
 10
6263.103636780102500
 20
-8022.461352973503400
  0
VERTEX
  8
4
  6
CONTINUOUS
 62
3
 10
6288.124660759926000
 20
-8026.846266543960200
  0
VERTEX
  8
4
  6
CONTINUOUS
 62
3
 10
6313.186861878117300
 20
-8031.040674744634100
  0
VERTEX
  8
4
  6
CONTINUOUS
 62
3
 10
6338.285132209117400
 20
-8035.050812960300400
  0
VERTEX
  8
4
  6
CONTINUOUS
 62
3
 10
6363.414363827360800
 20
-8038.882916575735200
  0
VERTEX
  8
4
  6
CONTINUOUS
 62
3
 10
6388.569448807285000
 20
-8042.543220975714600
  0
VERTEX
  8
4
  6
CONTINUOUS
 62
3
 10
6413.745279223327100
 20
-8046.037961545016500
  0
VERTEX
  8
4
  6
CONTINUOUS
 62
3
 10
6438.936747149924500
 20
-8049.373373668415300
  0
VERTEX
  8
4
  6
CONTINUOUS
 62
3
 10
6464.138744661513600
 20
-8052.555692730690700
  0
VERTEX
  8
4
  6
CONTINUOUS
 62
3
 10
6514.553896737415900
 20
-8058.485993210968400
  0
VERTEX
  8
4
  6
CONTINUOUS
 62
3
 10
6564.949872046529000
 20
-8063.878746064059700
  0
VERTEX
  8
4
  6
CONTINUOUS
 62
3
 10
6615.285807184351100
 20
-8068.783834368177800
  0
VERTEX
  8
4
  6
CONTINUOUS
 62
3
 10
6665.520838746375400
 20
-8073.251141201533800
  0
VERTEX
  8
4
  6
CONTINUOUS
 62
3
 10
6665.520838746375400
 20
-8073.251141201533800
  0
VERTEX
  8
4
  6
CONTINUOUS
 62
3
 10
6703.740126123268100
 20
-8076.401236884209500
  0
VERTEX
  8
4
  6
CONTINUOUS
 62
3
 10
6741.934429642988100
 20
-8079.392542570980400
  0
VERTEX
  8
4
  6
CONTINUOUS
 62
3
 10
6818.477770054283600
 20
-8085.165520960765200
  0
VERTEX
  8
4
  6
CONTINUOUS
 62
3
 10
6895.610229867001200
 20
-8091.103550378806200
  0
VERTEX
  8
4
  6
CONTINUOUS
 62
3
 10
6934.540932638497000
 20
-8094.301169850895300
  0
VERTEX
  8
4
  6
CONTINUOUS
 62
3
 10
6973.791178967872800
 20
-8097.740104833017500
  0
VERTEX
  8
4
  6
CONTINUOUS
 62
3
 10
6973.791178967872800
 20
-8097.740104833017500
  0
VERTEX
  8
4
  6
CONTINUOUS
 62
3
 10
6994.221987431294100
 20
-8099.645401167376800
  0
VERTEX
  8
4
  6
CONTINUOUS
 62
3
 10
7014.706640690030300
 20
-8101.705130582835400
  0
VERTEX
  8
4
  6
CONTINUOUS
 62
3
 10
7035.198191757316600
 20
-8103.991374054115100
  0
VERTEX
  8
4
  6
CONTINUOUS
 62
3
 10
7055.649693646390900
 20
-8106.576212555938600
  0
VERTEX
  8
4
  6
CONTINUOUS
 62
3
 10
7076.014199370491000
 20
-8109.531727063029400
  0
VERTEX
  8
4
  6
CONTINUOUS
 62
3
 10
7096.244761942853100
 20
-8112.929998550108400
  0
VERTEX
  8
4
  6
CONTINUOUS
 62
3
 10
7116.294434376715800
 20
-8116.843107991899200
  0
VERTEX
  8
4
  6
CONTINUOUS
 62
3
 10
7126.236765858346200
 20
-8119.015252250412200
  0
VERTEX
  8
4
  6
CONTINUOUS
 62
3
 10
7136.116269685314400
 20
-8121.343136363125300
  0
VERTEX
  8
4
  6
CONTINUOUS
 62
3
 10
7145.927077484277100
 20
-8123.835770451877600
  0
VERTEX
  8
4
  6
CONTINUOUS
 62
3
 10
7155.663320881887600
 20
-8126.502164638508500
  0
VERTEX
  8
4
  6
CONTINUOUS
 62
3
 10
7165.319131504800700
 20
-8129.351329044860900
  0
VERTEX
  8
4
  6
CONTINUOUS
 62
3
 10
7174.888640979671400
 20
-8132.392273792773300
  0
VERTEX
  8
4
  6
CONTINUOUS
 62
3
 10
7184.365980933154800
 20
-8135.634009004085800
  0
VERTEX
  8
4
  6
CONTINUOUS
 62
3
 10
7193.745282991903900
 20
-8139.085544800639600
  0
VERTEX
  8
4
  6
CONTINUOUS
 62
3
 10
7203.020678782575500
 20
-8142.755891304274900
  0
VERTEX
  8
4
  6
CONTINUOUS
 62
3
 10
7212.186299931821800
 20
-8146.654058636831900
  0
VERTEX
  8
4
  6
CONTINUOUS
 62
3
 10
7221.236278066299700
 20
-8150.789056920151800
  0
VERTEX
  8
4
  6
CONTINUOUS
 62
3
 10
7230.164744812662300
 20
-8155.169896276072900
  0
VERTEX
  8
4
  6
CONTINUOUS
 62
3
 10
7238.965831797565400
 20
-8159.805586826438200
  0
VERTEX
  8
4
  6
CONTINUOUS
 62
3
 10
7247.633670647663200
 20
-8164.705138693085200
  0
VERTEX
  8
4
  6
CONTINUOUS
 62
3
 10
7256.162392989610500
 20
-8169.877561997856900
  0
VERTEX
  8
4
  6
CONTINUOUS
 62
3
 10
7264.546130450062300
 20
-8175.331866862591600
  0
VERTEX
  8
4
  6
CONTINUOUS
 62
3
 10
7272.779014655670800
 20
-8181.077063409131400
  0
VERTEX
  8
4
  6
CONTINUOUS
 62
3
 10
7280.855177233093900
 20
-8187.122161759314600
  0
VERTEX
  8
4
  6
CONTINUOUS
 62
3
 10
7280.855177233093900
 20
-8187.122161759314600
  0
VERTEX
  8
4
  6
CONTINUOUS
 62
3
 10
7287.131066421221500
 20
-8192.122816317698400
  0
VERTEX
  8
4
  6
CONTINUOUS
 62
3
 10
7293.299844963658000
 20
-8197.310709422374200
  0
VERTEX
  8
4
  6
CONTINUOUS
 62
3
 10
7299.356227212520900
 20
-8202.679617808702500
  0
VERTEX
  8
4
  6
CONTINUOUS
 62
3
 10
7305.294927519928900
 20
-8208.223318212039900
  0
VERTEX
  8
4
  6
CONTINUOUS
 62
3
 10
7311.110660238000500
 20
-8213.935587367745000
  0
VERTEX
  8
4
  6
CONTINUOUS
 62
3
 10
7316.798139718852300
 20
-8219.810202011176400
  0
VERTEX
  8
4
  6
CONTINUOUS
 62
3
 10
7322.352080314603900
 20
-8225.840938877692700
  0
VERTEX
  8
4
  6
CONTINUOUS
 62
3
 10
7327.767196377375500
 20
-8232.021574702655900
  0
VERTEX
  8
4
  6
CONTINUOUS
 62
3
 10
7333.038202259283000
 20
-8238.345886221421100
  0
VERTEX
  8
4
  6
CONTINUOUS
 62
3
 10
7338.159812312445000
 20
-8244.807650169350400
  0
VERTEX
  8
4
  6
CONTINUOUS
 62
3
 10
7343.126740888981700
 20
-8251.400643281798700
  0
VERTEX
  8
4
  6
CONTINUOUS
 62
3
 10
7347.933702341009800
 20
-8258.118642294124600
  0
VERTEX
  8
4
  6
CONTINUOUS
 62
3
 10
7352.575411020649000
 20
-8264.955423941690200
  0
VERTEX
  8
4
  6
CONTINUOUS
 62
3
 10
7357.046581280016700
 20
-8271.904764959854200
  0
VERTEX
  8
4
  6
CONTINUOUS
 62
3
 10
7361.341927471231400
 20
-8278.960442083971400
  0
VERTEX
  8
4
  6
CONTINUOUS
 62
3
 10
7365.456163946411800
 20
-8286.116232049400400
  0
VERTEX
  8
4
  6
CONTINUOUS
 62
3
 10
7369.384005057676400
 20
-8293.365911591507000
  0
VERTEX
  8
4
  6
CONTINUOUS
 62
3
 10
7373.120165157142800
 20
-8300.703257445642500
  0
VERTEX
  8
4
  6
CONTINUOUS
 62
3
 10
7376.659358596930400
 20
-8308.122046347169100
  0
VERTEX
  8
4
  6
CONTINUOUS
 62
3
 10
7379.996299729156800
 20
-8315.616055031443500
  0
VERTEX
  8
4
  6
CONTINUOUS
 62
3
 10
7383.125702905940700
 20
-8323.179060233826000
  0
VERTEX
  8
4
  6
CONTINUOUS
 62
3
 10
7386.042282479401400
 20
-8330.804838689675300
  0
VERTEX
  8
4
  6
CONTINUOUS
 62
3
 10
7388.740752801656500
 20
-8338.487167134349900
  0
VERTEX
  8
4
  6
CONTINUOUS
 62
3
 10
7391.215828224823800
 20
-8346.219822303206500
  0
VERTEX
  8
4
  6
CONTINUOUS
 62
3
 10
7393.462223101022600
 20
-8353.996580931605400
  0
VERTEX
  8
4
  6
CONTINUOUS
 62
3
 10
7395.474651782371400
 20
-8361.811219754907100
  0
VERTEX
  8
4
  6
CONTINUOUS
 62
3
 10
7397.247828620988000
 20
-8369.657515508468400
  0
VERTEX
  8
4
  6
CONTINUOUS
 62
3
 10
7398.776467968989900
 20
-8377.529244927647600
  0
VERTEX
  8
4
  6
CONTINUOUS
 62
3
 10
7400.055284178497500
 20
-8385.420184747803400
  0
VERTEX
  8
4
  6
CONTINUOUS
 62
3
 10
7401.078991601628300
 20
-8393.324111704296200
  0
VERTEX
  8
4
  6
CONTINUOUS
 62
3
 10
7401.842304590501000
 20
-8401.234802532482700
  0
VERTEX
  8
4
  6
CONTINUOUS
 62
3
 10
7402.339937497232300
 20
-8409.146033967725100
  0
VERTEX
  8
4
  6
CONTINUOUS
 62
3
 10
7402.339937497232300
 20
-8409.146033967725100
  0
VERTEX
  8
4
  6
CONTINUOUS
 62
3
 10
7402.590878989997700
 20
-8419.033558273251400
  0
VERTEX
  8
4
  6
CONTINUOUS
 62
3
 10
7402.470984796549600
 20
-8428.913305461626800
  0
VERTEX
  8
4
  6
CONTINUOUS
 62
3
 10
7402.033231443491800
 20
-8438.786386549587400
  0
VERTEX
  8
4
  6
CONTINUOUS
 62
3
 10
7401.330595457425300
 20
-8448.653912553869300
  0
VERTEX
  8
4
  6
CONTINUOUS
 62
3
 10
7400.416053364951900
 20
-8458.516994491206800
  0
VERTEX
  8
4
  6
CONTINUOUS
 62
3
 10
7399.342581692672900
 20
-8468.376743378337800
  0
VERTEX
  8
4
  6
CONTINUOUS
 62
3
 10
7396.930755715105100
 20
-8488.090686068921100
  0
SEQEND
  8
4
  0
POLYLINE
  8
4
  6
CONTINUOUS
 62
3
 66
1
  0
VERTEX
  8
4
  6
CONTINUOUS
 62
3
 10
-473.851657196726590
 20
-5428.350712655768800
  0
VERTEX
  8
4
  6
CONTINUOUS
 62
3
 10
22.075748961467937
 20
-5597.657538574747400
  0
VERTEX
  8
4
  6
CONTINUOUS
 62
3
 10
269.988145881273970
 20
-5682.438818085248400
  0
VERTEX
  8
4
  6
CONTINUOUS
 62
3
 10
517.838975409930410
 20
-5767.373537456964200
  0
VERTEX
  8
4
  6
CONTINUOUS
 62
3
 10
765.607715083720900
 20
-5852.512843310300000
  0
VERTEX
  8
4
  6
CONTINUOUS
 62
3
 10
1013.273842438928800
 20
-5937.907882265661100
  0
VERTEX
  8
4
  6
CONTINUOUS
 62
3
 10
1260.816835011837600
 20
-6023.609800943451800
  0
VERTEX
  8
4
  6
CONTINUOUS
 62
3
 10
1508.216170338731000
 20
-6109.669745964076400
  0
VERTEX
  8
4
  6
CONTINUOUS
 62
3
 10
1755.451325955892100
 20
-6196.138863947940100
  0
VERTEX
  8
4
  6
CONTINUOUS
 62
3
 10
2002.501779399604900
 20
-6283.068301515450000
  0
VERTEX
  8
4
  6
CONTINUOUS
 62
3
 10
2249.347008206152600
 20
-6370.509205287007700
  0
VERTEX
  8
4
  6
CONTINUOUS
 62
3
 10
2372.686250100578000
 20
-6414.437440318181900
  0
VERTEX
  8
4
  6
CONTINUOUS
 62
3
 10
2495.966489911818800
 20
-6458.512721883020300
  0
VERTEX
  8
4
  6
CONTINUOUS
 62
3
 10
2619.185162331909900
 20
-6502.741443309073500
  0
VERTEX
  8
4
  6
CONTINUOUS
 62
3
 10
2742.339702052886900
 20
-6547.129997923892000
  0
VERTEX
  8
4
  6
CONTINUOUS
 62
3
 10
2865.427543766785200
 20
-6591.684779055027300
  0
VERTEX
  8
4
  6
CONTINUOUS
 62
3
 10
2988.446122165640200
 20
-6636.412180030028100
  0
VERTEX
  8
4
  6
CONTINUOUS
 62
3
 10
3111.392871941487600
 20
-6681.318594176445900
  0
VERTEX
  8
4
  6
CONTINUOUS
 62
3
 10
3234.265227786362600
 20
-6726.410414821833900
  0
VERTEX
  8
4
  6
CONTINUOUS
 62
3
 10
3357.060624392301200
 20
-6771.694035293738100
  0
VERTEX
  8
4
  6
CONTINUOUS
 62
3
 10
3479.776496451337200
 20
-6817.175848919712700
  0
VERTEX
  8
4
  6
CONTINUOUS
 62
3
 10
3479.776496451337200
 20
-6817.175848919712700
  0
VERTEX
  8
4
  6
CONTINUOUS
 62
3
 10
3654.924027157935100
 20
-6882.481613695963500
  0
VERTEX
  8
4
  6
CONTINUOUS
 62
3
 10
3829.946570291631400
 20
-6948.133743081638400
  0
VERTEX
  8
4
  6
CONTINUOUS
 62
3
 10
4004.886618555211500
 20
-7014.061202966193400
  0
VERTEX
  8
4
  6
CONTINUOUS
 62
3
 10
4179.786664651461300
 20
-7080.192959239084300
  0
VERTEX
  8
4
  6
CONTINUOUS
 62
3
 10
4529.636721153106900
 20
-7212.785224507697400
  0
VERTEX
  8
4
  6
CONTINUOUS
 62
3
 10
4879.836681418852100
 20
-7345.342266003124700
  0
VERTEX
  8
4
  6
CONTINUOUS
 62
3
 10
4879.836681418852100
 20
-7345.342266003124700
  0
VERTEX
  8
4
  6
CONTINUOUS
 62
3
 10
5014.160839899407600
 20
-7395.921079572413900
  0
VERTEX
  8
4
  6
CONTINUOUS
 62
3
 10
5081.395485608982200
 20
-7421.038908519054500
  0
VERTEX
  8
4
  6
CONTINUOUS
 62
3
 10
5148.696967077654300
 20
-7445.968554099214100
  0
VERTEX
  8
4
  6
CONTINUOUS
 62
3
 10
5216.079127890101500
 20
-7470.654667707038200
  0
VERTEX
  8
4
  6
CONTINUOUS
 62
3
 10
5283.555811630998500
 20
-7495.041900736667200
  0
VERTEX
  8
4
  6
CONTINUOUS
 62
3
 10
5351.140861885020100
 20
-7519.074904582245800
  0
VERTEX
  8
4
  6
CONTINUOUS
 62
3
 10
5418.848122236843700
 20
-7542.698330637914300
  0
VERTEX
  8
4
  6
CONTINUOUS
 62
3
 10
5486.691436271143200
 20
-7565.856830297816500
  0
VERTEX
  8
4
  6
CONTINUOUS
 62
3
 10
5554.684647572596100
 20
-7588.495054956096300
  0
VERTEX
  8
4
  6
CONTINUOUS
 62
3
 10
5588.741790818716300
 20
-7599.601767720296300
  0
VERTEX
  8
4
  6
CONTINUOUS
 62
3
 10
5622.841599725878000
 20
-7610.557656006893000
  0
VERTEX
  8
4
  6
CONTINUOUS
 62
3
 10
5656.985804742165800
 20
-7621.355801240155400
  0
VERTEX
  8
4
  6
CONTINUOUS
 62
3
 10
5691.176136315662900
 20
-7631.989284844352400
  0
VERTEX
  8
4
  6
CONTINUOUS
 62
3
 10
5725.414324894454700
 20
-7642.451188243749100
  0
VERTEX
  8
4
  6
CONTINUOUS
 62
3
 10
5759.702100926628200
 20
-7652.734592862615500
  0
VERTEX
  8
4
  6
CONTINUOUS
 62
3
 10
5794.041194860264100
 20
-7662.832580125217600
  0
VERTEX
  8
4
  6
CONTINUOUS
 62
3
 10
5828.433337143447700
 20
-7672.738231455825400
  0
VERTEX
  8
4
  6
CONTINUOUS
 62
3
 10
5862.880258224265200
 20
-7682.444628278704800
  0
VERTEX
  8
4
  6
CONTINUOUS
 62
3
 10
5897.383688550799000
 20
-7691.944852018124900
  0
VERTEX
  8
4
  6
CONTINUOUS
 62
3
 10
5931.945358571135300
 20
-7701.231984098352800
  0
VERTEX
  8
4
  6
CONTINUOUS
 62
3
 10
5966.566998733356700
 20
-7710.299105943657200
  0
VERTEX
  8
4
  6
CONTINUOUS
 62
3
 10
5966.566998733356700
 20
-7710.299105943657200
  0
VERTEX
  8
4
  6
CONTINUOUS
 62
3
 10
6006.025943199234500
 20
-7720.341593914583400
  0
VERTEX
  8
4
  6
CONTINUOUS
 62
3
 10
6045.560150097413500
 20
-7730.105258746451000
  0
VERTEX
  8
4
  6
CONTINUOUS
 62
3
 10
6085.165035311678400
 20
-7739.604945193774300
  0
VERTEX
  8
4
  6
CONTINUOUS
 62
3
 10
6124.836014725815400
 20
-7748.855498011074800
  0
VERTEX
  8
4
  6
CONTINUOUS
 62
3
 10
6164.568504223610900
 20
-7757.871761952868800
  0
VERTEX
  8
4
  6
CONTINUOUS
 62
3
 10
6204.357919688853100
 20
-7766.668581773676100
  0
VERTEX
  8
4
  6
CONTINUOUS
 62
3
 10
6244.199677005326500
 20
-7775.260802228014700
  0
VERTEX
  8
4
  6
CONTINUOUS
 62
3
 10
6284.089192056816500
 20
-7783.663268070402400
  0
VERTEX
  8
4
  6
CONTINUOUS
 62
3
 10
6324.021880727109400
 20
-7791.890824055357400
  0
VERTEX
  8
4
  6
CONTINUOUS
 62
3
 10
6363.993158899994300
 20
-7799.958314937399300
  0
VERTEX
  8
4
  6
CONTINUOUS
 62
3
 10
6444.033147288679200
 20
-7815.672480410813500
  0
VERTEX
  8
4
  6
CONTINUOUS
 62
3
 10
6524.172484293159000
 20
-7830.924522526793200
  0
VERTEX
  8
4
  6
CONTINUOUS
 62
3
 10
6604.374496983724400
 20
-7845.833199321485200
  0
VERTEX
  8
4
  6
CONTINUOUS
 62
3
 10
6604.374496983724400
 20
-7845.833199321485200
  0
VERTEX
  8
4
  6
CONTINUOUS
 62
3
 10
6683.080865564099400
 20
-7860.208513279152600
  0
VERTEX
  8
4
  6
CONTINUOUS
 62
3
 10
6761.822975825188200
 20
-7874.298377547429500
  0
VERTEX
  8
4
  6
CONTINUOUS
 62
3
 10
6840.611548495613500
 20
-7888.033469067450800
  0
VERTEX
  8
4
  6
CONTINUOUS
 62
3
 10
6919.457304303998200
 20
-7901.344464780354400
  0
VERTEX
  8
4
  6
CONTINUOUS
 62
3
 10
6998.370963978968600
 20
-7914.162041627276300
  0
VERTEX
  8
4
  6
CONTINUOUS
 62
3
 10
7037.856607994119300
 20
-7920.364134520099500
  0
VERTEX
  8
4
  6
CONTINUOUS
 62
3
 10
7077.363248249150300
 20
-7926.416876549352300
  0
VERTEX
  8
4
  6
CONTINUOUS
 62
3
 10
7116.892224835139100
 20
-7932.311602332679300
  0
VERTEX
  8
4
  6
CONTINUOUS
 62
3
 10
7156.444877843165200
 20
-7938.039646487720300
  0
VERTEX
  8
4
  6
CONTINUOUS
 62
3
 10
7196.022547364306800
 20
-7943.592343632119100
  0
VERTEX
  8
4
  6
CONTINUOUS
 62
3
 10
7235.626573489640600
 20
-7948.961028383517300
  0
VERTEX
  8
4
  6
CONTINUOUS
 62
3
 10
7235.626573489640600
 20
-7948.961028383517300
  0
VERTEX
  8
4
  6
CONTINUOUS
 62
3
 10
7282.352493103213400
 20
-7955.046615829060100
  0
VERTEX
  8
4
  6
CONTINUOUS
 62
3
 10
7329.114371704702500
 20
-7960.876238551360100
  0
VERTEX
  8
4
  6
CONTINUOUS
 62
3
 10
7375.909672228540300
 20
-7966.461737566221900
  0
VERTEX
  8
4
  6
CONTINUOUS
 62
3
 10
7422.735857609156500
 20
-7971.814953889450400
  0
VERTEX
  8
4
  6
CONTINUOUS
 62
3
 10
7469.590390780980700
 20
-7976.947728536853900
  0
VERTEX
  8
4
  6
CONTINUOUS
 62
3
 10
7516.470734678443500
 20
-7981.871902524236200
  0
VERTEX
  8
4
  6
CONTINUOUS
 62
3
 10
7563.374352235972800
 20
-7986.599316867403100
  0
VERTEX
  8
4
  6
CONTINUOUS
 62
3
 10
7610.298706387999100
 20
-7991.141812582160100
  0
VERTEX
  8
4
  6
CONTINUOUS
 62
3
 10
7657.241260068953100
 20
-7995.511230684312100
  0
VERTEX
  8
4
  6
CONTINUOUS
 62
3
 10
7704.199476213264500
 20
-7999.719412189666400
  0
VERTEX
  8
4
  6
CONTINUOUS
 62
3
 10
7798.152747629678700
 20
-8007.699429473199400
  0
VERTEX
  8
4
  6
CONTINUOUS
 62
3
 10
7892.138224112679400
 20
-8015.176592559204400
  0
VERTEX
  8
4
  6
CONTINUOUS
 62
3
 10
7986.135609137705600
 20
-8022.245629574124900
  0
VERTEX
  8
4
  6
CONTINUOUS
 62
3
 10
7986.135609137705600
 20
-8022.245629574124900
  0
VERTEX
  8
4
  6
CONTINUOUS
 62
3
 10
8087.627712128045500
 20
-8029.498311515993900
  0
VERTEX
  8
4
  6
CONTINUOUS
 62
3
 10
8189.145110272797900
 20
-8036.319246305951300
  0
VERTEX
  8
4
  6
CONTINUOUS
 62
3
 10
8290.722877621527000
 20
-8042.642053032122900
  0
VERTEX
  8
4
  6
CONTINUOUS
 62
3
 10
8341.545360387870500
 20
-8045.595914336329800
  0
VERTEX
  8
4
  6
CONTINUOUS
 62
3
 10
8392.396088223791600
 20
-8048.400350782638300
  0
VERTEX
  8
4
  6
CONTINUOUS
 62
3
 10
8392.396088223791600
 20
-8048.400350782638300
  0
VERTEX
  8
4
  6
CONTINUOUS
 62
3
 10
8451.468532649298100
 20
-8051.438784555814000
  0
VERTEX
  8
4
  6
CONTINUOUS
 62
3
 10
8510.570052929979300
 20
-8054.137900687606800
  0
VERTEX
  8
4
  6
CONTINUOUS
 62
3
 10
8569.685747410625500
 20
-8056.370958458777700
  0
VERTEX
  8
4
  6
CONTINUOUS
 62
3
 10
8599.244253208684300
 20
-8057.273108984369200
  0
VERTEX
  8
4
  6
CONTINUOUS
 62
3
 10
8628.800714436030800
 20
-8058.011217150091400
  0
VERTEX
  8
4
  6
CONTINUOUS
 62
3
 10
8658.353268385762900
 20
-8058.569440366040000
  0
VERTEX
  8
4
  6
CONTINUOUS
 62
3
 10
8687.900052350980300
 20
-8058.931936042310600
  0
VERTEX
  8
4
  6
CONTINUOUS
 62
3
 10
8717.439203624784600
 20
-8059.082861588998600
  0
VERTEX
  8
4
  6
CONTINUOUS
 62
3
 10
8746.968859500269900
 20
-8059.006374416198900
  0
VERTEX
  8
4
  6
CONTINUOUS
 62
3
 10
8776.487157270537900
 20
-8058.686631934007000
  0
VERTEX
  8
4
  6
CONTINUOUS
 62
3
 10
8805.992234228688200
 20
-8058.107791552518400
  0
VERTEX
  8
4
  6
CONTINUOUS
 62
3
 10
8835.482227667818700
 20
-8057.254010681828700
  0
VERTEX
  8
4
  6
CONTINUOUS
 62
3
 10
8864.955274881027400
 20
-8056.109446732032700
  0
VERTEX
  8
4
  6
CONTINUOUS
 62
3
 10
8864.955274881027400
 20
-8056.109446732032700
  0
VERTEX
  8
4
  6
CONTINUOUS
 62
3
 10
8904.518831545196000
 20
-8054.139725617331400
  0
VERTEX
  8
4
  6
CONTINUOUS
 62
3
 10
8944.069515915678500
 20
-8051.896996255778500
  0
VERTEX
  8
4
  6
CONTINUOUS
 62
3
 10
8983.628392286922500
 20
-8049.661489073801900
  0
VERTEX
  8
4
  6
CONTINUOUS
 62
3
 10
9023.216524953379100
 20
-8047.713434497832200
  0
VERTEX
  8
4
  6
CONTINUOUS
 62
3
 10
9043.028144989330000
 20
-8046.934773945358800
  0
VERTEX
  8
4
  6
CONTINUOUS
 62
3
 10
9062.854978209497900
 20
-8046.333062954299700
  0
VERTEX
  8
4
  6
CONTINUOUS
 62
3
 10
9082.699657650695400
 20
-8045.943330327957500
  0
VERTEX
  8
4
  6
CONTINUOUS
 62
3
 10
9102.564816349724400
 20
-8045.800604869637000
  0
VERTEX
  8
4
  6
CONTINUOUS
 62
3
 10
9122.453087343394100
 20
-8045.939915382640700
  0
VERTEX
  8
4
  6
CONTINUOUS
 62
3
 10
9142.367103668506400
 20
-8046.396290670273600
  0
VERTEX
  8
4
  6
CONTINUOUS
 62
3
 10
9162.309498361872100
 20
-8047.204759535838100
  0
VERTEX
  8
4
  6
CONTINUOUS
 62
3
 10
9182.282904460295000
 20
-8048.400350782638300
  0
VERTEX
  8
4
  6
CONTINUOUS
 62
3
 10
9182.282904460295000
 20
-8048.400350782638300
  0
VERTEX
  8
4
  6
CONTINUOUS
 62
3
 10
9194.351488110736700
 20
-8049.325925436131000
  0
VERTEX
  8
4
  6
CONTINUOUS
 62
3
 10
9206.419514882087200
 20
-8050.424686803271500
  0
VERTEX
  8
4
  6
CONTINUOUS
 62
3
 10
9218.474172646758200
 20
-8051.716049759546900
  0
VERTEX
  8
4
  6
CONTINUOUS
 62
3
 10
9230.502649277164900
 20
-8053.219429180444400
  0
VERTEX
  8
4
  6
CONTINUOUS
 62
3
 10
9242.492132645718800
 20
-8054.954239941451300
  0
VERTEX
  8
4
  6
CONTINUOUS
 62
3
 10
9254.429810624831600
 20
-8056.939896918054700
  0
VERTEX
  8
4
  6
CONTINUOUS
 62
3
 10
9266.302871086918500
 20
-8059.195814985740100
  0
VERTEX
  8
4
  6
CONTINUOUS
 62
3
 10
9278.098501904389200
 20
-8061.741409019996400
  0
VERTEX
  8
4
  6
CONTINUOUS
 62
3
 10
9289.803890949660900
 20
-8064.596093896309900
  0
VERTEX
  8
4
  6
CONTINUOUS
 62
3
 10
9301.406226095143200
 20
-8067.779284490166900
  0
VERTEX
  8
4
  6
CONTINUOUS
 62
3
 10
9312.892695213249700
 20
-8071.310395677055600
  0
VERTEX
  8
4
  6
CONTINUOUS
 62
3
 10
9324.250486176393700
 20
-8075.208842332462200
  0
VERTEX
  8
4
  6
CONTINUOUS
 62
3
 10
9335.466786856988600
 20
-8079.494039331873900
  0
VERTEX
  8
4
  6
CONTINUOUS
 62
3
 10
9346.528785127446100
 20
-8084.185401550778800
  0
VERTEX
  8
4
  6
CONTINUOUS
 62
3
 10
9357.423668860179500
 20
-8089.302343864661500
  0
VERTEX
  8
4
  6
CONTINUOUS
 62
3
 10
9368.138625927600500
 20
-8094.864281149009900
  0
VERTEX
  8
4
  6
CONTINUOUS
 62
3
 10
9368.138625927600500
 20
-8094.864281149009900
  0
VERTEX
  8
4
  6
CONTINUOUS
 62
3
 10
9376.052616323806400
 20
-8099.339324752289000
  0
VERTEX
  8
4
  6
CONTINUOUS
 62
3
 10
9383.846754896010700
 20
-8104.067425004447600
  0
VERTEX
  8
4
  6
CONTINUOUS
 62
3
 10
9391.509730746473000
 20
-8109.040105968797400
  0
VERTEX
  8
4
  6
CONTINUOUS
 62
3
 10
9399.030232977456800
 20
-8114.248891708647500
  0
VERTEX
  8
4
  6
CONTINUOUS
 62
3
 10
9406.396950691225400
 20
-8119.685306287308800
  0
VERTEX
  8
4
  6
CONTINUOUS
 62
3
 10
9413.598572990038500
 20
-8125.340873768089300
  0
VERTEX
  8
4
  6
CONTINUOUS
 62
3
 10
9420.623788976161400
 20
-8131.207118214299000
  0
VERTEX
  8
4
  6
CONTINUOUS
 62
3
 10
9427.461287751855700
 20
-8137.275563689249800
  0
VERTEX
  8
4
  6
CONTINUOUS
 62
3
 10
9434.099758419381000
 20
-8143.537734256249700
  0
VERTEX
  8
4
  6
CONTINUOUS
 62
3
 10
9440.527890081000800
 20
-8149.985153978608700
  0
VERTEX
  8
4
  6
CONTINUOUS
 62
3
 10
9446.734371838978400
 20
-8156.609346919636700
  0
VERTEX
  8
4
  6
CONTINUOUS
 62
3
 10
9452.707892795577200
 20
-8163.401837142644600
  0
VERTEX
  8
4
  6
CONTINUOUS
 62
3
 10
9458.437142053055100
 20
-8170.354148710940500
  0
VERTEX
  8
4
  6
CONTINUOUS
 62
3
 10
9463.910808713681000
 20
-8177.457805687834500
  0
VERTEX
  8
4
  6
CONTINUOUS
 62
3
 10
9469.117581879709200
 20
-8184.704332136636400
  0
VERTEX
  8
4
  6
CONTINUOUS
 62
3
 10
9474.046150653408400
 20
-8192.085252120658000
  0
VERTEX
  8
4
  6
CONTINUOUS
 62
3
 10
9474.046150653408400
 20
-8192.085252120658000
  0
VERTEX
  8
4
  6
CONTINUOUS
 62
3
 10
9478.892135490545100
 20
-8199.935922250506300
  0
VERTEX
  8
4
  6
CONTINUOUS
 62
3
 10
9483.431664011091900
 20
-8207.919878064261900
  0
VERTEX
  8
4
  6
CONTINUOUS
 62
3
 10
9487.674621902679100
 20
-8216.032820023736300
  0
VERTEX
  8
4
  6
CONTINUOUS
 62
3
 10
9491.630894852940400
 20
-8224.270448590737900
  0
VERTEX
  8
4
  6
CONTINUOUS
 62
3
 10
9495.310368549509800
 20
-8232.628464227076600
  0
VERTEX
  8
4
  6
CONTINUOUS
 62
3
 10
9498.722928680015700
 20
-8241.102567394558700
  0
VERTEX
  8
4
  6
CONTINUOUS
 62
3
 10
9501.878460932091900
 20
-8249.688458554997900
  0
VERTEX
  8
4
  6
CONTINUOUS
 62
3
 10
9504.786850993368700
 20
-8258.381838170200400
  0
VERTEX
  8
4
  6
CONTINUOUS
 62
3
 10
9507.457984551480000
 20
-8267.178406701978000
  0
VERTEX
  8
4
  6
CONTINUOUS
 62
3
 10
9509.901747294057700
 20
-8276.073864612139000
  0
VERTEX
  8
4
  6
CONTINUOUS
 62
3
 10
9512.128024908732200
 20
-8285.063912362489600
  0
VERTEX
  8
4
  6
CONTINUOUS
 62
3
 10
9514.146703083137300
 20
-8294.144250414845400
  0
VERTEX
  8
4
  6
CONTINUOUS
 62
3
 10
9515.967667504901300
 20
-8303.310579231012500
  0
VERTEX
  8
4
  6
CONTINUOUS
 62
3
 10
9517.600803861660100
 20
-8312.558599272801100
  0
VERTEX
  8
4
  6
CONTINUOUS
 62
3
 10
9519.055997841045600
 20
-8321.884011002019200
  0
VERTEX
  8
4
  6
CONTINUOUS
 62
3
 10
9520.343135130686300
 20
-8331.282514880476800
  0
VERTEX
  8
4
  6
CONTINUOUS
 62
3
 10
9521.472101418216000
 20
-8340.749811369983900
  0
VERTEX
  8
4
  6
CONTINUOUS
 62
3
 10
9522.452782391266700
 20
-8350.281600932350600
  0
VERTEX
  8
4
  6
CONTINUOUS
 62
3
 10
9524.008831144459700
 20
-8369.521461122898500
  0
VERTEX
  8
4
  6
CONTINUOUS
 62
3
 10
9525.090366891321500
 20
-8388.967699146593100
  0
VERTEX
  8
4
  6
CONTINUOUS
 62
3
 10
9525.776475132905000
 20
-8408.585918697910500
  0
VERTEX
  8
4
  6
CONTINUOUS
 62
3
 10
9526.146241370264800
 20
-8428.341723471327000
  0
VERTEX
  8
4
  6
CONTINUOUS
 62
3
 10
9526.278751104462600
 20
-8448.200717161316800
  0
VERTEX
  8
4
  6
CONTINUOUS
 62
3
 10
9526.148343067576200
 20
-8488.090686068921100
  0
SEQEND
  8
4
  0
POLYLINE
  8
4
  6
CONTINUOUS
 62
3
 66
1
  0
VERTEX
  8
4
  6
CONTINUOUS
 62
3
 10
-533.709394597302660
 20
-5572.718526858217000
  0
VERTEX
  8
4
  6
CONTINUOUS
 62
3
 10
-276.427187394430460
 20
-5717.249406681074100
  0
VERTEX
  8
4
  6
CONTINUOUS
 62
3
 10
-147.859203174732980
 20
-5789.631232252120800
  0
VERTEX
  8
4
  6
CONTINUOUS
 62
3
 10
-19.378962213121724
 20
-5862.152720614710200
  0
VERTEX
  8
4
  6
CONTINUOUS
 62
3
 10
108.984287737707830
 20
-5934.860426032689200
  0
VERTEX
  8
4
  6
CONTINUOUS
 62
3
 10
237.201298925060290
 20
-6007.800902769907200
  0
VERTEX
  8
4
  6
CONTINUOUS
 62
3
 10
365.242823596240160
 20
-6081.020705090210000
  0
VERTEX
  8
4
  6
CONTINUOUS
 62
3
 10
493.079613998552020
 20
-6154.566387257444100
  0
VERTEX
  8
4
  6
CONTINUOUS
 62
3
 10
620.682422379300530
 20
-6228.484503535459200
  0
VERTEX
  8
4
  6
CONTINUOUS
 62
3
 10
748.022000985790210
 20
-6302.821608188101900
  0
VERTEX
  8
4
  6
CONTINUOUS
 62
3
 10
875.069102065325640
 20
-6377.624255479218800
  0
VERTEX
  8
4
  6
CONTINUOUS
 62
3
 10
938.473833609768120
 20
-6415.214705821659700
  0
VERTEX
  8
4
  6
CONTINUOUS
 62
3
 10
1001.794477865211400
 20
-6452.938999672660400
  0
VERTEX
  8
4
  6
CONTINUOUS
 62
3
 10
1065.027378862568400
 20
-6490.802956315204000
  0
VERTEX
  8
4
  6
CONTINUOUS
 62
3
 10
1128.168880632752200
 20
-6528.812395032271500
  0
VERTEX
  8
4
  6
CONTINUOUS
 62
3
 10
1191.215327206675700
 20
-6566.973135106843100
  0
VERTEX
  8
4
  6
CONTINUOUS
 62
3
 10
1254.163062615252300
 20
-6605.290995821899700
  0
VERTEX
  8
4
  6
CONTINUOUS
 62
3
 10
1317.008430889394700
 20
-6643.771796460421700
  0
VERTEX
  8
4
  6
CONTINUOUS
 62
3
 10
1379.747776060016300
 20
-6682.421356305392700
  0
VERTEX
  8
4
  6
CONTINUOUS
 62
3
 10
1442.377442158030400
 20
-6721.245494639792000
  0
VERTEX
  8
4
  6
CONTINUOUS
 62
3
 10
1504.893773214349500
 20
-6760.250030746599800
  0
VERTEX
  8
4
  6
CONTINUOUS
 62
3
 10
1504.893773214349500
 20
-6760.250030746599800
  0
VERTEX
  8
4
  6
CONTINUOUS
 62
3
 10
1578.461627976422300
 20
-6806.474657073736100
  0
VERTEX
  8
4
  6
CONTINUOUS
 62
3
 10
1651.888000168253700
 20
-6852.932523809242400
  0
VERTEX
  8
4
  6
CONTINUOUS
 62
3
 10
1725.194061087815700
 20
-6899.597971774383000
  0
VERTEX
  8
4
  6
CONTINUOUS
 62
3
 10
1798.400982033080700
 20
-6946.445341790420600
  0
VERTEX
  8
4
  6
CONTINUOUS
 62
3
 10
1871.529934302020400
 20
-6993.448974678619400
  0
VERTEX
  8
4
  6
CONTINUOUS
 62
3
 10
1944.602089192607500
 20
-7040.583211260243800
  0
VERTEX
  8
4
  6
CONTINUOUS
 62
3
 10
2090.660692030611200
 20
-7135.140858788825400
  0
VERTEX
  8
4
  6
CONTINUOUS
 62
3
 10
2090.660692030611200
 20
-7135.140858788825400
  0
VERTEX
  8
4
  6
CONTINUOUS
 62
3
 10
2176.356528337660200
 20
-7190.759301548866500
  0
VERTEX
  8
4
  6
CONTINUOUS
 62
3
 10
2261.991054462299900
 20
-7246.506659642961500
  0
VERTEX
  8
4
  6
CONTINUOUS
 62
3
 10
2347.493708353111700
 20
-7302.437979420951700
  0
VERTEX
  8
4
  6
CONTINUOUS
 62
3
 10
2432.793927958676700
 20
-7358.608307232678300
  0
VERTEX
  8
4
  6
CONTINUOUS
 62
3
 10
2517.821151227575700
 20
-7415.072689427985100
  0
VERTEX
  8
4
  6
CONTINUOUS
 62
3
 10
2602.504816108389200
 20
-7471.886172356711500
  0
VERTEX
  8
4
  6
CONTINUOUS
 62
3
 10
2644.695763512195300
 20
-7500.441028580434200
  0
VERTEX
  8
4
  6
CONTINUOUS
 62
3
 10
2686.774360549698000
 20
-7529.103802368701500
  0
VERTEX
  8
4
  6
CONTINUOUS
 62
3
 10
2728.731786964470300
 20
-7557.881374515245600
  0
VERTEX
  8
4
  6
CONTINUOUS
 62
3
 10
2770.559222500083700
 20
-7586.780625813797100
  0
VERTEX
  8
4
  6
CONTINUOUS
 62
3
 10
2770.559222500083700
 20
-7586.780625813797100
  0
VERTEX
  8
4
  6
CONTINUOUS
 62
3
 10
2822.743902091893700
 20
-7623.149792126860100
  0
VERTEX
  8
4
  6
CONTINUOUS
 62
3
 10
2874.748246935983800
 20
-7659.747183044824900
  0
VERTEX
  8
4
  6
CONTINUOUS
 62
3
 10
2926.609545774230800
 20
-7696.599471158087000
  0
VERTEX
  8
4
  6
CONTINUOUS
 62
3
 10
2978.365087348511700
 20
-7733.733329057040500
  0
VERTEX
  8
4
  6
CONTINUOUS
 62
3
 10
3030.052160400703100
 20
-7771.175429332080100
  0
VERTEX
  8
4
  6
CONTINUOUS
 62
3
 10
3081.708053672680800
 20
-7808.952444573600600
  0
VERTEX
  8
4
  6
CONTINUOUS
 62
3
 10
3133.370055906322700
 20
-7847.091047371995000
  0
VERTEX
  8
4
  6
CONTINUOUS
 62
3
 10
3185.075455843503700
 20
-7885.617910317658200
  0
VERTEX
  8
4
  6
CONTINUOUS
 62
3
 10
3185.075455843503700
 20
-7885.617910317658200
  0
VERTEX
  8
4
  6
CONTINUOUS
 62
3
 10
3212.973294093702900
 20
-7906.571616056748100
  0
VERTEX
  8
4
  6
CONTINUOUS
 62
3
 10
3240.812612157119500
 20
-7927.699169627090700
  0
VERTEX
  8
4
  6
CONTINUOUS
 62
3
 10
3268.511428284453400
 20
-7949.053766991899500
  0
VERTEX
  8
4
  6
CONTINUOUS
 62
3
 10
3295.987760726406100
 20
-7970.688604114391600
  0
VERTEX
  8
4
  6
CONTINUOUS
 62
3
 10
3323.159627733677600
 20
-7992.656876957779800
  0
VERTEX
  8
4
  6
CONTINUOUS
 62
3
 10
3336.605767402652400
 20
-8003.782675513314600
  0
VERTEX
  8
4
  6
CONTINUOUS
 62
3
 10
3349.945047556969300
 20
-8015.011781485278300
  0
VERTEX
  8
4
  6
CONTINUOUS
 62
3
 10
3363.167220477966100
 20
-8026.350844369073500
  0
VERTEX
  8
4
  6
CONTINUOUS
 62
3
 10
3376.262038446981000
 20
-8037.806513660102600
  0
VERTEX
  8
4
  6
CONTINUOUS
 62
3
 10
3389.219253745351100
 20
-8049.385438853765700
  0
VERTEX
  8
4
  6
CONTINUOUS
 62
3
 10
3402.028618654413500
 20
-8061.094269445466100
  0
VERTEX
  8
4
  6
CONTINUOUS
 62
3
 10
3414.679885455506300
 20
-8072.939654930605700
  0
VERTEX
  8
4
  6
CONTINUOUS
 62
3
 10
3427.162806429967500
 20
-8084.928244804584200
  0
VERTEX
  8
4
  6
CONTINUOUS
 62
3
 10
3439.467133859133800
 20
-8097.066688562805200
  0
VERTEX
  8
4
  6
CONTINUOUS
 62
3
 10
3451.582620024343700
 20
-8109.361635700672200
  0
VERTEX
  8
4
  6
CONTINUOUS
 62
3
 10
3463.499017206934200
 20
-8121.819735713584100
  0
VERTEX
  8
4
  6
CONTINUOUS
 62
3
 10
3475.206077688242700
 20
-8134.447638096942700
  0
VERTEX
  8
4
  6
CONTINUOUS
 62
3
 10
3486.693553749607400
 20
-8147.251992346151400
  0
VERTEX
  8
4
  6
CONTINUOUS
 62
3
 10
3497.951197672365200
 20
-8160.239447956611000
  0
VERTEX
  8
4
  6
CONTINUOUS
 62
3
 10
3508.968761737854000
 20
-8173.416654423723200
  0
VERTEX
  8
4
  6
CONTINUOUS
 62
3
 10
3519.735998227411100
 20
-8186.790261242891600
  0
VERTEX
  8
4
  6
CONTINUOUS
 62
3
 10
3530.242659422374300
 20
-8200.366917909515900
  0
VERTEX
  8
4
  6
CONTINUOUS
 62
3
 10
3540.478497604081900
 20
-8214.153273919000600
  0
VERTEX
  8
4
  6
CONTINUOUS
 62
3
 10
3550.433265053869900
 20
-8228.155978766744700
  0
VERTEX
  8
4
  6
CONTINUOUS
 62
3
 10
3560.096714053077000
 20
-8242.381681948150800
  0
VERTEX
  8
4
  6
CONTINUOUS
 62
3
 10
3569.458596883040600
 20
-8256.837032958621400
  0
VERTEX
  8
4
  6
CONTINUOUS
 62
3
 10
3578.508665825098400
 20
-8271.528681293555600
  0
VERTEX
  8
4
  6
CONTINUOUS
 62
3
 10
3578.508665825098400
 20
-8271.528681293555600
  0
VERTEX
  8
4
  6
CONTINUOUS
 62
3
 10
3584.367124971439800
 20
-8281.464419765099600
  0
VERTEX
  8
4
  6
CONTINUOUS
 62
3
 10
3590.073050729950400
 20
-8291.505245382197200
  0
VERTEX
  8
4
  6
CONTINUOUS
 62
3
 10
3595.617265762161000
 20
-8301.648104811713000
  0
VERTEX
  8
4
  6
CONTINUOUS
 62
3
 10
3600.990592729599500
 20
-8311.889944720516700
  0
VERTEX
  8
4
  6
CONTINUOUS
 62
3
 10
3606.183854293796700
 20
-8322.227711775472900
  0
VERTEX
  8
4
  6
CONTINUOUS
 62
3
 10
3611.187873116281000
 20
-8332.658352643446100
  0
VERTEX
  8
4
  6
CONTINUOUS
 62
3
 10
3615.993471858582300
 20
-8343.178813991304200
  0
VERTEX
  8
4
  6
CONTINUOUS
 62
3
 10
3620.591473182230400
 20
-8353.786042485915500
  0
VERTEX
  8
4
  6
CONTINUOUS
 62
3
 10
3624.972699748754200
 20
-8364.476984794146100
  0
VERTEX
  8
4
  6
CONTINUOUS
 62
3
 10
3629.127974219683000
 20
-8375.248587582860600
  0
VERTEX
  8
4
  6
CONTINUOUS
 62
3
 10
3633.048119256546200
 20
-8386.097797518923500
  0
VERTEX
  8
4
  6
CONTINUOUS
 62
3
 10
3636.723957520874100
 20
-8397.021561269208200
  0
VERTEX
  8
4
  6
CONTINUOUS
 62
3
 10
3640.146311674195200
 20
-8408.016825500577400
  0
VERTEX
  8
4
  6
CONTINUOUS
 62
3
 10
3643.306004378039200
 20
-8419.080536879897400
  0
VERTEX
  8
4
  6
CONTINUOUS
 62
3
 10
3646.193858293935600
 20
-8430.209642074038100
  0
VERTEX
  8
4
  6
CONTINUOUS
 62
3
 10
3648.800696083413600
 20
-8441.401087749862200
  0
VERTEX
  8
4
  6
CONTINUOUS
 62
3
 10
3648.800696083413600
 20
-8441.401087749862200
  0
VERTEX
  8
4
  6
CONTINUOUS
 62
3
 10
3651.202583280111900
 20
-8453.018167127218500
  0
VERTEX
  8
4
  6
CONTINUOUS
 62
3
 10
3653.372376379592400
 20
-8464.682663827445100
  0
VERTEX
  8
4
  6
CONTINUOUS
 62
3
 10
3657.325139083189700
 20
-8488.090686099352800
  0
SEQEND
  8
4
  0
POLYLINE
  8
4
  6
CONTINUOUS
 62
3
 66
1
  0
VERTEX
  8
4
  6
CONTINUOUS
 62
3
 10
-533.709394597301300
 20
-5572.718526858218000
  0
VERTEX
  8
4
  6
CONTINUOUS
 62
3
 10
-166.325262528034950
 20
-5764.969033725987200
  0
VERTEX
  8
4
  6
CONTINUOUS
 62
3
 10
17.290907168831684
 20
-5861.233580424976000
  0
VERTEX
  8
4
  6
CONTINUOUS
 62
3
 10
200.816001260378500
 20
-5957.665279042092200
  0
VERTEX
  8
4
  6
CONTINUOUS
 62
3
 10
384.219661211498870
 20
-6054.319846883378000
  0
VERTEX
  8
4
  6
CONTINUOUS
 62
3
 10
567.471528487086290
 20
-6151.253001254873200
  0
VERTEX
  8
4
  6
CONTINUOUS
 62
3
 10
750.541244552033960
 20
-6248.520459462621100
  0
VERTEX
  8
4
  6
CONTINUOUS
 62
3
 10
933.398450871235350
 20
-6346.177938812665200
  0
VERTEX
  8
4
  6
CONTINUOUS
 62
3
 10
1116.012788909583800
 20
-6444.281156611044900
  0
VERTEX
  8
4
  6
CONTINUOUS
 62
3
 10
1207.219395281217700
 20
-6493.517329086500500
  0
VERTEX
  8
4
  6
CONTINUOUS
 62
3
 10
1298.353900131973200
 20
-6542.885830163805600
  0
VERTEX
  8
4
  6
CONTINUOUS
 62
3
 10
1389.412508644962100
 20
-6592.393624506215900
  0
VERTEX
  8
4
  6
CONTINUOUS
 62
3
 10
1480.391426003296100
 20
-6642.047676776986900
  0
VERTEX
  8
4
  6
CONTINUOUS
 62
3
 10
1571.286857390086900
 20
-6691.854951639374100
  0
VERTEX
  8
4
  6
CONTINUOUS
 62
3
 10
1662.095007988446500
 20
-6741.822413756632200
  0
VERTEX
  8
4
  6
CONTINUOUS
 62
3
 10
1752.812082981486100
 20
-6791.957027792017500
  0
VERTEX
  8
4
  6
CONTINUOUS
 62
3
 10
1843.434287552317500
 20
-6842.265758408783800
  0
VERTEX
  8
4
  6
CONTINUOUS
 62
3
 10
1933.957826884052300
 20
-6892.755570270187500
  0
VERTEX
  8
4
  6
CONTINUOUS
 62
3
 10
2024.378906159802700
 20
-6943.433428039483300
  0
VERTEX
  8
4
  6
CONTINUOUS
 62
3
 10
2114.693730562679800
 20
-6994.306296379926600
  0
VERTEX
  8
4
  6
CONTINUOUS
 62
3
 10
2204.898505275795300
 20
-7045.381139954773100
  0
VERTEX
  8
4
  6
CONTINUOUS
 62
3
 10
2294.989435482260900
 20
-7096.664923427277200
  0
VERTEX
  8
4
  6
CONTINUOUS
 62
3
 10
2384.962726365189200
 20
-7148.164611460695600
  0
VERTEX
  8
4
  6
CONTINUOUS
 62
3
 10
2384.962726365189200
 20
-7148.164611460695600
  0
VERTEX
  8
4
  6
CONTINUOUS
 62
3
 10
2457.533072988911000
 20
-7189.913835173452800
  0
VERTEX
  8
4
  6
CONTINUOUS
 62
3
 10
2530.024814648911200
 20
-7231.800467850436700
  0
VERTEX
  8
4
  6
CONTINUOUS
 62
3
 10
2674.774833806021000
 20
-7315.954223912647600
  0
VERTEX
  8
4
  6
CONTINUOUS
 62
3
 10
2819.217485293073400
 20
-7400.562407278448500
  0
VERTEX
  8
4
  6
CONTINUOUS
 62
3
 10
2963.357470566621500
 20
-7485.561545578955700
  0
VERTEX
  8
4
  6
CONTINUOUS
 62
3
 10
2963.357470566621500
 20
-7485.561545578955700
  0
VERTEX
  8
4
  6
CONTINUOUS
 62
3
 10
3077.185922360800300
 20
-7553.117123934391200
  0
VERTEX
  8
4
  6
CONTINUOUS
 62
3
 10
3133.995230249549000
 20
-7587.074461248897900
  0
VERTEX
  8
4
  6
CONTINUOUS
 62
3
 10
3190.715951596555900
 20
-7621.206244650785300
  0
VERTEX
  8
4
  6
CONTINUOUS
 62
3
 10
3247.334105499684500
 20
-7655.553534637194400
  0
VERTEX
  8
4
  6
CONTINUOUS
 62
3
 10
3303.835711056799000
 20
-7690.157391705264700
  0
VERTEX
  8
4
  6
CONTINUOUS
 62
3
 10
3360.206787365763400
 20
-7725.058876352138200
  0
VERTEX
  8
4
  6
CONTINUOUS
 62
3
 10
3416.433353524440500
 20
-7760.299049074954400
  0
VERTEX
  8
4
  6
CONTINUOUS
 62
3
 10
3416.433353524440500
 20
-7760.299049074954400
  0
VERTEX
  8
4
  6
CONTINUOUS
 62
3
 10
3458.595684015095200
 20
-7787.055329158982200
  0
VERTEX
  8
4
  6
CONTINUOUS
 62
3
 10
3500.584681971668000
 20
-7814.103415197099800
  0
VERTEX
  8
4
  6
CONTINUOUS
 62
3
 10
3542.316627550288600
 20
-7841.520398869519300
  0
VERTEX
  8
4
  6
CONTINUOUS
 62
3
 10
3563.060043246657200
 20
-7855.391318468656200
  0
VERTEX
  8
4
  6
CONTINUOUS
 62
3
 10
3583.707800907086500
 20
-7869.383371856445600
  0
VERTEX
  8
4
  6
CONTINUOUS
 62
3
 10
3604.249435551093000
 20
-7883.506195492915100
  0
VERTEX
  8
4
  6
CONTINUOUS
 62
3
 10
3624.674482198192000
 20
-7897.769425838089800
  0
VERTEX
  8
4
  6
CONTINUOUS
 62
3
 10
3644.972475867900400
 20
-7912.182699351996200
  0
VERTEX
  8
4
  6
CONTINUOUS
 62
3
 10
3665.132951579734300
 20
-7926.755652494659400
  0
VERTEX
  8
4
  6
CONTINUOUS
 62
3
 10
3685.145444353209300
 20
-7941.497921726107100
  0
VERTEX
  8
4
  6
CONTINUOUS
 62
3
 10
3704.999489207842100
 20
-7956.419143506364000
  0
VERTEX
  8
4
  6
CONTINUOUS
 62
3
 10
3724.684621163149100
 20
-7971.528954295456100
  0
VERTEX
  8
4
  6
CONTINUOUS
 62
3
 10
3744.190375238646100
 20
-7986.836990553409100
  0
VERTEX
  8
4
  6
CONTINUOUS
 62
3
 10
3744.190375238646100
 20
-7986.836990553409100
  0
VERTEX
  8
4
  6
CONTINUOUS
 62
3
 10
3770.616755789112200
 20
-8008.153604125275700
  0
VERTEX
  8
4
  6
CONTINUOUS
 62
3
 10
3796.698639958945500
 20
-8029.880755950747700
  0
VERTEX
  8
4
  6
CONTINUOUS
 62
3
 10
3822.448045868211500
 20
-8052.038630958171800
  0
VERTEX
  8
4
  6
CONTINUOUS
 62
3
 10
3847.876991636975600
 20
-8074.647414075898300
  0
VERTEX
  8
4
  6
CONTINUOUS
 62
3
 10
3872.997495385303400
 20
-8097.727290232275700
  0
VERTEX
  8
4
  6
CONTINUOUS
 62
3
 10
3897.821575233261200
 20
-8121.298444355652500
  0
VERTEX
  8
4
  6
CONTINUOUS
 62
3
 10
3922.361249300914100
 20
-8145.381061374379000
  0
VERTEX
  8
4
  6
CONTINUOUS
 62
3
 10
3946.628535708328900
 20
-8169.995326216801900
  0
VERTEX
  8
4
  6
CONTINUOUS
 62
3
 10
3946.628535708328900
 20
-8169.995326216801900
  0
VERTEX
  8
4
  6
CONTINUOUS
 62
3
 10
3965.956648314694100
 20
-8190.244237369954100
  0
VERTEX
  8
4
  6
CONTINUOUS
 62
3
 10
3975.482474403295800
 20
-8200.524158090054700
  0
VERTEX
  8
4
  6
CONTINUOUS
 62
3
 10
3984.876252234234500
 20
-8210.918941198642600
  0
VERTEX
  8
4
  6
CONTINUOUS
 62
3
 10
3994.108060721554000
 20
-8221.437000915324500
  0
VERTEX
  8
4
  6
CONTINUOUS
 62
3
 10
4003.147978779297800
 20
-8232.086751459708500
  0
VERTEX
  8
4
  6
CONTINUOUS
 62
3
 10
4011.966085321508700
 20
-8242.876607051392100
  0
VERTEX
  8
4
  6
CONTINUOUS
 62
3
 10
4020.532459262231000
 20
-8253.814981909985400
  0
VERTEX
  8
4
  6
CONTINUOUS
 62
3
 10
4028.817179515507200
 20
-8264.910290255091200
  0
VERTEX
  8
4
  6
CONTINUOUS
 62
3
 10
4036.790324995380600
 20
-8276.170946306316200
  0
VERTEX
  8
4
  6
CONTINUOUS
 62
3
 10
4044.421974615895600
 20
-8287.605364283261200
  0
VERTEX
  8
4
  6
CONTINUOUS
 62
3
 10
4051.682207291094500
 20
-8299.221958405534700
  0
VERTEX
  8
4
  6
CONTINUOUS
 62
3
 10
4058.541101935021300
 20
-8311.029142892741200
  0
VERTEX
  8
4
  6
CONTINUOUS
 62
3
 10
4064.968737461719700
 20
-8323.035331964481900
  0
VERTEX
  8
4
  6
CONTINUOUS
 62
3
 10
4070.935192785232200
 20
-8335.248939840361300
  0
VERTEX
  8
4
  6
CONTINUOUS
 62
3
 10
4076.410546819603000
 20
-8347.678380739987900
  0
VERTEX
  8
4
  6
CONTINUOUS
 62
3
 10
4076.410546819603000
 20
-8347.678380739987900
  0
VERTEX
  8
4
  6
CONTINUOUS
 62
3
 10
4079.737010029162800
 20
-8355.983204451833400
  0
VERTEX
  8
4
  6
CONTINUOUS
 62
3
 10
4082.851691089883800
 20
-8364.379178880688400
  0
VERTEX
  8
4
  6
CONTINUOUS
 62
3
 10
4085.768708811688200
 20
-8372.860227312085000
  0
VERTEX
  8
4
  6
CONTINUOUS
 62
3
 10
4088.502182004498500
 20
-8381.420273031553700
  0
VERTEX
  8
4
  6
CONTINUOUS
 62
3
 10
4091.066229478237300
 20
-8390.053239324630300
  0
VERTEX
  8
4
  6
CONTINUOUS
 62
3
 10
4093.474970042827400
 20
-8398.753049476848900
  0
VERTEX
  8
4
  6
CONTINUOUS
 62
3
 10
4097.883005684252600
 20
-8416.328894500833500
  0
VERTEX
  8
4
  6
CONTINUOUS
 62
3
 10
4101.839239408153800
 20
-8434.099194387770700
  0
VERTEX
  8
4
  6
CONTINUOUS
 62
3
 10
4105.456621693913800
 20
-8452.015335421925600
  0
VERTEX
  8
4
  6
CONTINUOUS
 62
3
 10
4108.848103020911400
 20
-8470.028703887554000
  0
VERTEX
  8
4
  6
CONTINUOUS
 62
3
 10
4112.126633868528200
 20
-8488.090686068921100
  0
SEQEND
  8
4
  0
POLYLINE
  8
4
  6
CONTINUOUS
 62
3
 66
1
  0
VERTEX
  8
4
  6
CONTINUOUS
 62
3
 10
-473.904149464387960
 20
-5428.335902443481200
  0
VERTEX
  8
4
  6
CONTINUOUS
 62
3
 10
-81.404437537921524
 20
-5539.162941364250400
  0
VERTEX
  8
4
  6
CONTINUOUS
 62
3
 10
114.795676768559100
 20
-5594.725255471555100
  0
VERTEX
  8
4
  6
CONTINUOUS
 62
3
 10
310.936101086936620
 20
-5650.466123155164500
  0
VERTEX
  8
4
  6
CONTINUOUS
 62
3
 10
506.996938754510040
 20
-5706.445062273847700
  0
VERTEX
  8
4
  6
CONTINUOUS
 62
3
 10
702.958293108578350
 20
-5762.721590686371200
  0
VERTEX
  8
4
  6
CONTINUOUS
 62
3
 10
898.800267486440480
 20
-5819.355226251504100
  0
VERTEX
  8
4
  6
CONTINUOUS
 62
3
 10
1094.502965225395400
 20
-5876.405486828014500
  0
VERTEX
  8
4
  6
CONTINUOUS
 62
3
 10
1290.046489662742300
 20
-5933.931890274670900
  0
VERTEX
  8
4
  6
CONTINUOUS
 62
3
 10
1387.752344186218400
 20
-5962.892244905168800
  0
VERTEX
  8
4
  6
CONTINUOUS
 62
3
 10
1485.410944135779800
 20
-5991.993954450241300
  0
VERTEX
  8
4
  6
CONTINUOUS
 62
3
 10
1583.019802428588700
 20
-6021.244458642234300
  0
VERTEX
  8
4
  6
CONTINUOUS
 62
3
 10
1680.576431981807200
 20
-6050.651197213494000
  0
VERTEX
  8
4
  6
CONTINUOUS
 62
3
 10
1778.078345712597900
 20
-6080.221609896366300
  0
VERTEX
  8
4
  6
CONTINUOUS
 62
3
 10
1875.523056538123200
 20
-6109.963136423196400
  0
VERTEX
  8
4
  6
CONTINUOUS
 62
3
 10
1972.908077375545600
 20
-6139.883216526331100
  0
VERTEX
  8
4
  6
CONTINUOUS
 62
3
 10
2070.230921142027500
 20
-6169.989289938117500
  0
VERTEX
  8
4
  6
CONTINUOUS
 62
3
 10
2167.489100754730800
 20
-6200.288796390900600
  0
VERTEX
  8
4
  6
CONTINUOUS
 62
3
 10
2264.680129130817900
 20
-6230.789175617026600
  0
VERTEX
  8
4
  6
CONTINUOUS
 62
3
 10
2361.801519187452000
 20
-6261.497867348841300
  0
VERTEX
  8
4
  6
CONTINUOUS
 62
3
 10
2458.850783841794500
 20
-6292.422311318689900
  0
VERTEX
  8
4
  6
CONTINUOUS
 62
3
 10
2555.825436011007700
 20
-6323.569947258919500
  0
VERTEX
  8
4
  6
CONTINUOUS
 62
3
 10
2652.722988612255000
 20
-6354.948214901876800
  0
VERTEX
  8
4
  6
CONTINUOUS
 62
3
 10
2652.722988612255000
 20
-6354.948214901876800
  0
VERTEX
  8
4
  6
CONTINUOUS
 62
3
 10
2801.511338191648500
 20
-6403.625869482752000
  0
VERTEX
  8
4
  6
CONTINUOUS
 62
3
 10
2950.143949604748700
 20
-6452.776193843596000
  0
VERTEX
  8
4
  6
CONTINUOUS
 62
3
 10
3098.653112798700900
 20
-6502.309400086513100
  0
VERTEX
  8
4
  6
CONTINUOUS
 62
3
 10
3247.071117720650400
 20
-6552.135700313607200
  0
VERTEX
  8
4
  6
CONTINUOUS
 62
3
 10
3543.762812537123000
 20
-6652.308431128741200
  0
VERTEX
  8
4
  6
CONTINUOUS
 62
3
 10
3840.477353631328700
 20
-6752.576083105826000
  0
VERTEX
  8
4
  6
CONTINUOUS
 62
3
 10
3988.923916400444800
 20
-6802.521034785359000
  0
VERTEX
  8
4
  6
CONTINUOUS
 62
3
 10
4137.473060580428900
 20
-6852.220353061690700
  0
VERTEX
  8
4
  6
CONTINUOUS
 62
3
 10
4286.157076118428400
 20
-6901.584250036924500
  0
VERTEX
  8
4
  6
CONTINUOUS
 62
3
 10
4435.008252961588400
 20
-6950.522937813163500
  0
VERTEX
  8
4
  6
CONTINUOUS
 62
3
 10
4509.506617481085400
 20
-6974.804769533568100
  0
VERTEX
  8
4
  6
CONTINUOUS
 62
3
 10
4584.058881057051600
 20
-6998.946628492512900
  0
VERTEX
  8
4
  6
CONTINUOUS
 62
3
 10
4658.669079932880800
 20
-7022.937291202761100
  0
VERTEX
  8
4
  6
CONTINUOUS
 62
3
 10
4733.341250351966700
 20
-7046.765534177075100
  0
VERTEX
  8
4
  6
CONTINUOUS
 62
3
 10
4808.079428557701200
 20
-7070.420133928219000
  0
VERTEX
  8
4
  6
CONTINUOUS
 62
3
 10
4882.887650793477400
 20
-7093.889866968953400
  0
VERTEX
  8
4
  6
CONTINUOUS
 62
3
 10
4957.769953302689800
 20
-7117.163509812044100
  0
VERTEX
  8
4
  6
CONTINUOUS
 62
3
 10
5032.730372328729600
 20
-7140.229838970251900
  0
VERTEX
  8
4
  6
CONTINUOUS
 62
3
 10
5032.730372328729600
 20
-7140.229838970251900
  0
VERTEX
  8
4
  6
CONTINUOUS
 62
3
 10
5091.156606567847100
 20
-7158.039750111322100
  0
VERTEX
  8
4
  6
CONTINUOUS
 62
3
 10
5149.633094738487700
 20
-7175.708887363815800
  0
VERTEX
  8
4
  6
CONTINUOUS
 62
3
 10
5208.160278717229600
 20
-7193.228983471866700
  0
VERTEX
  8
4
  6
CONTINUOUS
 62
3
 10
5266.738600380652300
 20
-7210.591771179610100
  0
VERTEX
  8
4
  6
CONTINUOUS
 62
3
 10
5325.368501605335000
 20
-7227.788983231179400
  0
VERTEX
  8
4
  6
CONTINUOUS
 62
3
 10
5384.050424267856200
 20
-7244.812352370709000
  0
VERTEX
  8
4
  6
CONTINUOUS
 62
3
 10
5442.784810244794200
 20
-7261.653611342333500
  0
VERTEX
  8
4
  6
CONTINUOUS
 62
3
 10
5501.572101412729400
 20
-7278.304492890187200
  0
VERTEX
  8
4
  6
CONTINUOUS
 62
3
 10
5560.412739648239900
 20
-7294.756729758404600
  0
VERTEX
  8
4
  6
CONTINUOUS
 62
3
 10
5619.307166827904400
 20
-7311.002054691120100
  0
VERTEX
  8
4
  6
CONTINUOUS
 62
3
 10
5678.255824828302100
 20
-7327.032200432468000
  0
VERTEX
  8
4
  6
CONTINUOUS
 62
3
 10
5737.259155526013300
 20
-7342.838899726582900
  0
VERTEX
  8
4
  6
CONTINUOUS
 62
3
 10
5796.317600797615300
 20
-7358.413885317599100
  0
VERTEX
  8
4
  6
CONTINUOUS
 62
3
 10
5855.431602519685800
 20
-7373.748889949649300
  0
VERTEX
  8
4
  6
CONTINUOUS
 62
3
 10
5914.601602568805900
 20
-7388.835646366870600
  0
VERTEX
  8
4
  6
CONTINUOUS
 62
3
 10
5973.828042821554800
 20
-7403.665887313395600
  0
VERTEX
  8
4
  6
CONTINUOUS
 62
3
 10
6033.111365154510200
 20
-7418.231345533358800
  0
VERTEX
  8
4
  6
CONTINUOUS
 62
3
 10
6092.452011444251200
 20
-7432.523753770894500
  0
VERTEX
  8
4
  6
CONTINUOUS
 62
3
 10
6151.850423567357200
 20
-7446.534844770139000
  0
VERTEX
  8
4
  6
CONTINUOUS
 62
3
 10
6211.307043400405700
 20
-7460.256351275224000
  0
VERTEX
  8
4
  6
CONTINUOUS
 62
3
 10
6270.822312819977000
 20
-7473.680006030283900
  0
VERTEX
  8
4
  6
CONTINUOUS
 62
3
 10
6330.396673702649400
 20
-7486.797541779455100
  0
VERTEX
  8
4
  6
CONTINUOUS
 62
3
 10
6390.030567925003200
 20
-7499.600691266869900
  0
VERTEX
  8
4
  6
CONTINUOUS
 62
3
 10
6449.724437363615800
 20
-7512.081187236664800
  0
VERTEX
  8
4
  6
CONTINUOUS
 62
3
 10
6509.478723895066700
 20
-7524.230762432972400
  0
VERTEX
  8
4
  6
CONTINUOUS
 62
3
 10
6569.293869395935000
 20
-7536.041149599928800
  0
VERTEX
  8
4
  6
CONTINUOUS
 62
3
 10
6629.170315742798300
 20
-7547.504081481665700
  0
VERTEX
  8
4
  6
CONTINUOUS
 62
3
 10
6689.108504812236800
 20
-7558.611290822318600
  0
VERTEX
  8
4
  6
CONTINUOUS
 62
3
 10
6749.108878480830800
 20
-7569.354510366023500
  0
VERTEX
  8
4
  6
CONTINUOUS
 62
3
 10
6809.171878625155800
 20
-7579.725472856913300
  0
VERTEX
  8
4
  6
CONTINUOUS
 62
3
 10
6869.297947121793200
 20
-7589.715911039122100
  0
VERTEX
  8
4
  6
CONTINUOUS
 62
3
 10
6929.487525847322100
 20
-7599.317557656784600
  0
VERTEX
  8
4
  6
CONTINUOUS
 62
3
 10
6929.487525847322100
 20
-7599.317557656784600
  0
VERTEX
  8
4
  6
CONTINUOUS
 62
3
 10
6997.045973643570500
 20
-7609.616024017171200
  0
VERTEX
  8
4
  6
CONTINUOUS
 62
3
 10
7064.680004568765100
 20
-7619.438799327159400
  0
VERTEX
  8
4
  6
CONTINUOUS
 62
3
 10
7132.384811261706100
 20
-7628.809312197162400
  0
VERTEX
  8
4
  6
CONTINUOUS
 62
3
 10
7200.155586361193900
 20
-7637.750991237592600
  0
VERTEX
  8
4
  6
CONTINUOUS
 62
3
 10
7267.987522506029600
 20
-7646.287265058861500
  0
VERTEX
  8
4
  6
CONTINUOUS
 62
3
 10
7335.875812335011700
 20
-7654.441562271384100
  0
VERTEX
  8
4
  6
CONTINUOUS
 62
3
 10
7403.815648486941400
 20
-7662.237311485570900
  0
VERTEX
  8
4
  6
CONTINUOUS
 62
3
 10
7471.802223600618200
 20
-7669.697941311835200
  0
VERTEX
  8
4
  6
CONTINUOUS
 62
3
 10
7539.830730314841300
 20
-7676.846880360590100
  0
VERTEX
  8
4
  6
CONTINUOUS
 62
3
 10
7607.896361268412000
 20
-7683.707557242247300
  0
VERTEX
  8
4
  6
CONTINUOUS
 62
3
 10
7675.994309100129600
 20
-7690.303400567220700
  0
VERTEX
  8
4
  6
CONTINUOUS
 62
3
 10
7744.119766448793600
 20
-7696.657838945921000
  0
VERTEX
  8
4
  6
CONTINUOUS
 62
3
 10
7812.267925953205100
 20
-7702.794300988762200
  0
VERTEX
  8
4
  6
CONTINUOUS
 62
3
 10
7880.433980252162700
 20
-7708.736215306156700
  0
VERTEX
  8
4
  6
CONTINUOUS
 62
3
 10
7948.613121984468300
 20
-7714.507010508517900
  0
VERTEX
  8
4
  6
CONTINUOUS
 62
3
 10
8016.800543788918700
 20
-7720.130115206255100
  0
VERTEX
  8
4
  6
CONTINUOUS
 62
3
 10
8016.800543788918700
 20
-7720.130115206255100
  0
VERTEX
  8
4
  6
CONTINUOUS
 62
3
 10
8105.865490387912400
 20
-7727.276350974957500
  0
VERTEX
  8
4
  6
CONTINUOUS
 62
3
 10
8194.937654334531500
 20
-7734.175975682775100
  0
VERTEX
  8
4
  6
CONTINUOUS
 62
3
 10
8284.018329039730800
 20
-7740.794350875675300
  0
VERTEX
  8
4
  6
CONTINUOUS
 62
3
 10
8373.108807914462900
 20
-7747.096838099627300
  0
VERTEX
  8
4
  6
CONTINUOUS
 62
3
 10
8462.210384369684100
 20
-7753.048798900599600
  0
VERTEX
  8
4
  6
CONTINUOUS
 62
3
 10
8551.324351816341700
 20
-7758.615594824559600
  0
VERTEX
  8
4
  6
CONTINUOUS
 62
3
 10
8640.452003665393900
 20
-7763.762587417475500
  0
VERTEX
  8
4
  6
CONTINUOUS
 62
3
 10
8729.594633327793400
 20
-7768.455138225315700
  0
VERTEX
  8
4
  6
CONTINUOUS
 62
3
 10
8729.594633327793400
 20
-7768.455138225315700
  0
VERTEX
  8
4
  6
CONTINUOUS
 62
3
 10
8817.054307031576200
 20
-7772.592286007658000
  0
VERTEX
  8
4
  6
CONTINUOUS
 62
3
 10
8904.529920192495400
 20
-7776.280053568069000
  0
VERTEX
  8
4
  6
CONTINUOUS
 62
3
 10
8992.021755227428000
 20
-7779.539679788022100
  0
VERTEX
  8
4
  6
CONTINUOUS
 62
3
 10
9079.530094553250800
 20
-7782.392403548989000
  0
VERTEX
  8
4
  6
CONTINUOUS
 62
3
 10
9167.055220586846200
 20
-7784.859463732444100
  0
VERTEX
  8
4
  6
CONTINUOUS
 62
3
 10
9254.597415745092800
 20
-7786.962099219857900
  0
VERTEX
  8
4
  6
CONTINUOUS
 62
3
 10
9342.156962444871200
 20
-7788.721548892705000
  0
VERTEX
  8
4
  6
CONTINUOUS
 62
3
 10
9429.734143103063600
 20
-7790.159051632455900
  0
VERTEX
  8
4
  6
CONTINUOUS
 62
3
 10
9517.329240136543400
 20
-7791.295846320585000
  0
VERTEX
  8
4
  6
CONTINUOUS
 62
3
 10
9604.942535962194600
 20
-7792.153171838564000
  0
VERTEX
  8
4
  6
CONTINUOUS
 62
3
 10
9692.574312996896000
 20
-7792.752267067866300
  0
VERTEX
  8
4
  6
CONTINUOUS
 62
3
 10
9780.224853657524400
 20
-7793.114370889963500
  0
VERTEX
  8
4
  6
CONTINUOUS
 62
3
 10
9867.894440360962100
 20
-7793.260722186328200
  0
VERTEX
  8
4
  6
CONTINUOUS
 62
3
 10
9955.583355524086100
 20
-7793.212559838433700
  0
VERTEX
  8
4
  6
CONTINUOUS
 62
3
 10
10043.291881563778000
 20
-7792.991122727751600
  0
VERTEX
  8
4
  6
CONTINUOUS
 62
3
 10
10131.020300896922000
 20
-7792.617649735755500
  0
VERTEX
  8
4
  6
CONTINUOUS
 62
3
 10
10131.020300896922000
 20
-7792.617649735755500
  0
VERTEX
  8
4
  6
CONTINUOUS
 62
3
 10
10246.071360769608000
 20
-7791.877471075140400
  0
VERTEX
  8
4
  6
CONTINUOUS
 62
3
 10
10303.597977231107000
 20
-7791.333675301810200
  0
VERTEX
  8
4
  6
CONTINUOUS
 62
3
 10
10361.118960436058000
 20
-7790.626404197688300
  0
VERTEX
  8
4
  6
CONTINUOUS
 62
3
 10
10418.629542179478000
 20
-7789.719904486197300
  0
VERTEX
  8
4
  6
CONTINUOUS
 62
3
 10
10476.124954256381000
 20
-7788.578422890750500
  0
VERTEX
  8
4
  6
CONTINUOUS
 62
3
 10
10533.600428461781000
 20
-7787.166206134772400
  0
VERTEX
  8
4
  6
CONTINUOUS
 62
3
 10
10591.051196590691000
 20
-7785.447500941676500
  0
VERTEX
  8
4
  6
CONTINUOUS
 62
3
 10
10648.472490438125000
 20
-7783.386554034885200
  0
VERTEX
  8
4
  6
CONTINUOUS
 62
3
 10
10705.859541799094000
 20
-7780.947612137815700
  0
VERTEX
  8
4
  6
CONTINUOUS
 62
3
 10
10763.207582468618000
 20
-7778.094921973886800
  0
VERTEX
  8
4
  6
CONTINUOUS
 62
3
 10
10820.511844241706000
 20
-7774.792730266515700
  0
VERTEX
  8
4
  6
CONTINUOUS
 62
3
 10
10877.767558913372000
 20
-7771.005283739124900
  0
VERTEX
  8
4
  6
CONTINUOUS
 62
3
 10
10934.969958278632000
 20
-7766.696829115129700
  0
VERTEX
  8
4
  6
CONTINUOUS
 62
3
 10
10992.114274132498000
 20
-7761.831613117950800
  0
VERTEX
  8
4
  6
CONTINUOUS
 62
3
 10
11020.663160678601000
 20
-7759.179046705485200
  0
VERTEX
  8
4
  6
CONTINUOUS
 62
3
 10
11049.195738269987000
 20
-7756.373882471005300
  0
VERTEX
  8
4
  6
CONTINUOUS
 62
3
 10
11049.195738269987000
 20
-7756.373882471005300
  0
VERTEX
  8
4
  6
CONTINUOUS
 62
3
 10
11095.829450220460000
 20
-7751.465228675898300
  0
VERTEX
  8
4
  6
CONTINUOUS
 62
3
 10
11142.430181235715000
 20
-7746.237205378689400
  0
VERTEX
  8
4
  6
CONTINUOUS
 62
3
 10
11189.010174490431000
 20
-7740.790627797592600
  0
VERTEX
  8
4
  6
CONTINUOUS
 62
3
 10
11235.581673159293000
 20
-7735.226311150820000
  0
VERTEX
  8
4
  6
CONTINUOUS
 62
3
 10
11328.748159438175000
 20
-7724.147721533107000
  0
VERTEX
  8
4
  6
CONTINUOUS
 62
3
 10
11375.367633397552000
 20
-7718.835078998593400
  0
VERTEX
  8
4
  6
CONTINUOUS
 62
3
 10
11422.027585469801000
 20
-7713.807958271260800
  0
VERTEX
  8
4
  6
CONTINUOUS
 62
3
 10
11468.740258829597000
 20
-7709.167174569322000
  0
VERTEX
  8
4
  6
CONTINUOUS
 62
3
 10
11515.517896651621000
 20
-7705.013543110989300
  0
VERTEX
  8
4
  6
CONTINUOUS
 62
3
 10
11538.934903228057000
 20
-7703.150914228868700
  0
VERTEX
  8
4
  6
CONTINUOUS
 62
3
 10
11562.372742110554000
 20
-7701.447879114479300
  0
VERTEX
  8
4
  6
CONTINUOUS
 62
3
 10
11585.832943695950000
 20
-7699.917039670098300
  0
VERTEX
  8
4
  6
CONTINUOUS
 62
3
 10
11609.317038381079000
 20
-7698.570997798003200
  0
VERTEX
  8
4
  6
CONTINUOUS
 62
3
 10
11632.826556562775000
 20
-7697.422355400470200
  0
VERTEX
  8
4
  6
CONTINUOUS
 62
3
 10
11656.363028637875000
 20
-7696.483714379776800
  0
VERTEX
  8
4
  6
CONTINUOUS
 62
3
 10
11679.927985003212000
 20
-7695.767676638199200
  0
VERTEX
  8
4
  6
CONTINUOUS
 62
3
 10
11703.522956055623000
 20
-7695.286844078012100
  0
VERTEX
  8
4
  6
CONTINUOUS
 62
3
 10
11727.149472191942000
 20
-7695.053818601494600
  0
VERTEX
  8
4
  6
CONTINUOUS
 62
3
 10
11750.809063809005000
 20
-7695.081202110923200
  0
VERTEX
  8
4
  6
CONTINUOUS
 62
3
 10
11774.503261303645000
 20
-7695.381596508575100
  0
VERTEX
  8
4
  6
CONTINUOUS
 62
3
 10
11798.233595072702000
 20
-7695.967603696724800
  0
VERTEX
  8
4
  6
CONTINUOUS
 62
3
 10
11798.233595072702000
 20
-7695.967603696724800
  0
VERTEX
  8
4
  6
CONTINUOUS
 62
3
 10
11826.059212617738000
 20
-7697.038410867142400
  0
VERTEX
  8
4
  6
CONTINUOUS
 62
3
 10
11853.902758099095000
 20
-7698.567166783532200
  0
VERTEX
  8
4
  6
CONTINUOUS
 62
3
 10
11881.730526296571000
 20
-7700.603029996195800
  0
VERTEX
  8
4
  6
CONTINUOUS
 62
3
 10
11909.508811989962000
 20
-7703.195159055432700
  0
VERTEX
  8
4
  6
CONTINUOUS
 62
3
 10
11923.368866016313000
 20
-7704.715185324485000
  0
VERTEX
  8
4
  6
CONTINUOUS
 62
3
 10
11937.203909959065000
 20
-7706.392712511543300
  0
VERTEX
  8
4
  6
CONTINUOUS
 62
3
 10
11951.009730665695000
 20
-7708.233885435394800
  0
VERTEX
  8
4
  6
CONTINUOUS
 62
3
 10
11964.782114983680000
 20
-7710.244848914829200
  0
VERTEX
  8
4
  6
CONTINUOUS
 62
3
 10
11978.516849760490000
 20
-7712.431747768632700
  0
VERTEX
  8
4
  6
CONTINUOUS
 62
3
 10
11992.209721843602000
 20
-7714.800726815590700
  0
VERTEX
  8
4
  6
CONTINUOUS
 62
3
 10
12005.856518080490000
 20
-7717.357930874493800
  0
VERTEX
  8
4
  6
CONTINUOUS
 62
3
 10
12019.453025318627000
 20
-7720.109504764128400
  0
VERTEX
  8
4
  6
CONTINUOUS
 62
3
 10
12032.995030405491000
 20
-7723.061593303282300
  0
VERTEX
  8
4
  6
CONTINUOUS
 62
3
 10
12046.478320188553000
 20
-7726.220341310741800
  0
VERTEX
  8
4
  6
CONTINUOUS
 62
3
 10
12059.898681515289000
 20
-7729.591893605296700
  0
VERTEX
  8
4
  6
CONTINUOUS
 62
3
 10
12073.251901233175000
 20
-7733.182395005733300
  0
VERTEX
  8
4
  6
CONTINUOUS
 62
3
 10
12086.533766189684000
 20
-7736.997990330839500
  0
VERTEX
  8
4
  6
CONTINUOUS
 62
3
 10
12099.740063232293000
 20
-7741.044824399401500
  0
VERTEX
  8
4
  6
CONTINUOUS
 62
3
 10
12112.866579208475000
 20
-7745.329042030209200
  0
VERTEX
  8
4
  6
CONTINUOUS
 62
3
 10
12125.909100965704000
 20
-7749.856788042048700
  0
VERTEX
  8
4
  6
CONTINUOUS
 62
3
 10
12138.863415351455000
 20
-7754.634207253708200
  0
VERTEX
  8
4
  6
CONTINUOUS
 62
3
 10
12151.725309213205000
 20
-7759.667444483974600
  0
VERTEX
  8
4
  6
CONTINUOUS
 62
3
 10
12164.490569398423000
 20
-7764.962644551636000
  0
VERTEX
  8
4
  6
CONTINUOUS
 62
3
 10
12177.154982754589000
 20
-7770.525952275479500
  0
VERTEX
  8
4
  6
CONTINUOUS
 62
3
 10
12189.714336129174000
 20
-7776.363512474292300
  0
VERTEX
  8
4
  6
CONTINUOUS
 62
3
 10
12202.164416369658000
 20
-7782.481469966865000
  0
VERTEX
  8
4
  6
CONTINUOUS
 62
3
 10
12214.501010323510000
 20
-7788.885969571981100
  0
VERTEX
  8
4
  6
CONTINUOUS
 62
3
 10
12226.719904838206000
 20
-7795.583156108430600
  0
VERTEX
  8
4
  6
CONTINUOUS
 62
3
 10
12226.719904838206000
 20
-7795.583156108430600
  0
VERTEX
  8
4
  6
CONTINUOUS
 62
3
 10
12236.666546044434000
 20
-7801.307219211428700
  0
VERTEX
  8
4
  6
CONTINUOUS
 62
3
 10
12246.525515380955000
 20
-7807.229231010881400
  0
VERTEX
  8
4
  6
CONTINUOUS
 62
3
 10
12256.291421061738000
 20
-7813.345455528460700
  0
VERTEX
  8
4
  6
CONTINUOUS
 62
3
 10
12265.958871300750000
 20
-7819.652156785839900
  0
VERTEX
  8
4
  6
CONTINUOUS
 62
3
 10
12275.522474311961000
 20
-7826.145598804692800
  0
VERTEX
  8
4
  6
CONTINUOUS
 62
3
 10
12284.976838309339000
 20
-7832.822045606691100
  0
VERTEX
  8
4
  6
CONTINUOUS
 62
3
 10
12294.316571506857000
 20
-7839.677761213508300
  0
VERTEX
  8
4
  6
CONTINUOUS
 62
3
 10
12303.536282118479000
 20
-7846.709009646818200
  0
VERTEX
  8
4
  6
CONTINUOUS
 62
3
 10
12312.630578358173000
 20
-7853.912054928292500
  0
VERTEX
  8
4
  6
CONTINUOUS
 62
3
 10
12321.594068439913000
 20
-7861.283161079604700
  0
VERTEX
  8
4
  6
CONTINUOUS
 62
3
 10
12330.421360577664000
 20
-7868.818592122426700
  0
VERTEX
  8
4
  6
CONTINUOUS
 62
3
 10
12339.107062985394000
 20
-7876.514612078432000
  0
VERTEX
  8
4
  6
CONTINUOUS
 62
3
 10
12347.645783877074000
 20
-7884.367484969293400
  0
VERTEX
  8
4
  6
CONTINUOUS
 62
3
 10
12356.032131466670000
 20
-7892.373474816684400
  0
VERTEX
  8
4
  6
CONTINUOUS
 62
3
 10
12364.260713968153000
 20
-7900.528845642277700
  0
VERTEX
  8
4
  6
CONTINUOUS
 62
3
 10
12372.326139595494000
 20
-7908.829861467745100
  0
VERTEX
  8
4
  6
CONTINUOUS
 62
3
 10
12380.223016562658000
 20
-7917.272786314760200
  0
VERTEX
  8
4
  6
CONTINUOUS
 62
3
 10
12387.945953083613000
 20
-7925.853884204996600
  0
VERTEX
  8
4
  6
CONTINUOUS
 62
3
 10
12395.489557372329000
 20
-7934.569419160126900
  0
VERTEX
  8
4
  6
CONTINUOUS
 62
3
 10
12402.848437642778000
 20
-7943.415655201823900
  0
VERTEX
  8
4
  6
CONTINUOUS
 62
3
 10
12410.017202108925000
 20
-7952.388856351760300
  0
VERTEX
  8
4
  6
CONTINUOUS
 62
3
 10
12416.990458984741000
 20
-7961.485286631609600
  0
VERTEX
  8
4
  6
CONTINUOUS
 62
3
 10
12423.762816484193000
 20
-7970.701210063043600
  0
VERTEX
  8
4
  6
CONTINUOUS
 62
3
 10
12430.328882821248000
 20
-7980.032890667736000
  0
VERTEX
  8
4
  6
CONTINUOUS
 62
3
 10
12436.683266209876000
 20
-7989.476592467359300
  0
VERTEX
  8
4
  6
CONTINUOUS
 62
3
 10
12442.820574864050000
 20
-7999.028579483586300
  0
VERTEX
  8
4
  6
CONTINUOUS
 62
3
 10
12448.735416997735000
 20
-8008.685115738090600
  0
VERTEX
  8
4
  6
CONTINUOUS
 62
3
 10
12454.422400824900000
 20
-8018.442465252544900
  0
VERTEX
  8
4
  6
CONTINUOUS
 62
3
 10
12459.876134559514000
 20
-8028.296892048621900
  0
VERTEX
  8
4
  6
CONTINUOUS
 62
3
 10
12465.091226415545000
 20
-8038.244660147994200
  0
VERTEX
  8
4
  6
CONTINUOUS
 62
3
 10
12470.062284606963000
 20
-8048.282033572335400
  0
VERTEX
  8
4
  6
CONTINUOUS
 62
3
 10
12474.783917347736000
 20
-8058.405276343317400
  0
VERTEX
  8
4
  6
CONTINUOUS
 62
3
 10
12474.783917347736000
 20
-8058.405276343317400
  0
VERTEX
  8
4
  6
CONTINUOUS
 62
3
 10
12480.105371039630000
 20
-8070.635092753800600
  0
VERTEX
  8
4
  6
CONTINUOUS
 62
3
 10
12485.072889932653000
 20
-8082.978990368421400
  0
VERTEX
  8
4
  6
CONTINUOUS
 62
3
 10
12489.697891278381000
 20
-8095.433289148336400
  0
VERTEX
  8
4
  6
CONTINUOUS
 62
3
 10
12493.991792328392000
 20
-8107.994309054701300
  0
VERTEX
  8
4
  6
CONTINUOUS
 62
3
 10
12497.966010334261000
 20
-8120.658370048674400
  0
VERTEX
  8
4
  6
CONTINUOUS
 62
3
 10
12501.631962547562000
 20
-8133.421792091413400
  0
VERTEX
  8
4
  6
CONTINUOUS
 62
3
 10
12505.001066219876000
 20
-8146.280895144072900
  0
VERTEX
  8
4
  6
CONTINUOUS
 62
3
 10
12508.084738602778000
 20
-8159.231999167812300
  0
VERTEX
  8
4
  6
CONTINUOUS
 62
3
 10
12510.894396947842000
 20
-8172.271424123787300
  0
VERTEX
  8
4
  6
CONTINUOUS
 62
3
 10
12513.441458506647000
 20
-8185.395489973154300
  0
VERTEX
  8
4
  6
CONTINUOUS
 62
3
 10
12515.737340530771000
 20
-8198.600516677070100
  0
VERTEX
  8
4
  6
CONTINUOUS
 62
3
 10
12517.793460271788000
 20
-8211.882824196689400
  0
VERTEX
  8
4
  6
CONTINUOUS
 62
3
 10
12519.621234981275000
 20
-8225.238732493173300
  0
VERTEX
  8
4
  6
CONTINUOUS
 62
3
 10
12521.232081910809000
 20
-8238.664561527675700
  0
VERTEX
  8
4
  6
CONTINUOUS
 62
3
 10
12522.637418311966000
 20
-8252.156631261357700
  0
VERTEX
  8
4
  6
CONTINUOUS
 62
3
 10
12523.848661436321000
 20
-8265.711261655371300
  0
VERTEX
  8
4
  6
CONTINUOUS
 62
3
 10
12524.877228535453000
 20
-8279.324772670874200
  0
VERTEX
  8
4
  6
CONTINUOUS
 62
3
 10
12525.734536860938000
 20
-8292.993484269027200
  0
VERTEX
  8
4
  6
CONTINUOUS
 62
3
 10
12526.432003664351000
 20
-8306.713716410980900
  0
VERTEX
  8
4
  6
CONTINUOUS
 62
3
 10
12526.981046197270000
 20
-8320.481789057896100
  0
VERTEX
  8
4
  6
CONTINUOUS
 62
3
 10
12527.679527457930000
 20
-8348.146735711237900
  0
VERTEX
  8
4
  6
CONTINUOUS
 62
3
 10
12527.921318655531000
 20
-8375.958883918303400
  0
VERTEX
  8
4
  6
CONTINUOUS
 62
3
 10
12527.797757802683000
 20
-8403.888793368350900
  0
VERTEX
  8
4
  6
CONTINUOUS
 62
3
 10
12527.400182912000000
 20
-8431.907023750631200
  0
VERTEX
  8
4
  6
CONTINUOUS
 62
3
 10
12526.148343067576000
 20
-8488.090686068921100
  0
SEQEND
  8
4
  0
TEXT
  8
4
  6
CONTINUOUS
 62
3
 10
10079.845703125000000
 20
-8461.320312500000000
 40
640.000000000000000
  1
0.3m/s
 50
0.000002504478167
 41
0.576250016689301
  7
STANDARD1
  0
TEXT
  8
4
  6
CONTINUOUS
 62
3
 10
8459.003906250000000
 20
-7329.526367187500000
 40
640.000000000000000
  1
0.5m/s
 50
0.000002504478167
 41
0.576250016689301
  7
STANDARD1
  0
TEXT
  8
4
  6
CONTINUOUS
 62
3
 10
4616.491699218750000
 20
-8405.428710937500000
 40
640.000000000000000
  1
1m/s
 50
0.000002504478167
 41
0.576250016689301
  7
STANDARD1
  0
LINE
  8
4
  6
CONTINUOUS
 62
3
 10
12526.148343067579000
 20
-8488.090686068921100
 11
3657.325139083203800
 21
-8488.090686068921100
  0
ENDSEC
  0
EOF
