  0
SECTION
  2
HEADER
  9
$ACADVER
  1
AC1006
  9
$INSBASE
 10
0.0
 20
0.0
 30
0.0
  9
$EXTMIN
 10
-2697.830839
 20
-1325.845863
  9
$EXTMAX
 10
1145.946122
 20
1543.050614
  9
$LIMMIN
 10
-4200.0
 20
-2970.0
  9
$LIMMAX
 10
4200.0
 20
2970.0
  9
$ORTHOMODE
 70
     1
  9
$REGENMODE
 70
     0
  9
$FILLMODE
 70
     1
  9
$QTEXTMODE
 70
     0
  9
$MIRRTEXT
 70
     0
  9
$DRAGMODE
 70
     2
  9
$LTSCALE
 40
20.0
  9
$OSMODE
 70
     0
  9
$ATTMODE
 70
     1
  9
$TEXTSIZE
 40
64.0
  9
$TRACEWID
 40
0.05
  9
$TEXTSTYLE
  7
STANDARD
  9
$CLAYER
  8
0
  9
$CELTYPE
  6
CONTINUOUS
  9
$CECOLOR
 62
     8
  9
$DIMSCALE
 40
1.0
  9
$DIMASZ
 40
2.0
  9
$DIMEXO
 40
20.0
  9
$DIMDLI
 40
200.0
  9
$DIMRND
 40
0.0
  9
$DIMDLE
 40
0.0
  9
$DIMEXE
 40
30.0
  9
$DIMTP
 40
0.0
  9
$DIMTM
 40
0.0
  9
$DIMTXT
 40
64.0
  9
$DIMCEN
 40
0.09
  9
$DIMTSZ
 40
0.0
  9
$DIMTOL
 70
     0
  9
$DIMLIM
 70
     0
  9
$DIMTIH
 70
     0
  9
$DIMTOH
 70
     0
  9
$DIMSE1
 70
     0
  9
$DIMSE2
 70
     0
  9
$DIMTAD
 70
     1
  9
$DIMZIN
 70
     8
  9
$DIMBLK
  1
DOT1
  9
$DIMASO
 70
     1
  9
$DIMSHO
 70
     0
  9
$DIMPOST
  1

  9
$DIMAPOST
  1

  9
$DIMALT
 70
     0
  9
$DIMALTD
 70
     2
  9
$DIMALTF
 40
25.4
  9
$DIMLFAC
 40
1.0
  9
$DIMTOFL
 70
     1
  9
$DIMTVP
 40
0.0
  9
$DIMTIX
 70
     1
  9
$DIMSOXD
 70
     0
  9
$DIMSAH
 70
     0
  9
$DIMBLK1
  1

  9
$DIMBLK2
  1

  9
$LUNITS
 70
     2
  9
$LUPREC
 70
     4
  9
$AXISMODE
 70
     0
  9
$AXISUNIT
 10
0.0
 20
0.0
  9
$SKETCHINC
 40
0.1
  9
$FILLETRAD
 40
10.0
  9
$AUNITS
 70
     1
  9
$AUPREC
 70
     3
  9
$MENU
  1
ACAD
  9
$ELEVATION
 40
0.0
  9
$THICKNESS
 40
0.0
  9
$LIMCHECK
 70
     1
  9
$BLIPMODE
 70
     0
  9
$CHAMFERA
 40
0.0
  9
$CHAMFERB
 40
0.0
  9
$SKPOLY
 70
     0
  9
$TDCREATE
 40
2451628.7227893518
  9
$TDUPDATE
 40
2451654.3879282409
  9
$TDINDWG
 40
0.0017361111
  9
$TDUSRTIMER
 40
0.0017361111
  9
$USRTIMER
 70
     1
  9
$ANGBASE
 50
0.0
  9
$ANGDIR
 70
     0
  9
$PDMODE
 70
     3
  9
$PDSIZE
 40
-2.0
  9
$PLINEWID
 40
0.0
  9
$COORDS
 70
     0
  9
$SPLFRAME
 70
     0
  9
$SPLINETYPE
 70
     6
  9
$SPLINESEGS
 70
     8
  9
$ATTDIA
 70
     0
  9
$ATTREQ
 70
     1
  9
$HANDLING
 70
     0
  9
$HANDSEED
  5
0
  9
$SURFTAB1
 70
     6
  9
$SURFTAB2
 70
     6
  9
$SURFTYPE
 70
     6
  9
$SURFU
 70
     6
  9
$SURFV
 70
     6
  9
$FLATLAND
 70
     1
  9
$UCSNAME
  2

  9
$UCSORG
 10
0.0
 20
0.0
 30
0.0
  9
$UCSXDIR
 10
1.0
 20
0.0
 30
0.0
  9
$UCSYDIR
 10
0.0
 20
1.0
 30
0.0
  9
$USERI1
 70
     0
  9
$USERI2
 70
     0
  9
$USERI3
 70
     0
  9
$USERI4
 70
     0
  9
$USERI5
 70
     0
  9
$USERR1
 40
20.0
  9
$USERR2
 40
0.0
  9
$USERR3
 40
0.0
  9
$USERR4
 40
0.0
  9
$USERR5
 40
0.0
  9
$WORLDVIEW
 70
     1
  9
$VIEWCTR
 10
16.949723
 20
142.863629
  9
$VIEWSIZE
 40
6056.230032
  9
$SNAPMODE
 70
     0
  9
$SNAPUNIT
 10
400.0
 20
400.0
  9
$SNAPBASE
 10
0.0
 20
0.0
  9
$SNAPANG
 50
0.0
  9
$SNAPSTYLE
 70
     0
  9
$SNAPISOPAIR
 70
     0
  9
$GRIDMODE
 70
     0
  9
$GRIDUNIT
 10
400.0
 20
400.0
  9
$FASTZOOM
 70
     1
  9
$VIEWDIR
 10
0.0
 20
0.0
 30
1.0
  0
ENDSEC
  0
SECTION
  2
TABLES
  0
TABLE
  2
VPORT
 70
     2
  0
VPORT
  2
*ACTIVE
 70
     0
 10
0.0
 20
0.0
 11
1.0
 21
1.0
 12
16.949723
 22
142.863629
 13
0.0
 23
0.0
 14
400.0
 24
400.0
 15
400.0
 25
400.0
 16
0.0
 26
0.0
 36
1.0
 17
0.0
 27
0.0
 37
0.0
 40
1777.390306
 41
1.387001
 42
50.0
 43
0.0
 44
0.0
 50
0.0
 51
0.0
 71
     0
 72
   500
 73
     1
 74
     0
 75
     0
 76
     0
 77
     0
 78
     0
  0
ENDTAB
  0
TABLE
  2
LTYPE
 70
     7
  0
LTYPE
  2
CONTINUOUS
 70
    64
  3
実線
 72
    65
 73
     0
 40
0.0
  0
LTYPE
  2
DASHED
 70
    64
  3
_ _ _ _ _ _ _ _ _ _ _ _ _ _ _ _ _ _ _ _ _ _ _
 72
    65
 73
     2
 40
2.0
 49
1.2
 49
-0.8
  0
LTYPE
  2
DASHDOT
 70
    64
  3
____ _ ____ _ ____ _ ____ _ ____ _ ____ _ ____
 72
    65
 73
     4
 40
5.5
 49
4.0
 49
-0.6
 49
0.3
 49
-0.6
  0
LTYPE
  2
DOT
 70
    64
  3
...............................................
 72
    65
 73
     2
 40
0.8
 49
0.5
 49
-0.3
  0
LTYPE
  2
DASHDOT1
 70
    64
  3
____ _ ____ _ ____ _ ____ _ ____ _ ____ _ ____
 72
    65
 73
     4
 40
2.0
 49
1.5
 49
-0.2
 49
0.1
 49
-0.2
  0
LTYPE
  2
DIVIDE
 70
    64
  3
_____ _ _ _____ _ _ _____ _ _ _____ _ _ ____
 72
    65
 73
     6
 40
6.4
 49
4.0
 49
-0.6
 49
0.3
 49
-0.6
 49
0.3
 49
-0.6
  0
LTYPE
  2
DIVIDE1
 70
    64
  3
_____ _ _ _____ _ _ _____ _ _ _____ _ _ ____
 72
    65
 73
     6
 40
3.2
 49
2.0
 49
-0.3
 49
0.15
 49
-0.3
 49
0.15
 49
-0.3
  0
ENDTAB
  0
TABLE
  2
LAYER
 70
    12
  0
LAYER
  2
0
 70
     0
 62
     7
  6
CONTINUOUS
  0
LAYER
  2
OUTLINE
 70
    64
 62
     3
  6
CONTINUOUS
  0
LAYER
  2
DETAIL
 70
    64
 62
     5
  6
CONTINUOUS
  0
LAYER
  2
BASIS
 70
    64
 62
     6
  6
DASHDOT
  0
LAYER
  2
SIZE
 70
    64
 62
     7
  6
CONTINUOUS
  0
LAYER
  2
ARRANGE
 70
    64
 62
     1
  6
CONTINUOUS
  0
LAYER
  2
DEFPOINTS
 70
     0
 62
     7
  6
CONTINUOUS
  0
LAYER
  2
ETC
 70
    64
 62
     7
  6
CONTINUOUS
  0
LAYER
  2
NOTE
 70
     0
 62
     7
  6
CONTINUOUS
  0
LAYER
  2
FIX
 70
     0
 62
     7
  6
CONTINUOUS
  0
LAYER
  2
SERVICESPACE
 70
     0
 62
     7
  6
CONTINUOUS
  0
LAYER
  2
SYMBOLLINE
 70
     0
 62
     7
  6
CONTINUOUS
  0
ENDTAB
  0
TABLE
  2
STYLE
 70
     1
  0
STYLE
  2
STANDARD
 70
    64
 40
0.0
 41
0.9
 50
0.0
 71
     0
 42
64.0
  3
SIMPLEX
  4
BIGFONT
  0
ENDTAB
  0
TABLE
  2
VIEW
 70
     1
  0
VIEW
  2
ALL
 70
     0
 40
6374.978981
 10
0.0
 20
58.115016
 41
8842.105263
 11
0.0
 21
0.0
 31
1.0
 12
0.0
 22
0.0
 32
0.0
 42
50.0
 43
0.0
 44
0.0
 50
0.0
 71
     0
  0
ENDTAB
  0
TABLE
  2
UCS
 70
     0
  0
ENDTAB
  0
TABLE
  2
DWGMGR
 70
     0
  0
ENDTAB
  0
ENDSEC
  0
SECTION
  2
BLOCKS
  0
ENDSEC
  0
SECTION
  2
ENTITIES
  0
TEXT
  8
ETC
  6
CONTINUOUS
 62
    10
 10
287.370942
 20
271.297164
 40
64.0
  1
システム部材
 41
0.9
  0
LINE
  8
OUTLINE
  6
CONTINUOUS
 62
     3
 10
155.0
 20
180.0
 11
-155.0
 21
180.0
  0
ARC
  8
OUTLINE
  6
CONTINUOUS
 62
     3
 10
-155.0
 20
155.0
 40
25.0
 50
90.0
 51
180.0
  0
LINE
  8
OUTLINE
  6
CONTINUOUS
 62
     3
 10
-180.0
 20
155.0
 11
-180.0
 21
-155.0
  0
ARC
  8
OUTLINE
  6
CONTINUOUS
 62
     3
 10
-155.0
 20
-155.0
 40
25.0
 50
180.0
 51
270.0
  0
ARC
  8
OUTLINE
  6
CONTINUOUS
 62
     3
 10
155.0
 20
-155.0
 40
25.0
 50
270.0
 51
0.0
  0
LINE
  8
OUTLINE
  6
CONTINUOUS
 62
     3
 10
180.0
 20
155.0
 11
180.0
 21
-155.0
  0
ARC
  8
OUTLINE
  6
CONTINUOUS
 62
     3
 10
155.0
 20
155.0
 40
25.0
 50
0.0
 51
90.0
  0
LINE
  8
OUTLINE
  6
CONTINUOUS
 62
     3
 10
155.0
 20
-180.0
 11
-155.0
 21
-180.0
  0
LINE
  8
DETAIL
  6
CONTINUOUS
 62
     5
 10
-110.5
 20
104.7
 11
-110.5
 21
0.0
  0
LINE
  8
DETAIL
  6
CONTINUOUS
 62
     5
 10
110.5
 20
104.7
 11
110.5
 21
0.0
  0
ARC
  8
DETAIL
  6
CONTINUOUS
 62
     5
 10
104.7
 20
104.7
 40
5.8
 50
0.0
 51
90.0
  0
ARC
  8
DETAIL
  6
CONTINUOUS
 62
     5
 10
-104.7
 20
104.7
 40
5.8
 50
90.0
 51
180.0
  0
ARC
  8
DETAIL
  6
CONTINUOUS
 62
     5
 10
-155.0
 20
155.0
 40
25.0
 50
90.0
 51
180.0
  0
ARC
  8
DETAIL
  6
CONTINUOUS
 62
     5
 10
-137.5
 20
137.5
 40
10.0
 50
90.0
 51
180.0
  0
LINE
  8
DETAIL
  6
CONTINUOUS
 62
     5
 10
-180.0
 20
155.0
 11
-180.0
 21
0.0
  0
LINE
  8
DETAIL
  6
CONTINUOUS
 62
     5
 10
-147.5
 20
137.5
 11
-147.5
 21
0.0
  0
ARC
  8
DETAIL
  6
CONTINUOUS
 62
     5
 10
155.0
 20
155.0
 40
25.0
 50
0.0
 51
90.0
  0
ARC
  8
DETAIL
  6
CONTINUOUS
 62
     5
 10
137.5
 20
137.5
 40
10.0
 50
0.0
 51
90.0
  0
LINE
  8
DETAIL
  6
CONTINUOUS
 62
     5
 10
180.0
 20
155.0
 11
180.0
 21
-0.0
  0
LINE
  8
DETAIL
  6
CONTINUOUS
 62
     5
 10
147.5
 20
137.5
 11
147.5
 21
0.0
  0
LINE
  8
DETAIL
  6
CONTINUOUS
 62
     5
 10
-137.5
 20
147.5
 11
137.5
 21
147.5
  0
LINE
  8
DETAIL
  6
CONTINUOUS
 62
     5
 10
-155.0
 20
180.0
 11
155.0
 21
180.0
  0
LINE
  8
DETAIL
  6
CONTINUOUS
 62
     5
 10
-48.5
 20
-201.0
 11
48.5
 21
-201.0
  0
LINE
  8
DETAIL
  6
CONTINUOUS
 62
     5
 10
48.5
 20
-180.0
 11
48.5
 21
-201.0
  0
LINE
  8
DETAIL
  6
CONTINUOUS
 62
     5
 10
-110.5
 20
-104.7
 11
-110.5
 21
0.0
  0
LINE
  8
DETAIL
  6
CONTINUOUS
 62
     5
 10
110.5
 20
-104.7
 11
110.5
 21
0.0
  0
ARC
  8
DETAIL
  6
CONTINUOUS
 62
     5
 10
104.7
 20
-104.7
 40
5.8
 50
270.0
 51
0.0
  0
LINE
  8
DETAIL
  6
CONTINUOUS
 62
     5
 10
-147.5
 20
-110.5
 11
147.5
 21
-110.5
  0
ARC
  8
DETAIL
  6
CONTINUOUS
 62
     5
 10
-104.7
 20
-104.7
 40
5.8
 50
180.0
 51
270.0
  0
ARC
  8
DETAIL
  6
CONTINUOUS
 62
     5
 10
-155.0
 20
-155.0
 40
25.0
 50
180.0
 51
270.0
  0
ARC
  8
DETAIL
  6
CONTINUOUS
 62
     5
 10
-137.5
 20
-137.5
 40
10.0
 50
180.0
 51
270.0
  0
LINE
  8
DETAIL
  6
CONTINUOUS
 62
     5
 10
-180.0
 20
-155.0
 11
-180.0
 21
0.0
  0
LINE
  8
DETAIL
  6
CONTINUOUS
 62
     5
 10
-147.5
 20
-137.5
 11
-147.5
 21
0.0
  0
ARC
  8
DETAIL
  6
CONTINUOUS
 62
     5
 10
155.0
 20
-155.0
 40
25.0
 50
270.0
 51
360.0
  0
ARC
  8
DETAIL
  6
CONTINUOUS
 62
     5
 10
137.5
 20
-137.5
 40
10.0
 50
270.0
 51
0.0
  0
LINE
  8
DETAIL
  6
CONTINUOUS
 62
     5
 10
180.0
 20
-155.0
 11
180.0
 21
-0.0
  0
LINE
  8
DETAIL
  6
CONTINUOUS
 62
     5
 10
147.5
 20
-137.5
 11
147.5
 21
-0.0
  0
LINE
  8
DETAIL
  6
CONTINUOUS
 62
     5
 10
-137.5
 20
-147.5
 11
137.5
 21
-147.5
  0
LINE
  8
DETAIL
  6
CONTINUOUS
 62
     5
 10
-155.0
 20
-180.0
 11
155.0
 21
-180.0
  0
LINE
  8
DETAIL
  6
CONTINUOUS
 62
     5
 10
0.0
 20
-127.5
 11
0.0
 21
-110.5
  0
LINE
  8
DETAIL
  6
CONTINUOUS
 62
     5
 10
-147.5
 20
-114.75
 11
0.0
 21
-114.75
  0
LINE
  8
DETAIL
  6
CONTINUOUS
 62
     5
 10
-147.5
 20
-119.0
 11
0.0
 21
-119.0
  0
LINE
  8
DETAIL
  6
CONTINUOUS
 62
     5
 10
-147.5
 20
-123.25
 11
0.0
 21
-123.25
  0
LINE
  8
DETAIL
  6
CONTINUOUS
 62
     5
 10
-147.5
 20
-127.5
 11
0.0
 21
-127.5
  0
LINE
  8
DETAIL
  6
CONTINUOUS
 62
     5
 10
-4.25
 20
-127.5
 11
-4.25
 21
-110.5
  0
LINE
  8
DETAIL
  6
CONTINUOUS
 62
     5
 10
-8.5
 20
-127.5
 11
-8.5
 21
-110.5
  0
LINE
  8
DETAIL
  6
CONTINUOUS
 62
     5
 10
-12.75
 20
-127.5
 11
-12.75
 21
-110.5
  0
LINE
  8
DETAIL
  6
CONTINUOUS
 62
     5
 10
-17.0
 20
-127.5
 11
-17.0
 21
-110.5
  0
LINE
  8
DETAIL
  6
CONTINUOUS
 62
     5
 10
-21.25
 20
-127.5
 11
-21.25
 21
-110.5
  0
LINE
  8
DETAIL
  6
CONTINUOUS
 62
     5
 10
-25.5
 20
-127.5
 11
-25.5
 21
-110.5
  0
LINE
  8
DETAIL
  6
CONTINUOUS
 62
     5
 10
-29.75
 20
-127.5
 11
-29.75
 21
-110.5
  0
LINE
  8
DETAIL
  6
CONTINUOUS
 62
     5
 10
-34.0
 20
-127.5
 11
-34.0
 21
-110.5
  0
LINE
  8
DETAIL
  6
CONTINUOUS
 62
     5
 10
-38.25
 20
-127.5
 11
-38.25
 21
-110.5
  0
LINE
  8
DETAIL
  6
CONTINUOUS
 62
     5
 10
-42.5
 20
-127.5
 11
-42.5
 21
-110.5
  0
LINE
  8
DETAIL
  6
CONTINUOUS
 62
     5
 10
-46.75
 20
-127.5
 11
-46.75
 21
-110.5
  0
LINE
  8
DETAIL
  6
CONTINUOUS
 62
     5
 10
-51.0
 20
-127.5
 11
-51.0
 21
-110.5
  0
LINE
  8
DETAIL
  6
CONTINUOUS
 62
     5
 10
-55.25
 20
-127.5
 11
-55.25
 21
-110.5
  0
LINE
  8
DETAIL
  6
CONTINUOUS
 62
     5
 10
-59.5
 20
-127.5
 11
-59.5
 21
-110.5
  0
LINE
  8
DETAIL
  6
CONTINUOUS
 62
     5
 10
-63.75
 20
-127.5
 11
-63.75
 21
-110.5
  0
LINE
  8
DETAIL
  6
CONTINUOUS
 62
     5
 10
-68.0
 20
-127.5
 11
-68.0
 21
-110.5
  0
LINE
  8
DETAIL
  6
CONTINUOUS
 62
     5
 10
-72.25
 20
-127.5
 11
-72.25
 21
-110.5
  0
LINE
  8
DETAIL
  6
CONTINUOUS
 62
     5
 10
-76.5
 20
-127.5
 11
-76.5
 21
-110.5
  0
LINE
  8
DETAIL
  6
CONTINUOUS
 62
     5
 10
-80.75
 20
-127.5
 11
-80.75
 21
-110.5
  0
LINE
  8
DETAIL
  6
CONTINUOUS
 62
     5
 10
-85.0
 20
-127.5
 11
-85.0
 21
-110.5
  0
LINE
  8
DETAIL
  6
CONTINUOUS
 62
     5
 10
-89.25
 20
-127.5
 11
-89.25
 21
-110.5
  0
LINE
  8
DETAIL
  6
CONTINUOUS
 62
     5
 10
-93.5
 20
-127.5
 11
-93.5
 21
-110.5
  0
LINE
  8
DETAIL
  6
CONTINUOUS
 62
     5
 10
-97.75
 20
-127.5
 11
-97.75
 21
-110.5
  0
LINE
  8
DETAIL
  6
CONTINUOUS
 62
     5
 10
147.5
 20
-114.75
 11
0.0
 21
-114.75
  0
LINE
  8
DETAIL
  6
CONTINUOUS
 62
     5
 10
147.5
 20
-119.0
 11
0.0
 21
-119.0
  0
LINE
  8
DETAIL
  6
CONTINUOUS
 62
     5
 10
4.25
 20
-127.5
 11
4.25
 21
-110.5
  0
LINE
  8
DETAIL
  6
CONTINUOUS
 62
     5
 10
8.5
 20
-127.5
 11
8.5
 21
-110.5
  0
LINE
  8
DETAIL
  6
CONTINUOUS
 62
     5
 10
12.75
 20
-127.5
 11
12.75
 21
-110.5
  0
LINE
  8
DETAIL
  6
CONTINUOUS
 62
     5
 10
17.0
 20
-127.5
 11
17.0
 21
-110.5
  0
LINE
  8
DETAIL
  6
CONTINUOUS
 62
     5
 10
21.25
 20
-127.5
 11
21.25
 21
-110.5
  0
LINE
  8
DETAIL
  6
CONTINUOUS
 62
     5
 10
25.5
 20
-127.5
 11
25.5
 21
-110.5
  0
LINE
  8
DETAIL
  6
CONTINUOUS
 62
     5
 10
29.75
 20
-127.5
 11
29.75
 21
-110.5
  0
LINE
  8
DETAIL
  6
CONTINUOUS
 62
     5
 10
34.0
 20
-127.5
 11
34.0
 21
-110.5
  0
LINE
  8
DETAIL
  6
CONTINUOUS
 62
     5
 10
38.25
 20
-127.5
 11
38.25
 21
-110.5
  0
LINE
  8
DETAIL
  6
CONTINUOUS
 62
     5
 10
42.5
 20
-127.5
 11
42.5
 21
-110.5
  0
LINE
  8
DETAIL
  6
CONTINUOUS
 62
     5
 10
46.75
 20
-127.5
 11
46.75
 21
-110.5
  0
LINE
  8
DETAIL
  6
CONTINUOUS
 62
     5
 10
51.0
 20
-127.5
 11
51.0
 21
-110.5
  0
LINE
  8
DETAIL
  6
CONTINUOUS
 62
     5
 10
55.25
 20
-127.5
 11
55.25
 21
-110.5
  0
LINE
  8
DETAIL
  6
CONTINUOUS
 62
     5
 10
59.5
 20
-127.5
 11
59.5
 21
-110.5
  0
LINE
  8
DETAIL
  6
CONTINUOUS
 62
     5
 10
63.75
 20
-127.5
 11
63.75
 21
-110.5
  0
LINE
  8
DETAIL
  6
CONTINUOUS
 62
     5
 10
68.0
 20
-127.5
 11
68.0
 21
-110.5
  0
LINE
  8
DETAIL
  6
CONTINUOUS
 62
     5
 10
72.25
 20
-127.5
 11
72.25
 21
-110.5
  0
LINE
  8
DETAIL
  6
CONTINUOUS
 62
     5
 10
76.5
 20
-127.5
 11
76.5
 21
-110.5
  0
LINE
  8
DETAIL
  6
CONTINUOUS
 62
     5
 10
80.75
 20
-127.5
 11
80.75
 21
-110.5
  0
LINE
  8
DETAIL
  6
CONTINUOUS
 62
     5
 10
85.0
 20
-127.5
 11
85.0
 21
-110.5
  0
LINE
  8
DETAIL
  6
CONTINUOUS
 62
     5
 10
89.25
 20
-127.5
 11
89.25
 21
-110.5
  0
LINE
  8
DETAIL
  6
CONTINUOUS
 62
     5
 10
93.5
 20
-127.5
 11
93.5
 21
-110.5
  0
LINE
  8
DETAIL
  6
CONTINUOUS
 62
     5
 10
97.75
 20
-127.5
 11
97.75
 21
-110.5
  0
LINE
  8
DETAIL
  6
CONTINUOUS
 62
     5
 10
102.0
 20
-127.5
 11
102.0
 21
-110.5
  0
LINE
  8
DETAIL
  6
CONTINUOUS
 62
     5
 10
106.25
 20
-127.5
 11
106.25
 21
-110.5
  0
LINE
  8
DETAIL
  6
CONTINUOUS
 62
     5
 10
110.5
 20
-127.5
 11
110.5
 21
-110.5
  0
LINE
  8
DETAIL
  6
CONTINUOUS
 62
     5
 10
114.75
 20
-127.5
 11
114.75
 21
-110.5
  0
LINE
  8
DETAIL
  6
CONTINUOUS
 62
     5
 10
119.0
 20
-127.5
 11
119.0
 21
-110.5
  0
LINE
  8
DETAIL
  6
CONTINUOUS
 62
     5
 10
123.25
 20
-127.5
 11
123.25
 21
-110.5
  0
LINE
  8
DETAIL
  6
CONTINUOUS
 62
     5
 10
127.5
 20
-127.5
 11
127.5
 21
-110.5
  0
LINE
  8
DETAIL
  6
CONTINUOUS
 62
     5
 10
131.75
 20
-127.5
 11
131.75
 21
-110.5
  0
LINE
  8
DETAIL
  6
CONTINUOUS
 62
     5
 10
136.0
 20
-127.5
 11
136.0
 21
-110.5
  0
LINE
  8
DETAIL
  6
CONTINUOUS
 62
     5
 10
140.25
 20
-127.5
 11
140.25
 21
-110.5
  0
LINE
  8
DETAIL
  6
CONTINUOUS
 62
     5
 10
144.5
 20
-127.5
 11
144.5
 21
-110.5
  0
LINE
  8
DETAIL
  6
CONTINUOUS
 62
     5
 10
147.5
 20
-127.5
 11
0.0
 21
-127.5
  0
LINE
  8
DETAIL
  6
CONTINUOUS
 62
     5
 10
147.5
 20
-123.25
 11
0.0
 21
-123.25
  0
LINE
  8
DETAIL
  6
CONTINUOUS
 62
     5
 10
-48.5
 20
-180.0
 11
-48.5
 21
-201.0
  0
LINE
  8
BASIS
  6
DASHDOT
 62
     6
 10
-242.021566
 20
0.0
 11
236.380091
 21
-0.0
  0
LINE
  8
BASIS
  6
DASHDOT
 62
     6
 10
0.0
 20
251.339047
 11
0.0
 21
-236.407618
  0
LINE
  8
DETAIL
  6
CONTINUOUS
 62
     5
 10
-144.5
 20
-127.5
 11
-144.5
 21
-110.5
  0
LINE
  8
DETAIL
  6
CONTINUOUS
 62
     5
 10
-140.25
 20
-127.5
 11
-140.25
 21
-110.5
  0
LINE
  8
DETAIL
  6
CONTINUOUS
 62
     5
 10
-136.0
 20
-127.5
 11
-136.0
 21
-110.5
  0
LINE
  8
DETAIL
  6
CONTINUOUS
 62
     5
 10
-131.75
 20
-127.5
 11
-131.75
 21
-110.5
  0
LINE
  8
DETAIL
  6
CONTINUOUS
 62
     5
 10
-127.5
 20
-127.5
 11
-127.5
 21
-110.5
  0
LINE
  8
DETAIL
  6
CONTINUOUS
 62
     5
 10
-123.25
 20
-127.5
 11
-123.25
 21
-110.5
  0
LINE
  8
DETAIL
  6
CONTINUOUS
 62
     5
 10
-119.0
 20
-127.5
 11
-119.0
 21
-110.5
  0
LINE
  8
DETAIL
  6
CONTINUOUS
 62
     5
 10
-114.75
 20
-127.5
 11
-114.75
 21
-110.5
  0
LINE
  8
DETAIL
  6
CONTINUOUS
 62
     5
 10
-110.5
 20
-127.5
 11
-110.5
 21
-110.5
  0
LINE
  8
DETAIL
  6
CONTINUOUS
 62
     5
 10
-106.25
 20
-127.5
 11
-106.25
 21
-110.5
  0
LINE
  8
DETAIL
  6
CONTINUOUS
 62
     5
 10
-102.0
 20
-127.5
 11
-102.0
 21
-110.5
  0
LINE
  8
DETAIL
  6
CONTINUOUS
 62
     5
 10
-97.75
 20
-127.5
 11
-97.75
 21
-110.5
  0
LINE
  8
DETAIL
  6
CONTINUOUS
 62
     5
 10
-97.75
 20
127.5
 11
-97.75
 21
110.5
  0
LINE
  8
DETAIL
  6
CONTINUOUS
 62
     5
 10
-102.0
 20
127.5
 11
-102.0
 21
110.5
  0
LINE
  8
DETAIL
  6
CONTINUOUS
 62
     5
 10
-106.25
 20
127.5
 11
-106.25
 21
110.5
  0
LINE
  8
DETAIL
  6
CONTINUOUS
 62
     5
 10
-110.5
 20
127.5
 11
-110.5
 21
110.5
  0
LINE
  8
DETAIL
  6
CONTINUOUS
 62
     5
 10
-114.75
 20
127.5
 11
-114.75
 21
110.5
  0
LINE
  8
DETAIL
  6
CONTINUOUS
 62
     5
 10
-119.0
 20
127.5
 11
-119.0
 21
110.5
  0
LINE
  8
DETAIL
  6
CONTINUOUS
 62
     5
 10
-123.25
 20
127.5
 11
-123.25
 21
110.5
  0
LINE
  8
DETAIL
  6
CONTINUOUS
 62
     5
 10
-127.5
 20
127.5
 11
-127.5
 21
110.5
  0
LINE
  8
DETAIL
  6
CONTINUOUS
 62
     5
 10
-131.75
 20
127.5
 11
-131.75
 21
110.5
  0
LINE
  8
DETAIL
  6
CONTINUOUS
 62
     5
 10
-136.0
 20
127.5
 11
-136.0
 21
110.5
  0
LINE
  8
DETAIL
  6
CONTINUOUS
 62
     5
 10
-140.25
 20
127.5
 11
-140.25
 21
110.5
  0
LINE
  8
DETAIL
  6
CONTINUOUS
 62
     5
 10
-144.5
 20
127.5
 11
-144.5
 21
110.5
  0
LINE
  8
DETAIL
  6
CONTINUOUS
 62
     5
 10
147.5
 20
123.25
 11
0.0
 21
123.25
  0
LINE
  8
DETAIL
  6
CONTINUOUS
 62
     5
 10
147.5
 20
127.5
 11
0.0
 21
127.5
  0
LINE
  8
DETAIL
  6
CONTINUOUS
 62
     5
 10
144.5
 20
127.5
 11
144.5
 21
110.5
  0
LINE
  8
DETAIL
  6
CONTINUOUS
 62
     5
 10
140.25
 20
127.5
 11
140.25
 21
110.5
  0
LINE
  8
DETAIL
  6
CONTINUOUS
 62
     5
 10
136.0
 20
127.5
 11
136.0
 21
110.5
  0
LINE
  8
DETAIL
  6
CONTINUOUS
 62
     5
 10
131.75
 20
127.5
 11
131.75
 21
110.5
  0
LINE
  8
DETAIL
  6
CONTINUOUS
 62
     5
 10
127.5
 20
127.5
 11
127.5
 21
110.5
  0
LINE
  8
DETAIL
  6
CONTINUOUS
 62
     5
 10
123.25
 20
127.5
 11
123.25
 21
110.5
  0
LINE
  8
DETAIL
  6
CONTINUOUS
 62
     5
 10
119.0
 20
127.5
 11
119.0
 21
110.5
  0
LINE
  8
DETAIL
  6
CONTINUOUS
 62
     5
 10
114.75
 20
127.5
 11
114.75
 21
110.5
  0
LINE
  8
DETAIL
  6
CONTINUOUS
 62
     5
 10
110.5
 20
127.5
 11
110.5
 21
110.5
  0
LINE
  8
DETAIL
  6
CONTINUOUS
 62
     5
 10
106.25
 20
127.5
 11
106.25
 21
110.5
  0
LINE
  8
DETAIL
  6
CONTINUOUS
 62
     5
 10
102.0
 20
127.5
 11
102.0
 21
110.5
  0
LINE
  8
DETAIL
  6
CONTINUOUS
 62
     5
 10
97.75
 20
127.5
 11
97.75
 21
110.5
  0
LINE
  8
DETAIL
  6
CONTINUOUS
 62
     5
 10
93.5
 20
127.5
 11
93.5
 21
110.5
  0
LINE
  8
DETAIL
  6
CONTINUOUS
 62
     5
 10
89.25
 20
127.5
 11
89.25
 21
110.5
  0
LINE
  8
DETAIL
  6
CONTINUOUS
 62
     5
 10
85.0
 20
127.5
 11
85.0
 21
110.5
  0
LINE
  8
DETAIL
  6
CONTINUOUS
 62
     5
 10
80.75
 20
127.5
 11
80.75
 21
110.5
  0
LINE
  8
DETAIL
  6
CONTINUOUS
 62
     5
 10
76.5
 20
127.5
 11
76.5
 21
110.5
  0
LINE
  8
DETAIL
  6
CONTINUOUS
 62
     5
 10
72.25
 20
127.5
 11
72.25
 21
110.5
  0
LINE
  8
DETAIL
  6
CONTINUOUS
 62
     5
 10
68.0
 20
127.5
 11
68.0
 21
110.5
  0
LINE
  8
DETAIL
  6
CONTINUOUS
 62
     5
 10
63.75
 20
127.5
 11
63.75
 21
110.5
  0
LINE
  8
DETAIL
  6
CONTINUOUS
 62
     5
 10
59.5
 20
127.5
 11
59.5
 21
110.5
  0
LINE
  8
DETAIL
  6
CONTINUOUS
 62
     5
 10
55.25
 20
127.5
 11
55.25
 21
110.5
  0
LINE
  8
DETAIL
  6
CONTINUOUS
 62
     5
 10
51.0
 20
127.5
 11
51.0
 21
110.5
  0
LINE
  8
DETAIL
  6
CONTINUOUS
 62
     5
 10
46.75
 20
127.5
 11
46.75
 21
110.5
  0
LINE
  8
DETAIL
  6
CONTINUOUS
 62
     5
 10
42.5
 20
127.5
 11
42.5
 21
110.5
  0
LINE
  8
DETAIL
  6
CONTINUOUS
 62
     5
 10
38.25
 20
127.5
 11
38.25
 21
110.5
  0
LINE
  8
DETAIL
  6
CONTINUOUS
 62
     5
 10
34.0
 20
127.5
 11
34.0
 21
110.5
  0
LINE
  8
DETAIL
  6
CONTINUOUS
 62
     5
 10
29.75
 20
127.5
 11
29.75
 21
110.5
  0
LINE
  8
DETAIL
  6
CONTINUOUS
 62
     5
 10
25.5
 20
127.5
 11
25.5
 21
110.5
  0
LINE
  8
DETAIL
  6
CONTINUOUS
 62
     5
 10
21.25
 20
127.5
 11
21.25
 21
110.5
  0
LINE
  8
DETAIL
  6
CONTINUOUS
 62
     5
 10
17.0
 20
127.5
 11
17.0
 21
110.5
  0
LINE
  8
DETAIL
  6
CONTINUOUS
 62
     5
 10
12.75
 20
127.5
 11
12.75
 21
110.5
  0
LINE
  8
DETAIL
  6
CONTINUOUS
 62
     5
 10
8.5
 20
127.5
 11
8.5
 21
110.5
  0
LINE
  8
DETAIL
  6
CONTINUOUS
 62
     5
 10
4.25
 20
127.5
 11
4.25
 21
110.5
  0
LINE
  8
DETAIL
  6
CONTINUOUS
 62
     5
 10
147.5
 20
119.0
 11
0.0
 21
119.0
  0
LINE
  8
DETAIL
  6
CONTINUOUS
 62
     5
 10
147.5
 20
114.75
 11
0.0
 21
114.75
  0
LINE
  8
DETAIL
  6
CONTINUOUS
 62
     5
 10
-97.75
 20
127.5
 11
-97.75
 21
110.5
  0
LINE
  8
DETAIL
  6
CONTINUOUS
 62
     5
 10
-93.5
 20
127.5
 11
-93.5
 21
110.5
  0
LINE
  8
DETAIL
  6
CONTINUOUS
 62
     5
 10
-89.25
 20
127.5
 11
-89.25
 21
110.5
  0
LINE
  8
DETAIL
  6
CONTINUOUS
 62
     5
 10
-85.0
 20
127.5
 11
-85.0
 21
110.5
  0
LINE
  8
DETAIL
  6
CONTINUOUS
 62
     5
 10
-80.75
 20
127.5
 11
-80.75
 21
110.5
  0
LINE
  8
DETAIL
  6
CONTINUOUS
 62
     5
 10
-76.5
 20
127.5
 11
-76.5
 21
110.5
  0
LINE
  8
DETAIL
  6
CONTINUOUS
 62
     5
 10
-72.25
 20
127.5
 11
-72.25
 21
110.5
  0
LINE
  8
DETAIL
  6
CONTINUOUS
 62
     5
 10
-68.0
 20
127.5
 11
-68.0
 21
110.5
  0
LINE
  8
DETAIL
  6
CONTINUOUS
 62
     5
 10
-63.75
 20
127.5
 11
-63.75
 21
110.5
  0
LINE
  8
DETAIL
  6
CONTINUOUS
 62
     5
 10
-59.5
 20
127.5
 11
-59.5
 21
110.5
  0
LINE
  8
DETAIL
  6
CONTINUOUS
 62
     5
 10
-55.25
 20
127.5
 11
-55.25
 21
110.5
  0
LINE
  8
DETAIL
  6
CONTINUOUS
 62
     5
 10
-51.0
 20
127.5
 11
-51.0
 21
110.5
  0
LINE
  8
DETAIL
  6
CONTINUOUS
 62
     5
 10
-46.75
 20
127.5
 11
-46.75
 21
110.5
  0
LINE
  8
DETAIL
  6
CONTINUOUS
 62
     5
 10
-42.5
 20
127.5
 11
-42.5
 21
110.5
  0
LINE
  8
DETAIL
  6
CONTINUOUS
 62
     5
 10
-38.25
 20
127.5
 11
-38.25
 21
110.5
  0
LINE
  8
DETAIL
  6
CONTINUOUS
 62
     5
 10
-34.0
 20
127.5
 11
-34.0
 21
110.5
  0
LINE
  8
DETAIL
  6
CONTINUOUS
 62
     5
 10
-29.75
 20
127.5
 11
-29.75
 21
110.5
  0
LINE
  8
DETAIL
  6
CONTINUOUS
 62
     5
 10
-25.5
 20
127.5
 11
-25.5
 21
110.5
  0
LINE
  8
DETAIL
  6
CONTINUOUS
 62
     5
 10
-21.25
 20
127.5
 11
-21.25
 21
110.5
  0
LINE
  8
DETAIL
  6
CONTINUOUS
 62
     5
 10
-17.0
 20
127.5
 11
-17.0
 21
110.5
  0
LINE
  8
DETAIL
  6
CONTINUOUS
 62
     5
 10
-12.75
 20
127.5
 11
-12.75
 21
110.5
  0
LINE
  8
DETAIL
  6
CONTINUOUS
 62
     5
 10
-8.5
 20
127.5
 11
-8.5
 21
110.5
  0
LINE
  8
DETAIL
  6
CONTINUOUS
 62
     5
 10
-4.25
 20
127.5
 11
-4.25
 21
110.5
  0
LINE
  8
DETAIL
  6
CONTINUOUS
 62
     5
 10
-147.5
 20
127.5
 11
0.0
 21
127.5
  0
LINE
  8
DETAIL
  6
CONTINUOUS
 62
     5
 10
-147.5
 20
123.25
 11
0.0
 21
123.25
  0
LINE
  8
DETAIL
  6
CONTINUOUS
 62
     5
 10
-147.5
 20
119.0
 11
0.0
 21
119.0
  0
LINE
  8
DETAIL
  6
CONTINUOUS
 62
     5
 10
-147.5
 20
114.75
 11
0.0
 21
114.75
  0
LINE
  8
DETAIL
  6
CONTINUOUS
 62
     5
 10
0.0
 20
127.5
 11
0.0
 21
110.5
  0
LINE
  8
DETAIL
  6
CONTINUOUS
 62
     5
 10
-147.5
 20
110.5
 11
147.5
 21
110.5
  0
TEXT
  8
ETC
  6
CONTINUOUS
 62
    10
 10
291.297226
 20
364.682256
 40
64.0
  1
NP5006
 41
0.9
  0
LINE
  8
SIZE
  6
CONTINUOUS
 62
     8
 10
48.5
 20
-380.498851
 11
239.336288
 21
-380.498851
  0
POINT
  8
ARRANGE
  6
CONTINUOUS
 62
     1
 10
0.0
 20
0.0
  0
CIRCLE
  8
ARRANGE
  6
CONTINUOUS
 62
     1
 10
0.0
 20
0.0
 40
40.0
  0
LINE
  8
SIZE
  6
BYBLOCK
 62
     8
 10
180.0
 20
175.0
 11
180.0
 21
349.14304
  0
LINE
  8
SIZE
  6
BYBLOCK
 62
     8
 10
-180.0
 20
175.0
 11
-180.0
 21
349.14304
  0
LINE
  8
SIZE
  6
BYBLOCK
 62
     8
 10
178.0
 20
319.14304
 11
-0.0
 21
319.14304
  0
LINE
  8
SIZE
  6
BYBLOCK
 62
     8
 10
-178.0
 20
319.14304
 11
-0.0
 21
319.14304
  0
TEXT
  8
SIZE
  6
BYBLOCK
 62
     8
 10
-108.787594
 20
351.14304
 40
64.0
  1
□360
 41
0.9
  0
LINE
  8
SIZE
  6
BYBLOCK
 62
     8
 10
48.5
 20
-220.363632
 11
48.5
 21
-410.498851
  0
LINE
  8
SIZE
  6
BYBLOCK
 62
     8
 10
-48.5
 20
-220.363632
 11
-48.5
 21
-410.498851
  0
LINE
  8
SIZE
  6
BYBLOCK
 62
     8
 10
-50.5
 20
-380.498851
 11
-52.5
 21
-380.498851
  0
LINE
  8
SIZE
  6
BYBLOCK
 62
     8
 10
50.5
 20
-380.498851
 11
52.5
 21
-380.498851
  0
LINE
  8
SIZE
  6
BYBLOCK
 62
     8
 10
-48.5
 20
-380.498851
 11
48.5
 21
-380.498851
  0
TEXT
  8
SIZE
  6
BYBLOCK
 62
     8
 10
65.716606
 20
-348.498851
 40
64.0
  1
φ97
 41
0.9
  0
CIRCLE
  8
SIZE
  6
CONTINUOUS
 62
     8
 10
48.5
 20
-380.498851
 40
6.0
  0
CIRCLE
  8
SIZE
  6
CONTINUOUS
 62
     8
 10
-48.5
 20
-380.498851
 40
6.0
  0
CIRCLE
  8
SIZE
  6
CONTINUOUS
 62
     8
 10
-180.0
 20
319.14304
 40
6.0
  0
CIRCLE
  8
SIZE
  6
CONTINUOUS
 62
     8
 10
180.0
 20
319.14304
 40
6.0
  0
ENDSEC
  0
EOF
