  0
SECTION
  2
HEADER
  9
$ACADVER
  1
AC1006
  9
$INSBASE
 10
0.0
 20
0.0
 30
0.0
  9
$EXTMIN
 10
-1415.718001
 20
-2802.496019
  9
$EXTMAX
 10
3246.850941
 20
955.072441
  9
$LIMMIN
 10
-2970.0
 20
-2100.0
  9
$LIMMAX
 10
2970.0
 20
2100.0
  9
$ORTHOMODE
 70
     1
  9
$REGENMODE
 70
     0
  9
$FILLMODE
 70
     1
  9
$QTEXTMODE
 70
     0
  9
$MIRRTEXT
 70
     0
  9
$DRAGMODE
 70
     2
  9
$LTSCALE
 40
20.0
  9
$OSMODE
 70
     0
  9
$ATTMODE
 70
     1
  9
$TEXTSIZE
 40
64.0
  9
$TRACEWID
 40
0.05
  9
$TEXTSTYLE
  7
STANDARD
  9
$CLAYER
  8
0
  9
$CELTYPE
  6
CONTINUOUS
  9
$CECOLOR
 62
     8
  9
$DIMSCALE
 40
1.0
  9
$DIMASZ
 40
2.0
  9
$DIMEXO
 40
20.0
  9
$DIMDLI
 40
200.0
  9
$DIMRND
 40
0.0
  9
$DIMDLE
 40
0.0
  9
$DIMEXE
 40
30.0
  9
$DIMTP
 40
0.0
  9
$DIMTM
 40
0.0
  9
$DIMTXT
 40
64.0
  9
$DIMCEN
 40
0.09
  9
$DIMTSZ
 40
0.0
  9
$DIMTOL
 70
     0
  9
$DIMLIM
 70
     0
  9
$DIMTIH
 70
     0
  9
$DIMTOH
 70
     0
  9
$DIMSE1
 70
     0
  9
$DIMSE2
 70
     0
  9
$DIMTAD
 70
     1
  9
$DIMZIN
 70
     8
  9
$DIMBLK
  1
DOT1
  9
$DIMASO
 70
     1
  9
$DIMSHO
 70
     0
  9
$DIMPOST
  1

  9
$DIMAPOST
  1

  9
$DIMALT
 70
     0
  9
$DIMALTD
 70
     2
  9
$DIMALTF
 40
25.4
  9
$DIMLFAC
 40
1.0
  9
$DIMTOFL
 70
     1
  9
$DIMTVP
 40
0.0
  9
$DIMTIX
 70
     1
  9
$DIMSOXD
 70
     0
  9
$DIMSAH
 70
     0
  9
$DIMBLK1
  1

  9
$DIMBLK2
  1

  9
$LUNITS
 70
     2
  9
$LUPREC
 70
     4
  9
$AXISMODE
 70
     0
  9
$AXISUNIT
 10
0.0
 20
0.0
  9
$SKETCHINC
 40
0.1
  9
$FILLETRAD
 40
10.0
  9
$AUNITS
 70
     1
  9
$AUPREC
 70
     3
  9
$MENU
  1
ACAD
  9
$ELEVATION
 40
0.0
  9
$THICKNESS
 40
0.0
  9
$LIMCHECK
 70
     0
  9
$BLIPMODE
 70
     0
  9
$CHAMFERA
 40
0.0
  9
$CHAMFERB
 40
0.0
  9
$SKPOLY
 70
     0
  9
$TDCREATE
 40
2451339.5882175928
  9
$TDUPDATE
 40
2451451.6637731483
  9
$TDINDWG
 40
0.0133796296
  9
$TDUSRTIMER
 40
0.0133796296
  9
$USRTIMER
 70
     1
  9
$ANGBASE
 50
0.0
  9
$ANGDIR
 70
     0
  9
$PDMODE
 70
     3
  9
$PDSIZE
 40
-2.0
  9
$PLINEWID
 40
0.0
  9
$COORDS
 70
     2
  9
$SPLFRAME
 70
     0
  9
$SPLINETYPE
 70
     6
  9
$SPLINESEGS
 70
     8
  9
$ATTDIA
 70
     0
  9
$ATTREQ
 70
     1
  9
$HANDLING
 70
     0
  9
$HANDSEED
  5
0
  9
$SURFTAB1
 70
     6
  9
$SURFTAB2
 70
     6
  9
$SURFTYPE
 70
     6
  9
$SURFU
 70
     6
  9
$SURFV
 70
     6
  9
$FLATLAND
 70
     1
  9
$UCSNAME
  2

  9
$UCSORG
 10
0.0
 20
0.0
 30
0.0
  9
$UCSXDIR
 10
1.0
 20
0.0
 30
0.0
  9
$UCSYDIR
 10
0.0
 20
1.0
 30
0.0
  9
$USERI1
 70
     0
  9
$USERI2
 70
     0
  9
$USERI3
 70
     0
  9
$USERI4
 70
     0
  9
$USERI5
 70
     0
  9
$USERR1
 40
20.0
  9
$USERR2
 40
0.0
  9
$USERR3
 40
0.0
  9
$USERR4
 40
0.0
  9
$USERR5
 40
0.0
  9
$WORLDVIEW
 70
     1
  9
$VIEWCTR
 10
-3.490718
 20
-25.380475
  9
$VIEWSIZE
 40
4282.619808
  9
$SNAPMODE
 70
     0
  9
$SNAPUNIT
 10
50.0
 20
50.0
  9
$SNAPBASE
 10
0.0
 20
0.0
  9
$SNAPANG
 50
0.0
  9
$SNAPSTYLE
 70
     0
  9
$SNAPISOPAIR
 70
     1
  9
$GRIDMODE
 70
     0
  9
$GRIDUNIT
 10
400.0
 20
400.0
  9
$FASTZOOM
 70
     1
  9
$VIEWDIR
 10
0.0
 20
0.0
 30
1.0
  0
ENDSEC
  0
SECTION
  2
TABLES
  0
TABLE
  2
VPORT
 70
     2
  0
VPORT
  2
*ACTIVE
 70
     0
 10
0.0
 20
0.0
 11
1.0
 21
1.0
 12
-3.490718
 22
-25.380475
 13
0.0
 23
0.0
 14
50.0
 24
50.0
 15
400.0
 25
400.0
 16
0.0
 26
0.0
 36
1.0
 17
0.0
 27
0.0
 37
0.0
 40
1584.500333
 41
1.387001
 42
50.0
 43
0.0
 44
0.0
 50
0.0
 51
0.0
 71
     0
 72
   500
 73
     1
 74
     0
 75
     0
 76
     0
 77
     0
 78
     1
  0
ENDTAB
  0
TABLE
  2
LTYPE
 70
     8
  0
LTYPE
  2
CONTINUOUS
 70
    64
  3
実線
 72
    65
 73
     0
 40
0.0
  0
LTYPE
  2
DASHDOT
 70
    64
  3
____ _ ____ _ ____ _ ____ _ ____ _ ____ _ ____
 72
    65
 73
     4
 40
5.5
 49
4.0
 49
-0.6
 49
0.3
 49
-0.6
  0
LTYPE
  2
CONTINOUS
 70
    64
  3
Solid line
 72
    65
 73
     0
 40
0.0
  0
LTYPE
  2
DASHED
 70
    64
  3
_ _ _ _ _ _ _ _ _ _ _ _ _ _ _ _ _ _ _ _ _ _ _
 72
    65
 73
     2
 40
2.0
 49
1.2
 49
-0.8
  0
LTYPE
  2
DOT
 70
    64
  3
...............................................
 72
    65
 73
     2
 40
0.8
 49
0.5
 49
-0.3
  0
LTYPE
  2
DASHDOT1
 70
    64
  3
____ _ ____ _ ____ _ ____ _ ____ _ ____ _ ____
 72
    65
 73
     4
 40
2.0
 49
1.5
 49
-0.2
 49
0.1
 49
-0.2
  0
LTYPE
  2
DIVIDE
 70
    64
  3
_____ _ _ _____ _ _ _____ _ _ _____ _ _ ____
 72
    65
 73
     6
 40
6.4
 49
4.0
 49
-0.6
 49
0.3
 49
-0.6
 49
0.3
 49
-0.6
  0
LTYPE
  2
DIVIDE1
 70
    64
  3
_____ _ _ _____ _ _ _____ _ _ _____ _ _ ____
 72
    65
 73
     6
 40
3.2
 49
2.0
 49
-0.3
 49
0.15
 49
-0.3
 49
0.15
 49
-0.3
  0
ENDTAB
  0
TABLE
  2
LAYER
 70
    12
  0
LAYER
  2
0
 70
     0
 62
     2
  6
CONTINUOUS
  0
LAYER
  2
OUTLINE
 70
    64
 62
     4
  6
CONTINUOUS
  0
LAYER
  2
DETAIL
 70
    64
 62
     1
  6
CONTINUOUS
  0
LAYER
  2
BASIS
 70
    64
 62
     1
  6
CONTINUOUS
  0
LAYER
  2
NOTE
 70
    64
 62
     1
  6
CONTINUOUS
  0
LAYER
  2
DEFPOINTS
 70
     0
 62
     7
  6
CONTINUOUS
  0
LAYER
  2
SIZE
 70
    64
 62
     7
  6
CONTINUOUS
  0
LAYER
  2
ARRANGE
 70
    64
 62
     7
  6
CONTINUOUS
  0
LAYER
  2
SERVICESPACE
 70
    64
 62
     7
  6
CONTINUOUS
  0
LAYER
  2
ETC
 70
    64
 62
     7
  6
CONTINUOUS
  0
LAYER
  2
FIX
 70
     0
 62
     7
  6
CONTINUOUS
  0
LAYER
  2
SYMBOLLINE
 70
     0
 62
     7
  6
CONTINUOUS
  0
ENDTAB
  0
TABLE
  2
STYLE
 70
     1
  0
STYLE
  2
STANDARD
 70
    64
 40
0.0
 41
0.9
 50
0.0
 71
     0
 42
64.0
  3
SIMPLEX
  4
BIGFONT
  0
ENDTAB
  0
TABLE
  2
VIEW
 70
     1
  0
VIEW
  2
ALL
 70
     0
 40
4282.619808
 10
-0.0
 20
41.309904
 41
5940.0
 11
0.0
 21
0.0
 31
1.0
 12
0.0
 22
0.0
 32
0.0
 42
50.0
 43
0.0
 44
0.0
 50
0.0
 71
     0
  0
ENDTAB
  0
TABLE
  2
UCS
 70
     0
  0
ENDTAB
  0
TABLE
  2
DWGMGR
 70
     0
  0
ENDTAB
  0
ENDSEC
  0
SECTION
  2
BLOCKS
  0
ENDSEC
  0
SECTION
  2
ENTITIES
  0
TEXT
  8
ETC
  6
CONTINUOUS
 62
    10
 10
299.419046
 20
299.134506
 40
64.0
  1
換気扇
 41
0.9
  0
LINE
  8
BASIS
  6
DASHDOT
 62
     6
 10
149.585888
 20
-0.0
 11
-162.997075
 21
0.0
  0
LINE
  8
BASIS
  6
DASHDOT
 62
     6
 10
0.0
 20
-244.069398
 11
0.0
 21
161.693534
  0
LINE
  8
DETAIL
  6
CONTINUOUS
 62
     5
 10
-37.8
 20
-125.0
 11
-108.0
 21
-125.0
  0
LINE
  8
DETAIL
  6
CONTINUOUS
 62
     5
 10
125.0
 20
108.0
 11
125.0
 21
-108.0
  0
LINE
  8
DETAIL
  6
CONTINUOUS
 62
     5
 10
-125.0
 20
108.0
 11
-125.0
 21
-108.0
  0
LINE
  8
DETAIL
  6
CONTINUOUS
 62
     5
 10
108.0
 20
125.0
 11
-108.0
 21
125.0
  0
LINE
  8
DETAIL
  6
CONTINUOUS
 62
     5
 10
108.0
 20
-125.0
 11
66.24
 21
-125.0
  0
LINE
  8
DETAIL
  6
CONTINUOUS
 62
     5
 10
91.44
 20
89.28
 11
-80.64
 21
89.28
  0
LINE
  8
DETAIL
  6
CONTINUOUS
 62
     5
 10
91.44
 20
-89.28
 11
-91.44
 21
-89.28
  0
LINE
  8
DETAIL
  6
CONTINOUS
 62
     5
 10
-86.76
 20
2.52
 11
-81.72
 21
2.52
  0
LINE
  8
DETAIL
  6
CONTINOUS
 62
     5
 10
-86.76
 20
3.96
 11
-81.72
 21
3.96
  0
LINE
  8
DETAIL
  6
CONTINOUS
 62
     5
 10
-86.76
 20
9.0
 11
-81.72
 21
9.0
  0
LINE
  8
DETAIL
  6
CONTINOUS
 62
     5
 10
-86.76
 20
10.44
 11
-81.72
 21
10.44
  0
LINE
  8
DETAIL
  6
CONTINOUS
 62
     5
 10
-86.76
 20
15.48
 11
-81.72
 21
15.48
  0
LINE
  8
DETAIL
  6
CONTINOUS
 62
     5
 10
-86.76
 20
16.92
 11
-81.72
 21
16.92
  0
LINE
  8
DETAIL
  6
CONTINOUS
 62
     5
 10
-86.76
 20
21.96
 11
-81.72
 21
21.96
  0
LINE
  8
DETAIL
  6
CONTINOUS
 62
     5
 10
-86.76
 20
23.4
 11
-81.72
 21
23.4
  0
LINE
  8
DETAIL
  6
CONTINOUS
 62
     5
 10
-86.76
 20
28.44
 11
-81.72
 21
28.44
  0
LINE
  8
DETAIL
  6
CONTINOUS
 62
     5
 10
-86.76
 20
29.88
 11
-81.72
 21
29.88
  0
LINE
  8
DETAIL
  6
CONTINOUS
 62
     5
 10
-86.76
 20
34.92
 11
-81.72
 21
34.92
  0
LINE
  8
DETAIL
  6
CONTINOUS
 62
     5
 10
-86.76
 20
36.36
 11
-81.72
 21
36.36
  0
LINE
  8
DETAIL
  6
CONTINOUS
 62
     5
 10
-86.76
 20
41.4
 11
-81.72
 21
41.4
  0
LINE
  8
DETAIL
  6
CONTINOUS
 62
     5
 10
-86.76
 20
42.84
 11
-81.72
 21
42.84
  0
LINE
  8
DETAIL
  6
CONTINOUS
 62
     5
 10
-86.76
 20
47.88
 11
-81.72
 21
47.88
  0
LINE
  8
DETAIL
  6
CONTINOUS
 62
     5
 10
-86.76
 20
49.32
 11
-81.72
 21
49.32
  0
LINE
  8
DETAIL
  6
CONTINOUS
 62
     5
 10
-86.76
 20
54.36
 11
-81.72
 21
54.36
  0
LINE
  8
DETAIL
  6
CONTINOUS
 62
     5
 10
-86.76
 20
55.8
 11
-81.72
 21
55.8
  0
LINE
  8
DETAIL
  6
CONTINOUS
 62
     5
 10
-86.76
 20
60.84
 11
-81.72
 21
60.84
  0
LINE
  8
DETAIL
  6
CONTINOUS
 62
     5
 10
-86.76
 20
62.28
 11
-81.72
 21
62.28
  0
LINE
  8
DETAIL
  6
CONTINOUS
 62
     5
 10
-86.76
 20
67.32
 11
-81.72
 21
67.32
  0
LINE
  8
DETAIL
  6
CONTINOUS
 62
     5
 10
-86.76
 20
68.76
 11
-81.72
 21
68.76
  0
LINE
  8
DETAIL
  6
CONTINOUS
 62
     5
 10
-86.76
 20
73.8
 11
-81.72
 21
73.8
  0
LINE
  8
DETAIL
  6
CONTINOUS
 62
     5
 10
-86.76
 20
75.24
 11
-81.72
 21
75.24
  0
LINE
  8
DETAIL
  6
CONTINOUS
 62
     5
 10
-86.76
 20
80.28
 11
-81.72
 21
80.28
  0
LINE
  8
DETAIL
  6
CONTINOUS
 62
     5
 10
-86.76
 20
81.72
 11
-81.72
 21
81.72
  0
LINE
  8
DETAIL
  6
CONTINOUS
 62
     5
 10
-2.52
 20
81.72
 11
-2.52
 21
86.76
  0
LINE
  8
DETAIL
  6
CONTINOUS
 62
     5
 10
-2.52
 20
75.24
 11
-2.52
 21
80.28
  0
LINE
  8
DETAIL
  6
CONTINOUS
 62
     5
 10
-2.52
 20
68.76
 11
-2.52
 21
73.8
  0
LINE
  8
DETAIL
  6
CONTINOUS
 62
     5
 10
-2.52
 20
62.28
 11
-2.52
 21
67.32
  0
LINE
  8
DETAIL
  6
CONTINOUS
 62
     5
 10
-2.52
 20
55.8
 11
-2.52
 21
60.84
  0
LINE
  8
DETAIL
  6
CONTINOUS
 62
     5
 10
-2.52
 20
49.32
 11
-2.52
 21
54.36
  0
LINE
  8
DETAIL
  6
CONTINOUS
 62
     5
 10
-2.52
 20
42.84
 11
-2.52
 21
47.88
  0
LINE
  8
DETAIL
  6
CONTINOUS
 62
     5
 10
-2.52
 20
36.36
 11
-2.52
 21
41.4
  0
LINE
  8
DETAIL
  6
CONTINOUS
 62
     5
 10
-2.52
 20
29.88
 11
-2.52
 21
34.92
  0
LINE
  8
DETAIL
  6
CONTINOUS
 62
     5
 10
-2.52
 20
23.4
 11
-2.52
 21
28.44
  0
LINE
  8
DETAIL
  6
CONTINOUS
 62
     5
 10
-2.52
 20
16.92
 11
-2.52
 21
21.96
  0
LINE
  8
DETAIL
  6
CONTINOUS
 62
     5
 10
-2.52
 20
10.44
 11
-2.52
 21
15.48
  0
LINE
  8
DETAIL
  6
CONTINOUS
 62
     5
 10
-2.52
 20
3.96
 11
-2.52
 21
9.0
  0
LINE
  8
DETAIL
  6
CONTINOUS
 62
     5
 10
-2.52
 20
-2.52
 11
-2.52
 21
2.52
  0
LINE
  8
DETAIL
  6
CONTINOUS
 62
     5
 10
-2.52
 20
-9.0
 11
-2.52
 21
-3.96
  0
LINE
  8
DETAIL
  6
CONTINOUS
 62
     5
 10
-2.52
 20
-15.48
 11
-2.52
 21
-10.44
  0
LINE
  8
DETAIL
  6
CONTINOUS
 62
     5
 10
-2.52
 20
-21.96
 11
-2.52
 21
-16.92
  0
LINE
  8
DETAIL
  6
CONTINOUS
 62
     5
 10
-2.52
 20
-28.44
 11
-2.52
 21
-23.4
  0
LINE
  8
DETAIL
  6
CONTINOUS
 62
     5
 10
-2.52
 20
-34.92
 11
-2.52
 21
-29.88
  0
LINE
  8
DETAIL
  6
CONTINOUS
 62
     5
 10
-2.52
 20
-41.4
 11
-2.52
 21
-36.36
  0
LINE
  8
DETAIL
  6
CONTINOUS
 62
     5
 10
-2.52
 20
-47.88
 11
-2.52
 21
-42.84
  0
LINE
  8
DETAIL
  6
CONTINOUS
 62
     5
 10
-2.52
 20
-54.36
 11
-2.52
 21
-49.32
  0
LINE
  8
DETAIL
  6
CONTINOUS
 62
     5
 10
-2.52
 20
-60.84
 11
-2.52
 21
-55.8
  0
LINE
  8
DETAIL
  6
CONTINOUS
 62
     5
 10
-2.52
 20
-67.32
 11
-2.52
 21
-62.28
  0
LINE
  8
DETAIL
  6
CONTINOUS
 62
     5
 10
-2.52
 20
-73.8
 11
-2.52
 21
-68.76
  0
LINE
  8
DETAIL
  6
CONTINOUS
 62
     5
 10
-2.52
 20
-80.28
 11
-2.52
 21
-75.24
  0
LINE
  8
DETAIL
  6
CONTINOUS
 62
     5
 10
-2.52
 20
-86.76
 11
-2.52
 21
-81.72
  0
LINE
  8
DETAIL
  6
CONTINOUS
 62
     5
 10
-9.0
 20
86.76
 11
-3.96
 21
86.76
  0
LINE
  8
DETAIL
  6
CONTINOUS
 62
     5
 10
-3.96
 20
81.72
 11
-3.96
 21
86.76
  0
LINE
  8
DETAIL
  6
CONTINOUS
 62
     5
 10
-9.0
 20
81.72
 11
-3.96
 21
81.72
  0
LINE
  8
DETAIL
  6
CONTINOUS
 62
     5
 10
-9.0
 20
81.72
 11
-9.0
 21
86.76
  0
LINE
  8
DETAIL
  6
CONTINOUS
 62
     5
 10
-9.0
 20
80.28
 11
-3.96
 21
80.28
  0
LINE
  8
DETAIL
  6
CONTINOUS
 62
     5
 10
-3.96
 20
75.24
 11
-3.96
 21
80.28
  0
LINE
  8
DETAIL
  6
CONTINOUS
 62
     5
 10
-9.0
 20
75.24
 11
-3.96
 21
75.24
  0
LINE
  8
DETAIL
  6
CONTINOUS
 62
     5
 10
-9.0
 20
75.24
 11
-9.0
 21
80.28
  0
LINE
  8
DETAIL
  6
CONTINOUS
 62
     5
 10
-9.0
 20
73.8
 11
-3.96
 21
73.8
  0
LINE
  8
DETAIL
  6
CONTINOUS
 62
     5
 10
-3.96
 20
68.76
 11
-3.96
 21
73.8
  0
LINE
  8
DETAIL
  6
CONTINOUS
 62
     5
 10
-9.0
 20
68.76
 11
-3.96
 21
68.76
  0
LINE
  8
DETAIL
  6
CONTINOUS
 62
     5
 10
-9.0
 20
68.76
 11
-9.0
 21
73.8
  0
LINE
  8
DETAIL
  6
CONTINOUS
 62
     5
 10
-9.0
 20
67.32
 11
-3.96
 21
67.32
  0
LINE
  8
DETAIL
  6
CONTINOUS
 62
     5
 10
-3.96
 20
62.28
 11
-3.96
 21
67.32
  0
LINE
  8
DETAIL
  6
CONTINOUS
 62
     5
 10
-9.0
 20
62.28
 11
-3.96
 21
62.28
  0
LINE
  8
DETAIL
  6
CONTINOUS
 62
     5
 10
-9.0
 20
62.28
 11
-9.0
 21
67.32
  0
LINE
  8
DETAIL
  6
CONTINOUS
 62
     5
 10
-9.0
 20
60.84
 11
-3.96
 21
60.84
  0
LINE
  8
DETAIL
  6
CONTINOUS
 62
     5
 10
-3.96
 20
55.8
 11
-3.96
 21
60.84
  0
LINE
  8
DETAIL
  6
CONTINOUS
 62
     5
 10
-9.0
 20
55.8
 11
-3.96
 21
55.8
  0
LINE
  8
DETAIL
  6
CONTINOUS
 62
     5
 10
-9.0
 20
55.8
 11
-9.0
 21
60.84
  0
LINE
  8
DETAIL
  6
CONTINOUS
 62
     5
 10
-9.0
 20
54.36
 11
-3.96
 21
54.36
  0
LINE
  8
DETAIL
  6
CONTINOUS
 62
     5
 10
-3.96
 20
49.32
 11
-3.96
 21
54.36
  0
LINE
  8
DETAIL
  6
CONTINOUS
 62
     5
 10
-9.0
 20
49.32
 11
-3.96
 21
49.32
  0
LINE
  8
DETAIL
  6
CONTINOUS
 62
     5
 10
-9.0
 20
49.32
 11
-9.0
 21
54.36
  0
LINE
  8
DETAIL
  6
CONTINOUS
 62
     5
 10
-9.0
 20
47.88
 11
-3.96
 21
47.88
  0
LINE
  8
DETAIL
  6
CONTINOUS
 62
     5
 10
-3.96
 20
42.84
 11
-3.96
 21
47.88
  0
LINE
  8
DETAIL
  6
CONTINOUS
 62
     5
 10
-9.0
 20
42.84
 11
-3.96
 21
42.84
  0
LINE
  8
DETAIL
  6
CONTINOUS
 62
     5
 10
-9.0
 20
42.84
 11
-9.0
 21
47.88
  0
LINE
  8
DETAIL
  6
CONTINOUS
 62
     5
 10
-9.0
 20
41.4
 11
-3.96
 21
41.4
  0
LINE
  8
DETAIL
  6
CONTINOUS
 62
     5
 10
-3.96
 20
36.36
 11
-3.96
 21
41.4
  0
LINE
  8
DETAIL
  6
CONTINOUS
 62
     5
 10
-9.0
 20
36.36
 11
-3.96
 21
36.36
  0
LINE
  8
DETAIL
  6
CONTINOUS
 62
     5
 10
-9.0
 20
36.36
 11
-9.0
 21
41.4
  0
LINE
  8
DETAIL
  6
CONTINOUS
 62
     5
 10
-9.0
 20
34.92
 11
-3.96
 21
34.92
  0
LINE
  8
DETAIL
  6
CONTINOUS
 62
     5
 10
-3.96
 20
29.88
 11
-3.96
 21
34.92
  0
LINE
  8
DETAIL
  6
CONTINOUS
 62
     5
 10
-9.0
 20
29.88
 11
-3.96
 21
29.88
  0
LINE
  8
DETAIL
  6
CONTINOUS
 62
     5
 10
-9.0
 20
29.88
 11
-9.0
 21
34.92
  0
LINE
  8
DETAIL
  6
CONTINOUS
 62
     5
 10
-9.0
 20
28.44
 11
-3.96
 21
28.44
  0
LINE
  8
DETAIL
  6
CONTINOUS
 62
     5
 10
-3.96
 20
23.4
 11
-3.96
 21
28.44
  0
LINE
  8
DETAIL
  6
CONTINOUS
 62
     5
 10
-9.0
 20
23.4
 11
-3.96
 21
23.4
  0
LINE
  8
DETAIL
  6
CONTINOUS
 62
     5
 10
-9.0
 20
23.4
 11
-9.0
 21
28.44
  0
LINE
  8
DETAIL
  6
CONTINOUS
 62
     5
 10
-9.0
 20
21.96
 11
-3.96
 21
21.96
  0
LINE
  8
DETAIL
  6
CONTINOUS
 62
     5
 10
-3.96
 20
16.92
 11
-3.96
 21
21.96
  0
LINE
  8
DETAIL
  6
CONTINOUS
 62
     5
 10
-9.0
 20
16.92
 11
-3.96
 21
16.92
  0
LINE
  8
DETAIL
  6
CONTINOUS
 62
     5
 10
-9.0
 20
16.92
 11
-9.0
 21
21.96
  0
LINE
  8
DETAIL
  6
CONTINOUS
 62
     5
 10
-9.0
 20
15.48
 11
-3.96
 21
15.48
  0
LINE
  8
DETAIL
  6
CONTINOUS
 62
     5
 10
-3.96
 20
10.44
 11
-3.96
 21
15.48
  0
LINE
  8
DETAIL
  6
CONTINOUS
 62
     5
 10
-9.0
 20
10.44
 11
-3.96
 21
10.44
  0
LINE
  8
DETAIL
  6
CONTINOUS
 62
     5
 10
-9.0
 20
10.44
 11
-9.0
 21
15.48
  0
LINE
  8
DETAIL
  6
CONTINOUS
 62
     5
 10
-9.0
 20
9.0
 11
-3.96
 21
9.0
  0
LINE
  8
DETAIL
  6
CONTINOUS
 62
     5
 10
-3.96
 20
3.96
 11
-3.96
 21
9.0
  0
LINE
  8
DETAIL
  6
CONTINOUS
 62
     5
 10
-9.0
 20
3.96
 11
-3.96
 21
3.96
  0
LINE
  8
DETAIL
  6
CONTINOUS
 62
     5
 10
-9.0
 20
3.96
 11
-9.0
 21
9.0
  0
LINE
  8
DETAIL
  6
CONTINOUS
 62
     5
 10
-9.0
 20
2.52
 11
-3.96
 21
2.52
  0
LINE
  8
DETAIL
  6
CONTINOUS
 62
     5
 10
-3.96
 20
-2.52
 11
-3.96
 21
2.52
  0
LINE
  8
DETAIL
  6
CONTINOUS
 62
     5
 10
-9.0
 20
-2.52
 11
-3.96
 21
-2.52
  0
LINE
  8
DETAIL
  6
CONTINOUS
 62
     5
 10
-9.0
 20
-2.52
 11
-9.0
 21
2.52
  0
LINE
  8
DETAIL
  6
CONTINOUS
 62
     5
 10
-9.0
 20
-3.96
 11
-3.96
 21
-3.96
  0
LINE
  8
DETAIL
  6
CONTINOUS
 62
     5
 10
-3.96
 20
-9.0
 11
-3.96
 21
-3.96
  0
LINE
  8
DETAIL
  6
CONTINOUS
 62
     5
 10
-9.0
 20
-9.0
 11
-3.96
 21
-9.0
  0
LINE
  8
DETAIL
  6
CONTINOUS
 62
     5
 10
-9.0
 20
-9.0
 11
-9.0
 21
-3.96
  0
LINE
  8
DETAIL
  6
CONTINOUS
 62
     5
 10
-9.0
 20
-10.44
 11
-3.96
 21
-10.44
  0
LINE
  8
DETAIL
  6
CONTINOUS
 62
     5
 10
-3.96
 20
-15.48
 11
-3.96
 21
-10.44
  0
LINE
  8
DETAIL
  6
CONTINOUS
 62
     5
 10
-9.0
 20
-15.48
 11
-3.96
 21
-15.48
  0
LINE
  8
DETAIL
  6
CONTINOUS
 62
     5
 10
-9.0
 20
-15.48
 11
-9.0
 21
-10.44
  0
LINE
  8
DETAIL
  6
CONTINOUS
 62
     5
 10
-9.0
 20
-16.92
 11
-3.96
 21
-16.92
  0
LINE
  8
DETAIL
  6
CONTINOUS
 62
     5
 10
-3.96
 20
-21.96
 11
-3.96
 21
-16.92
  0
LINE
  8
DETAIL
  6
CONTINOUS
 62
     5
 10
-9.0
 20
-21.96
 11
-3.96
 21
-21.96
  0
LINE
  8
DETAIL
  6
CONTINOUS
 62
     5
 10
-9.0
 20
-21.96
 11
-9.0
 21
-16.92
  0
LINE
  8
DETAIL
  6
CONTINOUS
 62
     5
 10
-9.0
 20
-23.4
 11
-3.96
 21
-23.4
  0
LINE
  8
DETAIL
  6
CONTINOUS
 62
     5
 10
-3.96
 20
-28.44
 11
-3.96
 21
-23.4
  0
LINE
  8
DETAIL
  6
CONTINOUS
 62
     5
 10
-9.0
 20
-28.44
 11
-3.96
 21
-28.44
  0
LINE
  8
DETAIL
  6
CONTINOUS
 62
     5
 10
-9.0
 20
-28.44
 11
-9.0
 21
-23.4
  0
LINE
  8
DETAIL
  6
CONTINOUS
 62
     5
 10
-9.0
 20
-29.88
 11
-3.96
 21
-29.88
  0
LINE
  8
DETAIL
  6
CONTINOUS
 62
     5
 10
-3.96
 20
-34.92
 11
-3.96
 21
-29.88
  0
LINE
  8
DETAIL
  6
CONTINOUS
 62
     5
 10
-9.0
 20
-34.92
 11
-3.96
 21
-34.92
  0
LINE
  8
DETAIL
  6
CONTINOUS
 62
     5
 10
-9.0
 20
-34.92
 11
-9.0
 21
-29.88
  0
LINE
  8
DETAIL
  6
CONTINOUS
 62
     5
 10
-9.0
 20
-36.36
 11
-3.96
 21
-36.36
  0
LINE
  8
DETAIL
  6
CONTINOUS
 62
     5
 10
-3.96
 20
-41.4
 11
-3.96
 21
-36.36
  0
LINE
  8
DETAIL
  6
CONTINOUS
 62
     5
 10
-9.0
 20
-41.4
 11
-3.96
 21
-41.4
  0
LINE
  8
DETAIL
  6
CONTINOUS
 62
     5
 10
-9.0
 20
-41.4
 11
-9.0
 21
-36.36
  0
LINE
  8
DETAIL
  6
CONTINOUS
 62
     5
 10
-9.0
 20
-42.84
 11
-3.96
 21
-42.84
  0
LINE
  8
DETAIL
  6
CONTINOUS
 62
     5
 10
-3.96
 20
-47.88
 11
-3.96
 21
-42.84
  0
LINE
  8
DETAIL
  6
CONTINOUS
 62
     5
 10
-9.0
 20
-47.88
 11
-3.96
 21
-47.88
  0
LINE
  8
DETAIL
  6
CONTINOUS
 62
     5
 10
-9.0
 20
-47.88
 11
-9.0
 21
-42.84
  0
LINE
  8
DETAIL
  6
CONTINOUS
 62
     5
 10
-9.0
 20
-49.32
 11
-3.96
 21
-49.32
  0
LINE
  8
DETAIL
  6
CONTINOUS
 62
     5
 10
-3.96
 20
-54.36
 11
-3.96
 21
-49.32
  0
LINE
  8
DETAIL
  6
CONTINOUS
 62
     5
 10
-9.0
 20
-54.36
 11
-3.96
 21
-54.36
  0
LINE
  8
DETAIL
  6
CONTINOUS
 62
     5
 10
-9.0
 20
-54.36
 11
-9.0
 21
-49.32
  0
LINE
  8
DETAIL
  6
CONTINOUS
 62
     5
 10
-9.0
 20
-55.8
 11
-3.96
 21
-55.8
  0
LINE
  8
DETAIL
  6
CONTINOUS
 62
     5
 10
-3.96
 20
-60.84
 11
-3.96
 21
-55.8
  0
LINE
  8
DETAIL
  6
CONTINOUS
 62
     5
 10
-9.0
 20
-60.84
 11
-3.96
 21
-60.84
  0
LINE
  8
DETAIL
  6
CONTINOUS
 62
     5
 10
-9.0
 20
-60.84
 11
-9.0
 21
-55.8
  0
LINE
  8
DETAIL
  6
CONTINOUS
 62
     5
 10
-9.0
 20
-62.28
 11
-3.96
 21
-62.28
  0
LINE
  8
DETAIL
  6
CONTINOUS
 62
     5
 10
-3.96
 20
-67.32
 11
-3.96
 21
-62.28
  0
LINE
  8
DETAIL
  6
CONTINOUS
 62
     5
 10
-9.0
 20
-67.32
 11
-3.96
 21
-67.32
  0
LINE
  8
DETAIL
  6
CONTINOUS
 62
     5
 10
-9.0
 20
-67.32
 11
-9.0
 21
-62.28
  0
LINE
  8
DETAIL
  6
CONTINOUS
 62
     5
 10
-9.0
 20
-68.76
 11
-3.96
 21
-68.76
  0
LINE
  8
DETAIL
  6
CONTINOUS
 62
     5
 10
-3.96
 20
-73.8
 11
-3.96
 21
-68.76
  0
LINE
  8
DETAIL
  6
CONTINOUS
 62
     5
 10
-9.0
 20
-73.8
 11
-3.96
 21
-73.8
  0
LINE
  8
DETAIL
  6
CONTINOUS
 62
     5
 10
-9.0
 20
-73.8
 11
-9.0
 21
-68.76
  0
LINE
  8
DETAIL
  6
CONTINOUS
 62
     5
 10
-9.0
 20
-75.24
 11
-3.96
 21
-75.24
  0
LINE
  8
DETAIL
  6
CONTINOUS
 62
     5
 10
-3.96
 20
-80.28
 11
-3.96
 21
-75.24
  0
LINE
  8
DETAIL
  6
CONTINOUS
 62
     5
 10
-9.0
 20
-80.28
 11
-3.96
 21
-80.28
  0
LINE
  8
DETAIL
  6
CONTINOUS
 62
     5
 10
-9.0
 20
-80.28
 11
-9.0
 21
-75.24
  0
LINE
  8
DETAIL
  6
CONTINOUS
 62
     5
 10
-9.0
 20
-81.72
 11
-3.96
 21
-81.72
  0
LINE
  8
DETAIL
  6
CONTINOUS
 62
     5
 10
-3.96
 20
-86.76
 11
-3.96
 21
-81.72
  0
LINE
  8
DETAIL
  6
CONTINOUS
 62
     5
 10
-9.0
 20
-86.76
 11
-3.96
 21
-86.76
  0
LINE
  8
DETAIL
  6
CONTINOUS
 62
     5
 10
-9.0
 20
-86.76
 11
-9.0
 21
-81.72
  0
LINE
  8
DETAIL
  6
CONTINOUS
 62
     5
 10
-15.48
 20
86.76
 11
-10.44
 21
86.76
  0
LINE
  8
DETAIL
  6
CONTINOUS
 62
     5
 10
-10.44
 20
81.72
 11
-10.44
 21
86.76
  0
LINE
  8
DETAIL
  6
CONTINOUS
 62
     5
 10
-15.48
 20
81.72
 11
-10.44
 21
81.72
  0
LINE
  8
DETAIL
  6
CONTINOUS
 62
     5
 10
-15.48
 20
81.72
 11
-15.48
 21
86.76
  0
LINE
  8
DETAIL
  6
CONTINOUS
 62
     5
 10
-15.48
 20
80.28
 11
-10.44
 21
80.28
  0
LINE
  8
DETAIL
  6
CONTINOUS
 62
     5
 10
-10.44
 20
75.24
 11
-10.44
 21
80.28
  0
LINE
  8
DETAIL
  6
CONTINOUS
 62
     5
 10
-15.48
 20
75.24
 11
-10.44
 21
75.24
  0
LINE
  8
DETAIL
  6
CONTINOUS
 62
     5
 10
-15.48
 20
75.24
 11
-15.48
 21
80.28
  0
LINE
  8
DETAIL
  6
CONTINOUS
 62
     5
 10
-15.48
 20
73.8
 11
-10.44
 21
73.8
  0
LINE
  8
DETAIL
  6
CONTINOUS
 62
     5
 10
-10.44
 20
68.76
 11
-10.44
 21
73.8
  0
LINE
  8
DETAIL
  6
CONTINOUS
 62
     5
 10
-15.48
 20
68.76
 11
-10.44
 21
68.76
  0
LINE
  8
DETAIL
  6
CONTINOUS
 62
     5
 10
-15.48
 20
68.76
 11
-15.48
 21
73.8
  0
LINE
  8
DETAIL
  6
CONTINOUS
 62
     5
 10
-15.48
 20
67.32
 11
-10.44
 21
67.32
  0
LINE
  8
DETAIL
  6
CONTINOUS
 62
     5
 10
-10.44
 20
62.28
 11
-10.44
 21
67.32
  0
LINE
  8
DETAIL
  6
CONTINOUS
 62
     5
 10
-15.48
 20
62.28
 11
-10.44
 21
62.28
  0
LINE
  8
DETAIL
  6
CONTINOUS
 62
     5
 10
-15.48
 20
62.28
 11
-15.48
 21
67.32
  0
LINE
  8
DETAIL
  6
CONTINOUS
 62
     5
 10
-15.48
 20
60.84
 11
-10.44
 21
60.84
  0
LINE
  8
DETAIL
  6
CONTINOUS
 62
     5
 10
-10.44
 20
55.8
 11
-10.44
 21
60.84
  0
LINE
  8
DETAIL
  6
CONTINOUS
 62
     5
 10
-15.48
 20
55.8
 11
-10.44
 21
55.8
  0
LINE
  8
DETAIL
  6
CONTINOUS
 62
     5
 10
-15.48
 20
55.8
 11
-15.48
 21
60.84
  0
LINE
  8
DETAIL
  6
CONTINOUS
 62
     5
 10
-15.48
 20
54.36
 11
-10.44
 21
54.36
  0
LINE
  8
DETAIL
  6
CONTINOUS
 62
     5
 10
-10.44
 20
49.32
 11
-10.44
 21
54.36
  0
LINE
  8
DETAIL
  6
CONTINOUS
 62
     5
 10
-15.48
 20
49.32
 11
-10.44
 21
49.32
  0
LINE
  8
DETAIL
  6
CONTINOUS
 62
     5
 10
-15.48
 20
49.32
 11
-15.48
 21
54.36
  0
LINE
  8
DETAIL
  6
CONTINOUS
 62
     5
 10
-15.48
 20
47.88
 11
-10.44
 21
47.88
  0
LINE
  8
DETAIL
  6
CONTINOUS
 62
     5
 10
-10.44
 20
42.84
 11
-10.44
 21
47.88
  0
LINE
  8
DETAIL
  6
CONTINOUS
 62
     5
 10
-15.48
 20
42.84
 11
-10.44
 21
42.84
  0
LINE
  8
DETAIL
  6
CONTINOUS
 62
     5
 10
-15.48
 20
42.84
 11
-15.48
 21
47.88
  0
LINE
  8
DETAIL
  6
CONTINOUS
 62
     5
 10
-15.48
 20
41.4
 11
-10.44
 21
41.4
  0
LINE
  8
DETAIL
  6
CONTINOUS
 62
     5
 10
-10.44
 20
36.36
 11
-10.44
 21
41.4
  0
LINE
  8
DETAIL
  6
CONTINOUS
 62
     5
 10
-15.48
 20
36.36
 11
-10.44
 21
36.36
  0
LINE
  8
DETAIL
  6
CONTINOUS
 62
     5
 10
-15.48
 20
36.36
 11
-15.48
 21
41.4
  0
LINE
  8
DETAIL
  6
CONTINOUS
 62
     5
 10
-15.48
 20
34.92
 11
-10.44
 21
34.92
  0
LINE
  8
DETAIL
  6
CONTINOUS
 62
     5
 10
-10.44
 20
29.88
 11
-10.44
 21
34.92
  0
LINE
  8
DETAIL
  6
CONTINOUS
 62
     5
 10
-15.48
 20
29.88
 11
-10.44
 21
29.88
  0
LINE
  8
DETAIL
  6
CONTINOUS
 62
     5
 10
-15.48
 20
29.88
 11
-15.48
 21
34.92
  0
LINE
  8
DETAIL
  6
CONTINOUS
 62
     5
 10
-15.48
 20
28.44
 11
-10.44
 21
28.44
  0
LINE
  8
DETAIL
  6
CONTINOUS
 62
     5
 10
-10.44
 20
23.4
 11
-10.44
 21
28.44
  0
LINE
  8
DETAIL
  6
CONTINOUS
 62
     5
 10
-15.48
 20
23.4
 11
-10.44
 21
23.4
  0
LINE
  8
DETAIL
  6
CONTINOUS
 62
     5
 10
-15.48
 20
23.4
 11
-15.48
 21
28.44
  0
LINE
  8
DETAIL
  6
CONTINOUS
 62
     5
 10
-15.48
 20
21.96
 11
-10.44
 21
21.96
  0
LINE
  8
DETAIL
  6
CONTINOUS
 62
     5
 10
-10.44
 20
16.92
 11
-10.44
 21
21.96
  0
LINE
  8
DETAIL
  6
CONTINOUS
 62
     5
 10
-15.48
 20
16.92
 11
-10.44
 21
16.92
  0
LINE
  8
DETAIL
  6
CONTINOUS
 62
     5
 10
-15.48
 20
16.92
 11
-15.48
 21
21.96
  0
LINE
  8
DETAIL
  6
CONTINOUS
 62
     5
 10
-15.48
 20
15.48
 11
-10.44
 21
15.48
  0
LINE
  8
DETAIL
  6
CONTINOUS
 62
     5
 10
-10.44
 20
10.44
 11
-10.44
 21
15.48
  0
LINE
  8
DETAIL
  6
CONTINOUS
 62
     5
 10
-15.48
 20
10.44
 11
-10.44
 21
10.44
  0
LINE
  8
DETAIL
  6
CONTINOUS
 62
     5
 10
-15.48
 20
10.44
 11
-15.48
 21
15.48
  0
LINE
  8
DETAIL
  6
CONTINOUS
 62
     5
 10
-15.48
 20
9.0
 11
-10.44
 21
9.0
  0
LINE
  8
DETAIL
  6
CONTINOUS
 62
     5
 10
-10.44
 20
3.96
 11
-10.44
 21
9.0
  0
LINE
  8
DETAIL
  6
CONTINOUS
 62
     5
 10
-15.48
 20
3.96
 11
-10.44
 21
3.96
  0
LINE
  8
DETAIL
  6
CONTINOUS
 62
     5
 10
-15.48
 20
3.96
 11
-15.48
 21
9.0
  0
LINE
  8
DETAIL
  6
CONTINOUS
 62
     5
 10
-15.48
 20
2.52
 11
-10.44
 21
2.52
  0
LINE
  8
DETAIL
  6
CONTINOUS
 62
     5
 10
-10.44
 20
-2.52
 11
-10.44
 21
2.52
  0
LINE
  8
DETAIL
  6
CONTINOUS
 62
     5
 10
-15.48
 20
-2.52
 11
-10.44
 21
-2.52
  0
LINE
  8
DETAIL
  6
CONTINOUS
 62
     5
 10
-15.48
 20
-2.52
 11
-15.48
 21
2.52
  0
LINE
  8
DETAIL
  6
CONTINOUS
 62
     5
 10
-15.48
 20
-3.96
 11
-10.44
 21
-3.96
  0
LINE
  8
DETAIL
  6
CONTINOUS
 62
     5
 10
-10.44
 20
-9.0
 11
-10.44
 21
-3.96
  0
LINE
  8
DETAIL
  6
CONTINOUS
 62
     5
 10
-15.48
 20
-9.0
 11
-10.44
 21
-9.0
  0
LINE
  8
DETAIL
  6
CONTINOUS
 62
     5
 10
-15.48
 20
-9.0
 11
-15.48
 21
-3.96
  0
LINE
  8
DETAIL
  6
CONTINOUS
 62
     5
 10
-15.48
 20
-10.44
 11
-10.44
 21
-10.44
  0
LINE
  8
DETAIL
  6
CONTINOUS
 62
     5
 10
-10.44
 20
-15.48
 11
-10.44
 21
-10.44
  0
LINE
  8
DETAIL
  6
CONTINOUS
 62
     5
 10
-15.48
 20
-15.48
 11
-10.44
 21
-15.48
  0
LINE
  8
DETAIL
  6
CONTINOUS
 62
     5
 10
-15.48
 20
-15.48
 11
-15.48
 21
-10.44
  0
LINE
  8
DETAIL
  6
CONTINOUS
 62
     5
 10
-15.48
 20
-16.92
 11
-10.44
 21
-16.92
  0
LINE
  8
DETAIL
  6
CONTINOUS
 62
     5
 10
-10.44
 20
-21.96
 11
-10.44
 21
-16.92
  0
LINE
  8
DETAIL
  6
CONTINOUS
 62
     5
 10
-15.48
 20
-21.96
 11
-10.44
 21
-21.96
  0
LINE
  8
DETAIL
  6
CONTINOUS
 62
     5
 10
-15.48
 20
-21.96
 11
-15.48
 21
-16.92
  0
LINE
  8
DETAIL
  6
CONTINOUS
 62
     5
 10
-15.48
 20
-23.4
 11
-10.44
 21
-23.4
  0
LINE
  8
DETAIL
  6
CONTINOUS
 62
     5
 10
-10.44
 20
-28.44
 11
-10.44
 21
-23.4
  0
LINE
  8
DETAIL
  6
CONTINOUS
 62
     5
 10
-15.48
 20
-28.44
 11
-10.44
 21
-28.44
  0
LINE
  8
DETAIL
  6
CONTINOUS
 62
     5
 10
-15.48
 20
-28.44
 11
-15.48
 21
-23.4
  0
LINE
  8
DETAIL
  6
CONTINOUS
 62
     5
 10
-15.48
 20
-29.88
 11
-10.44
 21
-29.88
  0
LINE
  8
DETAIL
  6
CONTINOUS
 62
     5
 10
-10.44
 20
-34.92
 11
-10.44
 21
-29.88
  0
LINE
  8
DETAIL
  6
CONTINOUS
 62
     5
 10
-15.48
 20
-34.92
 11
-10.44
 21
-34.92
  0
LINE
  8
DETAIL
  6
CONTINOUS
 62
     5
 10
-15.48
 20
-34.92
 11
-15.48
 21
-29.88
  0
LINE
  8
DETAIL
  6
CONTINOUS
 62
     5
 10
-15.48
 20
-36.36
 11
-10.44
 21
-36.36
  0
LINE
  8
DETAIL
  6
CONTINOUS
 62
     5
 10
-10.44
 20
-41.4
 11
-10.44
 21
-36.36
  0
LINE
  8
DETAIL
  6
CONTINOUS
 62
     5
 10
-15.48
 20
-41.4
 11
-10.44
 21
-41.4
  0
LINE
  8
DETAIL
  6
CONTINOUS
 62
     5
 10
-15.48
 20
-41.4
 11
-15.48
 21
-36.36
  0
LINE
  8
DETAIL
  6
CONTINOUS
 62
     5
 10
-15.48
 20
-42.84
 11
-10.44
 21
-42.84
  0
LINE
  8
DETAIL
  6
CONTINOUS
 62
     5
 10
-10.44
 20
-47.88
 11
-10.44
 21
-42.84
  0
LINE
  8
DETAIL
  6
CONTINOUS
 62
     5
 10
-15.48
 20
-47.88
 11
-10.44
 21
-47.88
  0
LINE
  8
DETAIL
  6
CONTINOUS
 62
     5
 10
-15.48
 20
-47.88
 11
-15.48
 21
-42.84
  0
LINE
  8
DETAIL
  6
CONTINOUS
 62
     5
 10
-15.48
 20
-49.32
 11
-10.44
 21
-49.32
  0
LINE
  8
DETAIL
  6
CONTINOUS
 62
     5
 10
-10.44
 20
-54.36
 11
-10.44
 21
-49.32
  0
LINE
  8
DETAIL
  6
CONTINOUS
 62
     5
 10
-15.48
 20
-54.36
 11
-10.44
 21
-54.36
  0
LINE
  8
DETAIL
  6
CONTINOUS
 62
     5
 10
-15.48
 20
-54.36
 11
-15.48
 21
-49.32
  0
LINE
  8
DETAIL
  6
CONTINOUS
 62
     5
 10
-15.48
 20
-55.8
 11
-10.44
 21
-55.8
  0
LINE
  8
DETAIL
  6
CONTINOUS
 62
     5
 10
-10.44
 20
-60.84
 11
-10.44
 21
-55.8
  0
LINE
  8
DETAIL
  6
CONTINOUS
 62
     5
 10
-15.48
 20
-60.84
 11
-10.44
 21
-60.84
  0
LINE
  8
DETAIL
  6
CONTINOUS
 62
     5
 10
-15.48
 20
-60.84
 11
-15.48
 21
-55.8
  0
LINE
  8
DETAIL
  6
CONTINOUS
 62
     5
 10
-15.48
 20
-62.28
 11
-10.44
 21
-62.28
  0
LINE
  8
DETAIL
  6
CONTINOUS
 62
     5
 10
-10.44
 20
-67.32
 11
-10.44
 21
-62.28
  0
LINE
  8
DETAIL
  6
CONTINOUS
 62
     5
 10
-15.48
 20
-67.32
 11
-10.44
 21
-67.32
  0
LINE
  8
DETAIL
  6
CONTINOUS
 62
     5
 10
-15.48
 20
-67.32
 11
-15.48
 21
-62.28
  0
LINE
  8
DETAIL
  6
CONTINOUS
 62
     5
 10
-15.48
 20
-68.76
 11
-10.44
 21
-68.76
  0
LINE
  8
DETAIL
  6
CONTINOUS
 62
     5
 10
-10.44
 20
-73.8
 11
-10.44
 21
-68.76
  0
LINE
  8
DETAIL
  6
CONTINOUS
 62
     5
 10
-15.48
 20
-73.8
 11
-10.44
 21
-73.8
  0
LINE
  8
DETAIL
  6
CONTINOUS
 62
     5
 10
-15.48
 20
-73.8
 11
-15.48
 21
-68.76
  0
LINE
  8
DETAIL
  6
CONTINOUS
 62
     5
 10
-15.48
 20
-75.24
 11
-10.44
 21
-75.24
  0
LINE
  8
DETAIL
  6
CONTINOUS
 62
     5
 10
-10.44
 20
-80.28
 11
-10.44
 21
-75.24
  0
LINE
  8
DETAIL
  6
CONTINOUS
 62
     5
 10
-15.48
 20
-80.28
 11
-10.44
 21
-80.28
  0
LINE
  8
DETAIL
  6
CONTINOUS
 62
     5
 10
-15.48
 20
-80.28
 11
-15.48
 21
-75.24
  0
LINE
  8
DETAIL
  6
CONTINOUS
 62
     5
 10
-15.48
 20
-81.72
 11
-10.44
 21
-81.72
  0
LINE
  8
DETAIL
  6
CONTINOUS
 62
     5
 10
-10.44
 20
-86.76
 11
-10.44
 21
-81.72
  0
LINE
  8
DETAIL
  6
CONTINOUS
 62
     5
 10
-15.48
 20
-86.76
 11
-10.44
 21
-86.76
  0
LINE
  8
DETAIL
  6
CONTINOUS
 62
     5
 10
-15.48
 20
-86.76
 11
-15.48
 21
-81.72
  0
LINE
  8
DETAIL
  6
CONTINOUS
 62
     5
 10
-21.96
 20
86.76
 11
-16.92
 21
86.76
  0
LINE
  8
DETAIL
  6
CONTINOUS
 62
     5
 10
-16.92
 20
81.72
 11
-16.92
 21
86.76
  0
LINE
  8
DETAIL
  6
CONTINOUS
 62
     5
 10
-21.96
 20
81.72
 11
-16.92
 21
81.72
  0
LINE
  8
DETAIL
  6
CONTINOUS
 62
     5
 10
-21.96
 20
81.72
 11
-21.96
 21
86.76
  0
LINE
  8
DETAIL
  6
CONTINOUS
 62
     5
 10
-21.96
 20
80.28
 11
-16.92
 21
80.28
  0
LINE
  8
DETAIL
  6
CONTINOUS
 62
     5
 10
-16.92
 20
75.24
 11
-16.92
 21
80.28
  0
LINE
  8
DETAIL
  6
CONTINOUS
 62
     5
 10
-21.96
 20
75.24
 11
-16.92
 21
75.24
  0
LINE
  8
DETAIL
  6
CONTINOUS
 62
     5
 10
-21.96
 20
75.24
 11
-21.96
 21
80.28
  0
LINE
  8
DETAIL
  6
CONTINOUS
 62
     5
 10
-21.96
 20
73.8
 11
-16.92
 21
73.8
  0
LINE
  8
DETAIL
  6
CONTINOUS
 62
     5
 10
-16.92
 20
68.76
 11
-16.92
 21
73.8
  0
LINE
  8
DETAIL
  6
CONTINOUS
 62
     5
 10
-21.96
 20
68.76
 11
-16.92
 21
68.76
  0
LINE
  8
DETAIL
  6
CONTINOUS
 62
     5
 10
-21.96
 20
68.76
 11
-21.96
 21
73.8
  0
LINE
  8
DETAIL
  6
CONTINOUS
 62
     5
 10
-21.96
 20
67.32
 11
-16.92
 21
67.32
  0
LINE
  8
DETAIL
  6
CONTINOUS
 62
     5
 10
-16.92
 20
62.28
 11
-16.92
 21
67.32
  0
LINE
  8
DETAIL
  6
CONTINOUS
 62
     5
 10
-21.96
 20
62.28
 11
-16.92
 21
62.28
  0
LINE
  8
DETAIL
  6
CONTINOUS
 62
     5
 10
-21.96
 20
62.28
 11
-21.96
 21
67.32
  0
LINE
  8
DETAIL
  6
CONTINOUS
 62
     5
 10
-21.96
 20
60.84
 11
-16.92
 21
60.84
  0
LINE
  8
DETAIL
  6
CONTINOUS
 62
     5
 10
-16.92
 20
55.8
 11
-16.92
 21
60.84
  0
LINE
  8
DETAIL
  6
CONTINOUS
 62
     5
 10
-21.96
 20
55.8
 11
-16.92
 21
55.8
  0
LINE
  8
DETAIL
  6
CONTINOUS
 62
     5
 10
-21.96
 20
55.8
 11
-21.96
 21
60.84
  0
LINE
  8
DETAIL
  6
CONTINOUS
 62
     5
 10
-21.96
 20
54.36
 11
-16.92
 21
54.36
  0
LINE
  8
DETAIL
  6
CONTINOUS
 62
     5
 10
-16.92
 20
49.32
 11
-16.92
 21
54.36
  0
LINE
  8
DETAIL
  6
CONTINOUS
 62
     5
 10
-21.96
 20
49.32
 11
-16.92
 21
49.32
  0
LINE
  8
DETAIL
  6
CONTINOUS
 62
     5
 10
-21.96
 20
49.32
 11
-21.96
 21
54.36
  0
LINE
  8
DETAIL
  6
CONTINOUS
 62
     5
 10
-21.96
 20
47.88
 11
-16.92
 21
47.88
  0
LINE
  8
DETAIL
  6
CONTINOUS
 62
     5
 10
-16.92
 20
42.84
 11
-16.92
 21
47.88
  0
LINE
  8
DETAIL
  6
CONTINOUS
 62
     5
 10
-21.96
 20
42.84
 11
-16.92
 21
42.84
  0
LINE
  8
DETAIL
  6
CONTINOUS
 62
     5
 10
-21.96
 20
42.84
 11
-21.96
 21
47.88
  0
LINE
  8
DETAIL
  6
CONTINOUS
 62
     5
 10
-21.96
 20
41.4
 11
-16.92
 21
41.4
  0
LINE
  8
DETAIL
  6
CONTINOUS
 62
     5
 10
-16.92
 20
36.36
 11
-16.92
 21
41.4
  0
LINE
  8
DETAIL
  6
CONTINOUS
 62
     5
 10
-21.96
 20
36.36
 11
-16.92
 21
36.36
  0
LINE
  8
DETAIL
  6
CONTINOUS
 62
     5
 10
-21.96
 20
36.36
 11
-21.96
 21
41.4
  0
LINE
  8
DETAIL
  6
CONTINOUS
 62
     5
 10
-21.96
 20
34.92
 11
-16.92
 21
34.92
  0
LINE
  8
DETAIL
  6
CONTINOUS
 62
     5
 10
-16.92
 20
29.88
 11
-16.92
 21
34.92
  0
LINE
  8
DETAIL
  6
CONTINOUS
 62
     5
 10
-21.96
 20
29.88
 11
-16.92
 21
29.88
  0
LINE
  8
DETAIL
  6
CONTINOUS
 62
     5
 10
-21.96
 20
29.88
 11
-21.96
 21
34.92
  0
LINE
  8
DETAIL
  6
CONTINOUS
 62
     5
 10
-21.96
 20
28.44
 11
-16.92
 21
28.44
  0
LINE
  8
DETAIL
  6
CONTINOUS
 62
     5
 10
-16.92
 20
23.4
 11
-16.92
 21
28.44
  0
LINE
  8
DETAIL
  6
CONTINOUS
 62
     5
 10
-21.96
 20
23.4
 11
-16.92
 21
23.4
  0
LINE
  8
DETAIL
  6
CONTINOUS
 62
     5
 10
-21.96
 20
23.4
 11
-21.96
 21
28.44
  0
LINE
  8
DETAIL
  6
CONTINOUS
 62
     5
 10
-21.96
 20
21.96
 11
-16.92
 21
21.96
  0
LINE
  8
DETAIL
  6
CONTINOUS
 62
     5
 10
-16.92
 20
16.92
 11
-16.92
 21
21.96
  0
LINE
  8
DETAIL
  6
CONTINOUS
 62
     5
 10
-21.96
 20
16.92
 11
-16.92
 21
16.92
  0
LINE
  8
DETAIL
  6
CONTINOUS
 62
     5
 10
-21.96
 20
16.92
 11
-21.96
 21
21.96
  0
LINE
  8
DETAIL
  6
CONTINOUS
 62
     5
 10
-21.96
 20
15.48
 11
-16.92
 21
15.48
  0
LINE
  8
DETAIL
  6
CONTINOUS
 62
     5
 10
-16.92
 20
10.44
 11
-16.92
 21
15.48
  0
LINE
  8
DETAIL
  6
CONTINOUS
 62
     5
 10
-21.96
 20
10.44
 11
-16.92
 21
10.44
  0
LINE
  8
DETAIL
  6
CONTINOUS
 62
     5
 10
-21.96
 20
10.44
 11
-21.96
 21
15.48
  0
LINE
  8
DETAIL
  6
CONTINOUS
 62
     5
 10
-21.96
 20
9.0
 11
-16.92
 21
9.0
  0
LINE
  8
DETAIL
  6
CONTINOUS
 62
     5
 10
-16.92
 20
3.96
 11
-16.92
 21
9.0
  0
LINE
  8
DETAIL
  6
CONTINOUS
 62
     5
 10
-21.96
 20
3.96
 11
-16.92
 21
3.96
  0
LINE
  8
DETAIL
  6
CONTINOUS
 62
     5
 10
-21.96
 20
3.96
 11
-21.96
 21
9.0
  0
LINE
  8
DETAIL
  6
CONTINOUS
 62
     5
 10
-21.96
 20
2.52
 11
-16.92
 21
2.52
  0
LINE
  8
DETAIL
  6
CONTINOUS
 62
     5
 10
-16.92
 20
-2.52
 11
-16.92
 21
2.52
  0
LINE
  8
DETAIL
  6
CONTINOUS
 62
     5
 10
-21.96
 20
-2.52
 11
-16.92
 21
-2.52
  0
LINE
  8
DETAIL
  6
CONTINOUS
 62
     5
 10
-21.96
 20
-2.52
 11
-21.96
 21
2.52
  0
LINE
  8
DETAIL
  6
CONTINOUS
 62
     5
 10
-21.96
 20
-3.96
 11
-16.92
 21
-3.96
  0
LINE
  8
DETAIL
  6
CONTINOUS
 62
     5
 10
-16.92
 20
-9.0
 11
-16.92
 21
-3.96
  0
LINE
  8
DETAIL
  6
CONTINOUS
 62
     5
 10
-21.96
 20
-9.0
 11
-16.92
 21
-9.0
  0
LINE
  8
DETAIL
  6
CONTINOUS
 62
     5
 10
-21.96
 20
-9.0
 11
-21.96
 21
-3.96
  0
LINE
  8
DETAIL
  6
CONTINOUS
 62
     5
 10
-21.96
 20
-10.44
 11
-16.92
 21
-10.44
  0
LINE
  8
DETAIL
  6
CONTINOUS
 62
     5
 10
-16.92
 20
-15.48
 11
-16.92
 21
-10.44
  0
LINE
  8
DETAIL
  6
CONTINOUS
 62
     5
 10
-21.96
 20
-15.48
 11
-16.92
 21
-15.48
  0
LINE
  8
DETAIL
  6
CONTINOUS
 62
     5
 10
-21.96
 20
-15.48
 11
-21.96
 21
-10.44
  0
LINE
  8
DETAIL
  6
CONTINOUS
 62
     5
 10
-21.96
 20
-16.92
 11
-16.92
 21
-16.92
  0
LINE
  8
DETAIL
  6
CONTINOUS
 62
     5
 10
-16.92
 20
-21.96
 11
-16.92
 21
-16.92
  0
LINE
  8
DETAIL
  6
CONTINOUS
 62
     5
 10
-21.96
 20
-21.96
 11
-16.92
 21
-21.96
  0
LINE
  8
DETAIL
  6
CONTINOUS
 62
     5
 10
-21.96
 20
-21.96
 11
-21.96
 21
-16.92
  0
LINE
  8
DETAIL
  6
CONTINOUS
 62
     5
 10
-21.96
 20
-23.4
 11
-16.92
 21
-23.4
  0
LINE
  8
DETAIL
  6
CONTINOUS
 62
     5
 10
-16.92
 20
-28.44
 11
-16.92
 21
-23.4
  0
LINE
  8
DETAIL
  6
CONTINOUS
 62
     5
 10
-21.96
 20
-28.44
 11
-16.92
 21
-28.44
  0
LINE
  8
DETAIL
  6
CONTINOUS
 62
     5
 10
-21.96
 20
-28.44
 11
-21.96
 21
-23.4
  0
LINE
  8
DETAIL
  6
CONTINOUS
 62
     5
 10
-21.96
 20
-29.88
 11
-16.92
 21
-29.88
  0
LINE
  8
DETAIL
  6
CONTINOUS
 62
     5
 10
-16.92
 20
-34.92
 11
-16.92
 21
-29.88
  0
LINE
  8
DETAIL
  6
CONTINOUS
 62
     5
 10
-21.96
 20
-34.92
 11
-16.92
 21
-34.92
  0
LINE
  8
DETAIL
  6
CONTINOUS
 62
     5
 10
-21.96
 20
-34.92
 11
-21.96
 21
-29.88
  0
LINE
  8
DETAIL
  6
CONTINOUS
 62
     5
 10
-21.96
 20
-36.36
 11
-16.92
 21
-36.36
  0
LINE
  8
DETAIL
  6
CONTINOUS
 62
     5
 10
-16.92
 20
-41.4
 11
-16.92
 21
-36.36
  0
LINE
  8
DETAIL
  6
CONTINOUS
 62
     5
 10
-21.96
 20
-41.4
 11
-16.92
 21
-41.4
  0
LINE
  8
DETAIL
  6
CONTINOUS
 62
     5
 10
-21.96
 20
-41.4
 11
-21.96
 21
-36.36
  0
LINE
  8
DETAIL
  6
CONTINOUS
 62
     5
 10
-21.96
 20
-42.84
 11
-16.92
 21
-42.84
  0
LINE
  8
DETAIL
  6
CONTINOUS
 62
     5
 10
-16.92
 20
-47.88
 11
-16.92
 21
-42.84
  0
LINE
  8
DETAIL
  6
CONTINOUS
 62
     5
 10
-21.96
 20
-47.88
 11
-16.92
 21
-47.88
  0
LINE
  8
DETAIL
  6
CONTINOUS
 62
     5
 10
-21.96
 20
-47.88
 11
-21.96
 21
-42.84
  0
LINE
  8
DETAIL
  6
CONTINOUS
 62
     5
 10
-21.96
 20
-49.32
 11
-16.92
 21
-49.32
  0
LINE
  8
DETAIL
  6
CONTINOUS
 62
     5
 10
-16.92
 20
-54.36
 11
-16.92
 21
-49.32
  0
LINE
  8
DETAIL
  6
CONTINOUS
 62
     5
 10
-21.96
 20
-54.36
 11
-16.92
 21
-54.36
  0
LINE
  8
DETAIL
  6
CONTINOUS
 62
     5
 10
-21.96
 20
-54.36
 11
-21.96
 21
-49.32
  0
LINE
  8
DETAIL
  6
CONTINOUS
 62
     5
 10
-21.96
 20
-55.8
 11
-16.92
 21
-55.8
  0
LINE
  8
DETAIL
  6
CONTINOUS
 62
     5
 10
-16.92
 20
-60.84
 11
-16.92
 21
-55.8
  0
LINE
  8
DETAIL
  6
CONTINOUS
 62
     5
 10
-21.96
 20
-60.84
 11
-16.92
 21
-60.84
  0
LINE
  8
DETAIL
  6
CONTINOUS
 62
     5
 10
-21.96
 20
-60.84
 11
-21.96
 21
-55.8
  0
LINE
  8
DETAIL
  6
CONTINOUS
 62
     5
 10
-21.96
 20
-62.28
 11
-16.92
 21
-62.28
  0
LINE
  8
DETAIL
  6
CONTINOUS
 62
     5
 10
-16.92
 20
-67.32
 11
-16.92
 21
-62.28
  0
LINE
  8
DETAIL
  6
CONTINOUS
 62
     5
 10
-21.96
 20
-67.32
 11
-16.92
 21
-67.32
  0
LINE
  8
DETAIL
  6
CONTINOUS
 62
     5
 10
-21.96
 20
-67.32
 11
-21.96
 21
-62.28
  0
LINE
  8
DETAIL
  6
CONTINOUS
 62
     5
 10
-21.96
 20
-68.76
 11
-16.92
 21
-68.76
  0
LINE
  8
DETAIL
  6
CONTINOUS
 62
     5
 10
-16.92
 20
-73.8
 11
-16.92
 21
-68.76
  0
LINE
  8
DETAIL
  6
CONTINOUS
 62
     5
 10
-21.96
 20
-73.8
 11
-16.92
 21
-73.8
  0
LINE
  8
DETAIL
  6
CONTINOUS
 62
     5
 10
-21.96
 20
-73.8
 11
-21.96
 21
-68.76
  0
LINE
  8
DETAIL
  6
CONTINOUS
 62
     5
 10
-21.96
 20
-75.24
 11
-16.92
 21
-75.24
  0
LINE
  8
DETAIL
  6
CONTINOUS
 62
     5
 10
-16.92
 20
-80.28
 11
-16.92
 21
-75.24
  0
LINE
  8
DETAIL
  6
CONTINOUS
 62
     5
 10
-21.96
 20
-80.28
 11
-16.92
 21
-80.28
  0
LINE
  8
DETAIL
  6
CONTINOUS
 62
     5
 10
-21.96
 20
-80.28
 11
-21.96
 21
-75.24
  0
LINE
  8
DETAIL
  6
CONTINOUS
 62
     5
 10
-21.96
 20
-81.72
 11
-16.92
 21
-81.72
  0
LINE
  8
DETAIL
  6
CONTINOUS
 62
     5
 10
-16.92
 20
-86.76
 11
-16.92
 21
-81.72
  0
LINE
  8
DETAIL
  6
CONTINOUS
 62
     5
 10
-21.96
 20
-86.76
 11
-16.92
 21
-86.76
  0
LINE
  8
DETAIL
  6
CONTINOUS
 62
     5
 10
-21.96
 20
-86.76
 11
-21.96
 21
-81.72
  0
LINE
  8
DETAIL
  6
CONTINOUS
 62
     5
 10
-28.44
 20
86.76
 11
-23.4
 21
86.76
  0
LINE
  8
DETAIL
  6
CONTINOUS
 62
     5
 10
-23.4
 20
81.72
 11
-23.4
 21
86.76
  0
LINE
  8
DETAIL
  6
CONTINOUS
 62
     5
 10
-28.44
 20
81.72
 11
-23.4
 21
81.72
  0
LINE
  8
DETAIL
  6
CONTINOUS
 62
     5
 10
-28.44
 20
81.72
 11
-28.44
 21
86.76
  0
LINE
  8
DETAIL
  6
CONTINOUS
 62
     5
 10
-28.44
 20
80.28
 11
-23.4
 21
80.28
  0
LINE
  8
DETAIL
  6
CONTINOUS
 62
     5
 10
-23.4
 20
75.24
 11
-23.4
 21
80.28
  0
LINE
  8
DETAIL
  6
CONTINOUS
 62
     5
 10
-28.44
 20
75.24
 11
-23.4
 21
75.24
  0
LINE
  8
DETAIL
  6
CONTINOUS
 62
     5
 10
-28.44
 20
75.24
 11
-28.44
 21
80.28
  0
LINE
  8
DETAIL
  6
CONTINOUS
 62
     5
 10
-28.44
 20
73.8
 11
-23.4
 21
73.8
  0
LINE
  8
DETAIL
  6
CONTINOUS
 62
     5
 10
-23.4
 20
68.76
 11
-23.4
 21
73.8
  0
LINE
  8
DETAIL
  6
CONTINOUS
 62
     5
 10
-28.44
 20
68.76
 11
-23.4
 21
68.76
  0
LINE
  8
DETAIL
  6
CONTINOUS
 62
     5
 10
-28.44
 20
68.76
 11
-28.44
 21
73.8
  0
LINE
  8
DETAIL
  6
CONTINOUS
 62
     5
 10
-28.44
 20
67.32
 11
-23.4
 21
67.32
  0
LINE
  8
DETAIL
  6
CONTINOUS
 62
     5
 10
-23.4
 20
62.28
 11
-23.4
 21
67.32
  0
LINE
  8
DETAIL
  6
CONTINOUS
 62
     5
 10
-28.44
 20
62.28
 11
-23.4
 21
62.28
  0
LINE
  8
DETAIL
  6
CONTINOUS
 62
     5
 10
-28.44
 20
62.28
 11
-28.44
 21
67.32
  0
LINE
  8
DETAIL
  6
CONTINOUS
 62
     5
 10
-28.44
 20
60.84
 11
-23.4
 21
60.84
  0
LINE
  8
DETAIL
  6
CONTINOUS
 62
     5
 10
-23.4
 20
55.8
 11
-23.4
 21
60.84
  0
LINE
  8
DETAIL
  6
CONTINOUS
 62
     5
 10
-28.44
 20
55.8
 11
-23.4
 21
55.8
  0
LINE
  8
DETAIL
  6
CONTINOUS
 62
     5
 10
-28.44
 20
55.8
 11
-28.44
 21
60.84
  0
LINE
  8
DETAIL
  6
CONTINOUS
 62
     5
 10
-28.44
 20
54.36
 11
-23.4
 21
54.36
  0
LINE
  8
DETAIL
  6
CONTINOUS
 62
     5
 10
-23.4
 20
49.32
 11
-23.4
 21
54.36
  0
LINE
  8
DETAIL
  6
CONTINOUS
 62
     5
 10
-28.44
 20
49.32
 11
-23.4
 21
49.32
  0
LINE
  8
DETAIL
  6
CONTINOUS
 62
     5
 10
-28.44
 20
49.32
 11
-28.44
 21
54.36
  0
LINE
  8
DETAIL
  6
CONTINOUS
 62
     5
 10
-28.44
 20
47.88
 11
-23.4
 21
47.88
  0
LINE
  8
DETAIL
  6
CONTINOUS
 62
     5
 10
-23.4
 20
42.84
 11
-23.4
 21
47.88
  0
LINE
  8
DETAIL
  6
CONTINOUS
 62
     5
 10
-28.44
 20
42.84
 11
-23.4
 21
42.84
  0
LINE
  8
DETAIL
  6
CONTINOUS
 62
     5
 10
-28.44
 20
42.84
 11
-28.44
 21
47.88
  0
LINE
  8
DETAIL
  6
CONTINOUS
 62
     5
 10
-28.44
 20
41.4
 11
-23.4
 21
41.4
  0
LINE
  8
DETAIL
  6
CONTINOUS
 62
     5
 10
-23.4
 20
36.36
 11
-23.4
 21
41.4
  0
LINE
  8
DETAIL
  6
CONTINOUS
 62
     5
 10
-28.44
 20
36.36
 11
-23.4
 21
36.36
  0
LINE
  8
DETAIL
  6
CONTINOUS
 62
     5
 10
-28.44
 20
36.36
 11
-28.44
 21
41.4
  0
LINE
  8
DETAIL
  6
CONTINOUS
 62
     5
 10
-28.44
 20
34.92
 11
-23.4
 21
34.92
  0
LINE
  8
DETAIL
  6
CONTINOUS
 62
     5
 10
-23.4
 20
29.88
 11
-23.4
 21
34.92
  0
LINE
  8
DETAIL
  6
CONTINOUS
 62
     5
 10
-28.44
 20
29.88
 11
-23.4
 21
29.88
  0
LINE
  8
DETAIL
  6
CONTINOUS
 62
     5
 10
-28.44
 20
29.88
 11
-28.44
 21
34.92
  0
LINE
  8
DETAIL
  6
CONTINOUS
 62
     5
 10
-28.44
 20
28.44
 11
-23.4
 21
28.44
  0
LINE
  8
DETAIL
  6
CONTINOUS
 62
     5
 10
-23.4
 20
23.4
 11
-23.4
 21
28.44
  0
LINE
  8
DETAIL
  6
CONTINOUS
 62
     5
 10
-28.44
 20
23.4
 11
-23.4
 21
23.4
  0
LINE
  8
DETAIL
  6
CONTINOUS
 62
     5
 10
-28.44
 20
23.4
 11
-28.44
 21
28.44
  0
LINE
  8
DETAIL
  6
CONTINOUS
 62
     5
 10
-28.44
 20
21.96
 11
-23.4
 21
21.96
  0
LINE
  8
DETAIL
  6
CONTINOUS
 62
     5
 10
-23.4
 20
16.92
 11
-23.4
 21
21.96
  0
LINE
  8
DETAIL
  6
CONTINOUS
 62
     5
 10
-28.44
 20
16.92
 11
-23.4
 21
16.92
  0
LINE
  8
DETAIL
  6
CONTINOUS
 62
     5
 10
-28.44
 20
16.92
 11
-28.44
 21
21.96
  0
LINE
  8
DETAIL
  6
CONTINOUS
 62
     5
 10
-28.44
 20
15.48
 11
-23.4
 21
15.48
  0
LINE
  8
DETAIL
  6
CONTINOUS
 62
     5
 10
-23.4
 20
10.44
 11
-23.4
 21
15.48
  0
LINE
  8
DETAIL
  6
CONTINOUS
 62
     5
 10
-28.44
 20
10.44
 11
-23.4
 21
10.44
  0
LINE
  8
DETAIL
  6
CONTINOUS
 62
     5
 10
-28.44
 20
10.44
 11
-28.44
 21
15.48
  0
LINE
  8
DETAIL
  6
CONTINOUS
 62
     5
 10
-28.44
 20
9.0
 11
-23.4
 21
9.0
  0
LINE
  8
DETAIL
  6
CONTINOUS
 62
     5
 10
-23.4
 20
3.96
 11
-23.4
 21
9.0
  0
LINE
  8
DETAIL
  6
CONTINOUS
 62
     5
 10
-28.44
 20
3.96
 11
-23.4
 21
3.96
  0
LINE
  8
DETAIL
  6
CONTINOUS
 62
     5
 10
-28.44
 20
3.96
 11
-28.44
 21
9.0
  0
LINE
  8
DETAIL
  6
CONTINOUS
 62
     5
 10
-28.44
 20
2.52
 11
-23.4
 21
2.52
  0
LINE
  8
DETAIL
  6
CONTINOUS
 62
     5
 10
-23.4
 20
-2.52
 11
-23.4
 21
2.52
  0
LINE
  8
DETAIL
  6
CONTINOUS
 62
     5
 10
-28.44
 20
-2.52
 11
-23.4
 21
-2.52
  0
LINE
  8
DETAIL
  6
CONTINOUS
 62
     5
 10
-28.44
 20
-2.52
 11
-28.44
 21
2.52
  0
LINE
  8
DETAIL
  6
CONTINOUS
 62
     5
 10
-28.44
 20
-3.96
 11
-23.4
 21
-3.96
  0
LINE
  8
DETAIL
  6
CONTINOUS
 62
     5
 10
-23.4
 20
-9.0
 11
-23.4
 21
-3.96
  0
LINE
  8
DETAIL
  6
CONTINOUS
 62
     5
 10
-28.44
 20
-9.0
 11
-23.4
 21
-9.0
  0
LINE
  8
DETAIL
  6
CONTINOUS
 62
     5
 10
-28.44
 20
-9.0
 11
-28.44
 21
-3.96
  0
LINE
  8
DETAIL
  6
CONTINOUS
 62
     5
 10
-28.44
 20
-10.44
 11
-23.4
 21
-10.44
  0
LINE
  8
DETAIL
  6
CONTINOUS
 62
     5
 10
-23.4
 20
-15.48
 11
-23.4
 21
-10.44
  0
LINE
  8
DETAIL
  6
CONTINOUS
 62
     5
 10
-28.44
 20
-15.48
 11
-23.4
 21
-15.48
  0
LINE
  8
DETAIL
  6
CONTINOUS
 62
     5
 10
-28.44
 20
-15.48
 11
-28.44
 21
-10.44
  0
LINE
  8
DETAIL
  6
CONTINOUS
 62
     5
 10
-28.44
 20
-16.92
 11
-23.4
 21
-16.92
  0
LINE
  8
DETAIL
  6
CONTINOUS
 62
     5
 10
-23.4
 20
-21.96
 11
-23.4
 21
-16.92
  0
LINE
  8
DETAIL
  6
CONTINOUS
 62
     5
 10
-28.44
 20
-21.96
 11
-23.4
 21
-21.96
  0
LINE
  8
DETAIL
  6
CONTINOUS
 62
     5
 10
-28.44
 20
-21.96
 11
-28.44
 21
-16.92
  0
LINE
  8
DETAIL
  6
CONTINOUS
 62
     5
 10
-28.44
 20
-23.4
 11
-23.4
 21
-23.4
  0
LINE
  8
DETAIL
  6
CONTINOUS
 62
     5
 10
-23.4
 20
-28.44
 11
-23.4
 21
-23.4
  0
LINE
  8
DETAIL
  6
CONTINOUS
 62
     5
 10
-28.44
 20
-28.44
 11
-23.4
 21
-28.44
  0
LINE
  8
DETAIL
  6
CONTINOUS
 62
     5
 10
-28.44
 20
-28.44
 11
-28.44
 21
-23.4
  0
LINE
  8
DETAIL
  6
CONTINOUS
 62
     5
 10
-28.44
 20
-29.88
 11
-23.4
 21
-29.88
  0
LINE
  8
DETAIL
  6
CONTINOUS
 62
     5
 10
-23.4
 20
-34.92
 11
-23.4
 21
-29.88
  0
LINE
  8
DETAIL
  6
CONTINOUS
 62
     5
 10
-28.44
 20
-34.92
 11
-23.4
 21
-34.92
  0
LINE
  8
DETAIL
  6
CONTINOUS
 62
     5
 10
-28.44
 20
-34.92
 11
-28.44
 21
-29.88
  0
LINE
  8
DETAIL
  6
CONTINOUS
 62
     5
 10
-28.44
 20
-36.36
 11
-23.4
 21
-36.36
  0
LINE
  8
DETAIL
  6
CONTINOUS
 62
     5
 10
-23.4
 20
-41.4
 11
-23.4
 21
-36.36
  0
LINE
  8
DETAIL
  6
CONTINOUS
 62
     5
 10
-28.44
 20
-41.4
 11
-23.4
 21
-41.4
  0
LINE
  8
DETAIL
  6
CONTINOUS
 62
     5
 10
-28.44
 20
-41.4
 11
-28.44
 21
-36.36
  0
LINE
  8
DETAIL
  6
CONTINOUS
 62
     5
 10
-28.44
 20
-42.84
 11
-23.4
 21
-42.84
  0
LINE
  8
DETAIL
  6
CONTINOUS
 62
     5
 10
-23.4
 20
-47.88
 11
-23.4
 21
-42.84
  0
LINE
  8
DETAIL
  6
CONTINOUS
 62
     5
 10
-28.44
 20
-47.88
 11
-23.4
 21
-47.88
  0
LINE
  8
DETAIL
  6
CONTINOUS
 62
     5
 10
-28.44
 20
-47.88
 11
-28.44
 21
-42.84
  0
LINE
  8
DETAIL
  6
CONTINOUS
 62
     5
 10
-28.44
 20
-49.32
 11
-23.4
 21
-49.32
  0
LINE
  8
DETAIL
  6
CONTINOUS
 62
     5
 10
-23.4
 20
-54.36
 11
-23.4
 21
-49.32
  0
LINE
  8
DETAIL
  6
CONTINOUS
 62
     5
 10
-28.44
 20
-54.36
 11
-23.4
 21
-54.36
  0
LINE
  8
DETAIL
  6
CONTINOUS
 62
     5
 10
-28.44
 20
-54.36
 11
-28.44
 21
-49.32
  0
LINE
  8
DETAIL
  6
CONTINOUS
 62
     5
 10
-28.44
 20
-55.8
 11
-23.4
 21
-55.8
  0
LINE
  8
DETAIL
  6
CONTINOUS
 62
     5
 10
-23.4
 20
-60.84
 11
-23.4
 21
-55.8
  0
LINE
  8
DETAIL
  6
CONTINOUS
 62
     5
 10
-28.44
 20
-60.84
 11
-23.4
 21
-60.84
  0
LINE
  8
DETAIL
  6
CONTINOUS
 62
     5
 10
-28.44
 20
-60.84
 11
-28.44
 21
-55.8
  0
LINE
  8
DETAIL
  6
CONTINOUS
 62
     5
 10
-28.44
 20
-62.28
 11
-23.4
 21
-62.28
  0
LINE
  8
DETAIL
  6
CONTINOUS
 62
     5
 10
-23.4
 20
-67.32
 11
-23.4
 21
-62.28
  0
LINE
  8
DETAIL
  6
CONTINOUS
 62
     5
 10
-28.44
 20
-67.32
 11
-23.4
 21
-67.32
  0
LINE
  8
DETAIL
  6
CONTINOUS
 62
     5
 10
-28.44
 20
-67.32
 11
-28.44
 21
-62.28
  0
LINE
  8
DETAIL
  6
CONTINOUS
 62
     5
 10
-28.44
 20
-68.76
 11
-23.4
 21
-68.76
  0
LINE
  8
DETAIL
  6
CONTINOUS
 62
     5
 10
-23.4
 20
-73.8
 11
-23.4
 21
-68.76
  0
LINE
  8
DETAIL
  6
CONTINOUS
 62
     5
 10
-28.44
 20
-73.8
 11
-23.4
 21
-73.8
  0
LINE
  8
DETAIL
  6
CONTINOUS
 62
     5
 10
-28.44
 20
-73.8
 11
-28.44
 21
-68.76
  0
LINE
  8
DETAIL
  6
CONTINOUS
 62
     5
 10
-28.44
 20
-75.24
 11
-23.4
 21
-75.24
  0
LINE
  8
DETAIL
  6
CONTINOUS
 62
     5
 10
-23.4
 20
-80.28
 11
-23.4
 21
-75.24
  0
LINE
  8
DETAIL
  6
CONTINOUS
 62
     5
 10
-28.44
 20
-80.28
 11
-23.4
 21
-80.28
  0
LINE
  8
DETAIL
  6
CONTINOUS
 62
     5
 10
-28.44
 20
-80.28
 11
-28.44
 21
-75.24
  0
LINE
  8
DETAIL
  6
CONTINOUS
 62
     5
 10
-28.44
 20
-81.72
 11
-23.4
 21
-81.72
  0
LINE
  8
DETAIL
  6
CONTINOUS
 62
     5
 10
-23.4
 20
-86.76
 11
-23.4
 21
-81.72
  0
LINE
  8
DETAIL
  6
CONTINOUS
 62
     5
 10
-28.44
 20
-86.76
 11
-23.4
 21
-86.76
  0
LINE
  8
DETAIL
  6
CONTINOUS
 62
     5
 10
-28.44
 20
-86.76
 11
-28.44
 21
-81.72
  0
LINE
  8
DETAIL
  6
CONTINOUS
 62
     5
 10
-34.92
 20
86.76
 11
-29.88
 21
86.76
  0
LINE
  8
DETAIL
  6
CONTINOUS
 62
     5
 10
-29.88
 20
81.72
 11
-29.88
 21
86.76
  0
LINE
  8
DETAIL
  6
CONTINOUS
 62
     5
 10
-34.92
 20
81.72
 11
-29.88
 21
81.72
  0
LINE
  8
DETAIL
  6
CONTINOUS
 62
     5
 10
-34.92
 20
81.72
 11
-34.92
 21
86.76
  0
LINE
  8
DETAIL
  6
CONTINOUS
 62
     5
 10
-34.92
 20
80.28
 11
-29.88
 21
80.28
  0
LINE
  8
DETAIL
  6
CONTINOUS
 62
     5
 10
-29.88
 20
75.24
 11
-29.88
 21
80.28
  0
LINE
  8
DETAIL
  6
CONTINOUS
 62
     5
 10
-34.92
 20
75.24
 11
-29.88
 21
75.24
  0
LINE
  8
DETAIL
  6
CONTINOUS
 62
     5
 10
-34.92
 20
75.24
 11
-34.92
 21
80.28
  0
LINE
  8
DETAIL
  6
CONTINOUS
 62
     5
 10
-34.92
 20
73.8
 11
-29.88
 21
73.8
  0
LINE
  8
DETAIL
  6
CONTINOUS
 62
     5
 10
-29.88
 20
68.76
 11
-29.88
 21
73.8
  0
LINE
  8
DETAIL
  6
CONTINOUS
 62
     5
 10
-34.92
 20
68.76
 11
-29.88
 21
68.76
  0
LINE
  8
DETAIL
  6
CONTINOUS
 62
     5
 10
-34.92
 20
68.76
 11
-34.92
 21
73.8
  0
LINE
  8
DETAIL
  6
CONTINOUS
 62
     5
 10
-34.92
 20
67.32
 11
-29.88
 21
67.32
  0
LINE
  8
DETAIL
  6
CONTINOUS
 62
     5
 10
-29.88
 20
62.28
 11
-29.88
 21
67.32
  0
LINE
  8
DETAIL
  6
CONTINOUS
 62
     5
 10
-34.92
 20
62.28
 11
-29.88
 21
62.28
  0
LINE
  8
DETAIL
  6
CONTINOUS
 62
     5
 10
-34.92
 20
62.28
 11
-34.92
 21
67.32
  0
LINE
  8
DETAIL
  6
CONTINOUS
 62
     5
 10
-34.92
 20
60.84
 11
-29.88
 21
60.84
  0
LINE
  8
DETAIL
  6
CONTINOUS
 62
     5
 10
-29.88
 20
55.8
 11
-29.88
 21
60.84
  0
LINE
  8
DETAIL
  6
CONTINOUS
 62
     5
 10
-34.92
 20
55.8
 11
-29.88
 21
55.8
  0
LINE
  8
DETAIL
  6
CONTINOUS
 62
     5
 10
-34.92
 20
55.8
 11
-34.92
 21
60.84
  0
LINE
  8
DETAIL
  6
CONTINOUS
 62
     5
 10
-34.92
 20
54.36
 11
-29.88
 21
54.36
  0
LINE
  8
DETAIL
  6
CONTINOUS
 62
     5
 10
-29.88
 20
49.32
 11
-29.88
 21
54.36
  0
LINE
  8
DETAIL
  6
CONTINOUS
 62
     5
 10
-34.92
 20
49.32
 11
-29.88
 21
49.32
  0
LINE
  8
DETAIL
  6
CONTINOUS
 62
     5
 10
-34.92
 20
49.32
 11
-34.92
 21
54.36
  0
LINE
  8
DETAIL
  6
CONTINOUS
 62
     5
 10
-34.92
 20
47.88
 11
-29.88
 21
47.88
  0
LINE
  8
DETAIL
  6
CONTINOUS
 62
     5
 10
-29.88
 20
42.84
 11
-29.88
 21
47.88
  0
LINE
  8
DETAIL
  6
CONTINOUS
 62
     5
 10
-34.92
 20
42.84
 11
-29.88
 21
42.84
  0
LINE
  8
DETAIL
  6
CONTINOUS
 62
     5
 10
-34.92
 20
42.84
 11
-34.92
 21
47.88
  0
LINE
  8
DETAIL
  6
CONTINOUS
 62
     5
 10
-34.92
 20
41.4
 11
-29.88
 21
41.4
  0
LINE
  8
DETAIL
  6
CONTINOUS
 62
     5
 10
-29.88
 20
36.36
 11
-29.88
 21
41.4
  0
LINE
  8
DETAIL
  6
CONTINOUS
 62
     5
 10
-34.92
 20
36.36
 11
-29.88
 21
36.36
  0
LINE
  8
DETAIL
  6
CONTINOUS
 62
     5
 10
-34.92
 20
36.36
 11
-34.92
 21
41.4
  0
LINE
  8
DETAIL
  6
CONTINOUS
 62
     5
 10
-34.92
 20
34.92
 11
-29.88
 21
34.92
  0
LINE
  8
DETAIL
  6
CONTINOUS
 62
     5
 10
-29.88
 20
29.88
 11
-29.88
 21
34.92
  0
LINE
  8
DETAIL
  6
CONTINOUS
 62
     5
 10
-34.92
 20
29.88
 11
-29.88
 21
29.88
  0
LINE
  8
DETAIL
  6
CONTINOUS
 62
     5
 10
-34.92
 20
29.88
 11
-34.92
 21
34.92
  0
LINE
  8
DETAIL
  6
CONTINOUS
 62
     5
 10
-34.92
 20
28.44
 11
-29.88
 21
28.44
  0
LINE
  8
DETAIL
  6
CONTINOUS
 62
     5
 10
-29.88
 20
23.4
 11
-29.88
 21
28.44
  0
LINE
  8
DETAIL
  6
CONTINOUS
 62
     5
 10
-34.92
 20
23.4
 11
-29.88
 21
23.4
  0
LINE
  8
DETAIL
  6
CONTINOUS
 62
     5
 10
-34.92
 20
23.4
 11
-34.92
 21
28.44
  0
LINE
  8
DETAIL
  6
CONTINOUS
 62
     5
 10
-34.92
 20
21.96
 11
-29.88
 21
21.96
  0
LINE
  8
DETAIL
  6
CONTINOUS
 62
     5
 10
-29.88
 20
16.92
 11
-29.88
 21
21.96
  0
LINE
  8
DETAIL
  6
CONTINOUS
 62
     5
 10
-34.92
 20
16.92
 11
-29.88
 21
16.92
  0
LINE
  8
DETAIL
  6
CONTINOUS
 62
     5
 10
-34.92
 20
16.92
 11
-34.92
 21
21.96
  0
LINE
  8
DETAIL
  6
CONTINOUS
 62
     5
 10
-34.92
 20
15.48
 11
-29.88
 21
15.48
  0
LINE
  8
DETAIL
  6
CONTINOUS
 62
     5
 10
-29.88
 20
10.44
 11
-29.88
 21
15.48
  0
LINE
  8
DETAIL
  6
CONTINOUS
 62
     5
 10
-34.92
 20
10.44
 11
-29.88
 21
10.44
  0
LINE
  8
DETAIL
  6
CONTINOUS
 62
     5
 10
-34.92
 20
10.44
 11
-34.92
 21
15.48
  0
LINE
  8
DETAIL
  6
CONTINOUS
 62
     5
 10
-34.92
 20
9.0
 11
-29.88
 21
9.0
  0
LINE
  8
DETAIL
  6
CONTINOUS
 62
     5
 10
-29.88
 20
3.96
 11
-29.88
 21
9.0
  0
LINE
  8
DETAIL
  6
CONTINOUS
 62
     5
 10
-34.92
 20
3.96
 11
-29.88
 21
3.96
  0
LINE
  8
DETAIL
  6
CONTINOUS
 62
     5
 10
-34.92
 20
3.96
 11
-34.92
 21
9.0
  0
LINE
  8
DETAIL
  6
CONTINOUS
 62
     5
 10
-34.92
 20
2.52
 11
-29.88
 21
2.52
  0
LINE
  8
DETAIL
  6
CONTINOUS
 62
     5
 10
-29.88
 20
-2.52
 11
-29.88
 21
2.52
  0
LINE
  8
DETAIL
  6
CONTINOUS
 62
     5
 10
-34.92
 20
-2.52
 11
-29.88
 21
-2.52
  0
LINE
  8
DETAIL
  6
CONTINOUS
 62
     5
 10
-34.92
 20
-2.52
 11
-34.92
 21
2.52
  0
LINE
  8
DETAIL
  6
CONTINOUS
 62
     5
 10
-34.92
 20
-3.96
 11
-29.88
 21
-3.96
  0
LINE
  8
DETAIL
  6
CONTINOUS
 62
     5
 10
-29.88
 20
-9.0
 11
-29.88
 21
-3.96
  0
LINE
  8
DETAIL
  6
CONTINOUS
 62
     5
 10
-34.92
 20
-9.0
 11
-29.88
 21
-9.0
  0
LINE
  8
DETAIL
  6
CONTINOUS
 62
     5
 10
-34.92
 20
-9.0
 11
-34.92
 21
-3.96
  0
LINE
  8
DETAIL
  6
CONTINOUS
 62
     5
 10
-34.92
 20
-10.44
 11
-29.88
 21
-10.44
  0
LINE
  8
DETAIL
  6
CONTINOUS
 62
     5
 10
-29.88
 20
-15.48
 11
-29.88
 21
-10.44
  0
LINE
  8
DETAIL
  6
CONTINOUS
 62
     5
 10
-34.92
 20
-15.48
 11
-29.88
 21
-15.48
  0
LINE
  8
DETAIL
  6
CONTINOUS
 62
     5
 10
-34.92
 20
-15.48
 11
-34.92
 21
-10.44
  0
LINE
  8
DETAIL
  6
CONTINOUS
 62
     5
 10
-34.92
 20
-16.92
 11
-29.88
 21
-16.92
  0
LINE
  8
DETAIL
  6
CONTINOUS
 62
     5
 10
-29.88
 20
-21.96
 11
-29.88
 21
-16.92
  0
LINE
  8
DETAIL
  6
CONTINOUS
 62
     5
 10
-34.92
 20
-21.96
 11
-29.88
 21
-21.96
  0
LINE
  8
DETAIL
  6
CONTINOUS
 62
     5
 10
-34.92
 20
-21.96
 11
-34.92
 21
-16.92
  0
LINE
  8
DETAIL
  6
CONTINOUS
 62
     5
 10
-34.92
 20
-23.4
 11
-29.88
 21
-23.4
  0
LINE
  8
DETAIL
  6
CONTINOUS
 62
     5
 10
-29.88
 20
-28.44
 11
-29.88
 21
-23.4
  0
LINE
  8
DETAIL
  6
CONTINOUS
 62
     5
 10
-34.92
 20
-28.44
 11
-29.88
 21
-28.44
  0
LINE
  8
DETAIL
  6
CONTINOUS
 62
     5
 10
-34.92
 20
-28.44
 11
-34.92
 21
-23.4
  0
LINE
  8
DETAIL
  6
CONTINOUS
 62
     5
 10
-34.92
 20
-29.88
 11
-29.88
 21
-29.88
  0
LINE
  8
DETAIL
  6
CONTINOUS
 62
     5
 10
-29.88
 20
-34.92
 11
-29.88
 21
-29.88
  0
LINE
  8
DETAIL
  6
CONTINOUS
 62
     5
 10
-34.92
 20
-34.92
 11
-29.88
 21
-34.92
  0
LINE
  8
DETAIL
  6
CONTINOUS
 62
     5
 10
-34.92
 20
-34.92
 11
-34.92
 21
-29.88
  0
LINE
  8
DETAIL
  6
CONTINOUS
 62
     5
 10
-34.92
 20
-36.36
 11
-29.88
 21
-36.36
  0
LINE
  8
DETAIL
  6
CONTINOUS
 62
     5
 10
-29.88
 20
-41.4
 11
-29.88
 21
-36.36
  0
LINE
  8
DETAIL
  6
CONTINOUS
 62
     5
 10
-34.92
 20
-41.4
 11
-29.88
 21
-41.4
  0
LINE
  8
DETAIL
  6
CONTINOUS
 62
     5
 10
-34.92
 20
-41.4
 11
-34.92
 21
-36.36
  0
LINE
  8
DETAIL
  6
CONTINOUS
 62
     5
 10
-34.92
 20
-42.84
 11
-29.88
 21
-42.84
  0
LINE
  8
DETAIL
  6
CONTINOUS
 62
     5
 10
-29.88
 20
-47.88
 11
-29.88
 21
-42.84
  0
LINE
  8
DETAIL
  6
CONTINOUS
 62
     5
 10
-34.92
 20
-47.88
 11
-29.88
 21
-47.88
  0
LINE
  8
DETAIL
  6
CONTINOUS
 62
     5
 10
-34.92
 20
-47.88
 11
-34.92
 21
-42.84
  0
LINE
  8
DETAIL
  6
CONTINOUS
 62
     5
 10
-34.92
 20
-49.32
 11
-29.88
 21
-49.32
  0
LINE
  8
DETAIL
  6
CONTINOUS
 62
     5
 10
-29.88
 20
-54.36
 11
-29.88
 21
-49.32
  0
LINE
  8
DETAIL
  6
CONTINOUS
 62
     5
 10
-34.92
 20
-54.36
 11
-29.88
 21
-54.36
  0
LINE
  8
DETAIL
  6
CONTINOUS
 62
     5
 10
-34.92
 20
-54.36
 11
-34.92
 21
-49.32
  0
LINE
  8
DETAIL
  6
CONTINOUS
 62
     5
 10
-34.92
 20
-55.8
 11
-29.88
 21
-55.8
  0
LINE
  8
DETAIL
  6
CONTINOUS
 62
     5
 10
-29.88
 20
-60.84
 11
-29.88
 21
-55.8
  0
LINE
  8
DETAIL
  6
CONTINOUS
 62
     5
 10
-34.92
 20
-60.84
 11
-29.88
 21
-60.84
  0
LINE
  8
DETAIL
  6
CONTINOUS
 62
     5
 10
-34.92
 20
-60.84
 11
-34.92
 21
-55.8
  0
LINE
  8
DETAIL
  6
CONTINOUS
 62
     5
 10
-34.92
 20
-62.28
 11
-29.88
 21
-62.28
  0
LINE
  8
DETAIL
  6
CONTINOUS
 62
     5
 10
-29.88
 20
-67.32
 11
-29.88
 21
-62.28
  0
LINE
  8
DETAIL
  6
CONTINOUS
 62
     5
 10
-34.92
 20
-67.32
 11
-29.88
 21
-67.32
  0
LINE
  8
DETAIL
  6
CONTINOUS
 62
     5
 10
-34.92
 20
-67.32
 11
-34.92
 21
-62.28
  0
LINE
  8
DETAIL
  6
CONTINOUS
 62
     5
 10
-34.92
 20
-68.76
 11
-29.88
 21
-68.76
  0
LINE
  8
DETAIL
  6
CONTINOUS
 62
     5
 10
-29.88
 20
-73.8
 11
-29.88
 21
-68.76
  0
LINE
  8
DETAIL
  6
CONTINOUS
 62
     5
 10
-34.92
 20
-73.8
 11
-29.88
 21
-73.8
  0
LINE
  8
DETAIL
  6
CONTINOUS
 62
     5
 10
-34.92
 20
-73.8
 11
-34.92
 21
-68.76
  0
LINE
  8
DETAIL
  6
CONTINOUS
 62
     5
 10
-34.92
 20
-75.24
 11
-29.88
 21
-75.24
  0
LINE
  8
DETAIL
  6
CONTINOUS
 62
     5
 10
-29.88
 20
-80.28
 11
-29.88
 21
-75.24
  0
LINE
  8
DETAIL
  6
CONTINOUS
 62
     5
 10
-34.92
 20
-80.28
 11
-29.88
 21
-80.28
  0
LINE
  8
DETAIL
  6
CONTINOUS
 62
     5
 10
-34.92
 20
-80.28
 11
-34.92
 21
-75.24
  0
LINE
  8
DETAIL
  6
CONTINOUS
 62
     5
 10
-34.92
 20
-81.72
 11
-29.88
 21
-81.72
  0
LINE
  8
DETAIL
  6
CONTINOUS
 62
     5
 10
-29.88
 20
-86.76
 11
-29.88
 21
-81.72
  0
LINE
  8
DETAIL
  6
CONTINOUS
 62
     5
 10
-34.92
 20
-86.76
 11
-29.88
 21
-86.76
  0
LINE
  8
DETAIL
  6
CONTINOUS
 62
     5
 10
-34.92
 20
-86.76
 11
-34.92
 21
-81.72
  0
LINE
  8
DETAIL
  6
CONTINOUS
 62
     5
 10
-41.4
 20
86.76
 11
-36.36
 21
86.76
  0
LINE
  8
DETAIL
  6
CONTINOUS
 62
     5
 10
-36.36
 20
81.72
 11
-36.36
 21
86.76
  0
LINE
  8
DETAIL
  6
CONTINOUS
 62
     5
 10
-41.4
 20
81.72
 11
-36.36
 21
81.72
  0
LINE
  8
DETAIL
  6
CONTINOUS
 62
     5
 10
-41.4
 20
81.72
 11
-41.4
 21
86.76
  0
LINE
  8
DETAIL
  6
CONTINOUS
 62
     5
 10
-41.4
 20
80.28
 11
-36.36
 21
80.28
  0
LINE
  8
DETAIL
  6
CONTINOUS
 62
     5
 10
-36.36
 20
75.24
 11
-36.36
 21
80.28
  0
LINE
  8
DETAIL
  6
CONTINOUS
 62
     5
 10
-41.4
 20
75.24
 11
-36.36
 21
75.24
  0
LINE
  8
DETAIL
  6
CONTINOUS
 62
     5
 10
-41.4
 20
75.24
 11
-41.4
 21
80.28
  0
LINE
  8
DETAIL
  6
CONTINOUS
 62
     5
 10
-41.4
 20
73.8
 11
-36.36
 21
73.8
  0
LINE
  8
DETAIL
  6
CONTINOUS
 62
     5
 10
-36.36
 20
68.76
 11
-36.36
 21
73.8
  0
LINE
  8
DETAIL
  6
CONTINOUS
 62
     5
 10
-41.4
 20
68.76
 11
-36.36
 21
68.76
  0
LINE
  8
DETAIL
  6
CONTINOUS
 62
     5
 10
-41.4
 20
68.76
 11
-41.4
 21
73.8
  0
LINE
  8
DETAIL
  6
CONTINOUS
 62
     5
 10
-41.4
 20
67.32
 11
-36.36
 21
67.32
  0
LINE
  8
DETAIL
  6
CONTINOUS
 62
     5
 10
-36.36
 20
62.28
 11
-36.36
 21
67.32
  0
LINE
  8
DETAIL
  6
CONTINOUS
 62
     5
 10
-41.4
 20
62.28
 11
-36.36
 21
62.28
  0
LINE
  8
DETAIL
  6
CONTINOUS
 62
     5
 10
-41.4
 20
62.28
 11
-41.4
 21
67.32
  0
LINE
  8
DETAIL
  6
CONTINOUS
 62
     5
 10
-41.4
 20
60.84
 11
-36.36
 21
60.84
  0
LINE
  8
DETAIL
  6
CONTINOUS
 62
     5
 10
-36.36
 20
55.8
 11
-36.36
 21
60.84
  0
LINE
  8
DETAIL
  6
CONTINOUS
 62
     5
 10
-41.4
 20
55.8
 11
-36.36
 21
55.8
  0
LINE
  8
DETAIL
  6
CONTINOUS
 62
     5
 10
-41.4
 20
55.8
 11
-41.4
 21
60.84
  0
LINE
  8
DETAIL
  6
CONTINOUS
 62
     5
 10
-41.4
 20
54.36
 11
-36.36
 21
54.36
  0
LINE
  8
DETAIL
  6
CONTINOUS
 62
     5
 10
-36.36
 20
49.32
 11
-36.36
 21
54.36
  0
LINE
  8
DETAIL
  6
CONTINOUS
 62
     5
 10
-41.4
 20
49.32
 11
-36.36
 21
49.32
  0
LINE
  8
DETAIL
  6
CONTINOUS
 62
     5
 10
-41.4
 20
49.32
 11
-41.4
 21
54.36
  0
LINE
  8
DETAIL
  6
CONTINOUS
 62
     5
 10
-41.4
 20
47.88
 11
-36.36
 21
47.88
  0
LINE
  8
DETAIL
  6
CONTINOUS
 62
     5
 10
-36.36
 20
42.84
 11
-36.36
 21
47.88
  0
LINE
  8
DETAIL
  6
CONTINOUS
 62
     5
 10
-41.4
 20
42.84
 11
-36.36
 21
42.84
  0
LINE
  8
DETAIL
  6
CONTINOUS
 62
     5
 10
-41.4
 20
42.84
 11
-41.4
 21
47.88
  0
LINE
  8
DETAIL
  6
CONTINOUS
 62
     5
 10
-41.4
 20
41.4
 11
-36.36
 21
41.4
  0
LINE
  8
DETAIL
  6
CONTINOUS
 62
     5
 10
-36.36
 20
36.36
 11
-36.36
 21
41.4
  0
LINE
  8
DETAIL
  6
CONTINOUS
 62
     5
 10
-41.4
 20
36.36
 11
-36.36
 21
36.36
  0
LINE
  8
DETAIL
  6
CONTINOUS
 62
     5
 10
-41.4
 20
36.36
 11
-41.4
 21
41.4
  0
LINE
  8
DETAIL
  6
CONTINOUS
 62
     5
 10
-41.4
 20
34.92
 11
-36.36
 21
34.92
  0
LINE
  8
DETAIL
  6
CONTINOUS
 62
     5
 10
-36.36
 20
29.88
 11
-36.36
 21
34.92
  0
LINE
  8
DETAIL
  6
CONTINOUS
 62
     5
 10
-41.4
 20
29.88
 11
-36.36
 21
29.88
  0
LINE
  8
DETAIL
  6
CONTINOUS
 62
     5
 10
-41.4
 20
29.88
 11
-41.4
 21
34.92
  0
LINE
  8
DETAIL
  6
CONTINOUS
 62
     5
 10
-41.4
 20
28.44
 11
-36.36
 21
28.44
  0
LINE
  8
DETAIL
  6
CONTINOUS
 62
     5
 10
-36.36
 20
23.4
 11
-36.36
 21
28.44
  0
LINE
  8
DETAIL
  6
CONTINOUS
 62
     5
 10
-41.4
 20
23.4
 11
-36.36
 21
23.4
  0
LINE
  8
DETAIL
  6
CONTINOUS
 62
     5
 10
-41.4
 20
23.4
 11
-41.4
 21
28.44
  0
LINE
  8
DETAIL
  6
CONTINOUS
 62
     5
 10
-41.4
 20
21.96
 11
-36.36
 21
21.96
  0
LINE
  8
DETAIL
  6
CONTINOUS
 62
     5
 10
-36.36
 20
16.92
 11
-36.36
 21
21.96
  0
LINE
  8
DETAIL
  6
CONTINOUS
 62
     5
 10
-41.4
 20
16.92
 11
-36.36
 21
16.92
  0
LINE
  8
DETAIL
  6
CONTINOUS
 62
     5
 10
-41.4
 20
16.92
 11
-41.4
 21
21.96
  0
LINE
  8
DETAIL
  6
CONTINOUS
 62
     5
 10
-41.4
 20
15.48
 11
-36.36
 21
15.48
  0
LINE
  8
DETAIL
  6
CONTINOUS
 62
     5
 10
-36.36
 20
10.44
 11
-36.36
 21
15.48
  0
LINE
  8
DETAIL
  6
CONTINOUS
 62
     5
 10
-41.4
 20
10.44
 11
-36.36
 21
10.44
  0
LINE
  8
DETAIL
  6
CONTINOUS
 62
     5
 10
-41.4
 20
10.44
 11
-41.4
 21
15.48
  0
LINE
  8
DETAIL
  6
CONTINOUS
 62
     5
 10
-41.4
 20
9.0
 11
-36.36
 21
9.0
  0
LINE
  8
DETAIL
  6
CONTINOUS
 62
     5
 10
-36.36
 20
3.96
 11
-36.36
 21
9.0
  0
LINE
  8
DETAIL
  6
CONTINOUS
 62
     5
 10
-41.4
 20
3.96
 11
-36.36
 21
3.96
  0
LINE
  8
DETAIL
  6
CONTINOUS
 62
     5
 10
-41.4
 20
3.96
 11
-41.4
 21
9.0
  0
LINE
  8
DETAIL
  6
CONTINOUS
 62
     5
 10
-41.4
 20
2.52
 11
-36.36
 21
2.52
  0
LINE
  8
DETAIL
  6
CONTINOUS
 62
     5
 10
-36.36
 20
-2.52
 11
-36.36
 21
2.52
  0
LINE
  8
DETAIL
  6
CONTINOUS
 62
     5
 10
-41.4
 20
-2.52
 11
-36.36
 21
-2.52
  0
LINE
  8
DETAIL
  6
CONTINOUS
 62
     5
 10
-41.4
 20
-2.52
 11
-41.4
 21
2.52
  0
LINE
  8
DETAIL
  6
CONTINOUS
 62
     5
 10
-41.4
 20
-3.96
 11
-36.36
 21
-3.96
  0
LINE
  8
DETAIL
  6
CONTINOUS
 62
     5
 10
-36.36
 20
-9.0
 11
-36.36
 21
-3.96
  0
LINE
  8
DETAIL
  6
CONTINOUS
 62
     5
 10
-41.4
 20
-9.0
 11
-36.36
 21
-9.0
  0
LINE
  8
DETAIL
  6
CONTINOUS
 62
     5
 10
-41.4
 20
-9.0
 11
-41.4
 21
-3.96
  0
LINE
  8
DETAIL
  6
CONTINOUS
 62
     5
 10
-41.4
 20
-10.44
 11
-36.36
 21
-10.44
  0
LINE
  8
DETAIL
  6
CONTINOUS
 62
     5
 10
-36.36
 20
-15.48
 11
-36.36
 21
-10.44
  0
LINE
  8
DETAIL
  6
CONTINOUS
 62
     5
 10
-41.4
 20
-15.48
 11
-36.36
 21
-15.48
  0
LINE
  8
DETAIL
  6
CONTINOUS
 62
     5
 10
-41.4
 20
-15.48
 11
-41.4
 21
-10.44
  0
LINE
  8
DETAIL
  6
CONTINOUS
 62
     5
 10
-41.4
 20
-16.92
 11
-36.36
 21
-16.92
  0
LINE
  8
DETAIL
  6
CONTINOUS
 62
     5
 10
-36.36
 20
-21.96
 11
-36.36
 21
-16.92
  0
LINE
  8
DETAIL
  6
CONTINOUS
 62
     5
 10
-41.4
 20
-21.96
 11
-36.36
 21
-21.96
  0
LINE
  8
DETAIL
  6
CONTINOUS
 62
     5
 10
-41.4
 20
-21.96
 11
-41.4
 21
-16.92
  0
LINE
  8
DETAIL
  6
CONTINOUS
 62
     5
 10
-41.4
 20
-23.4
 11
-36.36
 21
-23.4
  0
LINE
  8
DETAIL
  6
CONTINOUS
 62
     5
 10
-36.36
 20
-28.44
 11
-36.36
 21
-23.4
  0
LINE
  8
DETAIL
  6
CONTINOUS
 62
     5
 10
-41.4
 20
-28.44
 11
-36.36
 21
-28.44
  0
LINE
  8
DETAIL
  6
CONTINOUS
 62
     5
 10
-41.4
 20
-28.44
 11
-41.4
 21
-23.4
  0
LINE
  8
DETAIL
  6
CONTINOUS
 62
     5
 10
-41.4
 20
-29.88
 11
-36.36
 21
-29.88
  0
LINE
  8
DETAIL
  6
CONTINOUS
 62
     5
 10
-36.36
 20
-34.92
 11
-36.36
 21
-29.88
  0
LINE
  8
DETAIL
  6
CONTINOUS
 62
     5
 10
-41.4
 20
-34.92
 11
-36.36
 21
-34.92
  0
LINE
  8
DETAIL
  6
CONTINOUS
 62
     5
 10
-41.4
 20
-34.92
 11
-41.4
 21
-29.88
  0
LINE
  8
DETAIL
  6
CONTINOUS
 62
     5
 10
-41.4
 20
-36.36
 11
-36.36
 21
-36.36
  0
LINE
  8
DETAIL
  6
CONTINOUS
 62
     5
 10
-36.36
 20
-41.4
 11
-36.36
 21
-36.36
  0
LINE
  8
DETAIL
  6
CONTINOUS
 62
     5
 10
-41.4
 20
-41.4
 11
-36.36
 21
-41.4
  0
LINE
  8
DETAIL
  6
CONTINOUS
 62
     5
 10
-41.4
 20
-41.4
 11
-41.4
 21
-36.36
  0
LINE
  8
DETAIL
  6
CONTINOUS
 62
     5
 10
-41.4
 20
-42.84
 11
-36.36
 21
-42.84
  0
LINE
  8
DETAIL
  6
CONTINOUS
 62
     5
 10
-36.36
 20
-47.88
 11
-36.36
 21
-42.84
  0
LINE
  8
DETAIL
  6
CONTINOUS
 62
     5
 10
-41.4
 20
-47.88
 11
-36.36
 21
-47.88
  0
LINE
  8
DETAIL
  6
CONTINOUS
 62
     5
 10
-41.4
 20
-47.88
 11
-41.4
 21
-42.84
  0
LINE
  8
DETAIL
  6
CONTINOUS
 62
     5
 10
-41.4
 20
-49.32
 11
-36.36
 21
-49.32
  0
LINE
  8
DETAIL
  6
CONTINOUS
 62
     5
 10
-36.36
 20
-54.36
 11
-36.36
 21
-49.32
  0
LINE
  8
DETAIL
  6
CONTINOUS
 62
     5
 10
-41.4
 20
-54.36
 11
-36.36
 21
-54.36
  0
LINE
  8
DETAIL
  6
CONTINOUS
 62
     5
 10
-41.4
 20
-54.36
 11
-41.4
 21
-49.32
  0
LINE
  8
DETAIL
  6
CONTINOUS
 62
     5
 10
-41.4
 20
-55.8
 11
-36.36
 21
-55.8
  0
LINE
  8
DETAIL
  6
CONTINOUS
 62
     5
 10
-36.36
 20
-60.84
 11
-36.36
 21
-55.8
  0
LINE
  8
DETAIL
  6
CONTINOUS
 62
     5
 10
-41.4
 20
-60.84
 11
-36.36
 21
-60.84
  0
LINE
  8
DETAIL
  6
CONTINOUS
 62
     5
 10
-41.4
 20
-60.84
 11
-41.4
 21
-55.8
  0
LINE
  8
DETAIL
  6
CONTINOUS
 62
     5
 10
-41.4
 20
-62.28
 11
-36.36
 21
-62.28
  0
LINE
  8
DETAIL
  6
CONTINOUS
 62
     5
 10
-36.36
 20
-67.32
 11
-36.36
 21
-62.28
  0
LINE
  8
DETAIL
  6
CONTINOUS
 62
     5
 10
-41.4
 20
-67.32
 11
-36.36
 21
-67.32
  0
LINE
  8
DETAIL
  6
CONTINOUS
 62
     5
 10
-41.4
 20
-67.32
 11
-41.4
 21
-62.28
  0
LINE
  8
DETAIL
  6
CONTINOUS
 62
     5
 10
-41.4
 20
-68.76
 11
-36.36
 21
-68.76
  0
LINE
  8
DETAIL
  6
CONTINOUS
 62
     5
 10
-36.36
 20
-73.8
 11
-36.36
 21
-68.76
  0
LINE
  8
DETAIL
  6
CONTINOUS
 62
     5
 10
-41.4
 20
-73.8
 11
-36.36
 21
-73.8
  0
LINE
  8
DETAIL
  6
CONTINOUS
 62
     5
 10
-41.4
 20
-73.8
 11
-41.4
 21
-68.76
  0
LINE
  8
DETAIL
  6
CONTINOUS
 62
     5
 10
-41.4
 20
-75.24
 11
-36.36
 21
-75.24
  0
LINE
  8
DETAIL
  6
CONTINOUS
 62
     5
 10
-36.36
 20
-80.28
 11
-36.36
 21
-75.24
  0
LINE
  8
DETAIL
  6
CONTINOUS
 62
     5
 10
-41.4
 20
-80.28
 11
-36.36
 21
-80.28
  0
LINE
  8
DETAIL
  6
CONTINOUS
 62
     5
 10
-41.4
 20
-80.28
 11
-41.4
 21
-75.24
  0
LINE
  8
DETAIL
  6
CONTINOUS
 62
     5
 10
-41.4
 20
-81.72
 11
-36.36
 21
-81.72
  0
LINE
  8
DETAIL
  6
CONTINOUS
 62
     5
 10
-36.36
 20
-86.76
 11
-36.36
 21
-81.72
  0
LINE
  8
DETAIL
  6
CONTINOUS
 62
     5
 10
-41.4
 20
-86.76
 11
-36.36
 21
-86.76
  0
LINE
  8
DETAIL
  6
CONTINOUS
 62
     5
 10
-41.4
 20
-86.76
 11
-41.4
 21
-81.72
  0
LINE
  8
DETAIL
  6
CONTINOUS
 62
     5
 10
-47.88
 20
86.76
 11
-42.84
 21
86.76
  0
LINE
  8
DETAIL
  6
CONTINOUS
 62
     5
 10
-42.84
 20
81.72
 11
-42.84
 21
86.76
  0
LINE
  8
DETAIL
  6
CONTINOUS
 62
     5
 10
-47.88
 20
81.72
 11
-42.84
 21
81.72
  0
LINE
  8
DETAIL
  6
CONTINOUS
 62
     5
 10
-47.88
 20
81.72
 11
-47.88
 21
86.76
  0
LINE
  8
DETAIL
  6
CONTINOUS
 62
     5
 10
-47.88
 20
80.28
 11
-42.84
 21
80.28
  0
LINE
  8
DETAIL
  6
CONTINOUS
 62
     5
 10
-42.84
 20
75.24
 11
-42.84
 21
80.28
  0
LINE
  8
DETAIL
  6
CONTINOUS
 62
     5
 10
-47.88
 20
75.24
 11
-42.84
 21
75.24
  0
LINE
  8
DETAIL
  6
CONTINOUS
 62
     5
 10
-47.88
 20
75.24
 11
-47.88
 21
80.28
  0
LINE
  8
DETAIL
  6
CONTINOUS
 62
     5
 10
-47.88
 20
73.8
 11
-42.84
 21
73.8
  0
LINE
  8
DETAIL
  6
CONTINOUS
 62
     5
 10
-42.84
 20
68.76
 11
-42.84
 21
73.8
  0
LINE
  8
DETAIL
  6
CONTINOUS
 62
     5
 10
-47.88
 20
68.76
 11
-42.84
 21
68.76
  0
LINE
  8
DETAIL
  6
CONTINOUS
 62
     5
 10
-47.88
 20
68.76
 11
-47.88
 21
73.8
  0
LINE
  8
DETAIL
  6
CONTINOUS
 62
     5
 10
-47.88
 20
67.32
 11
-42.84
 21
67.32
  0
LINE
  8
DETAIL
  6
CONTINOUS
 62
     5
 10
-42.84
 20
62.28
 11
-42.84
 21
67.32
  0
LINE
  8
DETAIL
  6
CONTINOUS
 62
     5
 10
-47.88
 20
62.28
 11
-42.84
 21
62.28
  0
LINE
  8
DETAIL
  6
CONTINOUS
 62
     5
 10
-47.88
 20
62.28
 11
-47.88
 21
67.32
  0
LINE
  8
DETAIL
  6
CONTINOUS
 62
     5
 10
-47.88
 20
60.84
 11
-42.84
 21
60.84
  0
LINE
  8
DETAIL
  6
CONTINOUS
 62
     5
 10
-42.84
 20
55.8
 11
-42.84
 21
60.84
  0
LINE
  8
DETAIL
  6
CONTINOUS
 62
     5
 10
-47.88
 20
55.8
 11
-42.84
 21
55.8
  0
LINE
  8
DETAIL
  6
CONTINOUS
 62
     5
 10
-47.88
 20
55.8
 11
-47.88
 21
60.84
  0
LINE
  8
DETAIL
  6
CONTINOUS
 62
     5
 10
-47.88
 20
54.36
 11
-42.84
 21
54.36
  0
LINE
  8
DETAIL
  6
CONTINOUS
 62
     5
 10
-42.84
 20
49.32
 11
-42.84
 21
54.36
  0
LINE
  8
DETAIL
  6
CONTINOUS
 62
     5
 10
-47.88
 20
49.32
 11
-42.84
 21
49.32
  0
LINE
  8
DETAIL
  6
CONTINOUS
 62
     5
 10
-47.88
 20
49.32
 11
-47.88
 21
54.36
  0
LINE
  8
DETAIL
  6
CONTINOUS
 62
     5
 10
-47.88
 20
47.88
 11
-42.84
 21
47.88
  0
LINE
  8
DETAIL
  6
CONTINOUS
 62
     5
 10
-42.84
 20
42.84
 11
-42.84
 21
47.88
  0
LINE
  8
DETAIL
  6
CONTINOUS
 62
     5
 10
-47.88
 20
42.84
 11
-42.84
 21
42.84
  0
LINE
  8
DETAIL
  6
CONTINOUS
 62
     5
 10
-47.88
 20
42.84
 11
-47.88
 21
47.88
  0
LINE
  8
DETAIL
  6
CONTINOUS
 62
     5
 10
-47.88
 20
41.4
 11
-42.84
 21
41.4
  0
LINE
  8
DETAIL
  6
CONTINOUS
 62
     5
 10
-42.84
 20
36.36
 11
-42.84
 21
41.4
  0
LINE
  8
DETAIL
  6
CONTINOUS
 62
     5
 10
-47.88
 20
36.36
 11
-42.84
 21
36.36
  0
LINE
  8
DETAIL
  6
CONTINOUS
 62
     5
 10
-47.88
 20
36.36
 11
-47.88
 21
41.4
  0
LINE
  8
DETAIL
  6
CONTINOUS
 62
     5
 10
-47.88
 20
34.92
 11
-42.84
 21
34.92
  0
LINE
  8
DETAIL
  6
CONTINOUS
 62
     5
 10
-42.84
 20
29.88
 11
-42.84
 21
34.92
  0
LINE
  8
DETAIL
  6
CONTINOUS
 62
     5
 10
-47.88
 20
29.88
 11
-42.84
 21
29.88
  0
LINE
  8
DETAIL
  6
CONTINOUS
 62
     5
 10
-47.88
 20
29.88
 11
-47.88
 21
34.92
  0
LINE
  8
DETAIL
  6
CONTINOUS
 62
     5
 10
-47.88
 20
28.44
 11
-42.84
 21
28.44
  0
LINE
  8
DETAIL
  6
CONTINOUS
 62
     5
 10
-42.84
 20
23.4
 11
-42.84
 21
28.44
  0
LINE
  8
DETAIL
  6
CONTINOUS
 62
     5
 10
-47.88
 20
23.4
 11
-42.84
 21
23.4
  0
LINE
  8
DETAIL
  6
CONTINOUS
 62
     5
 10
-47.88
 20
23.4
 11
-47.88
 21
28.44
  0
LINE
  8
DETAIL
  6
CONTINOUS
 62
     5
 10
-47.88
 20
21.96
 11
-42.84
 21
21.96
  0
LINE
  8
DETAIL
  6
CONTINOUS
 62
     5
 10
-42.84
 20
16.92
 11
-42.84
 21
21.96
  0
LINE
  8
DETAIL
  6
CONTINOUS
 62
     5
 10
-47.88
 20
16.92
 11
-42.84
 21
16.92
  0
LINE
  8
DETAIL
  6
CONTINOUS
 62
     5
 10
-47.88
 20
16.92
 11
-47.88
 21
21.96
  0
LINE
  8
DETAIL
  6
CONTINOUS
 62
     5
 10
-47.88
 20
15.48
 11
-42.84
 21
15.48
  0
LINE
  8
DETAIL
  6
CONTINOUS
 62
     5
 10
-42.84
 20
10.44
 11
-42.84
 21
15.48
  0
LINE
  8
DETAIL
  6
CONTINOUS
 62
     5
 10
-47.88
 20
10.44
 11
-42.84
 21
10.44
  0
LINE
  8
DETAIL
  6
CONTINOUS
 62
     5
 10
-47.88
 20
10.44
 11
-47.88
 21
15.48
  0
LINE
  8
DETAIL
  6
CONTINOUS
 62
     5
 10
-47.88
 20
9.0
 11
-42.84
 21
9.0
  0
LINE
  8
DETAIL
  6
CONTINOUS
 62
     5
 10
-42.84
 20
3.96
 11
-42.84
 21
9.0
  0
LINE
  8
DETAIL
  6
CONTINOUS
 62
     5
 10
-47.88
 20
3.96
 11
-42.84
 21
3.96
  0
LINE
  8
DETAIL
  6
CONTINOUS
 62
     5
 10
-47.88
 20
3.96
 11
-47.88
 21
9.0
  0
LINE
  8
DETAIL
  6
CONTINOUS
 62
     5
 10
-47.88
 20
2.52
 11
-42.84
 21
2.52
  0
LINE
  8
DETAIL
  6
CONTINOUS
 62
     5
 10
-42.84
 20
-2.52
 11
-42.84
 21
2.52
  0
LINE
  8
DETAIL
  6
CONTINOUS
 62
     5
 10
-47.88
 20
-2.52
 11
-42.84
 21
-2.52
  0
LINE
  8
DETAIL
  6
CONTINOUS
 62
     5
 10
-47.88
 20
-2.52
 11
-47.88
 21
2.52
  0
LINE
  8
DETAIL
  6
CONTINOUS
 62
     5
 10
-47.88
 20
-3.96
 11
-42.84
 21
-3.96
  0
LINE
  8
DETAIL
  6
CONTINOUS
 62
     5
 10
-42.84
 20
-9.0
 11
-42.84
 21
-3.96
  0
LINE
  8
DETAIL
  6
CONTINOUS
 62
     5
 10
-47.88
 20
-9.0
 11
-42.84
 21
-9.0
  0
LINE
  8
DETAIL
  6
CONTINOUS
 62
     5
 10
-47.88
 20
-9.0
 11
-47.88
 21
-3.96
  0
LINE
  8
DETAIL
  6
CONTINOUS
 62
     5
 10
-47.88
 20
-10.44
 11
-42.84
 21
-10.44
  0
LINE
  8
DETAIL
  6
CONTINOUS
 62
     5
 10
-42.84
 20
-15.48
 11
-42.84
 21
-10.44
  0
LINE
  8
DETAIL
  6
CONTINOUS
 62
     5
 10
-47.88
 20
-15.48
 11
-42.84
 21
-15.48
  0
LINE
  8
DETAIL
  6
CONTINOUS
 62
     5
 10
-47.88
 20
-15.48
 11
-47.88
 21
-10.44
  0
LINE
  8
DETAIL
  6
CONTINOUS
 62
     5
 10
-47.88
 20
-16.92
 11
-42.84
 21
-16.92
  0
LINE
  8
DETAIL
  6
CONTINOUS
 62
     5
 10
-42.84
 20
-21.96
 11
-42.84
 21
-16.92
  0
LINE
  8
DETAIL
  6
CONTINOUS
 62
     5
 10
-47.88
 20
-21.96
 11
-42.84
 21
-21.96
  0
LINE
  8
DETAIL
  6
CONTINOUS
 62
     5
 10
-47.88
 20
-21.96
 11
-47.88
 21
-16.92
  0
LINE
  8
DETAIL
  6
CONTINOUS
 62
     5
 10
-47.88
 20
-23.4
 11
-42.84
 21
-23.4
  0
LINE
  8
DETAIL
  6
CONTINOUS
 62
     5
 10
-42.84
 20
-28.44
 11
-42.84
 21
-23.4
  0
LINE
  8
DETAIL
  6
CONTINOUS
 62
     5
 10
-47.88
 20
-28.44
 11
-42.84
 21
-28.44
  0
LINE
  8
DETAIL
  6
CONTINOUS
 62
     5
 10
-47.88
 20
-28.44
 11
-47.88
 21
-23.4
  0
LINE
  8
DETAIL
  6
CONTINOUS
 62
     5
 10
-47.88
 20
-29.88
 11
-42.84
 21
-29.88
  0
LINE
  8
DETAIL
  6
CONTINOUS
 62
     5
 10
-42.84
 20
-34.92
 11
-42.84
 21
-29.88
  0
LINE
  8
DETAIL
  6
CONTINOUS
 62
     5
 10
-47.88
 20
-34.92
 11
-42.84
 21
-34.92
  0
LINE
  8
DETAIL
  6
CONTINOUS
 62
     5
 10
-47.88
 20
-34.92
 11
-47.88
 21
-29.88
  0
LINE
  8
DETAIL
  6
CONTINOUS
 62
     5
 10
-47.88
 20
-36.36
 11
-42.84
 21
-36.36
  0
LINE
  8
DETAIL
  6
CONTINOUS
 62
     5
 10
-42.84
 20
-41.4
 11
-42.84
 21
-36.36
  0
LINE
  8
DETAIL
  6
CONTINOUS
 62
     5
 10
-47.88
 20
-41.4
 11
-42.84
 21
-41.4
  0
LINE
  8
DETAIL
  6
CONTINOUS
 62
     5
 10
-47.88
 20
-41.4
 11
-47.88
 21
-36.36
  0
LINE
  8
DETAIL
  6
CONTINOUS
 62
     5
 10
-47.88
 20
-42.84
 11
-42.84
 21
-42.84
  0
LINE
  8
DETAIL
  6
CONTINOUS
 62
     5
 10
-42.84
 20
-47.88
 11
-42.84
 21
-42.84
  0
LINE
  8
DETAIL
  6
CONTINOUS
 62
     5
 10
-47.88
 20
-47.88
 11
-42.84
 21
-47.88
  0
LINE
  8
DETAIL
  6
CONTINOUS
 62
     5
 10
-47.88
 20
-47.88
 11
-47.88
 21
-42.84
  0
LINE
  8
DETAIL
  6
CONTINOUS
 62
     5
 10
-47.88
 20
-49.32
 11
-42.84
 21
-49.32
  0
LINE
  8
DETAIL
  6
CONTINOUS
 62
     5
 10
-42.84
 20
-54.36
 11
-42.84
 21
-49.32
  0
LINE
  8
DETAIL
  6
CONTINOUS
 62
     5
 10
-47.88
 20
-54.36
 11
-42.84
 21
-54.36
  0
LINE
  8
DETAIL
  6
CONTINOUS
 62
     5
 10
-47.88
 20
-54.36
 11
-47.88
 21
-49.32
  0
LINE
  8
DETAIL
  6
CONTINOUS
 62
     5
 10
-47.88
 20
-55.8
 11
-42.84
 21
-55.8
  0
LINE
  8
DETAIL
  6
CONTINOUS
 62
     5
 10
-42.84
 20
-60.84
 11
-42.84
 21
-55.8
  0
LINE
  8
DETAIL
  6
CONTINOUS
 62
     5
 10
-47.88
 20
-60.84
 11
-42.84
 21
-60.84
  0
LINE
  8
DETAIL
  6
CONTINOUS
 62
     5
 10
-47.88
 20
-60.84
 11
-47.88
 21
-55.8
  0
LINE
  8
DETAIL
  6
CONTINOUS
 62
     5
 10
-47.88
 20
-62.28
 11
-42.84
 21
-62.28
  0
LINE
  8
DETAIL
  6
CONTINOUS
 62
     5
 10
-42.84
 20
-67.32
 11
-42.84
 21
-62.28
  0
LINE
  8
DETAIL
  6
CONTINOUS
 62
     5
 10
-47.88
 20
-67.32
 11
-42.84
 21
-67.32
  0
LINE
  8
DETAIL
  6
CONTINOUS
 62
     5
 10
-47.88
 20
-67.32
 11
-47.88
 21
-62.28
  0
LINE
  8
DETAIL
  6
CONTINOUS
 62
     5
 10
-47.88
 20
-68.76
 11
-42.84
 21
-68.76
  0
LINE
  8
DETAIL
  6
CONTINOUS
 62
     5
 10
-42.84
 20
-73.8
 11
-42.84
 21
-68.76
  0
LINE
  8
DETAIL
  6
CONTINOUS
 62
     5
 10
-47.88
 20
-73.8
 11
-42.84
 21
-73.8
  0
LINE
  8
DETAIL
  6
CONTINOUS
 62
     5
 10
-47.88
 20
-73.8
 11
-47.88
 21
-68.76
  0
LINE
  8
DETAIL
  6
CONTINOUS
 62
     5
 10
-47.88
 20
-75.24
 11
-42.84
 21
-75.24
  0
LINE
  8
DETAIL
  6
CONTINOUS
 62
     5
 10
-42.84
 20
-80.28
 11
-42.84
 21
-75.24
  0
LINE
  8
DETAIL
  6
CONTINOUS
 62
     5
 10
-47.88
 20
-80.28
 11
-42.84
 21
-80.28
  0
LINE
  8
DETAIL
  6
CONTINOUS
 62
     5
 10
-47.88
 20
-80.28
 11
-47.88
 21
-75.24
  0
LINE
  8
DETAIL
  6
CONTINOUS
 62
     5
 10
-47.88
 20
-81.72
 11
-42.84
 21
-81.72
  0
LINE
  8
DETAIL
  6
CONTINOUS
 62
     5
 10
-42.84
 20
-86.76
 11
-42.84
 21
-81.72
  0
LINE
  8
DETAIL
  6
CONTINOUS
 62
     5
 10
-47.88
 20
-86.76
 11
-42.84
 21
-86.76
  0
LINE
  8
DETAIL
  6
CONTINOUS
 62
     5
 10
-47.88
 20
-86.76
 11
-47.88
 21
-81.72
  0
LINE
  8
DETAIL
  6
CONTINOUS
 62
     5
 10
-54.36
 20
86.76
 11
-49.32
 21
86.76
  0
LINE
  8
DETAIL
  6
CONTINOUS
 62
     5
 10
-49.32
 20
81.72
 11
-49.32
 21
86.76
  0
LINE
  8
DETAIL
  6
CONTINOUS
 62
     5
 10
-54.36
 20
81.72
 11
-49.32
 21
81.72
  0
LINE
  8
DETAIL
  6
CONTINOUS
 62
     5
 10
-54.36
 20
81.72
 11
-54.36
 21
86.76
  0
LINE
  8
DETAIL
  6
CONTINOUS
 62
     5
 10
-54.36
 20
80.28
 11
-49.32
 21
80.28
  0
LINE
  8
DETAIL
  6
CONTINOUS
 62
     5
 10
-49.32
 20
75.24
 11
-49.32
 21
80.28
  0
LINE
  8
DETAIL
  6
CONTINOUS
 62
     5
 10
-54.36
 20
75.24
 11
-49.32
 21
75.24
  0
LINE
  8
DETAIL
  6
CONTINOUS
 62
     5
 10
-54.36
 20
75.24
 11
-54.36
 21
80.28
  0
LINE
  8
DETAIL
  6
CONTINOUS
 62
     5
 10
-54.36
 20
73.8
 11
-49.32
 21
73.8
  0
LINE
  8
DETAIL
  6
CONTINOUS
 62
     5
 10
-49.32
 20
68.76
 11
-49.32
 21
73.8
  0
LINE
  8
DETAIL
  6
CONTINOUS
 62
     5
 10
-54.36
 20
68.76
 11
-49.32
 21
68.76
  0
LINE
  8
DETAIL
  6
CONTINOUS
 62
     5
 10
-54.36
 20
68.76
 11
-54.36
 21
73.8
  0
LINE
  8
DETAIL
  6
CONTINOUS
 62
     5
 10
-54.36
 20
67.32
 11
-49.32
 21
67.32
  0
LINE
  8
DETAIL
  6
CONTINOUS
 62
     5
 10
-49.32
 20
62.28
 11
-49.32
 21
67.32
  0
LINE
  8
DETAIL
  6
CONTINOUS
 62
     5
 10
-54.36
 20
62.28
 11
-49.32
 21
62.28
  0
LINE
  8
DETAIL
  6
CONTINOUS
 62
     5
 10
-54.36
 20
62.28
 11
-54.36
 21
67.32
  0
LINE
  8
DETAIL
  6
CONTINOUS
 62
     5
 10
-54.36
 20
60.84
 11
-49.32
 21
60.84
  0
LINE
  8
DETAIL
  6
CONTINOUS
 62
     5
 10
-49.32
 20
55.8
 11
-49.32
 21
60.84
  0
LINE
  8
DETAIL
  6
CONTINOUS
 62
     5
 10
-54.36
 20
55.8
 11
-49.32
 21
55.8
  0
LINE
  8
DETAIL
  6
CONTINOUS
 62
     5
 10
-54.36
 20
55.8
 11
-54.36
 21
60.84
  0
LINE
  8
DETAIL
  6
CONTINOUS
 62
     5
 10
-54.36
 20
54.36
 11
-49.32
 21
54.36
  0
LINE
  8
DETAIL
  6
CONTINOUS
 62
     5
 10
-49.32
 20
49.32
 11
-49.32
 21
54.36
  0
LINE
  8
DETAIL
  6
CONTINOUS
 62
     5
 10
-54.36
 20
49.32
 11
-49.32
 21
49.32
  0
LINE
  8
DETAIL
  6
CONTINOUS
 62
     5
 10
-54.36
 20
49.32
 11
-54.36
 21
54.36
  0
LINE
  8
DETAIL
  6
CONTINOUS
 62
     5
 10
-54.36
 20
47.88
 11
-49.32
 21
47.88
  0
LINE
  8
DETAIL
  6
CONTINOUS
 62
     5
 10
-49.32
 20
42.84
 11
-49.32
 21
47.88
  0
LINE
  8
DETAIL
  6
CONTINOUS
 62
     5
 10
-54.36
 20
42.84
 11
-49.32
 21
42.84
  0
LINE
  8
DETAIL
  6
CONTINOUS
 62
     5
 10
-54.36
 20
42.84
 11
-54.36
 21
47.88
  0
LINE
  8
DETAIL
  6
CONTINOUS
 62
     5
 10
-54.36
 20
41.4
 11
-49.32
 21
41.4
  0
LINE
  8
DETAIL
  6
CONTINOUS
 62
     5
 10
-49.32
 20
36.36
 11
-49.32
 21
41.4
  0
LINE
  8
DETAIL
  6
CONTINOUS
 62
     5
 10
-54.36
 20
36.36
 11
-49.32
 21
36.36
  0
LINE
  8
DETAIL
  6
CONTINOUS
 62
     5
 10
-54.36
 20
36.36
 11
-54.36
 21
41.4
  0
LINE
  8
DETAIL
  6
CONTINOUS
 62
     5
 10
-54.36
 20
34.92
 11
-49.32
 21
34.92
  0
LINE
  8
DETAIL
  6
CONTINOUS
 62
     5
 10
-49.32
 20
29.88
 11
-49.32
 21
34.92
  0
LINE
  8
DETAIL
  6
CONTINOUS
 62
     5
 10
-54.36
 20
29.88
 11
-49.32
 21
29.88
  0
LINE
  8
DETAIL
  6
CONTINOUS
 62
     5
 10
-54.36
 20
29.88
 11
-54.36
 21
34.92
  0
LINE
  8
DETAIL
  6
CONTINOUS
 62
     5
 10
-54.36
 20
28.44
 11
-49.32
 21
28.44
  0
LINE
  8
DETAIL
  6
CONTINOUS
 62
     5
 10
-49.32
 20
23.4
 11
-49.32
 21
28.44
  0
LINE
  8
DETAIL
  6
CONTINOUS
 62
     5
 10
-54.36
 20
23.4
 11
-49.32
 21
23.4
  0
LINE
  8
DETAIL
  6
CONTINOUS
 62
     5
 10
-54.36
 20
23.4
 11
-54.36
 21
28.44
  0
LINE
  8
DETAIL
  6
CONTINOUS
 62
     5
 10
-54.36
 20
21.96
 11
-49.32
 21
21.96
  0
LINE
  8
DETAIL
  6
CONTINOUS
 62
     5
 10
-49.32
 20
16.92
 11
-49.32
 21
21.96
  0
LINE
  8
DETAIL
  6
CONTINOUS
 62
     5
 10
-54.36
 20
16.92
 11
-49.32
 21
16.92
  0
LINE
  8
DETAIL
  6
CONTINOUS
 62
     5
 10
-54.36
 20
16.92
 11
-54.36
 21
21.96
  0
LINE
  8
DETAIL
  6
CONTINOUS
 62
     5
 10
-54.36
 20
15.48
 11
-49.32
 21
15.48
  0
LINE
  8
DETAIL
  6
CONTINOUS
 62
     5
 10
-49.32
 20
10.44
 11
-49.32
 21
15.48
  0
LINE
  8
DETAIL
  6
CONTINOUS
 62
     5
 10
-54.36
 20
10.44
 11
-49.32
 21
10.44
  0
LINE
  8
DETAIL
  6
CONTINOUS
 62
     5
 10
-54.36
 20
10.44
 11
-54.36
 21
15.48
  0
LINE
  8
DETAIL
  6
CONTINOUS
 62
     5
 10
-54.36
 20
9.0
 11
-49.32
 21
9.0
  0
LINE
  8
DETAIL
  6
CONTINOUS
 62
     5
 10
-49.32
 20
3.96
 11
-49.32
 21
9.0
  0
LINE
  8
DETAIL
  6
CONTINOUS
 62
     5
 10
-54.36
 20
3.96
 11
-49.32
 21
3.96
  0
LINE
  8
DETAIL
  6
CONTINOUS
 62
     5
 10
-54.36
 20
3.96
 11
-54.36
 21
9.0
  0
LINE
  8
DETAIL
  6
CONTINOUS
 62
     5
 10
-54.36
 20
2.52
 11
-49.32
 21
2.52
  0
LINE
  8
DETAIL
  6
CONTINOUS
 62
     5
 10
-49.32
 20
-2.52
 11
-49.32
 21
2.52
  0
LINE
  8
DETAIL
  6
CONTINOUS
 62
     5
 10
-54.36
 20
-2.52
 11
-49.32
 21
-2.52
  0
LINE
  8
DETAIL
  6
CONTINOUS
 62
     5
 10
-54.36
 20
-2.52
 11
-54.36
 21
2.52
  0
LINE
  8
DETAIL
  6
CONTINOUS
 62
     5
 10
-54.36
 20
-3.96
 11
-49.32
 21
-3.96
  0
LINE
  8
DETAIL
  6
CONTINOUS
 62
     5
 10
-49.32
 20
-9.0
 11
-49.32
 21
-3.96
  0
LINE
  8
DETAIL
  6
CONTINOUS
 62
     5
 10
-54.36
 20
-9.0
 11
-49.32
 21
-9.0
  0
LINE
  8
DETAIL
  6
CONTINOUS
 62
     5
 10
-54.36
 20
-9.0
 11
-54.36
 21
-3.96
  0
LINE
  8
DETAIL
  6
CONTINOUS
 62
     5
 10
-54.36
 20
-10.44
 11
-49.32
 21
-10.44
  0
LINE
  8
DETAIL
  6
CONTINOUS
 62
     5
 10
-49.32
 20
-15.48
 11
-49.32
 21
-10.44
  0
LINE
  8
DETAIL
  6
CONTINOUS
 62
     5
 10
-54.36
 20
-15.48
 11
-49.32
 21
-15.48
  0
LINE
  8
DETAIL
  6
CONTINOUS
 62
     5
 10
-54.36
 20
-15.48
 11
-54.36
 21
-10.44
  0
LINE
  8
DETAIL
  6
CONTINOUS
 62
     5
 10
-54.36
 20
-16.92
 11
-49.32
 21
-16.92
  0
LINE
  8
DETAIL
  6
CONTINOUS
 62
     5
 10
-49.32
 20
-21.96
 11
-49.32
 21
-16.92
  0
LINE
  8
DETAIL
  6
CONTINOUS
 62
     5
 10
-54.36
 20
-21.96
 11
-49.32
 21
-21.96
  0
LINE
  8
DETAIL
  6
CONTINOUS
 62
     5
 10
-54.36
 20
-21.96
 11
-54.36
 21
-16.92
  0
LINE
  8
DETAIL
  6
CONTINOUS
 62
     5
 10
-54.36
 20
-23.4
 11
-49.32
 21
-23.4
  0
LINE
  8
DETAIL
  6
CONTINOUS
 62
     5
 10
-49.32
 20
-28.44
 11
-49.32
 21
-23.4
  0
LINE
  8
DETAIL
  6
CONTINOUS
 62
     5
 10
-54.36
 20
-28.44
 11
-49.32
 21
-28.44
  0
LINE
  8
DETAIL
  6
CONTINOUS
 62
     5
 10
-54.36
 20
-28.44
 11
-54.36
 21
-23.4
  0
LINE
  8
DETAIL
  6
CONTINOUS
 62
     5
 10
-54.36
 20
-29.88
 11
-49.32
 21
-29.88
  0
LINE
  8
DETAIL
  6
CONTINOUS
 62
     5
 10
-49.32
 20
-34.92
 11
-49.32
 21
-29.88
  0
LINE
  8
DETAIL
  6
CONTINOUS
 62
     5
 10
-54.36
 20
-34.92
 11
-49.32
 21
-34.92
  0
LINE
  8
DETAIL
  6
CONTINOUS
 62
     5
 10
-54.36
 20
-34.92
 11
-54.36
 21
-29.88
  0
LINE
  8
DETAIL
  6
CONTINOUS
 62
     5
 10
-54.36
 20
-36.36
 11
-49.32
 21
-36.36
  0
LINE
  8
DETAIL
  6
CONTINOUS
 62
     5
 10
-49.32
 20
-41.4
 11
-49.32
 21
-36.36
  0
LINE
  8
DETAIL
  6
CONTINOUS
 62
     5
 10
-54.36
 20
-41.4
 11
-49.32
 21
-41.4
  0
LINE
  8
DETAIL
  6
CONTINOUS
 62
     5
 10
-54.36
 20
-41.4
 11
-54.36
 21
-36.36
  0
LINE
  8
DETAIL
  6
CONTINOUS
 62
     5
 10
-54.36
 20
-42.84
 11
-49.32
 21
-42.84
  0
LINE
  8
DETAIL
  6
CONTINOUS
 62
     5
 10
-49.32
 20
-47.88
 11
-49.32
 21
-42.84
  0
LINE
  8
DETAIL
  6
CONTINOUS
 62
     5
 10
-54.36
 20
-47.88
 11
-49.32
 21
-47.88
  0
LINE
  8
DETAIL
  6
CONTINOUS
 62
     5
 10
-54.36
 20
-47.88
 11
-54.36
 21
-42.84
  0
LINE
  8
DETAIL
  6
CONTINOUS
 62
     5
 10
-54.36
 20
-49.32
 11
-49.32
 21
-49.32
  0
LINE
  8
DETAIL
  6
CONTINOUS
 62
     5
 10
-49.32
 20
-54.36
 11
-49.32
 21
-49.32
  0
LINE
  8
DETAIL
  6
CONTINOUS
 62
     5
 10
-54.36
 20
-54.36
 11
-49.32
 21
-54.36
  0
LINE
  8
DETAIL
  6
CONTINOUS
 62
     5
 10
-54.36
 20
-54.36
 11
-54.36
 21
-49.32
  0
LINE
  8
DETAIL
  6
CONTINOUS
 62
     5
 10
-54.36
 20
-55.8
 11
-49.32
 21
-55.8
  0
LINE
  8
DETAIL
  6
CONTINOUS
 62
     5
 10
-49.32
 20
-60.84
 11
-49.32
 21
-55.8
  0
LINE
  8
DETAIL
  6
CONTINOUS
 62
     5
 10
-54.36
 20
-60.84
 11
-49.32
 21
-60.84
  0
LINE
  8
DETAIL
  6
CONTINOUS
 62
     5
 10
-54.36
 20
-60.84
 11
-54.36
 21
-55.8
  0
LINE
  8
DETAIL
  6
CONTINOUS
 62
     5
 10
-54.36
 20
-62.28
 11
-49.32
 21
-62.28
  0
LINE
  8
DETAIL
  6
CONTINOUS
 62
     5
 10
-49.32
 20
-67.32
 11
-49.32
 21
-62.28
  0
LINE
  8
DETAIL
  6
CONTINOUS
 62
     5
 10
-54.36
 20
-67.32
 11
-49.32
 21
-67.32
  0
LINE
  8
DETAIL
  6
CONTINOUS
 62
     5
 10
-54.36
 20
-67.32
 11
-54.36
 21
-62.28
  0
LINE
  8
DETAIL
  6
CONTINOUS
 62
     5
 10
-54.36
 20
-68.76
 11
-49.32
 21
-68.76
  0
LINE
  8
DETAIL
  6
CONTINOUS
 62
     5
 10
-49.32
 20
-73.8
 11
-49.32
 21
-68.76
  0
LINE
  8
DETAIL
  6
CONTINOUS
 62
     5
 10
-54.36
 20
-73.8
 11
-49.32
 21
-73.8
  0
LINE
  8
DETAIL
  6
CONTINOUS
 62
     5
 10
-54.36
 20
-73.8
 11
-54.36
 21
-68.76
  0
LINE
  8
DETAIL
  6
CONTINOUS
 62
     5
 10
-54.36
 20
-75.24
 11
-49.32
 21
-75.24
  0
LINE
  8
DETAIL
  6
CONTINOUS
 62
     5
 10
-49.32
 20
-80.28
 11
-49.32
 21
-75.24
  0
LINE
  8
DETAIL
  6
CONTINOUS
 62
     5
 10
-54.36
 20
-80.28
 11
-49.32
 21
-80.28
  0
LINE
  8
DETAIL
  6
CONTINOUS
 62
     5
 10
-54.36
 20
-80.28
 11
-54.36
 21
-75.24
  0
LINE
  8
DETAIL
  6
CONTINOUS
 62
     5
 10
-54.36
 20
-81.72
 11
-49.32
 21
-81.72
  0
LINE
  8
DETAIL
  6
CONTINOUS
 62
     5
 10
-49.32
 20
-86.76
 11
-49.32
 21
-81.72
  0
LINE
  8
DETAIL
  6
CONTINOUS
 62
     5
 10
-54.36
 20
-86.76
 11
-49.32
 21
-86.76
  0
LINE
  8
DETAIL
  6
CONTINOUS
 62
     5
 10
-54.36
 20
-86.76
 11
-54.36
 21
-81.72
  0
LINE
  8
DETAIL
  6
CONTINOUS
 62
     5
 10
-60.84
 20
86.76
 11
-55.8
 21
86.76
  0
LINE
  8
DETAIL
  6
CONTINOUS
 62
     5
 10
-55.8
 20
81.72
 11
-55.8
 21
86.76
  0
LINE
  8
DETAIL
  6
CONTINOUS
 62
     5
 10
-60.84
 20
81.72
 11
-55.8
 21
81.72
  0
LINE
  8
DETAIL
  6
CONTINOUS
 62
     5
 10
-60.84
 20
81.72
 11
-60.84
 21
86.76
  0
LINE
  8
DETAIL
  6
CONTINOUS
 62
     5
 10
-60.84
 20
80.28
 11
-55.8
 21
80.28
  0
LINE
  8
DETAIL
  6
CONTINOUS
 62
     5
 10
-55.8
 20
75.24
 11
-55.8
 21
80.28
  0
LINE
  8
DETAIL
  6
CONTINOUS
 62
     5
 10
-60.84
 20
75.24
 11
-55.8
 21
75.24
  0
LINE
  8
DETAIL
  6
CONTINOUS
 62
     5
 10
-60.84
 20
75.24
 11
-60.84
 21
80.28
  0
LINE
  8
DETAIL
  6
CONTINOUS
 62
     5
 10
-60.84
 20
73.8
 11
-55.8
 21
73.8
  0
LINE
  8
DETAIL
  6
CONTINOUS
 62
     5
 10
-55.8
 20
68.76
 11
-55.8
 21
73.8
  0
LINE
  8
DETAIL
  6
CONTINOUS
 62
     5
 10
-60.84
 20
68.76
 11
-55.8
 21
68.76
  0
LINE
  8
DETAIL
  6
CONTINOUS
 62
     5
 10
-60.84
 20
68.76
 11
-60.84
 21
73.8
  0
LINE
  8
DETAIL
  6
CONTINOUS
 62
     5
 10
-60.84
 20
67.32
 11
-55.8
 21
67.32
  0
LINE
  8
DETAIL
  6
CONTINOUS
 62
     5
 10
-55.8
 20
62.28
 11
-55.8
 21
67.32
  0
LINE
  8
DETAIL
  6
CONTINOUS
 62
     5
 10
-60.84
 20
62.28
 11
-55.8
 21
62.28
  0
LINE
  8
DETAIL
  6
CONTINOUS
 62
     5
 10
-60.84
 20
62.28
 11
-60.84
 21
67.32
  0
LINE
  8
DETAIL
  6
CONTINOUS
 62
     5
 10
-60.84
 20
60.84
 11
-55.8
 21
60.84
  0
LINE
  8
DETAIL
  6
CONTINOUS
 62
     5
 10
-55.8
 20
55.8
 11
-55.8
 21
60.84
  0
LINE
  8
DETAIL
  6
CONTINOUS
 62
     5
 10
-60.84
 20
55.8
 11
-55.8
 21
55.8
  0
LINE
  8
DETAIL
  6
CONTINOUS
 62
     5
 10
-60.84
 20
55.8
 11
-60.84
 21
60.84
  0
LINE
  8
DETAIL
  6
CONTINOUS
 62
     5
 10
-60.84
 20
54.36
 11
-55.8
 21
54.36
  0
LINE
  8
DETAIL
  6
CONTINOUS
 62
     5
 10
-55.8
 20
49.32
 11
-55.8
 21
54.36
  0
LINE
  8
DETAIL
  6
CONTINOUS
 62
     5
 10
-60.84
 20
49.32
 11
-55.8
 21
49.32
  0
LINE
  8
DETAIL
  6
CONTINOUS
 62
     5
 10
-60.84
 20
49.32
 11
-60.84
 21
54.36
  0
LINE
  8
DETAIL
  6
CONTINOUS
 62
     5
 10
-60.84
 20
47.88
 11
-55.8
 21
47.88
  0
LINE
  8
DETAIL
  6
CONTINOUS
 62
     5
 10
-55.8
 20
42.84
 11
-55.8
 21
47.88
  0
LINE
  8
DETAIL
  6
CONTINOUS
 62
     5
 10
-60.84
 20
42.84
 11
-55.8
 21
42.84
  0
LINE
  8
DETAIL
  6
CONTINOUS
 62
     5
 10
-60.84
 20
42.84
 11
-60.84
 21
47.88
  0
LINE
  8
DETAIL
  6
CONTINOUS
 62
     5
 10
-60.84
 20
41.4
 11
-55.8
 21
41.4
  0
LINE
  8
DETAIL
  6
CONTINOUS
 62
     5
 10
-55.8
 20
36.36
 11
-55.8
 21
41.4
  0
LINE
  8
DETAIL
  6
CONTINOUS
 62
     5
 10
-60.84
 20
36.36
 11
-55.8
 21
36.36
  0
LINE
  8
DETAIL
  6
CONTINOUS
 62
     5
 10
-60.84
 20
36.36
 11
-60.84
 21
41.4
  0
LINE
  8
DETAIL
  6
CONTINOUS
 62
     5
 10
-60.84
 20
34.92
 11
-55.8
 21
34.92
  0
LINE
  8
DETAIL
  6
CONTINOUS
 62
     5
 10
-55.8
 20
29.88
 11
-55.8
 21
34.92
  0
LINE
  8
DETAIL
  6
CONTINOUS
 62
     5
 10
-60.84
 20
29.88
 11
-55.8
 21
29.88
  0
LINE
  8
DETAIL
  6
CONTINOUS
 62
     5
 10
-60.84
 20
29.88
 11
-60.84
 21
34.92
  0
LINE
  8
DETAIL
  6
CONTINOUS
 62
     5
 10
-60.84
 20
28.44
 11
-55.8
 21
28.44
  0
LINE
  8
DETAIL
  6
CONTINOUS
 62
     5
 10
-55.8
 20
23.4
 11
-55.8
 21
28.44
  0
LINE
  8
DETAIL
  6
CONTINOUS
 62
     5
 10
-60.84
 20
23.4
 11
-55.8
 21
23.4
  0
LINE
  8
DETAIL
  6
CONTINOUS
 62
     5
 10
-60.84
 20
23.4
 11
-60.84
 21
28.44
  0
LINE
  8
DETAIL
  6
CONTINOUS
 62
     5
 10
-60.84
 20
21.96
 11
-55.8
 21
21.96
  0
LINE
  8
DETAIL
  6
CONTINOUS
 62
     5
 10
-55.8
 20
16.92
 11
-55.8
 21
21.96
  0
LINE
  8
DETAIL
  6
CONTINOUS
 62
     5
 10
-60.84
 20
16.92
 11
-55.8
 21
16.92
  0
LINE
  8
DETAIL
  6
CONTINOUS
 62
     5
 10
-60.84
 20
16.92
 11
-60.84
 21
21.96
  0
LINE
  8
DETAIL
  6
CONTINOUS
 62
     5
 10
-60.84
 20
15.48
 11
-55.8
 21
15.48
  0
LINE
  8
DETAIL
  6
CONTINOUS
 62
     5
 10
-55.8
 20
10.44
 11
-55.8
 21
15.48
  0
LINE
  8
DETAIL
  6
CONTINOUS
 62
     5
 10
-60.84
 20
10.44
 11
-55.8
 21
10.44
  0
LINE
  8
DETAIL
  6
CONTINOUS
 62
     5
 10
-60.84
 20
10.44
 11
-60.84
 21
15.48
  0
LINE
  8
DETAIL
  6
CONTINOUS
 62
     5
 10
-60.84
 20
9.0
 11
-55.8
 21
9.0
  0
LINE
  8
DETAIL
  6
CONTINOUS
 62
     5
 10
-55.8
 20
3.96
 11
-55.8
 21
9.0
  0
LINE
  8
DETAIL
  6
CONTINOUS
 62
     5
 10
-60.84
 20
3.96
 11
-55.8
 21
3.96
  0
LINE
  8
DETAIL
  6
CONTINOUS
 62
     5
 10
-60.84
 20
3.96
 11
-60.84
 21
9.0
  0
LINE
  8
DETAIL
  6
CONTINOUS
 62
     5
 10
-60.84
 20
2.52
 11
-55.8
 21
2.52
  0
LINE
  8
DETAIL
  6
CONTINOUS
 62
     5
 10
-55.8
 20
-2.52
 11
-55.8
 21
2.52
  0
LINE
  8
DETAIL
  6
CONTINOUS
 62
     5
 10
-60.84
 20
-2.52
 11
-55.8
 21
-2.52
  0
LINE
  8
DETAIL
  6
CONTINOUS
 62
     5
 10
-60.84
 20
-2.52
 11
-60.84
 21
2.52
  0
LINE
  8
DETAIL
  6
CONTINOUS
 62
     5
 10
-60.84
 20
-3.96
 11
-55.8
 21
-3.96
  0
LINE
  8
DETAIL
  6
CONTINOUS
 62
     5
 10
-55.8
 20
-9.0
 11
-55.8
 21
-3.96
  0
LINE
  8
DETAIL
  6
CONTINOUS
 62
     5
 10
-60.84
 20
-9.0
 11
-55.8
 21
-9.0
  0
LINE
  8
DETAIL
  6
CONTINOUS
 62
     5
 10
-60.84
 20
-9.0
 11
-60.84
 21
-3.96
  0
LINE
  8
DETAIL
  6
CONTINOUS
 62
     5
 10
-60.84
 20
-10.44
 11
-55.8
 21
-10.44
  0
LINE
  8
DETAIL
  6
CONTINOUS
 62
     5
 10
-55.8
 20
-15.48
 11
-55.8
 21
-10.44
  0
LINE
  8
DETAIL
  6
CONTINOUS
 62
     5
 10
-60.84
 20
-15.48
 11
-55.8
 21
-15.48
  0
LINE
  8
DETAIL
  6
CONTINOUS
 62
     5
 10
-60.84
 20
-15.48
 11
-60.84
 21
-10.44
  0
LINE
  8
DETAIL
  6
CONTINOUS
 62
     5
 10
-60.84
 20
-16.92
 11
-55.8
 21
-16.92
  0
LINE
  8
DETAIL
  6
CONTINOUS
 62
     5
 10
-55.8
 20
-21.96
 11
-55.8
 21
-16.92
  0
LINE
  8
DETAIL
  6
CONTINOUS
 62
     5
 10
-60.84
 20
-21.96
 11
-55.8
 21
-21.96
  0
LINE
  8
DETAIL
  6
CONTINOUS
 62
     5
 10
-60.84
 20
-21.96
 11
-60.84
 21
-16.92
  0
LINE
  8
DETAIL
  6
CONTINOUS
 62
     5
 10
-60.84
 20
-23.4
 11
-55.8
 21
-23.4
  0
LINE
  8
DETAIL
  6
CONTINOUS
 62
     5
 10
-55.8
 20
-28.44
 11
-55.8
 21
-23.4
  0
LINE
  8
DETAIL
  6
CONTINOUS
 62
     5
 10
-60.84
 20
-28.44
 11
-55.8
 21
-28.44
  0
LINE
  8
DETAIL
  6
CONTINOUS
 62
     5
 10
-60.84
 20
-28.44
 11
-60.84
 21
-23.4
  0
LINE
  8
DETAIL
  6
CONTINOUS
 62
     5
 10
-60.84
 20
-29.88
 11
-55.8
 21
-29.88
  0
LINE
  8
DETAIL
  6
CONTINOUS
 62
     5
 10
-55.8
 20
-34.92
 11
-55.8
 21
-29.88
  0
LINE
  8
DETAIL
  6
CONTINOUS
 62
     5
 10
-60.84
 20
-34.92
 11
-55.8
 21
-34.92
  0
LINE
  8
DETAIL
  6
CONTINOUS
 62
     5
 10
-60.84
 20
-34.92
 11
-60.84
 21
-29.88
  0
LINE
  8
DETAIL
  6
CONTINOUS
 62
     5
 10
-60.84
 20
-36.36
 11
-55.8
 21
-36.36
  0
LINE
  8
DETAIL
  6
CONTINOUS
 62
     5
 10
-55.8
 20
-41.4
 11
-55.8
 21
-36.36
  0
LINE
  8
DETAIL
  6
CONTINOUS
 62
     5
 10
-60.84
 20
-41.4
 11
-55.8
 21
-41.4
  0
LINE
  8
DETAIL
  6
CONTINOUS
 62
     5
 10
-60.84
 20
-41.4
 11
-60.84
 21
-36.36
  0
LINE
  8
DETAIL
  6
CONTINOUS
 62
     5
 10
-60.84
 20
-42.84
 11
-55.8
 21
-42.84
  0
LINE
  8
DETAIL
  6
CONTINOUS
 62
     5
 10
-55.8
 20
-47.88
 11
-55.8
 21
-42.84
  0
LINE
  8
DETAIL
  6
CONTINOUS
 62
     5
 10
-60.84
 20
-47.88
 11
-55.8
 21
-47.88
  0
LINE
  8
DETAIL
  6
CONTINOUS
 62
     5
 10
-60.84
 20
-47.88
 11
-60.84
 21
-42.84
  0
LINE
  8
DETAIL
  6
CONTINOUS
 62
     5
 10
-60.84
 20
-49.32
 11
-55.8
 21
-49.32
  0
LINE
  8
DETAIL
  6
CONTINOUS
 62
     5
 10
-55.8
 20
-54.36
 11
-55.8
 21
-49.32
  0
LINE
  8
DETAIL
  6
CONTINOUS
 62
     5
 10
-60.84
 20
-54.36
 11
-55.8
 21
-54.36
  0
LINE
  8
DETAIL
  6
CONTINOUS
 62
     5
 10
-60.84
 20
-54.36
 11
-60.84
 21
-49.32
  0
LINE
  8
DETAIL
  6
CONTINOUS
 62
     5
 10
-60.84
 20
-55.8
 11
-55.8
 21
-55.8
  0
LINE
  8
DETAIL
  6
CONTINOUS
 62
     5
 10
-55.8
 20
-60.84
 11
-55.8
 21
-55.8
  0
LINE
  8
DETAIL
  6
CONTINOUS
 62
     5
 10
-60.84
 20
-60.84
 11
-55.8
 21
-60.84
  0
LINE
  8
DETAIL
  6
CONTINOUS
 62
     5
 10
-60.84
 20
-60.84
 11
-60.84
 21
-55.8
  0
LINE
  8
DETAIL
  6
CONTINOUS
 62
     5
 10
-60.84
 20
-62.28
 11
-55.8
 21
-62.28
  0
LINE
  8
DETAIL
  6
CONTINOUS
 62
     5
 10
-55.8
 20
-67.32
 11
-55.8
 21
-62.28
  0
LINE
  8
DETAIL
  6
CONTINOUS
 62
     5
 10
-60.84
 20
-67.32
 11
-55.8
 21
-67.32
  0
LINE
  8
DETAIL
  6
CONTINOUS
 62
     5
 10
-60.84
 20
-67.32
 11
-60.84
 21
-62.28
  0
LINE
  8
DETAIL
  6
CONTINOUS
 62
     5
 10
-60.84
 20
-68.76
 11
-55.8
 21
-68.76
  0
LINE
  8
DETAIL
  6
CONTINOUS
 62
     5
 10
-55.8
 20
-73.8
 11
-55.8
 21
-68.76
  0
LINE
  8
DETAIL
  6
CONTINOUS
 62
     5
 10
-60.84
 20
-73.8
 11
-55.8
 21
-73.8
  0
LINE
  8
DETAIL
  6
CONTINOUS
 62
     5
 10
-60.84
 20
-73.8
 11
-60.84
 21
-68.76
  0
LINE
  8
DETAIL
  6
CONTINOUS
 62
     5
 10
-60.84
 20
-75.24
 11
-55.8
 21
-75.24
  0
LINE
  8
DETAIL
  6
CONTINOUS
 62
     5
 10
-55.8
 20
-80.28
 11
-55.8
 21
-75.24
  0
LINE
  8
DETAIL
  6
CONTINOUS
 62
     5
 10
-60.84
 20
-80.28
 11
-55.8
 21
-80.28
  0
LINE
  8
DETAIL
  6
CONTINOUS
 62
     5
 10
-60.84
 20
-80.28
 11
-60.84
 21
-75.24
  0
LINE
  8
DETAIL
  6
CONTINOUS
 62
     5
 10
-60.84
 20
-81.72
 11
-55.8
 21
-81.72
  0
LINE
  8
DETAIL
  6
CONTINOUS
 62
     5
 10
-55.8
 20
-86.76
 11
-55.8
 21
-81.72
  0
LINE
  8
DETAIL
  6
CONTINOUS
 62
     5
 10
-60.84
 20
-86.76
 11
-55.8
 21
-86.76
  0
LINE
  8
DETAIL
  6
CONTINOUS
 62
     5
 10
-60.84
 20
-86.76
 11
-60.84
 21
-81.72
  0
LINE
  8
DETAIL
  6
CONTINOUS
 62
     5
 10
-67.32
 20
86.76
 11
-62.28
 21
86.76
  0
LINE
  8
DETAIL
  6
CONTINOUS
 62
     5
 10
-62.28
 20
81.72
 11
-62.28
 21
86.76
  0
LINE
  8
DETAIL
  6
CONTINOUS
 62
     5
 10
-67.32
 20
81.72
 11
-62.28
 21
81.72
  0
LINE
  8
DETAIL
  6
CONTINOUS
 62
     5
 10
-67.32
 20
81.72
 11
-67.32
 21
86.76
  0
LINE
  8
DETAIL
  6
CONTINOUS
 62
     5
 10
-67.32
 20
80.28
 11
-62.28
 21
80.28
  0
LINE
  8
DETAIL
  6
CONTINOUS
 62
     5
 10
-62.28
 20
75.24
 11
-62.28
 21
80.28
  0
LINE
  8
DETAIL
  6
CONTINOUS
 62
     5
 10
-67.32
 20
75.24
 11
-62.28
 21
75.24
  0
LINE
  8
DETAIL
  6
CONTINOUS
 62
     5
 10
-67.32
 20
75.24
 11
-67.32
 21
80.28
  0
LINE
  8
DETAIL
  6
CONTINOUS
 62
     5
 10
-67.32
 20
73.8
 11
-62.28
 21
73.8
  0
LINE
  8
DETAIL
  6
CONTINOUS
 62
     5
 10
-62.28
 20
68.76
 11
-62.28
 21
73.8
  0
LINE
  8
DETAIL
  6
CONTINOUS
 62
     5
 10
-67.32
 20
68.76
 11
-62.28
 21
68.76
  0
LINE
  8
DETAIL
  6
CONTINOUS
 62
     5
 10
-67.32
 20
68.76
 11
-67.32
 21
73.8
  0
LINE
  8
DETAIL
  6
CONTINOUS
 62
     5
 10
-67.32
 20
67.32
 11
-62.28
 21
67.32
  0
LINE
  8
DETAIL
  6
CONTINOUS
 62
     5
 10
-62.28
 20
62.28
 11
-62.28
 21
67.32
  0
LINE
  8
DETAIL
  6
CONTINOUS
 62
     5
 10
-67.32
 20
62.28
 11
-62.28
 21
62.28
  0
LINE
  8
DETAIL
  6
CONTINOUS
 62
     5
 10
-67.32
 20
62.28
 11
-67.32
 21
67.32
  0
LINE
  8
DETAIL
  6
CONTINOUS
 62
     5
 10
-67.32
 20
60.84
 11
-62.28
 21
60.84
  0
LINE
  8
DETAIL
  6
CONTINOUS
 62
     5
 10
-62.28
 20
55.8
 11
-62.28
 21
60.84
  0
LINE
  8
DETAIL
  6
CONTINOUS
 62
     5
 10
-67.32
 20
55.8
 11
-62.28
 21
55.8
  0
LINE
  8
DETAIL
  6
CONTINOUS
 62
     5
 10
-67.32
 20
55.8
 11
-67.32
 21
60.84
  0
LINE
  8
DETAIL
  6
CONTINOUS
 62
     5
 10
-67.32
 20
54.36
 11
-62.28
 21
54.36
  0
LINE
  8
DETAIL
  6
CONTINOUS
 62
     5
 10
-62.28
 20
49.32
 11
-62.28
 21
54.36
  0
LINE
  8
DETAIL
  6
CONTINOUS
 62
     5
 10
-67.32
 20
49.32
 11
-62.28
 21
49.32
  0
LINE
  8
DETAIL
  6
CONTINOUS
 62
     5
 10
-67.32
 20
49.32
 11
-67.32
 21
54.36
  0
LINE
  8
DETAIL
  6
CONTINOUS
 62
     5
 10
-67.32
 20
47.88
 11
-62.28
 21
47.88
  0
LINE
  8
DETAIL
  6
CONTINOUS
 62
     5
 10
-62.28
 20
42.84
 11
-62.28
 21
47.88
  0
LINE
  8
DETAIL
  6
CONTINOUS
 62
     5
 10
-67.32
 20
42.84
 11
-62.28
 21
42.84
  0
LINE
  8
DETAIL
  6
CONTINOUS
 62
     5
 10
-67.32
 20
42.84
 11
-67.32
 21
47.88
  0
LINE
  8
DETAIL
  6
CONTINOUS
 62
     5
 10
-67.32
 20
41.4
 11
-62.28
 21
41.4
  0
LINE
  8
DETAIL
  6
CONTINOUS
 62
     5
 10
-62.28
 20
36.36
 11
-62.28
 21
41.4
  0
LINE
  8
DETAIL
  6
CONTINOUS
 62
     5
 10
-67.32
 20
36.36
 11
-62.28
 21
36.36
  0
LINE
  8
DETAIL
  6
CONTINOUS
 62
     5
 10
-67.32
 20
36.36
 11
-67.32
 21
41.4
  0
LINE
  8
DETAIL
  6
CONTINOUS
 62
     5
 10
-67.32
 20
34.92
 11
-62.28
 21
34.92
  0
LINE
  8
DETAIL
  6
CONTINOUS
 62
     5
 10
-62.28
 20
29.88
 11
-62.28
 21
34.92
  0
LINE
  8
DETAIL
  6
CONTINOUS
 62
     5
 10
-67.32
 20
29.88
 11
-62.28
 21
29.88
  0
LINE
  8
DETAIL
  6
CONTINOUS
 62
     5
 10
-67.32
 20
29.88
 11
-67.32
 21
34.92
  0
LINE
  8
DETAIL
  6
CONTINOUS
 62
     5
 10
-67.32
 20
28.44
 11
-62.28
 21
28.44
  0
LINE
  8
DETAIL
  6
CONTINOUS
 62
     5
 10
-62.28
 20
23.4
 11
-62.28
 21
28.44
  0
LINE
  8
DETAIL
  6
CONTINOUS
 62
     5
 10
-67.32
 20
23.4
 11
-62.28
 21
23.4
  0
LINE
  8
DETAIL
  6
CONTINOUS
 62
     5
 10
-67.32
 20
23.4
 11
-67.32
 21
28.44
  0
LINE
  8
DETAIL
  6
CONTINOUS
 62
     5
 10
-67.32
 20
21.96
 11
-62.28
 21
21.96
  0
LINE
  8
DETAIL
  6
CONTINOUS
 62
     5
 10
-62.28
 20
16.92
 11
-62.28
 21
21.96
  0
LINE
  8
DETAIL
  6
CONTINOUS
 62
     5
 10
-67.32
 20
16.92
 11
-62.28
 21
16.92
  0
LINE
  8
DETAIL
  6
CONTINOUS
 62
     5
 10
-67.32
 20
16.92
 11
-67.32
 21
21.96
  0
LINE
  8
DETAIL
  6
CONTINOUS
 62
     5
 10
-67.32
 20
15.48
 11
-62.28
 21
15.48
  0
LINE
  8
DETAIL
  6
CONTINOUS
 62
     5
 10
-62.28
 20
10.44
 11
-62.28
 21
15.48
  0
LINE
  8
DETAIL
  6
CONTINOUS
 62
     5
 10
-67.32
 20
10.44
 11
-62.28
 21
10.44
  0
LINE
  8
DETAIL
  6
CONTINOUS
 62
     5
 10
-67.32
 20
10.44
 11
-67.32
 21
15.48
  0
LINE
  8
DETAIL
  6
CONTINOUS
 62
     5
 10
-67.32
 20
9.0
 11
-62.28
 21
9.0
  0
LINE
  8
DETAIL
  6
CONTINOUS
 62
     5
 10
-62.28
 20
3.96
 11
-62.28
 21
9.0
  0
LINE
  8
DETAIL
  6
CONTINOUS
 62
     5
 10
-67.32
 20
3.96
 11
-62.28
 21
3.96
  0
LINE
  8
DETAIL
  6
CONTINOUS
 62
     5
 10
-67.32
 20
3.96
 11
-67.32
 21
9.0
  0
LINE
  8
DETAIL
  6
CONTINOUS
 62
     5
 10
-67.32
 20
2.52
 11
-62.28
 21
2.52
  0
LINE
  8
DETAIL
  6
CONTINOUS
 62
     5
 10
-62.28
 20
-2.52
 11
-62.28
 21
2.52
  0
LINE
  8
DETAIL
  6
CONTINOUS
 62
     5
 10
-67.32
 20
-2.52
 11
-62.28
 21
-2.52
  0
LINE
  8
DETAIL
  6
CONTINOUS
 62
     5
 10
-67.32
 20
-2.52
 11
-67.32
 21
2.52
  0
LINE
  8
DETAIL
  6
CONTINOUS
 62
     5
 10
-67.32
 20
-3.96
 11
-62.28
 21
-3.96
  0
LINE
  8
DETAIL
  6
CONTINOUS
 62
     5
 10
-62.28
 20
-9.0
 11
-62.28
 21
-3.96
  0
LINE
  8
DETAIL
  6
CONTINOUS
 62
     5
 10
-67.32
 20
-9.0
 11
-62.28
 21
-9.0
  0
LINE
  8
DETAIL
  6
CONTINOUS
 62
     5
 10
-67.32
 20
-9.0
 11
-67.32
 21
-3.96
  0
LINE
  8
DETAIL
  6
CONTINOUS
 62
     5
 10
-67.32
 20
-10.44
 11
-62.28
 21
-10.44
  0
LINE
  8
DETAIL
  6
CONTINOUS
 62
     5
 10
-62.28
 20
-15.48
 11
-62.28
 21
-10.44
  0
LINE
  8
DETAIL
  6
CONTINOUS
 62
     5
 10
-67.32
 20
-15.48
 11
-62.28
 21
-15.48
  0
LINE
  8
DETAIL
  6
CONTINOUS
 62
     5
 10
-67.32
 20
-15.48
 11
-67.32
 21
-10.44
  0
LINE
  8
DETAIL
  6
CONTINOUS
 62
     5
 10
-67.32
 20
-16.92
 11
-62.28
 21
-16.92
  0
LINE
  8
DETAIL
  6
CONTINOUS
 62
     5
 10
-62.28
 20
-21.96
 11
-62.28
 21
-16.92
  0
LINE
  8
DETAIL
  6
CONTINOUS
 62
     5
 10
-67.32
 20
-21.96
 11
-62.28
 21
-21.96
  0
LINE
  8
DETAIL
  6
CONTINOUS
 62
     5
 10
-67.32
 20
-21.96
 11
-67.32
 21
-16.92
  0
LINE
  8
DETAIL
  6
CONTINOUS
 62
     5
 10
-67.32
 20
-23.4
 11
-62.28
 21
-23.4
  0
LINE
  8
DETAIL
  6
CONTINOUS
 62
     5
 10
-62.28
 20
-28.44
 11
-62.28
 21
-23.4
  0
LINE
  8
DETAIL
  6
CONTINOUS
 62
     5
 10
-67.32
 20
-28.44
 11
-62.28
 21
-28.44
  0
LINE
  8
DETAIL
  6
CONTINOUS
 62
     5
 10
-67.32
 20
-28.44
 11
-67.32
 21
-23.4
  0
LINE
  8
DETAIL
  6
CONTINOUS
 62
     5
 10
-67.32
 20
-29.88
 11
-62.28
 21
-29.88
  0
LINE
  8
DETAIL
  6
CONTINOUS
 62
     5
 10
-62.28
 20
-34.92
 11
-62.28
 21
-29.88
  0
LINE
  8
DETAIL
  6
CONTINOUS
 62
     5
 10
-67.32
 20
-34.92
 11
-62.28
 21
-34.92
  0
LINE
  8
DETAIL
  6
CONTINOUS
 62
     5
 10
-67.32
 20
-34.92
 11
-67.32
 21
-29.88
  0
LINE
  8
DETAIL
  6
CONTINOUS
 62
     5
 10
-67.32
 20
-36.36
 11
-62.28
 21
-36.36
  0
LINE
  8
DETAIL
  6
CONTINOUS
 62
     5
 10
-62.28
 20
-41.4
 11
-62.28
 21
-36.36
  0
LINE
  8
DETAIL
  6
CONTINOUS
 62
     5
 10
-67.32
 20
-41.4
 11
-62.28
 21
-41.4
  0
LINE
  8
DETAIL
  6
CONTINOUS
 62
     5
 10
-67.32
 20
-41.4
 11
-67.32
 21
-36.36
  0
LINE
  8
DETAIL
  6
CONTINOUS
 62
     5
 10
-67.32
 20
-42.84
 11
-62.28
 21
-42.84
  0
LINE
  8
DETAIL
  6
CONTINOUS
 62
     5
 10
-62.28
 20
-47.88
 11
-62.28
 21
-42.84
  0
LINE
  8
DETAIL
  6
CONTINOUS
 62
     5
 10
-67.32
 20
-47.88
 11
-62.28
 21
-47.88
  0
LINE
  8
DETAIL
  6
CONTINOUS
 62
     5
 10
-67.32
 20
-47.88
 11
-67.32
 21
-42.84
  0
LINE
  8
DETAIL
  6
CONTINOUS
 62
     5
 10
-67.32
 20
-49.32
 11
-62.28
 21
-49.32
  0
LINE
  8
DETAIL
  6
CONTINOUS
 62
     5
 10
-62.28
 20
-54.36
 11
-62.28
 21
-49.32
  0
LINE
  8
DETAIL
  6
CONTINOUS
 62
     5
 10
-67.32
 20
-54.36
 11
-62.28
 21
-54.36
  0
LINE
  8
DETAIL
  6
CONTINOUS
 62
     5
 10
-67.32
 20
-54.36
 11
-67.32
 21
-49.32
  0
LINE
  8
DETAIL
  6
CONTINOUS
 62
     5
 10
-67.32
 20
-55.8
 11
-62.28
 21
-55.8
  0
LINE
  8
DETAIL
  6
CONTINOUS
 62
     5
 10
-62.28
 20
-60.84
 11
-62.28
 21
-55.8
  0
LINE
  8
DETAIL
  6
CONTINOUS
 62
     5
 10
-67.32
 20
-60.84
 11
-62.28
 21
-60.84
  0
LINE
  8
DETAIL
  6
CONTINOUS
 62
     5
 10
-67.32
 20
-60.84
 11
-67.32
 21
-55.8
  0
LINE
  8
DETAIL
  6
CONTINOUS
 62
     5
 10
-67.32
 20
-62.28
 11
-62.28
 21
-62.28
  0
LINE
  8
DETAIL
  6
CONTINOUS
 62
     5
 10
-62.28
 20
-67.32
 11
-62.28
 21
-62.28
  0
LINE
  8
DETAIL
  6
CONTINOUS
 62
     5
 10
-67.32
 20
-67.32
 11
-62.28
 21
-67.32
  0
LINE
  8
DETAIL
  6
CONTINOUS
 62
     5
 10
-67.32
 20
-67.32
 11
-67.32
 21
-62.28
  0
LINE
  8
DETAIL
  6
CONTINOUS
 62
     5
 10
-67.32
 20
-68.76
 11
-62.28
 21
-68.76
  0
LINE
  8
DETAIL
  6
CONTINOUS
 62
     5
 10
-62.28
 20
-73.8
 11
-62.28
 21
-68.76
  0
LINE
  8
DETAIL
  6
CONTINOUS
 62
     5
 10
-67.32
 20
-73.8
 11
-62.28
 21
-73.8
  0
LINE
  8
DETAIL
  6
CONTINOUS
 62
     5
 10
-67.32
 20
-73.8
 11
-67.32
 21
-68.76
  0
LINE
  8
DETAIL
  6
CONTINOUS
 62
     5
 10
-67.32
 20
-75.24
 11
-62.28
 21
-75.24
  0
LINE
  8
DETAIL
  6
CONTINOUS
 62
     5
 10
-62.28
 20
-80.28
 11
-62.28
 21
-75.24
  0
LINE
  8
DETAIL
  6
CONTINOUS
 62
     5
 10
-67.32
 20
-80.28
 11
-62.28
 21
-80.28
  0
LINE
  8
DETAIL
  6
CONTINOUS
 62
     5
 10
-67.32
 20
-80.28
 11
-67.32
 21
-75.24
  0
LINE
  8
DETAIL
  6
CONTINOUS
 62
     5
 10
-67.32
 20
-81.72
 11
-62.28
 21
-81.72
  0
LINE
  8
DETAIL
  6
CONTINOUS
 62
     5
 10
-62.28
 20
-86.76
 11
-62.28
 21
-81.72
  0
LINE
  8
DETAIL
  6
CONTINOUS
 62
     5
 10
-67.32
 20
-86.76
 11
-62.28
 21
-86.76
  0
LINE
  8
DETAIL
  6
CONTINOUS
 62
     5
 10
-67.32
 20
-86.76
 11
-67.32
 21
-81.72
  0
LINE
  8
DETAIL
  6
CONTINOUS
 62
     5
 10
-73.8
 20
86.76
 11
-68.76
 21
86.76
  0
LINE
  8
DETAIL
  6
CONTINOUS
 62
     5
 10
-68.76
 20
81.72
 11
-68.76
 21
86.76
  0
LINE
  8
DETAIL
  6
CONTINOUS
 62
     5
 10
-73.8
 20
81.72
 11
-68.76
 21
81.72
  0
LINE
  8
DETAIL
  6
CONTINOUS
 62
     5
 10
-73.8
 20
81.72
 11
-73.8
 21
86.76
  0
LINE
  8
DETAIL
  6
CONTINOUS
 62
     5
 10
-73.8
 20
80.28
 11
-68.76
 21
80.28
  0
LINE
  8
DETAIL
  6
CONTINOUS
 62
     5
 10
-68.76
 20
75.24
 11
-68.76
 21
80.28
  0
LINE
  8
DETAIL
  6
CONTINOUS
 62
     5
 10
-73.8
 20
75.24
 11
-68.76
 21
75.24
  0
LINE
  8
DETAIL
  6
CONTINOUS
 62
     5
 10
-73.8
 20
75.24
 11
-73.8
 21
80.28
  0
LINE
  8
DETAIL
  6
CONTINOUS
 62
     5
 10
-73.8
 20
73.8
 11
-68.76
 21
73.8
  0
LINE
  8
DETAIL
  6
CONTINOUS
 62
     5
 10
-68.76
 20
68.76
 11
-68.76
 21
73.8
  0
LINE
  8
DETAIL
  6
CONTINOUS
 62
     5
 10
-73.8
 20
68.76
 11
-68.76
 21
68.76
  0
LINE
  8
DETAIL
  6
CONTINOUS
 62
     5
 10
-73.8
 20
68.76
 11
-73.8
 21
73.8
  0
LINE
  8
DETAIL
  6
CONTINOUS
 62
     5
 10
-73.8
 20
67.32
 11
-68.76
 21
67.32
  0
LINE
  8
DETAIL
  6
CONTINOUS
 62
     5
 10
-68.76
 20
62.28
 11
-68.76
 21
67.32
  0
LINE
  8
DETAIL
  6
CONTINOUS
 62
     5
 10
-73.8
 20
62.28
 11
-68.76
 21
62.28
  0
LINE
  8
DETAIL
  6
CONTINOUS
 62
     5
 10
-73.8
 20
62.28
 11
-73.8
 21
67.32
  0
LINE
  8
DETAIL
  6
CONTINOUS
 62
     5
 10
-73.8
 20
60.84
 11
-68.76
 21
60.84
  0
LINE
  8
DETAIL
  6
CONTINOUS
 62
     5
 10
-68.76
 20
55.8
 11
-68.76
 21
60.84
  0
LINE
  8
DETAIL
  6
CONTINOUS
 62
     5
 10
-73.8
 20
55.8
 11
-68.76
 21
55.8
  0
LINE
  8
DETAIL
  6
CONTINOUS
 62
     5
 10
-73.8
 20
55.8
 11
-73.8
 21
60.84
  0
LINE
  8
DETAIL
  6
CONTINOUS
 62
     5
 10
-73.8
 20
54.36
 11
-68.76
 21
54.36
  0
LINE
  8
DETAIL
  6
CONTINOUS
 62
     5
 10
-68.76
 20
49.32
 11
-68.76
 21
54.36
  0
LINE
  8
DETAIL
  6
CONTINOUS
 62
     5
 10
-73.8
 20
49.32
 11
-68.76
 21
49.32
  0
LINE
  8
DETAIL
  6
CONTINOUS
 62
     5
 10
-73.8
 20
49.32
 11
-73.8
 21
54.36
  0
LINE
  8
DETAIL
  6
CONTINOUS
 62
     5
 10
-73.8
 20
47.88
 11
-68.76
 21
47.88
  0
LINE
  8
DETAIL
  6
CONTINOUS
 62
     5
 10
-68.76
 20
42.84
 11
-68.76
 21
47.88
  0
LINE
  8
DETAIL
  6
CONTINOUS
 62
     5
 10
-73.8
 20
42.84
 11
-68.76
 21
42.84
  0
LINE
  8
DETAIL
  6
CONTINOUS
 62
     5
 10
-73.8
 20
42.84
 11
-73.8
 21
47.88
  0
LINE
  8
DETAIL
  6
CONTINOUS
 62
     5
 10
-73.8
 20
41.4
 11
-68.76
 21
41.4
  0
LINE
  8
DETAIL
  6
CONTINOUS
 62
     5
 10
-68.76
 20
36.36
 11
-68.76
 21
41.4
  0
LINE
  8
DETAIL
  6
CONTINOUS
 62
     5
 10
-73.8
 20
36.36
 11
-68.76
 21
36.36
  0
LINE
  8
DETAIL
  6
CONTINOUS
 62
     5
 10
-73.8
 20
36.36
 11
-73.8
 21
41.4
  0
LINE
  8
DETAIL
  6
CONTINOUS
 62
     5
 10
-73.8
 20
34.92
 11
-68.76
 21
34.92
  0
LINE
  8
DETAIL
  6
CONTINOUS
 62
     5
 10
-68.76
 20
29.88
 11
-68.76
 21
34.92
  0
LINE
  8
DETAIL
  6
CONTINOUS
 62
     5
 10
-73.8
 20
29.88
 11
-68.76
 21
29.88
  0
LINE
  8
DETAIL
  6
CONTINOUS
 62
     5
 10
-73.8
 20
29.88
 11
-73.8
 21
34.92
  0
LINE
  8
DETAIL
  6
CONTINOUS
 62
     5
 10
-73.8
 20
28.44
 11
-68.76
 21
28.44
  0
LINE
  8
DETAIL
  6
CONTINOUS
 62
     5
 10
-68.76
 20
23.4
 11
-68.76
 21
28.44
  0
LINE
  8
DETAIL
  6
CONTINOUS
 62
     5
 10
-73.8
 20
23.4
 11
-68.76
 21
23.4
  0
LINE
  8
DETAIL
  6
CONTINOUS
 62
     5
 10
-73.8
 20
23.4
 11
-73.8
 21
28.44
  0
LINE
  8
DETAIL
  6
CONTINOUS
 62
     5
 10
-73.8
 20
21.96
 11
-68.76
 21
21.96
  0
LINE
  8
DETAIL
  6
CONTINOUS
 62
     5
 10
-68.76
 20
16.92
 11
-68.76
 21
21.96
  0
LINE
  8
DETAIL
  6
CONTINOUS
 62
     5
 10
-73.8
 20
16.92
 11
-68.76
 21
16.92
  0
LINE
  8
DETAIL
  6
CONTINOUS
 62
     5
 10
-73.8
 20
16.92
 11
-73.8
 21
21.96
  0
LINE
  8
DETAIL
  6
CONTINOUS
 62
     5
 10
-73.8
 20
15.48
 11
-68.76
 21
15.48
  0
LINE
  8
DETAIL
  6
CONTINOUS
 62
     5
 10
-68.76
 20
10.44
 11
-68.76
 21
15.48
  0
LINE
  8
DETAIL
  6
CONTINOUS
 62
     5
 10
-73.8
 20
10.44
 11
-68.76
 21
10.44
  0
LINE
  8
DETAIL
  6
CONTINOUS
 62
     5
 10
-73.8
 20
10.44
 11
-73.8
 21
15.48
  0
LINE
  8
DETAIL
  6
CONTINOUS
 62
     5
 10
-73.8
 20
9.0
 11
-68.76
 21
9.0
  0
LINE
  8
DETAIL
  6
CONTINOUS
 62
     5
 10
-68.76
 20
3.96
 11
-68.76
 21
9.0
  0
LINE
  8
DETAIL
  6
CONTINOUS
 62
     5
 10
-73.8
 20
3.96
 11
-68.76
 21
3.96
  0
LINE
  8
DETAIL
  6
CONTINOUS
 62
     5
 10
-73.8
 20
3.96
 11
-73.8
 21
9.0
  0
LINE
  8
DETAIL
  6
CONTINOUS
 62
     5
 10
-73.8
 20
2.52
 11
-68.76
 21
2.52
  0
LINE
  8
DETAIL
  6
CONTINOUS
 62
     5
 10
-68.76
 20
-2.52
 11
-68.76
 21
2.52
  0
LINE
  8
DETAIL
  6
CONTINOUS
 62
     5
 10
-73.8
 20
-2.52
 11
-68.76
 21
-2.52
  0
LINE
  8
DETAIL
  6
CONTINOUS
 62
     5
 10
-73.8
 20
-2.52
 11
-73.8
 21
2.52
  0
LINE
  8
DETAIL
  6
CONTINOUS
 62
     5
 10
-73.8
 20
-3.96
 11
-68.76
 21
-3.96
  0
LINE
  8
DETAIL
  6
CONTINOUS
 62
     5
 10
-68.76
 20
-9.0
 11
-68.76
 21
-3.96
  0
LINE
  8
DETAIL
  6
CONTINOUS
 62
     5
 10
-73.8
 20
-9.0
 11
-68.76
 21
-9.0
  0
LINE
  8
DETAIL
  6
CONTINOUS
 62
     5
 10
-73.8
 20
-9.0
 11
-73.8
 21
-3.96
  0
LINE
  8
DETAIL
  6
CONTINOUS
 62
     5
 10
-73.8
 20
-10.44
 11
-68.76
 21
-10.44
  0
LINE
  8
DETAIL
  6
CONTINOUS
 62
     5
 10
-68.76
 20
-15.48
 11
-68.76
 21
-10.44
  0
LINE
  8
DETAIL
  6
CONTINOUS
 62
     5
 10
-73.8
 20
-15.48
 11
-68.76
 21
-15.48
  0
LINE
  8
DETAIL
  6
CONTINOUS
 62
     5
 10
-73.8
 20
-15.48
 11
-73.8
 21
-10.44
  0
LINE
  8
DETAIL
  6
CONTINOUS
 62
     5
 10
-73.8
 20
-16.92
 11
-68.76
 21
-16.92
  0
LINE
  8
DETAIL
  6
CONTINOUS
 62
     5
 10
-68.76
 20
-21.96
 11
-68.76
 21
-16.92
  0
LINE
  8
DETAIL
  6
CONTINOUS
 62
     5
 10
-73.8
 20
-21.96
 11
-68.76
 21
-21.96
  0
LINE
  8
DETAIL
  6
CONTINOUS
 62
     5
 10
-73.8
 20
-21.96
 11
-73.8
 21
-16.92
  0
LINE
  8
DETAIL
  6
CONTINOUS
 62
     5
 10
-73.8
 20
-23.4
 11
-68.76
 21
-23.4
  0
LINE
  8
DETAIL
  6
CONTINOUS
 62
     5
 10
-68.76
 20
-28.44
 11
-68.76
 21
-23.4
  0
LINE
  8
DETAIL
  6
CONTINOUS
 62
     5
 10
-73.8
 20
-28.44
 11
-68.76
 21
-28.44
  0
LINE
  8
DETAIL
  6
CONTINOUS
 62
     5
 10
-73.8
 20
-28.44
 11
-73.8
 21
-23.4
  0
LINE
  8
DETAIL
  6
CONTINOUS
 62
     5
 10
-73.8
 20
-29.88
 11
-68.76
 21
-29.88
  0
LINE
  8
DETAIL
  6
CONTINOUS
 62
     5
 10
-68.76
 20
-34.92
 11
-68.76
 21
-29.88
  0
LINE
  8
DETAIL
  6
CONTINOUS
 62
     5
 10
-73.8
 20
-34.92
 11
-68.76
 21
-34.92
  0
LINE
  8
DETAIL
  6
CONTINOUS
 62
     5
 10
-73.8
 20
-34.92
 11
-73.8
 21
-29.88
  0
LINE
  8
DETAIL
  6
CONTINOUS
 62
     5
 10
-73.8
 20
-36.36
 11
-68.76
 21
-36.36
  0
LINE
  8
DETAIL
  6
CONTINOUS
 62
     5
 10
-68.76
 20
-41.4
 11
-68.76
 21
-36.36
  0
LINE
  8
DETAIL
  6
CONTINOUS
 62
     5
 10
-73.8
 20
-41.4
 11
-68.76
 21
-41.4
  0
LINE
  8
DETAIL
  6
CONTINOUS
 62
     5
 10
-73.8
 20
-41.4
 11
-73.8
 21
-36.36
  0
LINE
  8
DETAIL
  6
CONTINOUS
 62
     5
 10
-73.8
 20
-42.84
 11
-68.76
 21
-42.84
  0
LINE
  8
DETAIL
  6
CONTINOUS
 62
     5
 10
-68.76
 20
-47.88
 11
-68.76
 21
-42.84
  0
LINE
  8
DETAIL
  6
CONTINOUS
 62
     5
 10
-73.8
 20
-47.88
 11
-68.76
 21
-47.88
  0
LINE
  8
DETAIL
  6
CONTINOUS
 62
     5
 10
-73.8
 20
-47.88
 11
-73.8
 21
-42.84
  0
LINE
  8
DETAIL
  6
CONTINOUS
 62
     5
 10
-73.8
 20
-49.32
 11
-68.76
 21
-49.32
  0
LINE
  8
DETAIL
  6
CONTINOUS
 62
     5
 10
-68.76
 20
-54.36
 11
-68.76
 21
-49.32
  0
LINE
  8
DETAIL
  6
CONTINOUS
 62
     5
 10
-73.8
 20
-54.36
 11
-68.76
 21
-54.36
  0
LINE
  8
DETAIL
  6
CONTINOUS
 62
     5
 10
-73.8
 20
-54.36
 11
-73.8
 21
-49.32
  0
LINE
  8
DETAIL
  6
CONTINOUS
 62
     5
 10
-73.8
 20
-55.8
 11
-68.76
 21
-55.8
  0
LINE
  8
DETAIL
  6
CONTINOUS
 62
     5
 10
-68.76
 20
-60.84
 11
-68.76
 21
-55.8
  0
LINE
  8
DETAIL
  6
CONTINOUS
 62
     5
 10
-73.8
 20
-60.84
 11
-68.76
 21
-60.84
  0
LINE
  8
DETAIL
  6
CONTINOUS
 62
     5
 10
-73.8
 20
-60.84
 11
-73.8
 21
-55.8
  0
LINE
  8
DETAIL
  6
CONTINOUS
 62
     5
 10
-73.8
 20
-62.28
 11
-68.76
 21
-62.28
  0
LINE
  8
DETAIL
  6
CONTINOUS
 62
     5
 10
-68.76
 20
-67.32
 11
-68.76
 21
-62.28
  0
LINE
  8
DETAIL
  6
CONTINOUS
 62
     5
 10
-73.8
 20
-67.32
 11
-68.76
 21
-67.32
  0
LINE
  8
DETAIL
  6
CONTINOUS
 62
     5
 10
-73.8
 20
-67.32
 11
-73.8
 21
-62.28
  0
LINE
  8
DETAIL
  6
CONTINOUS
 62
     5
 10
-73.8
 20
-68.76
 11
-68.76
 21
-68.76
  0
LINE
  8
DETAIL
  6
CONTINOUS
 62
     5
 10
-68.76
 20
-73.8
 11
-68.76
 21
-68.76
  0
LINE
  8
DETAIL
  6
CONTINOUS
 62
     5
 10
-73.8
 20
-73.8
 11
-68.76
 21
-73.8
  0
LINE
  8
DETAIL
  6
CONTINOUS
 62
     5
 10
-73.8
 20
-73.8
 11
-73.8
 21
-68.76
  0
LINE
  8
DETAIL
  6
CONTINOUS
 62
     5
 10
-73.8
 20
-75.24
 11
-68.76
 21
-75.24
  0
LINE
  8
DETAIL
  6
CONTINOUS
 62
     5
 10
-68.76
 20
-80.28
 11
-68.76
 21
-75.24
  0
LINE
  8
DETAIL
  6
CONTINOUS
 62
     5
 10
-73.8
 20
-80.28
 11
-68.76
 21
-80.28
  0
LINE
  8
DETAIL
  6
CONTINOUS
 62
     5
 10
-73.8
 20
-80.28
 11
-73.8
 21
-75.24
  0
LINE
  8
DETAIL
  6
CONTINOUS
 62
     5
 10
-73.8
 20
-81.72
 11
-68.76
 21
-81.72
  0
LINE
  8
DETAIL
  6
CONTINOUS
 62
     5
 10
-68.76
 20
-86.76
 11
-68.76
 21
-81.72
  0
LINE
  8
DETAIL
  6
CONTINOUS
 62
     5
 10
-73.8
 20
-86.76
 11
-68.76
 21
-86.76
  0
LINE
  8
DETAIL
  6
CONTINOUS
 62
     5
 10
-73.8
 20
-86.76
 11
-73.8
 21
-81.72
  0
LINE
  8
DETAIL
  6
CONTINOUS
 62
     5
 10
-80.28
 20
86.76
 11
-75.24
 21
86.76
  0
LINE
  8
DETAIL
  6
CONTINOUS
 62
     5
 10
-75.24
 20
81.72
 11
-75.24
 21
86.76
  0
LINE
  8
DETAIL
  6
CONTINOUS
 62
     5
 10
-80.28
 20
81.72
 11
-75.24
 21
81.72
  0
LINE
  8
DETAIL
  6
CONTINOUS
 62
     5
 10
-80.28
 20
81.72
 11
-80.28
 21
86.76
  0
LINE
  8
DETAIL
  6
CONTINOUS
 62
     5
 10
-80.28
 20
80.28
 11
-75.24
 21
80.28
  0
LINE
  8
DETAIL
  6
CONTINOUS
 62
     5
 10
-75.24
 20
75.24
 11
-75.24
 21
80.28
  0
LINE
  8
DETAIL
  6
CONTINOUS
 62
     5
 10
-80.28
 20
75.24
 11
-75.24
 21
75.24
  0
LINE
  8
DETAIL
  6
CONTINOUS
 62
     5
 10
-80.28
 20
75.24
 11
-80.28
 21
80.28
  0
LINE
  8
DETAIL
  6
CONTINOUS
 62
     5
 10
-80.28
 20
73.8
 11
-75.24
 21
73.8
  0
LINE
  8
DETAIL
  6
CONTINOUS
 62
     5
 10
-75.24
 20
68.76
 11
-75.24
 21
73.8
  0
LINE
  8
DETAIL
  6
CONTINOUS
 62
     5
 10
-80.28
 20
68.76
 11
-75.24
 21
68.76
  0
LINE
  8
DETAIL
  6
CONTINOUS
 62
     5
 10
-80.28
 20
68.76
 11
-80.28
 21
73.8
  0
LINE
  8
DETAIL
  6
CONTINOUS
 62
     5
 10
-80.28
 20
67.32
 11
-75.24
 21
67.32
  0
LINE
  8
DETAIL
  6
CONTINOUS
 62
     5
 10
-75.24
 20
62.28
 11
-75.24
 21
67.32
  0
LINE
  8
DETAIL
  6
CONTINOUS
 62
     5
 10
-80.28
 20
62.28
 11
-75.24
 21
62.28
  0
LINE
  8
DETAIL
  6
CONTINOUS
 62
     5
 10
-80.28
 20
62.28
 11
-80.28
 21
67.32
  0
LINE
  8
DETAIL
  6
CONTINOUS
 62
     5
 10
-80.28
 20
60.84
 11
-75.24
 21
60.84
  0
LINE
  8
DETAIL
  6
CONTINOUS
 62
     5
 10
-75.24
 20
55.8
 11
-75.24
 21
60.84
  0
LINE
  8
DETAIL
  6
CONTINOUS
 62
     5
 10
-80.28
 20
55.8
 11
-75.24
 21
55.8
  0
LINE
  8
DETAIL
  6
CONTINOUS
 62
     5
 10
-80.28
 20
55.8
 11
-80.28
 21
60.84
  0
LINE
  8
DETAIL
  6
CONTINOUS
 62
     5
 10
-80.28
 20
54.36
 11
-75.24
 21
54.36
  0
LINE
  8
DETAIL
  6
CONTINOUS
 62
     5
 10
-75.24
 20
49.32
 11
-75.24
 21
54.36
  0
LINE
  8
DETAIL
  6
CONTINOUS
 62
     5
 10
-80.28
 20
49.32
 11
-75.24
 21
49.32
  0
LINE
  8
DETAIL
  6
CONTINOUS
 62
     5
 10
-80.28
 20
49.32
 11
-80.28
 21
54.36
  0
LINE
  8
DETAIL
  6
CONTINOUS
 62
     5
 10
-80.28
 20
47.88
 11
-75.24
 21
47.88
  0
LINE
  8
DETAIL
  6
CONTINOUS
 62
     5
 10
-75.24
 20
42.84
 11
-75.24
 21
47.88
  0
LINE
  8
DETAIL
  6
CONTINOUS
 62
     5
 10
-80.28
 20
42.84
 11
-75.24
 21
42.84
  0
LINE
  8
DETAIL
  6
CONTINOUS
 62
     5
 10
-80.28
 20
42.84
 11
-80.28
 21
47.88
  0
LINE
  8
DETAIL
  6
CONTINOUS
 62
     5
 10
-80.28
 20
41.4
 11
-75.24
 21
41.4
  0
LINE
  8
DETAIL
  6
CONTINOUS
 62
     5
 10
-75.24
 20
36.36
 11
-75.24
 21
41.4
  0
LINE
  8
DETAIL
  6
CONTINOUS
 62
     5
 10
-80.28
 20
36.36
 11
-75.24
 21
36.36
  0
LINE
  8
DETAIL
  6
CONTINOUS
 62
     5
 10
-80.28
 20
36.36
 11
-80.28
 21
41.4
  0
LINE
  8
DETAIL
  6
CONTINOUS
 62
     5
 10
-80.28
 20
34.92
 11
-75.24
 21
34.92
  0
LINE
  8
DETAIL
  6
CONTINOUS
 62
     5
 10
-75.24
 20
29.88
 11
-75.24
 21
34.92
  0
LINE
  8
DETAIL
  6
CONTINOUS
 62
     5
 10
-80.28
 20
29.88
 11
-75.24
 21
29.88
  0
LINE
  8
DETAIL
  6
CONTINOUS
 62
     5
 10
-80.28
 20
29.88
 11
-80.28
 21
34.92
  0
LINE
  8
DETAIL
  6
CONTINOUS
 62
     5
 10
-80.28
 20
28.44
 11
-75.24
 21
28.44
  0
LINE
  8
DETAIL
  6
CONTINOUS
 62
     5
 10
-75.24
 20
23.4
 11
-75.24
 21
28.44
  0
LINE
  8
DETAIL
  6
CONTINOUS
 62
     5
 10
-80.28
 20
23.4
 11
-75.24
 21
23.4
  0
LINE
  8
DETAIL
  6
CONTINOUS
 62
     5
 10
-80.28
 20
23.4
 11
-80.28
 21
28.44
  0
LINE
  8
DETAIL
  6
CONTINOUS
 62
     5
 10
-80.28
 20
21.96
 11
-75.24
 21
21.96
  0
LINE
  8
DETAIL
  6
CONTINOUS
 62
     5
 10
-75.24
 20
16.92
 11
-75.24
 21
21.96
  0
LINE
  8
DETAIL
  6
CONTINOUS
 62
     5
 10
-80.28
 20
16.92
 11
-75.24
 21
16.92
  0
LINE
  8
DETAIL
  6
CONTINOUS
 62
     5
 10
-80.28
 20
16.92
 11
-80.28
 21
21.96
  0
LINE
  8
DETAIL
  6
CONTINOUS
 62
     5
 10
-80.28
 20
15.48
 11
-75.24
 21
15.48
  0
LINE
  8
DETAIL
  6
CONTINOUS
 62
     5
 10
-75.24
 20
10.44
 11
-75.24
 21
15.48
  0
LINE
  8
DETAIL
  6
CONTINOUS
 62
     5
 10
-80.28
 20
10.44
 11
-75.24
 21
10.44
  0
LINE
  8
DETAIL
  6
CONTINOUS
 62
     5
 10
-80.28
 20
10.44
 11
-80.28
 21
15.48
  0
LINE
  8
DETAIL
  6
CONTINOUS
 62
     5
 10
-80.28
 20
9.0
 11
-75.24
 21
9.0
  0
LINE
  8
DETAIL
  6
CONTINOUS
 62
     5
 10
-75.24
 20
3.96
 11
-75.24
 21
9.0
  0
LINE
  8
DETAIL
  6
CONTINOUS
 62
     5
 10
-80.28
 20
3.96
 11
-75.24
 21
3.96
  0
LINE
  8
DETAIL
  6
CONTINOUS
 62
     5
 10
-80.28
 20
3.96
 11
-80.28
 21
9.0
  0
LINE
  8
DETAIL
  6
CONTINOUS
 62
     5
 10
-80.28
 20
2.52
 11
-75.24
 21
2.52
  0
LINE
  8
DETAIL
  6
CONTINOUS
 62
     5
 10
-75.24
 20
-2.52
 11
-75.24
 21
2.52
  0
LINE
  8
DETAIL
  6
CONTINOUS
 62
     5
 10
-80.28
 20
-2.52
 11
-75.24
 21
-2.52
  0
LINE
  8
DETAIL
  6
CONTINOUS
 62
     5
 10
-80.28
 20
-2.52
 11
-80.28
 21
2.52
  0
LINE
  8
DETAIL
  6
CONTINOUS
 62
     5
 10
-80.28
 20
-3.96
 11
-75.24
 21
-3.96
  0
LINE
  8
DETAIL
  6
CONTINOUS
 62
     5
 10
-75.24
 20
-9.0
 11
-75.24
 21
-3.96
  0
LINE
  8
DETAIL
  6
CONTINOUS
 62
     5
 10
-80.28
 20
-9.0
 11
-75.24
 21
-9.0
  0
LINE
  8
DETAIL
  6
CONTINOUS
 62
     5
 10
-80.28
 20
-9.0
 11
-80.28
 21
-3.96
  0
LINE
  8
DETAIL
  6
CONTINOUS
 62
     5
 10
-80.28
 20
-10.44
 11
-75.24
 21
-10.44
  0
LINE
  8
DETAIL
  6
CONTINOUS
 62
     5
 10
-75.24
 20
-15.48
 11
-75.24
 21
-10.44
  0
LINE
  8
DETAIL
  6
CONTINOUS
 62
     5
 10
-80.28
 20
-15.48
 11
-75.24
 21
-15.48
  0
LINE
  8
DETAIL
  6
CONTINOUS
 62
     5
 10
-80.28
 20
-15.48
 11
-80.28
 21
-10.44
  0
LINE
  8
DETAIL
  6
CONTINOUS
 62
     5
 10
-80.28
 20
-16.92
 11
-75.24
 21
-16.92
  0
LINE
  8
DETAIL
  6
CONTINOUS
 62
     5
 10
-75.24
 20
-21.96
 11
-75.24
 21
-16.92
  0
LINE
  8
DETAIL
  6
CONTINOUS
 62
     5
 10
-80.28
 20
-21.96
 11
-75.24
 21
-21.96
  0
LINE
  8
DETAIL
  6
CONTINOUS
 62
     5
 10
-80.28
 20
-21.96
 11
-80.28
 21
-16.92
  0
LINE
  8
DETAIL
  6
CONTINOUS
 62
     5
 10
-80.28
 20
-23.4
 11
-75.24
 21
-23.4
  0
LINE
  8
DETAIL
  6
CONTINOUS
 62
     5
 10
-75.24
 20
-28.44
 11
-75.24
 21
-23.4
  0
LINE
  8
DETAIL
  6
CONTINOUS
 62
     5
 10
-80.28
 20
-28.44
 11
-75.24
 21
-28.44
  0
LINE
  8
DETAIL
  6
CONTINOUS
 62
     5
 10
-80.28
 20
-28.44
 11
-80.28
 21
-23.4
  0
LINE
  8
DETAIL
  6
CONTINOUS
 62
     5
 10
-80.28
 20
-29.88
 11
-75.24
 21
-29.88
  0
LINE
  8
DETAIL
  6
CONTINOUS
 62
     5
 10
-75.24
 20
-34.92
 11
-75.24
 21
-29.88
  0
LINE
  8
DETAIL
  6
CONTINOUS
 62
     5
 10
-80.28
 20
-34.92
 11
-75.24
 21
-34.92
  0
LINE
  8
DETAIL
  6
CONTINOUS
 62
     5
 10
-80.28
 20
-34.92
 11
-80.28
 21
-29.88
  0
LINE
  8
DETAIL
  6
CONTINOUS
 62
     5
 10
-80.28
 20
-36.36
 11
-75.24
 21
-36.36
  0
LINE
  8
DETAIL
  6
CONTINOUS
 62
     5
 10
-75.24
 20
-41.4
 11
-75.24
 21
-36.36
  0
LINE
  8
DETAIL
  6
CONTINOUS
 62
     5
 10
-80.28
 20
-41.4
 11
-75.24
 21
-41.4
  0
LINE
  8
DETAIL
  6
CONTINOUS
 62
     5
 10
-80.28
 20
-41.4
 11
-80.28
 21
-36.36
  0
LINE
  8
DETAIL
  6
CONTINOUS
 62
     5
 10
-80.28
 20
-42.84
 11
-75.24
 21
-42.84
  0
LINE
  8
DETAIL
  6
CONTINOUS
 62
     5
 10
-75.24
 20
-47.88
 11
-75.24
 21
-42.84
  0
LINE
  8
DETAIL
  6
CONTINOUS
 62
     5
 10
-80.28
 20
-47.88
 11
-75.24
 21
-47.88
  0
LINE
  8
DETAIL
  6
CONTINOUS
 62
     5
 10
-80.28
 20
-47.88
 11
-80.28
 21
-42.84
  0
LINE
  8
DETAIL
  6
CONTINOUS
 62
     5
 10
-80.28
 20
-49.32
 11
-75.24
 21
-49.32
  0
LINE
  8
DETAIL
  6
CONTINOUS
 62
     5
 10
-75.24
 20
-54.36
 11
-75.24
 21
-49.32
  0
LINE
  8
DETAIL
  6
CONTINOUS
 62
     5
 10
-80.28
 20
-54.36
 11
-75.24
 21
-54.36
  0
LINE
  8
DETAIL
  6
CONTINOUS
 62
     5
 10
-80.28
 20
-54.36
 11
-80.28
 21
-49.32
  0
LINE
  8
DETAIL
  6
CONTINOUS
 62
     5
 10
-80.28
 20
-55.8
 11
-75.24
 21
-55.8
  0
LINE
  8
DETAIL
  6
CONTINOUS
 62
     5
 10
-75.24
 20
-60.84
 11
-75.24
 21
-55.8
  0
LINE
  8
DETAIL
  6
CONTINOUS
 62
     5
 10
-80.28
 20
-60.84
 11
-75.24
 21
-60.84
  0
LINE
  8
DETAIL
  6
CONTINOUS
 62
     5
 10
-80.28
 20
-60.84
 11
-80.28
 21
-55.8
  0
LINE
  8
DETAIL
  6
CONTINOUS
 62
     5
 10
-80.28
 20
-62.28
 11
-75.24
 21
-62.28
  0
LINE
  8
DETAIL
  6
CONTINOUS
 62
     5
 10
-75.24
 20
-67.32
 11
-75.24
 21
-62.28
  0
LINE
  8
DETAIL
  6
CONTINOUS
 62
     5
 10
-80.28
 20
-67.32
 11
-75.24
 21
-67.32
  0
LINE
  8
DETAIL
  6
CONTINOUS
 62
     5
 10
-80.28
 20
-67.32
 11
-80.28
 21
-62.28
  0
LINE
  8
DETAIL
  6
CONTINOUS
 62
     5
 10
-80.28
 20
-68.76
 11
-75.24
 21
-68.76
  0
LINE
  8
DETAIL
  6
CONTINOUS
 62
     5
 10
-75.24
 20
-73.8
 11
-75.24
 21
-68.76
  0
LINE
  8
DETAIL
  6
CONTINOUS
 62
     5
 10
-80.28
 20
-73.8
 11
-75.24
 21
-73.8
  0
LINE
  8
DETAIL
  6
CONTINOUS
 62
     5
 10
-80.28
 20
-73.8
 11
-80.28
 21
-68.76
  0
LINE
  8
DETAIL
  6
CONTINOUS
 62
     5
 10
-80.28
 20
-75.24
 11
-75.24
 21
-75.24
  0
LINE
  8
DETAIL
  6
CONTINOUS
 62
     5
 10
-75.24
 20
-80.28
 11
-75.24
 21
-75.24
  0
LINE
  8
DETAIL
  6
CONTINOUS
 62
     5
 10
-80.28
 20
-80.28
 11
-75.24
 21
-80.28
  0
LINE
  8
DETAIL
  6
CONTINOUS
 62
     5
 10
-80.28
 20
-80.28
 11
-80.28
 21
-75.24
  0
LINE
  8
DETAIL
  6
CONTINOUS
 62
     5
 10
-80.28
 20
-81.72
 11
-75.24
 21
-81.72
  0
LINE
  8
DETAIL
  6
CONTINOUS
 62
     5
 10
-75.24
 20
-86.76
 11
-75.24
 21
-81.72
  0
LINE
  8
DETAIL
  6
CONTINOUS
 62
     5
 10
-80.28
 20
-86.76
 11
-75.24
 21
-86.76
  0
LINE
  8
DETAIL
  6
CONTINOUS
 62
     5
 10
-80.28
 20
-86.76
 11
-80.28
 21
-81.72
  0
LINE
  8
DETAIL
  6
CONTINOUS
 62
     5
 10
-86.76
 20
81.72
 11
-86.76
 21
86.76
  0
LINE
  8
DETAIL
  6
CONTINOUS
 62
     5
 10
-81.72
 20
81.72
 11
-81.72
 21
86.76
  0
LINE
  8
DETAIL
  6
CONTINOUS
 62
     5
 10
-86.76
 20
86.76
 11
-81.72
 21
86.76
  0
LINE
  8
DETAIL
  6
CONTINOUS
 62
     5
 10
-86.76
 20
75.24
 11
-86.76
 21
80.28
  0
LINE
  8
DETAIL
  6
CONTINOUS
 62
     5
 10
-81.72
 20
75.24
 11
-81.72
 21
80.28
  0
LINE
  8
DETAIL
  6
CONTINOUS
 62
     5
 10
-86.76
 20
68.76
 11
-86.76
 21
73.8
  0
LINE
  8
DETAIL
  6
CONTINOUS
 62
     5
 10
-81.72
 20
68.76
 11
-81.72
 21
73.8
  0
LINE
  8
DETAIL
  6
CONTINOUS
 62
     5
 10
-86.76
 20
62.28
 11
-86.76
 21
67.32
  0
LINE
  8
DETAIL
  6
CONTINOUS
 62
     5
 10
-81.72
 20
62.28
 11
-81.72
 21
67.32
  0
LINE
  8
DETAIL
  6
CONTINOUS
 62
     5
 10
-86.76
 20
55.8
 11
-86.76
 21
60.84
  0
LINE
  8
DETAIL
  6
CONTINOUS
 62
     5
 10
-81.72
 20
55.8
 11
-81.72
 21
60.84
  0
LINE
  8
DETAIL
  6
CONTINOUS
 62
     5
 10
-86.76
 20
49.32
 11
-86.76
 21
54.36
  0
LINE
  8
DETAIL
  6
CONTINOUS
 62
     5
 10
-81.72
 20
49.32
 11
-81.72
 21
54.36
  0
LINE
  8
DETAIL
  6
CONTINOUS
 62
     5
 10
-86.76
 20
42.84
 11
-86.76
 21
47.88
  0
LINE
  8
DETAIL
  6
CONTINOUS
 62
     5
 10
-81.72
 20
42.84
 11
-81.72
 21
47.88
  0
LINE
  8
DETAIL
  6
CONTINOUS
 62
     5
 10
-86.76
 20
36.36
 11
-86.76
 21
41.4
  0
LINE
  8
DETAIL
  6
CONTINOUS
 62
     5
 10
-81.72
 20
36.36
 11
-81.72
 21
41.4
  0
LINE
  8
DETAIL
  6
CONTINOUS
 62
     5
 10
-86.76
 20
29.88
 11
-86.76
 21
34.92
  0
LINE
  8
DETAIL
  6
CONTINOUS
 62
     5
 10
-81.72
 20
29.88
 11
-81.72
 21
34.92
  0
LINE
  8
DETAIL
  6
CONTINOUS
 62
     5
 10
-86.76
 20
23.4
 11
-86.76
 21
28.44
  0
LINE
  8
DETAIL
  6
CONTINOUS
 62
     5
 10
-81.72
 20
23.4
 11
-81.72
 21
28.44
  0
LINE
  8
DETAIL
  6
CONTINOUS
 62
     5
 10
-86.76
 20
16.92
 11
-86.76
 21
21.96
  0
LINE
  8
DETAIL
  6
CONTINOUS
 62
     5
 10
-81.72
 20
16.92
 11
-81.72
 21
21.96
  0
LINE
  8
DETAIL
  6
CONTINOUS
 62
     5
 10
-86.76
 20
10.44
 11
-86.76
 21
15.48
  0
LINE
  8
DETAIL
  6
CONTINOUS
 62
     5
 10
-81.72
 20
10.44
 11
-81.72
 21
15.48
  0
LINE
  8
DETAIL
  6
CONTINOUS
 62
     5
 10
-86.76
 20
3.96
 11
-86.76
 21
9.0
  0
LINE
  8
DETAIL
  6
CONTINOUS
 62
     5
 10
-81.72
 20
3.96
 11
-81.72
 21
9.0
  0
LINE
  8
DETAIL
  6
CONTINOUS
 62
     5
 10
-86.76
 20
-2.52
 11
-86.76
 21
2.52
  0
LINE
  8
DETAIL
  6
CONTINOUS
 62
     5
 10
-86.76
 20
-2.52
 11
-81.72
 21
-2.52
  0
LINE
  8
DETAIL
  6
CONTINOUS
 62
     5
 10
-81.72
 20
-2.52
 11
-81.72
 21
2.52
  0
LINE
  8
DETAIL
  6
CONTINOUS
 62
     5
 10
-86.76
 20
-9.0
 11
-86.76
 21
-3.96
  0
LINE
  8
DETAIL
  6
CONTINOUS
 62
     5
 10
-86.76
 20
-9.0
 11
-81.72
 21
-9.0
  0
LINE
  8
DETAIL
  6
CONTINOUS
 62
     5
 10
-81.72
 20
-9.0
 11
-81.72
 21
-3.96
  0
LINE
  8
DETAIL
  6
CONTINOUS
 62
     5
 10
-86.76
 20
-3.96
 11
-81.72
 21
-3.96
  0
LINE
  8
DETAIL
  6
CONTINOUS
 62
     5
 10
-86.76
 20
-15.48
 11
-86.76
 21
-10.44
  0
LINE
  8
DETAIL
  6
CONTINOUS
 62
     5
 10
-86.76
 20
-15.48
 11
-81.72
 21
-15.48
  0
LINE
  8
DETAIL
  6
CONTINOUS
 62
     5
 10
-81.72
 20
-15.48
 11
-81.72
 21
-10.44
  0
LINE
  8
DETAIL
  6
CONTINOUS
 62
     5
 10
-86.76
 20
-10.44
 11
-81.72
 21
-10.44
  0
LINE
  8
DETAIL
  6
CONTINOUS
 62
     5
 10
-86.76
 20
-21.96
 11
-86.76
 21
-16.92
  0
LINE
  8
DETAIL
  6
CONTINOUS
 62
     5
 10
-86.76
 20
-21.96
 11
-81.72
 21
-21.96
  0
LINE
  8
DETAIL
  6
CONTINOUS
 62
     5
 10
-81.72
 20
-21.96
 11
-81.72
 21
-16.92
  0
LINE
  8
DETAIL
  6
CONTINOUS
 62
     5
 10
-86.76
 20
-16.92
 11
-81.72
 21
-16.92
  0
LINE
  8
DETAIL
  6
CONTINOUS
 62
     5
 10
-86.76
 20
-28.44
 11
-86.76
 21
-23.4
  0
LINE
  8
DETAIL
  6
CONTINOUS
 62
     5
 10
-86.76
 20
-28.44
 11
-81.72
 21
-28.44
  0
LINE
  8
DETAIL
  6
CONTINOUS
 62
     5
 10
-81.72
 20
-28.44
 11
-81.72
 21
-23.4
  0
LINE
  8
DETAIL
  6
CONTINOUS
 62
     5
 10
-86.76
 20
-23.4
 11
-81.72
 21
-23.4
  0
LINE
  8
DETAIL
  6
CONTINOUS
 62
     5
 10
-86.76
 20
-34.92
 11
-86.76
 21
-29.88
  0
LINE
  8
DETAIL
  6
CONTINOUS
 62
     5
 10
-86.76
 20
-34.92
 11
-81.72
 21
-34.92
  0
LINE
  8
DETAIL
  6
CONTINOUS
 62
     5
 10
-81.72
 20
-34.92
 11
-81.72
 21
-29.88
  0
LINE
  8
DETAIL
  6
CONTINOUS
 62
     5
 10
-86.76
 20
-29.88
 11
-81.72
 21
-29.88
  0
LINE
  8
DETAIL
  6
CONTINOUS
 62
     5
 10
-86.76
 20
-41.4
 11
-86.76
 21
-36.36
  0
LINE
  8
DETAIL
  6
CONTINOUS
 62
     5
 10
-86.76
 20
-41.4
 11
-81.72
 21
-41.4
  0
LINE
  8
DETAIL
  6
CONTINOUS
 62
     5
 10
-81.72
 20
-41.4
 11
-81.72
 21
-36.36
  0
LINE
  8
DETAIL
  6
CONTINOUS
 62
     5
 10
-86.76
 20
-36.36
 11
-81.72
 21
-36.36
  0
LINE
  8
DETAIL
  6
CONTINOUS
 62
     5
 10
-86.76
 20
-47.88
 11
-86.76
 21
-42.84
  0
LINE
  8
DETAIL
  6
CONTINOUS
 62
     5
 10
-86.76
 20
-47.88
 11
-81.72
 21
-47.88
  0
LINE
  8
DETAIL
  6
CONTINOUS
 62
     5
 10
-81.72
 20
-47.88
 11
-81.72
 21
-42.84
  0
LINE
  8
DETAIL
  6
CONTINOUS
 62
     5
 10
-86.76
 20
-42.84
 11
-81.72
 21
-42.84
  0
LINE
  8
DETAIL
  6
CONTINOUS
 62
     5
 10
-86.76
 20
-54.36
 11
-86.76
 21
-49.32
  0
LINE
  8
DETAIL
  6
CONTINOUS
 62
     5
 10
-86.76
 20
-54.36
 11
-81.72
 21
-54.36
  0
LINE
  8
DETAIL
  6
CONTINOUS
 62
     5
 10
-81.72
 20
-54.36
 11
-81.72
 21
-49.32
  0
LINE
  8
DETAIL
  6
CONTINOUS
 62
     5
 10
-86.76
 20
-49.32
 11
-81.72
 21
-49.32
  0
LINE
  8
DETAIL
  6
CONTINOUS
 62
     5
 10
-86.76
 20
-60.84
 11
-86.76
 21
-55.8
  0
LINE
  8
DETAIL
  6
CONTINOUS
 62
     5
 10
-86.76
 20
-60.84
 11
-81.72
 21
-60.84
  0
LINE
  8
DETAIL
  6
CONTINOUS
 62
     5
 10
-81.72
 20
-60.84
 11
-81.72
 21
-55.8
  0
LINE
  8
DETAIL
  6
CONTINOUS
 62
     5
 10
-86.76
 20
-55.8
 11
-81.72
 21
-55.8
  0
LINE
  8
DETAIL
  6
CONTINOUS
 62
     5
 10
-86.76
 20
-67.32
 11
-86.76
 21
-62.28
  0
LINE
  8
DETAIL
  6
CONTINOUS
 62
     5
 10
-86.76
 20
-67.32
 11
-81.72
 21
-67.32
  0
LINE
  8
DETAIL
  6
CONTINOUS
 62
     5
 10
-81.72
 20
-67.32
 11
-81.72
 21
-62.28
  0
LINE
  8
DETAIL
  6
CONTINOUS
 62
     5
 10
-86.76
 20
-62.28
 11
-81.72
 21
-62.28
  0
LINE
  8
DETAIL
  6
CONTINOUS
 62
     5
 10
-86.76
 20
-73.8
 11
-86.76
 21
-68.76
  0
LINE
  8
DETAIL
  6
CONTINOUS
 62
     5
 10
-86.76
 20
-73.8
 11
-81.72
 21
-73.8
  0
LINE
  8
DETAIL
  6
CONTINOUS
 62
     5
 10
-81.72
 20
-73.8
 11
-81.72
 21
-68.76
  0
LINE
  8
DETAIL
  6
CONTINOUS
 62
     5
 10
-86.76
 20
-68.76
 11
-81.72
 21
-68.76
  0
LINE
  8
DETAIL
  6
CONTINOUS
 62
     5
 10
-86.76
 20
-80.28
 11
-86.76
 21
-75.24
  0
LINE
  8
DETAIL
  6
CONTINOUS
 62
     5
 10
-86.76
 20
-80.28
 11
-81.72
 21
-80.28
  0
LINE
  8
DETAIL
  6
CONTINOUS
 62
     5
 10
-81.72
 20
-80.28
 11
-81.72
 21
-75.24
  0
LINE
  8
DETAIL
  6
CONTINOUS
 62
     5
 10
-86.76
 20
-75.24
 11
-81.72
 21
-75.24
  0
LINE
  8
DETAIL
  6
CONTINOUS
 62
     5
 10
-125.0
 20
-113.0
 11
-125.0
 21
113.0
  0
LINE
  8
DETAIL
  6
CONTINOUS
 62
     5
 10
-89.28
 20
-89.28
 11
-89.28
 21
89.28
  0
LINE
  8
DETAIL
  6
CONTINOUS
 62
     5
 10
-88.2
 20
-89.28
 11
-88.2
 21
89.28
  0
LINE
  8
DETAIL
  6
CONTINOUS
 62
     5
 10
-88.2
 20
-125.0
 11
-88.2
 21
-89.28
  0
LINE
  8
DETAIL
  6
CONTINOUS
 62
     5
 10
-89.28
 20
-125.0
 11
-89.28
 21
-89.28
  0
LINE
  8
DETAIL
  6
CONTINOUS
 62
     5
 10
-125.0
 20
-88.2
 11
-89.28
 21
-88.2
  0
LINE
  8
DETAIL
  6
CONTINOUS
 62
     5
 10
-125.0
 20
-89.28
 11
-89.28
 21
-89.28
  0
LINE
  8
DETAIL
  6
CONTINOUS
 62
     5
 10
-86.76
 20
-86.76
 11
-86.76
 21
-81.72
  0
LINE
  8
DETAIL
  6
CONTINOUS
 62
     5
 10
-86.76
 20
-86.76
 11
-81.72
 21
-86.76
  0
LINE
  8
DETAIL
  6
CONTINOUS
 62
     5
 10
-86.76
 20
-81.72
 11
-81.72
 21
-81.72
  0
LINE
  8
DETAIL
  6
CONTINOUS
 62
     5
 10
-81.72
 20
-86.76
 11
-81.72
 21
-81.72
  0
LINE
  8
DETAIL
  6
CONTINOUS
 62
     5
 10
-89.28
 20
89.28
 11
-125.0
 21
89.28
  0
LINE
  8
DETAIL
  6
CONTINOUS
 62
     5
 10
-89.28
 20
88.2
 11
-125.0
 21
88.2
  0
LINE
  8
DETAIL
  6
CONTINOUS
 62
     5
 10
-88.2
 20
89.28
 11
-88.2
 21
125.0
  0
LINE
  8
DETAIL
  6
CONTINOUS
 62
     5
 10
-89.28
 20
89.28
 11
-89.28
 21
125.0
  0
LINE
  8
DETAIL
  6
CONTINOUS
 62
     5
 10
-88.2
 20
88.2
 11
-0.0
 21
88.2
  0
LINE
  8
DETAIL
  6
CONTINOUS
 62
     5
 10
-89.28
 20
89.28
 11
-0.0
 21
89.28
  0
LINE
  8
DETAIL
  6
CONTINOUS
 62
     5
 10
-114.0
 20
125.0
 11
113.0
 21
125.0
  0
LINE
  8
DETAIL
  6
CONTINOUS
 62
     5
 10
-89.28
 20
-88.2
 11
-0.0
 21
-88.2
  0
LINE
  8
DETAIL
  6
CONTINOUS
 62
     5
 10
-88.2
 20
-89.28
 11
-0.0
 21
-89.28
  0
LINE
  8
DETAIL
  6
CONTINOUS
 62
     5
 10
-2.52
 20
-86.76
 11
-0.0
 21
-86.76
  0
LINE
  8
DETAIL
  6
CONTINOUS
 62
     5
 10
-2.52
 20
-81.72
 11
-0.0
 21
-81.72
  0
LINE
  8
DETAIL
  6
CONTINOUS
 62
     5
 10
-2.52
 20
-80.28
 11
-0.0
 21
-80.28
  0
LINE
  8
DETAIL
  6
CONTINOUS
 62
     5
 10
-2.52
 20
-75.24
 11
-0.0
 21
-75.24
  0
LINE
  8
DETAIL
  6
CONTINOUS
 62
     5
 10
-2.52
 20
-73.8
 11
-0.0
 21
-73.8
  0
LINE
  8
DETAIL
  6
CONTINOUS
 62
     5
 10
-2.52
 20
-68.76
 11
-0.0
 21
-68.76
  0
LINE
  8
DETAIL
  6
CONTINOUS
 62
     5
 10
-2.52
 20
-67.32
 11
-0.0
 21
-67.32
  0
LINE
  8
DETAIL
  6
CONTINOUS
 62
     5
 10
-2.52
 20
-62.28
 11
-0.0
 21
-62.28
  0
LINE
  8
DETAIL
  6
CONTINOUS
 62
     5
 10
-2.52
 20
-60.84
 11
-0.0
 21
-60.84
  0
LINE
  8
DETAIL
  6
CONTINOUS
 62
     5
 10
-2.52
 20
-55.8
 11
-0.0
 21
-55.8
  0
LINE
  8
DETAIL
  6
CONTINOUS
 62
     5
 10
-2.52
 20
-54.36
 11
-0.0
 21
-54.36
  0
LINE
  8
DETAIL
  6
CONTINOUS
 62
     5
 10
-2.52
 20
-49.32
 11
-0.0
 21
-49.32
  0
LINE
  8
DETAIL
  6
CONTINOUS
 62
     5
 10
-2.52
 20
-47.88
 11
-0.0
 21
-47.88
  0
LINE
  8
DETAIL
  6
CONTINOUS
 62
     5
 10
-2.52
 20
-42.84
 11
-0.0
 21
-42.84
  0
LINE
  8
DETAIL
  6
CONTINOUS
 62
     5
 10
-2.52
 20
-41.4
 11
-0.0
 21
-41.4
  0
LINE
  8
DETAIL
  6
CONTINOUS
 62
     5
 10
-2.52
 20
-36.36
 11
-0.0
 21
-36.36
  0
LINE
  8
DETAIL
  6
CONTINOUS
 62
     5
 10
-2.52
 20
-34.92
 11
-0.0
 21
-34.92
  0
LINE
  8
DETAIL
  6
CONTINOUS
 62
     5
 10
-2.52
 20
-29.88
 11
-0.0
 21
-29.88
  0
LINE
  8
DETAIL
  6
CONTINOUS
 62
     5
 10
-2.52
 20
-28.44
 11
-0.0
 21
-28.44
  0
LINE
  8
DETAIL
  6
CONTINOUS
 62
     5
 10
-2.52
 20
-23.4
 11
-0.0
 21
-23.4
  0
LINE
  8
DETAIL
  6
CONTINOUS
 62
     5
 10
-2.52
 20
-21.96
 11
-0.0
 21
-21.96
  0
LINE
  8
DETAIL
  6
CONTINOUS
 62
     5
 10
-2.52
 20
-16.92
 11
-0.0
 21
-16.92
  0
LINE
  8
DETAIL
  6
CONTINOUS
 62
     5
 10
-2.52
 20
-15.48
 11
-0.0
 21
-15.48
  0
LINE
  8
DETAIL
  6
CONTINOUS
 62
     5
 10
-2.52
 20
-10.44
 11
-0.0
 21
-10.44
  0
LINE
  8
DETAIL
  6
CONTINOUS
 62
     5
 10
-2.52
 20
-9.0
 11
-0.0
 21
-9.0
  0
LINE
  8
DETAIL
  6
CONTINOUS
 62
     5
 10
-2.52
 20
-3.96
 11
-0.0
 21
-3.96
  0
LINE
  8
DETAIL
  6
CONTINOUS
 62
     5
 10
-2.52
 20
-2.52
 11
-0.0
 21
-2.52
  0
LINE
  8
DETAIL
  6
CONTINOUS
 62
     5
 10
-2.52
 20
2.52
 11
-0.0
 21
2.52
  0
LINE
  8
DETAIL
  6
CONTINOUS
 62
     5
 10
-2.52
 20
3.96
 11
-0.0
 21
3.96
  0
LINE
  8
DETAIL
  6
CONTINOUS
 62
     5
 10
-2.52
 20
9.0
 11
-0.0
 21
9.0
  0
LINE
  8
DETAIL
  6
CONTINOUS
 62
     5
 10
-2.52
 20
10.44
 11
-0.0
 21
10.44
  0
LINE
  8
DETAIL
  6
CONTINOUS
 62
     5
 10
-2.52
 20
15.48
 11
-0.0
 21
15.48
  0
LINE
  8
DETAIL
  6
CONTINOUS
 62
     5
 10
-2.52
 20
16.92
 11
-0.0
 21
16.92
  0
LINE
  8
DETAIL
  6
CONTINOUS
 62
     5
 10
-2.52
 20
21.96
 11
-0.0
 21
21.96
  0
LINE
  8
DETAIL
  6
CONTINOUS
 62
     5
 10
-2.52
 20
23.4
 11
-0.0
 21
23.4
  0
LINE
  8
DETAIL
  6
CONTINOUS
 62
     5
 10
-2.52
 20
28.44
 11
-0.0
 21
28.44
  0
LINE
  8
DETAIL
  6
CONTINOUS
 62
     5
 10
-2.52
 20
29.88
 11
-0.0
 21
29.88
  0
LINE
  8
DETAIL
  6
CONTINOUS
 62
     5
 10
-2.52
 20
34.92
 11
-0.0
 21
34.92
  0
LINE
  8
DETAIL
  6
CONTINOUS
 62
     5
 10
-2.52
 20
36.36
 11
-0.0
 21
36.36
  0
LINE
  8
DETAIL
  6
CONTINOUS
 62
     5
 10
-2.52
 20
41.4
 11
-0.0
 21
41.4
  0
LINE
  8
DETAIL
  6
CONTINOUS
 62
     5
 10
-2.52
 20
42.84
 11
-0.0
 21
42.84
  0
LINE
  8
DETAIL
  6
CONTINOUS
 62
     5
 10
-2.52
 20
47.88
 11
-0.0
 21
47.88
  0
LINE
  8
DETAIL
  6
CONTINOUS
 62
     5
 10
-2.52
 20
49.32
 11
-0.0
 21
49.32
  0
LINE
  8
DETAIL
  6
CONTINOUS
 62
     5
 10
-2.52
 20
54.36
 11
-0.0
 21
54.36
  0
LINE
  8
DETAIL
  6
CONTINOUS
 62
     5
 10
-2.52
 20
55.8
 11
-0.0
 21
55.8
  0
LINE
  8
DETAIL
  6
CONTINOUS
 62
     5
 10
-2.52
 20
60.84
 11
-0.0
 21
60.84
  0
LINE
  8
DETAIL
  6
CONTINOUS
 62
     5
 10
-2.52
 20
62.28
 11
-0.0
 21
62.28
  0
LINE
  8
DETAIL
  6
CONTINOUS
 62
     5
 10
-2.52
 20
67.32
 11
-0.0
 21
67.32
  0
LINE
  8
DETAIL
  6
CONTINOUS
 62
     5
 10
-2.52
 20
68.76
 11
-0.0
 21
68.76
  0
LINE
  8
DETAIL
  6
CONTINOUS
 62
     5
 10
-2.52
 20
73.8
 11
-0.0
 21
73.8
  0
LINE
  8
DETAIL
  6
CONTINOUS
 62
     5
 10
-2.52
 20
75.24
 11
-0.0
 21
75.24
  0
LINE
  8
DETAIL
  6
CONTINOUS
 62
     5
 10
-2.52
 20
80.28
 11
-0.0
 21
80.28
  0
LINE
  8
DETAIL
  6
CONTINOUS
 62
     5
 10
-2.52
 20
81.72
 11
-0.0
 21
81.72
  0
LINE
  8
DETAIL
  6
CONTINOUS
 62
     5
 10
-2.52
 20
86.76
 11
-0.0
 21
86.76
  0
LINE
  8
DETAIL
  6
CONTINOUS
 62
     5
 10
88.2
 20
88.2
 11
-0.0
 21
88.2
  0
LINE
  8
DETAIL
  6
CONTINOUS
 62
     5
 10
88.2
 20
88.2
 11
125.0
 21
88.2
  0
LINE
  8
DETAIL
  6
CONTINOUS
 62
     5
 10
89.28
 20
89.28
 11
125.0
 21
89.28
  0
LINE
  8
DETAIL
  6
CONTINOUS
 62
     5
 10
81.72
 20
-86.76
 11
81.72
 21
-81.72
  0
LINE
  8
DETAIL
  6
CONTINOUS
 62
     5
 10
86.76
 20
-81.72
 11
81.72
 21
-81.72
  0
LINE
  8
DETAIL
  6
CONTINOUS
 62
     5
 10
86.76
 20
-86.76
 11
81.72
 21
-86.76
  0
LINE
  8
DETAIL
  6
CONTINOUS
 62
     5
 10
86.76
 20
-86.76
 11
86.76
 21
-81.72
  0
LINE
  8
DETAIL
  6
CONTINOUS
 62
     5
 10
125.0
 20
-89.28
 11
89.28
 21
-89.28
  0
LINE
  8
DETAIL
  6
CONTINOUS
 62
     5
 10
125.0
 20
-88.2
 11
88.2
 21
-88.2
  0
LINE
  8
DETAIL
  6
CONTINOUS
 62
     5
 10
89.28
 20
-125.0
 11
89.28
 21
-89.28
  0
LINE
  8
DETAIL
  6
CONTINOUS
 62
     5
 10
88.2
 20
-125.0
 11
88.2
 21
-89.28
  0
LINE
  8
DETAIL
  6
CONTINOUS
 62
     5
 10
88.2
 20
89.28
 11
-0.0
 21
89.28
  0
LINE
  8
DETAIL
  6
CONTINOUS
 62
     5
 10
88.2
 20
-88.2
 11
-0.0
 21
-88.2
  0
LINE
  8
DETAIL
  6
CONTINOUS
 62
     5
 10
88.2
 20
-89.28
 11
88.2
 21
125.0
  0
LINE
  8
DETAIL
  6
CONTINOUS
 62
     5
 10
89.28
 20
-89.28
 11
89.28
 21
125.0
  0
LINE
  8
DETAIL
  6
CONTINOUS
 62
     5
 10
88.2
 20
-89.28
 11
-0.0
 21
-89.28
  0
LINE
  8
DETAIL
  6
CONTINOUS
 62
     5
 10
125.0
 20
-113.0
 11
125.0
 21
113.0
  0
LINE
  8
DETAIL
  6
CONTINOUS
 62
     5
 10
114.0
 20
-125.0
 11
-113.0
 21
-125.0
  0
LINE
  8
DETAIL
  6
CONTINOUS
 62
     5
 10
86.76
 20
-75.24
 11
81.72
 21
-75.24
  0
LINE
  8
DETAIL
  6
CONTINOUS
 62
     5
 10
81.72
 20
-80.28
 11
81.72
 21
-75.24
  0
LINE
  8
DETAIL
  6
CONTINOUS
 62
     5
 10
86.76
 20
-80.28
 11
81.72
 21
-80.28
  0
LINE
  8
DETAIL
  6
CONTINOUS
 62
     5
 10
86.76
 20
-80.28
 11
86.76
 21
-75.24
  0
LINE
  8
DETAIL
  6
CONTINOUS
 62
     5
 10
86.76
 20
-68.76
 11
81.72
 21
-68.76
  0
LINE
  8
DETAIL
  6
CONTINOUS
 62
     5
 10
81.72
 20
-73.8
 11
81.72
 21
-68.76
  0
LINE
  8
DETAIL
  6
CONTINOUS
 62
     5
 10
86.76
 20
-73.8
 11
81.72
 21
-73.8
  0
LINE
  8
DETAIL
  6
CONTINOUS
 62
     5
 10
86.76
 20
-73.8
 11
86.76
 21
-68.76
  0
LINE
  8
DETAIL
  6
CONTINOUS
 62
     5
 10
86.76
 20
-62.28
 11
81.72
 21
-62.28
  0
LINE
  8
DETAIL
  6
CONTINOUS
 62
     5
 10
81.72
 20
-67.32
 11
81.72
 21
-62.28
  0
LINE
  8
DETAIL
  6
CONTINOUS
 62
     5
 10
86.76
 20
-67.32
 11
81.72
 21
-67.32
  0
LINE
  8
DETAIL
  6
CONTINOUS
 62
     5
 10
86.76
 20
-67.32
 11
86.76
 21
-62.28
  0
LINE
  8
DETAIL
  6
CONTINOUS
 62
     5
 10
86.76
 20
-55.8
 11
81.72
 21
-55.8
  0
LINE
  8
DETAIL
  6
CONTINOUS
 62
     5
 10
81.72
 20
-60.84
 11
81.72
 21
-55.8
  0
LINE
  8
DETAIL
  6
CONTINOUS
 62
     5
 10
86.76
 20
-60.84
 11
81.72
 21
-60.84
  0
LINE
  8
DETAIL
  6
CONTINOUS
 62
     5
 10
86.76
 20
-60.84
 11
86.76
 21
-55.8
  0
LINE
  8
DETAIL
  6
CONTINOUS
 62
     5
 10
86.76
 20
-49.32
 11
81.72
 21
-49.32
  0
LINE
  8
DETAIL
  6
CONTINOUS
 62
     5
 10
81.72
 20
-54.36
 11
81.72
 21
-49.32
  0
LINE
  8
DETAIL
  6
CONTINOUS
 62
     5
 10
86.76
 20
-54.36
 11
81.72
 21
-54.36
  0
LINE
  8
DETAIL
  6
CONTINOUS
 62
     5
 10
86.76
 20
-54.36
 11
86.76
 21
-49.32
  0
LINE
  8
DETAIL
  6
CONTINOUS
 62
     5
 10
86.76
 20
-42.84
 11
81.72
 21
-42.84
  0
LINE
  8
DETAIL
  6
CONTINOUS
 62
     5
 10
81.72
 20
-47.88
 11
81.72
 21
-42.84
  0
LINE
  8
DETAIL
  6
CONTINOUS
 62
     5
 10
86.76
 20
-47.88
 11
81.72
 21
-47.88
  0
LINE
  8
DETAIL
  6
CONTINOUS
 62
     5
 10
86.76
 20
-47.88
 11
86.76
 21
-42.84
  0
LINE
  8
DETAIL
  6
CONTINOUS
 62
     5
 10
86.76
 20
-36.36
 11
81.72
 21
-36.36
  0
LINE
  8
DETAIL
  6
CONTINOUS
 62
     5
 10
81.72
 20
-41.4
 11
81.72
 21
-36.36
  0
LINE
  8
DETAIL
  6
CONTINOUS
 62
     5
 10
86.76
 20
-41.4
 11
81.72
 21
-41.4
  0
LINE
  8
DETAIL
  6
CONTINOUS
 62
     5
 10
86.76
 20
-41.4
 11
86.76
 21
-36.36
  0
LINE
  8
DETAIL
  6
CONTINOUS
 62
     5
 10
86.76
 20
-29.88
 11
81.72
 21
-29.88
  0
LINE
  8
DETAIL
  6
CONTINOUS
 62
     5
 10
81.72
 20
-34.92
 11
81.72
 21
-29.88
  0
LINE
  8
DETAIL
  6
CONTINOUS
 62
     5
 10
86.76
 20
-34.92
 11
81.72
 21
-34.92
  0
LINE
  8
DETAIL
  6
CONTINOUS
 62
     5
 10
86.76
 20
-34.92
 11
86.76
 21
-29.88
  0
LINE
  8
DETAIL
  6
CONTINOUS
 62
     5
 10
86.76
 20
-23.4
 11
81.72
 21
-23.4
  0
LINE
  8
DETAIL
  6
CONTINOUS
 62
     5
 10
81.72
 20
-28.44
 11
81.72
 21
-23.4
  0
LINE
  8
DETAIL
  6
CONTINOUS
 62
     5
 10
86.76
 20
-28.44
 11
81.72
 21
-28.44
  0
LINE
  8
DETAIL
  6
CONTINOUS
 62
     5
 10
86.76
 20
-28.44
 11
86.76
 21
-23.4
  0
LINE
  8
DETAIL
  6
CONTINOUS
 62
     5
 10
86.76
 20
-16.92
 11
81.72
 21
-16.92
  0
LINE
  8
DETAIL
  6
CONTINOUS
 62
     5
 10
81.72
 20
-21.96
 11
81.72
 21
-16.92
  0
LINE
  8
DETAIL
  6
CONTINOUS
 62
     5
 10
86.76
 20
-21.96
 11
81.72
 21
-21.96
  0
LINE
  8
DETAIL
  6
CONTINOUS
 62
     5
 10
86.76
 20
-21.96
 11
86.76
 21
-16.92
  0
LINE
  8
DETAIL
  6
CONTINOUS
 62
     5
 10
86.76
 20
-10.44
 11
81.72
 21
-10.44
  0
LINE
  8
DETAIL
  6
CONTINOUS
 62
     5
 10
81.72
 20
-15.48
 11
81.72
 21
-10.44
  0
LINE
  8
DETAIL
  6
CONTINOUS
 62
     5
 10
86.76
 20
-15.48
 11
81.72
 21
-15.48
  0
LINE
  8
DETAIL
  6
CONTINOUS
 62
     5
 10
86.76
 20
-15.48
 11
86.76
 21
-10.44
  0
LINE
  8
DETAIL
  6
CONTINOUS
 62
     5
 10
86.76
 20
-3.96
 11
81.72
 21
-3.96
  0
LINE
  8
DETAIL
  6
CONTINOUS
 62
     5
 10
81.72
 20
-9.0
 11
81.72
 21
-3.96
  0
LINE
  8
DETAIL
  6
CONTINOUS
 62
     5
 10
86.76
 20
-9.0
 11
81.72
 21
-9.0
  0
LINE
  8
DETAIL
  6
CONTINOUS
 62
     5
 10
86.76
 20
-9.0
 11
86.76
 21
-3.96
  0
LINE
  8
DETAIL
  6
CONTINOUS
 62
     5
 10
81.72
 20
-2.52
 11
81.72
 21
2.52
  0
LINE
  8
DETAIL
  6
CONTINOUS
 62
     5
 10
86.76
 20
-2.52
 11
81.72
 21
-2.52
  0
LINE
  8
DETAIL
  6
CONTINOUS
 62
     5
 10
86.76
 20
-2.52
 11
86.76
 21
2.52
  0
LINE
  8
DETAIL
  6
CONTINOUS
 62
     5
 10
81.72
 20
3.96
 11
81.72
 21
9.0
  0
LINE
  8
DETAIL
  6
CONTINOUS
 62
     5
 10
86.76
 20
3.96
 11
86.76
 21
9.0
  0
LINE
  8
DETAIL
  6
CONTINOUS
 62
     5
 10
81.72
 20
10.44
 11
81.72
 21
15.48
  0
LINE
  8
DETAIL
  6
CONTINOUS
 62
     5
 10
86.76
 20
10.44
 11
86.76
 21
15.48
  0
LINE
  8
DETAIL
  6
CONTINOUS
 62
     5
 10
81.72
 20
16.92
 11
81.72
 21
21.96
  0
LINE
  8
DETAIL
  6
CONTINOUS
 62
     5
 10
86.76
 20
16.92
 11
86.76
 21
21.96
  0
LINE
  8
DETAIL
  6
CONTINOUS
 62
     5
 10
81.72
 20
23.4
 11
81.72
 21
28.44
  0
LINE
  8
DETAIL
  6
CONTINOUS
 62
     5
 10
86.76
 20
23.4
 11
86.76
 21
28.44
  0
LINE
  8
DETAIL
  6
CONTINOUS
 62
     5
 10
81.72
 20
29.88
 11
81.72
 21
34.92
  0
LINE
  8
DETAIL
  6
CONTINOUS
 62
     5
 10
86.76
 20
29.88
 11
86.76
 21
34.92
  0
LINE
  8
DETAIL
  6
CONTINOUS
 62
     5
 10
81.72
 20
36.36
 11
81.72
 21
41.4
  0
LINE
  8
DETAIL
  6
CONTINOUS
 62
     5
 10
86.76
 20
36.36
 11
86.76
 21
41.4
  0
LINE
  8
DETAIL
  6
CONTINOUS
 62
     5
 10
81.72
 20
42.84
 11
81.72
 21
47.88
  0
LINE
  8
DETAIL
  6
CONTINOUS
 62
     5
 10
86.76
 20
42.84
 11
86.76
 21
47.88
  0
LINE
  8
DETAIL
  6
CONTINOUS
 62
     5
 10
81.72
 20
49.32
 11
81.72
 21
54.36
  0
LINE
  8
DETAIL
  6
CONTINOUS
 62
     5
 10
86.76
 20
49.32
 11
86.76
 21
54.36
  0
LINE
  8
DETAIL
  6
CONTINOUS
 62
     5
 10
81.72
 20
55.8
 11
81.72
 21
60.84
  0
LINE
  8
DETAIL
  6
CONTINOUS
 62
     5
 10
86.76
 20
55.8
 11
86.76
 21
60.84
  0
LINE
  8
DETAIL
  6
CONTINOUS
 62
     5
 10
81.72
 20
62.28
 11
81.72
 21
67.32
  0
LINE
  8
DETAIL
  6
CONTINOUS
 62
     5
 10
86.76
 20
62.28
 11
86.76
 21
67.32
  0
LINE
  8
DETAIL
  6
CONTINOUS
 62
     5
 10
81.72
 20
68.76
 11
81.72
 21
73.8
  0
LINE
  8
DETAIL
  6
CONTINOUS
 62
     5
 10
86.76
 20
68.76
 11
86.76
 21
73.8
  0
LINE
  8
DETAIL
  6
CONTINOUS
 62
     5
 10
81.72
 20
75.24
 11
81.72
 21
80.28
  0
LINE
  8
DETAIL
  6
CONTINOUS
 62
     5
 10
86.76
 20
75.24
 11
86.76
 21
80.28
  0
LINE
  8
DETAIL
  6
CONTINOUS
 62
     5
 10
86.76
 20
86.76
 11
81.72
 21
86.76
  0
LINE
  8
DETAIL
  6
CONTINOUS
 62
     5
 10
81.72
 20
81.72
 11
81.72
 21
86.76
  0
LINE
  8
DETAIL
  6
CONTINOUS
 62
     5
 10
86.76
 20
81.72
 11
86.76
 21
86.76
  0
LINE
  8
DETAIL
  6
CONTINOUS
 62
     5
 10
80.28
 20
-86.76
 11
80.28
 21
-81.72
  0
LINE
  8
DETAIL
  6
CONTINOUS
 62
     5
 10
80.28
 20
-86.76
 11
75.24
 21
-86.76
  0
LINE
  8
DETAIL
  6
CONTINOUS
 62
     5
 10
75.24
 20
-86.76
 11
75.24
 21
-81.72
  0
LINE
  8
DETAIL
  6
CONTINOUS
 62
     5
 10
80.28
 20
-81.72
 11
75.24
 21
-81.72
  0
LINE
  8
DETAIL
  6
CONTINOUS
 62
     5
 10
80.28
 20
-80.28
 11
80.28
 21
-75.24
  0
LINE
  8
DETAIL
  6
CONTINOUS
 62
     5
 10
80.28
 20
-80.28
 11
75.24
 21
-80.28
  0
LINE
  8
DETAIL
  6
CONTINOUS
 62
     5
 10
75.24
 20
-80.28
 11
75.24
 21
-75.24
  0
LINE
  8
DETAIL
  6
CONTINOUS
 62
     5
 10
80.28
 20
-75.24
 11
75.24
 21
-75.24
  0
LINE
  8
DETAIL
  6
CONTINOUS
 62
     5
 10
80.28
 20
-73.8
 11
80.28
 21
-68.76
  0
LINE
  8
DETAIL
  6
CONTINOUS
 62
     5
 10
80.28
 20
-73.8
 11
75.24
 21
-73.8
  0
LINE
  8
DETAIL
  6
CONTINOUS
 62
     5
 10
75.24
 20
-73.8
 11
75.24
 21
-68.76
  0
LINE
  8
DETAIL
  6
CONTINOUS
 62
     5
 10
80.28
 20
-68.76
 11
75.24
 21
-68.76
  0
LINE
  8
DETAIL
  6
CONTINOUS
 62
     5
 10
80.28
 20
-67.32
 11
80.28
 21
-62.28
  0
LINE
  8
DETAIL
  6
CONTINOUS
 62
     5
 10
80.28
 20
-67.32
 11
75.24
 21
-67.32
  0
LINE
  8
DETAIL
  6
CONTINOUS
 62
     5
 10
75.24
 20
-67.32
 11
75.24
 21
-62.28
  0
LINE
  8
DETAIL
  6
CONTINOUS
 62
     5
 10
80.28
 20
-62.28
 11
75.24
 21
-62.28
  0
LINE
  8
DETAIL
  6
CONTINOUS
 62
     5
 10
80.28
 20
-60.84
 11
80.28
 21
-55.8
  0
LINE
  8
DETAIL
  6
CONTINOUS
 62
     5
 10
80.28
 20
-60.84
 11
75.24
 21
-60.84
  0
LINE
  8
DETAIL
  6
CONTINOUS
 62
     5
 10
75.24
 20
-60.84
 11
75.24
 21
-55.8
  0
LINE
  8
DETAIL
  6
CONTINOUS
 62
     5
 10
80.28
 20
-55.8
 11
75.24
 21
-55.8
  0
LINE
  8
DETAIL
  6
CONTINOUS
 62
     5
 10
80.28
 20
-54.36
 11
80.28
 21
-49.32
  0
LINE
  8
DETAIL
  6
CONTINOUS
 62
     5
 10
80.28
 20
-54.36
 11
75.24
 21
-54.36
  0
LINE
  8
DETAIL
  6
CONTINOUS
 62
     5
 10
75.24
 20
-54.36
 11
75.24
 21
-49.32
  0
LINE
  8
DETAIL
  6
CONTINOUS
 62
     5
 10
80.28
 20
-49.32
 11
75.24
 21
-49.32
  0
LINE
  8
DETAIL
  6
CONTINOUS
 62
     5
 10
80.28
 20
-47.88
 11
80.28
 21
-42.84
  0
LINE
  8
DETAIL
  6
CONTINOUS
 62
     5
 10
80.28
 20
-47.88
 11
75.24
 21
-47.88
  0
LINE
  8
DETAIL
  6
CONTINOUS
 62
     5
 10
75.24
 20
-47.88
 11
75.24
 21
-42.84
  0
LINE
  8
DETAIL
  6
CONTINOUS
 62
     5
 10
80.28
 20
-42.84
 11
75.24
 21
-42.84
  0
LINE
  8
DETAIL
  6
CONTINOUS
 62
     5
 10
80.28
 20
-41.4
 11
80.28
 21
-36.36
  0
LINE
  8
DETAIL
  6
CONTINOUS
 62
     5
 10
80.28
 20
-41.4
 11
75.24
 21
-41.4
  0
LINE
  8
DETAIL
  6
CONTINOUS
 62
     5
 10
75.24
 20
-41.4
 11
75.24
 21
-36.36
  0
LINE
  8
DETAIL
  6
CONTINOUS
 62
     5
 10
80.28
 20
-36.36
 11
75.24
 21
-36.36
  0
LINE
  8
DETAIL
  6
CONTINOUS
 62
     5
 10
80.28
 20
-34.92
 11
80.28
 21
-29.88
  0
LINE
  8
DETAIL
  6
CONTINOUS
 62
     5
 10
80.28
 20
-34.92
 11
75.24
 21
-34.92
  0
LINE
  8
DETAIL
  6
CONTINOUS
 62
     5
 10
75.24
 20
-34.92
 11
75.24
 21
-29.88
  0
LINE
  8
DETAIL
  6
CONTINOUS
 62
     5
 10
80.28
 20
-29.88
 11
75.24
 21
-29.88
  0
LINE
  8
DETAIL
  6
CONTINOUS
 62
     5
 10
80.28
 20
-28.44
 11
80.28
 21
-23.4
  0
LINE
  8
DETAIL
  6
CONTINOUS
 62
     5
 10
80.28
 20
-28.44
 11
75.24
 21
-28.44
  0
LINE
  8
DETAIL
  6
CONTINOUS
 62
     5
 10
75.24
 20
-28.44
 11
75.24
 21
-23.4
  0
LINE
  8
DETAIL
  6
CONTINOUS
 62
     5
 10
80.28
 20
-23.4
 11
75.24
 21
-23.4
  0
LINE
  8
DETAIL
  6
CONTINOUS
 62
     5
 10
80.28
 20
-21.96
 11
80.28
 21
-16.92
  0
LINE
  8
DETAIL
  6
CONTINOUS
 62
     5
 10
80.28
 20
-21.96
 11
75.24
 21
-21.96
  0
LINE
  8
DETAIL
  6
CONTINOUS
 62
     5
 10
75.24
 20
-21.96
 11
75.24
 21
-16.92
  0
LINE
  8
DETAIL
  6
CONTINOUS
 62
     5
 10
80.28
 20
-16.92
 11
75.24
 21
-16.92
  0
LINE
  8
DETAIL
  6
CONTINOUS
 62
     5
 10
80.28
 20
-15.48
 11
80.28
 21
-10.44
  0
LINE
  8
DETAIL
  6
CONTINOUS
 62
     5
 10
80.28
 20
-15.48
 11
75.24
 21
-15.48
  0
LINE
  8
DETAIL
  6
CONTINOUS
 62
     5
 10
75.24
 20
-15.48
 11
75.24
 21
-10.44
  0
LINE
  8
DETAIL
  6
CONTINOUS
 62
     5
 10
80.28
 20
-10.44
 11
75.24
 21
-10.44
  0
LINE
  8
DETAIL
  6
CONTINOUS
 62
     5
 10
80.28
 20
-9.0
 11
80.28
 21
-3.96
  0
LINE
  8
DETAIL
  6
CONTINOUS
 62
     5
 10
80.28
 20
-9.0
 11
75.24
 21
-9.0
  0
LINE
  8
DETAIL
  6
CONTINOUS
 62
     5
 10
75.24
 20
-9.0
 11
75.24
 21
-3.96
  0
LINE
  8
DETAIL
  6
CONTINOUS
 62
     5
 10
80.28
 20
-3.96
 11
75.24
 21
-3.96
  0
LINE
  8
DETAIL
  6
CONTINOUS
 62
     5
 10
80.28
 20
-2.52
 11
80.28
 21
2.52
  0
LINE
  8
DETAIL
  6
CONTINOUS
 62
     5
 10
80.28
 20
-2.52
 11
75.24
 21
-2.52
  0
LINE
  8
DETAIL
  6
CONTINOUS
 62
     5
 10
75.24
 20
-2.52
 11
75.24
 21
2.52
  0
LINE
  8
DETAIL
  6
CONTINOUS
 62
     5
 10
80.28
 20
2.52
 11
75.24
 21
2.52
  0
LINE
  8
DETAIL
  6
CONTINOUS
 62
     5
 10
80.28
 20
3.96
 11
80.28
 21
9.0
  0
LINE
  8
DETAIL
  6
CONTINOUS
 62
     5
 10
80.28
 20
3.96
 11
75.24
 21
3.96
  0
LINE
  8
DETAIL
  6
CONTINOUS
 62
     5
 10
75.24
 20
3.96
 11
75.24
 21
9.0
  0
LINE
  8
DETAIL
  6
CONTINOUS
 62
     5
 10
80.28
 20
9.0
 11
75.24
 21
9.0
  0
LINE
  8
DETAIL
  6
CONTINOUS
 62
     5
 10
80.28
 20
10.44
 11
80.28
 21
15.48
  0
LINE
  8
DETAIL
  6
CONTINOUS
 62
     5
 10
80.28
 20
10.44
 11
75.24
 21
10.44
  0
LINE
  8
DETAIL
  6
CONTINOUS
 62
     5
 10
75.24
 20
10.44
 11
75.24
 21
15.48
  0
LINE
  8
DETAIL
  6
CONTINOUS
 62
     5
 10
80.28
 20
15.48
 11
75.24
 21
15.48
  0
LINE
  8
DETAIL
  6
CONTINOUS
 62
     5
 10
80.28
 20
16.92
 11
80.28
 21
21.96
  0
LINE
  8
DETAIL
  6
CONTINOUS
 62
     5
 10
80.28
 20
16.92
 11
75.24
 21
16.92
  0
LINE
  8
DETAIL
  6
CONTINOUS
 62
     5
 10
75.24
 20
16.92
 11
75.24
 21
21.96
  0
LINE
  8
DETAIL
  6
CONTINOUS
 62
     5
 10
80.28
 20
21.96
 11
75.24
 21
21.96
  0
LINE
  8
DETAIL
  6
CONTINOUS
 62
     5
 10
80.28
 20
23.4
 11
80.28
 21
28.44
  0
LINE
  8
DETAIL
  6
CONTINOUS
 62
     5
 10
80.28
 20
23.4
 11
75.24
 21
23.4
  0
LINE
  8
DETAIL
  6
CONTINOUS
 62
     5
 10
75.24
 20
23.4
 11
75.24
 21
28.44
  0
LINE
  8
DETAIL
  6
CONTINOUS
 62
     5
 10
80.28
 20
28.44
 11
75.24
 21
28.44
  0
LINE
  8
DETAIL
  6
CONTINOUS
 62
     5
 10
80.28
 20
29.88
 11
80.28
 21
34.92
  0
LINE
  8
DETAIL
  6
CONTINOUS
 62
     5
 10
80.28
 20
29.88
 11
75.24
 21
29.88
  0
LINE
  8
DETAIL
  6
CONTINOUS
 62
     5
 10
75.24
 20
29.88
 11
75.24
 21
34.92
  0
LINE
  8
DETAIL
  6
CONTINOUS
 62
     5
 10
80.28
 20
34.92
 11
75.24
 21
34.92
  0
LINE
  8
DETAIL
  6
CONTINOUS
 62
     5
 10
80.28
 20
36.36
 11
80.28
 21
41.4
  0
LINE
  8
DETAIL
  6
CONTINOUS
 62
     5
 10
80.28
 20
36.36
 11
75.24
 21
36.36
  0
LINE
  8
DETAIL
  6
CONTINOUS
 62
     5
 10
75.24
 20
36.36
 11
75.24
 21
41.4
  0
LINE
  8
DETAIL
  6
CONTINOUS
 62
     5
 10
80.28
 20
41.4
 11
75.24
 21
41.4
  0
LINE
  8
DETAIL
  6
CONTINOUS
 62
     5
 10
80.28
 20
42.84
 11
80.28
 21
47.88
  0
LINE
  8
DETAIL
  6
CONTINOUS
 62
     5
 10
80.28
 20
42.84
 11
75.24
 21
42.84
  0
LINE
  8
DETAIL
  6
CONTINOUS
 62
     5
 10
75.24
 20
42.84
 11
75.24
 21
47.88
  0
LINE
  8
DETAIL
  6
CONTINOUS
 62
     5
 10
80.28
 20
47.88
 11
75.24
 21
47.88
  0
LINE
  8
DETAIL
  6
CONTINOUS
 62
     5
 10
80.28
 20
49.32
 11
80.28
 21
54.36
  0
LINE
  8
DETAIL
  6
CONTINOUS
 62
     5
 10
80.28
 20
49.32
 11
75.24
 21
49.32
  0
LINE
  8
DETAIL
  6
CONTINOUS
 62
     5
 10
75.24
 20
49.32
 11
75.24
 21
54.36
  0
LINE
  8
DETAIL
  6
CONTINOUS
 62
     5
 10
80.28
 20
54.36
 11
75.24
 21
54.36
  0
LINE
  8
DETAIL
  6
CONTINOUS
 62
     5
 10
80.28
 20
55.8
 11
80.28
 21
60.84
  0
LINE
  8
DETAIL
  6
CONTINOUS
 62
     5
 10
80.28
 20
55.8
 11
75.24
 21
55.8
  0
LINE
  8
DETAIL
  6
CONTINOUS
 62
     5
 10
75.24
 20
55.8
 11
75.24
 21
60.84
  0
LINE
  8
DETAIL
  6
CONTINOUS
 62
     5
 10
80.28
 20
60.84
 11
75.24
 21
60.84
  0
LINE
  8
DETAIL
  6
CONTINOUS
 62
     5
 10
80.28
 20
62.28
 11
80.28
 21
67.32
  0
LINE
  8
DETAIL
  6
CONTINOUS
 62
     5
 10
80.28
 20
62.28
 11
75.24
 21
62.28
  0
LINE
  8
DETAIL
  6
CONTINOUS
 62
     5
 10
75.24
 20
62.28
 11
75.24
 21
67.32
  0
LINE
  8
DETAIL
  6
CONTINOUS
 62
     5
 10
80.28
 20
67.32
 11
75.24
 21
67.32
  0
LINE
  8
DETAIL
  6
CONTINOUS
 62
     5
 10
80.28
 20
68.76
 11
80.28
 21
73.8
  0
LINE
  8
DETAIL
  6
CONTINOUS
 62
     5
 10
80.28
 20
68.76
 11
75.24
 21
68.76
  0
LINE
  8
DETAIL
  6
CONTINOUS
 62
     5
 10
75.24
 20
68.76
 11
75.24
 21
73.8
  0
LINE
  8
DETAIL
  6
CONTINOUS
 62
     5
 10
80.28
 20
73.8
 11
75.24
 21
73.8
  0
LINE
  8
DETAIL
  6
CONTINOUS
 62
     5
 10
80.28
 20
75.24
 11
80.28
 21
80.28
  0
LINE
  8
DETAIL
  6
CONTINOUS
 62
     5
 10
80.28
 20
75.24
 11
75.24
 21
75.24
  0
LINE
  8
DETAIL
  6
CONTINOUS
 62
     5
 10
75.24
 20
75.24
 11
75.24
 21
80.28
  0
LINE
  8
DETAIL
  6
CONTINOUS
 62
     5
 10
80.28
 20
80.28
 11
75.24
 21
80.28
  0
LINE
  8
DETAIL
  6
CONTINOUS
 62
     5
 10
80.28
 20
81.72
 11
80.28
 21
86.76
  0
LINE
  8
DETAIL
  6
CONTINOUS
 62
     5
 10
80.28
 20
81.72
 11
75.24
 21
81.72
  0
LINE
  8
DETAIL
  6
CONTINOUS
 62
     5
 10
75.24
 20
81.72
 11
75.24
 21
86.76
  0
LINE
  8
DETAIL
  6
CONTINOUS
 62
     5
 10
80.28
 20
86.76
 11
75.24
 21
86.76
  0
LINE
  8
DETAIL
  6
CONTINOUS
 62
     5
 10
73.8
 20
-86.76
 11
73.8
 21
-81.72
  0
LINE
  8
DETAIL
  6
CONTINOUS
 62
     5
 10
73.8
 20
-86.76
 11
68.76
 21
-86.76
  0
LINE
  8
DETAIL
  6
CONTINOUS
 62
     5
 10
68.76
 20
-86.76
 11
68.76
 21
-81.72
  0
LINE
  8
DETAIL
  6
CONTINOUS
 62
     5
 10
73.8
 20
-81.72
 11
68.76
 21
-81.72
  0
LINE
  8
DETAIL
  6
CONTINOUS
 62
     5
 10
73.8
 20
-80.28
 11
73.8
 21
-75.24
  0
LINE
  8
DETAIL
  6
CONTINOUS
 62
     5
 10
73.8
 20
-80.28
 11
68.76
 21
-80.28
  0
LINE
  8
DETAIL
  6
CONTINOUS
 62
     5
 10
68.76
 20
-80.28
 11
68.76
 21
-75.24
  0
LINE
  8
DETAIL
  6
CONTINOUS
 62
     5
 10
73.8
 20
-75.24
 11
68.76
 21
-75.24
  0
LINE
  8
DETAIL
  6
CONTINOUS
 62
     5
 10
73.8
 20
-73.8
 11
73.8
 21
-68.76
  0
LINE
  8
DETAIL
  6
CONTINOUS
 62
     5
 10
73.8
 20
-73.8
 11
68.76
 21
-73.8
  0
LINE
  8
DETAIL
  6
CONTINOUS
 62
     5
 10
68.76
 20
-73.8
 11
68.76
 21
-68.76
  0
LINE
  8
DETAIL
  6
CONTINOUS
 62
     5
 10
73.8
 20
-68.76
 11
68.76
 21
-68.76
  0
LINE
  8
DETAIL
  6
CONTINOUS
 62
     5
 10
73.8
 20
-67.32
 11
73.8
 21
-62.28
  0
LINE
  8
DETAIL
  6
CONTINOUS
 62
     5
 10
73.8
 20
-67.32
 11
68.76
 21
-67.32
  0
LINE
  8
DETAIL
  6
CONTINOUS
 62
     5
 10
68.76
 20
-67.32
 11
68.76
 21
-62.28
  0
LINE
  8
DETAIL
  6
CONTINOUS
 62
     5
 10
73.8
 20
-62.28
 11
68.76
 21
-62.28
  0
LINE
  8
DETAIL
  6
CONTINOUS
 62
     5
 10
73.8
 20
-60.84
 11
73.8
 21
-55.8
  0
LINE
  8
DETAIL
  6
CONTINOUS
 62
     5
 10
73.8
 20
-60.84
 11
68.76
 21
-60.84
  0
LINE
  8
DETAIL
  6
CONTINOUS
 62
     5
 10
68.76
 20
-60.84
 11
68.76
 21
-55.8
  0
LINE
  8
DETAIL
  6
CONTINOUS
 62
     5
 10
73.8
 20
-55.8
 11
68.76
 21
-55.8
  0
LINE
  8
DETAIL
  6
CONTINOUS
 62
     5
 10
73.8
 20
-54.36
 11
73.8
 21
-49.32
  0
LINE
  8
DETAIL
  6
CONTINOUS
 62
     5
 10
73.8
 20
-54.36
 11
68.76
 21
-54.36
  0
LINE
  8
DETAIL
  6
CONTINOUS
 62
     5
 10
68.76
 20
-54.36
 11
68.76
 21
-49.32
  0
LINE
  8
DETAIL
  6
CONTINOUS
 62
     5
 10
73.8
 20
-49.32
 11
68.76
 21
-49.32
  0
LINE
  8
DETAIL
  6
CONTINOUS
 62
     5
 10
73.8
 20
-47.88
 11
73.8
 21
-42.84
  0
LINE
  8
DETAIL
  6
CONTINOUS
 62
     5
 10
73.8
 20
-47.88
 11
68.76
 21
-47.88
  0
LINE
  8
DETAIL
  6
CONTINOUS
 62
     5
 10
68.76
 20
-47.88
 11
68.76
 21
-42.84
  0
LINE
  8
DETAIL
  6
CONTINOUS
 62
     5
 10
73.8
 20
-42.84
 11
68.76
 21
-42.84
  0
LINE
  8
DETAIL
  6
CONTINOUS
 62
     5
 10
73.8
 20
-41.4
 11
73.8
 21
-36.36
  0
LINE
  8
DETAIL
  6
CONTINOUS
 62
     5
 10
73.8
 20
-41.4
 11
68.76
 21
-41.4
  0
LINE
  8
DETAIL
  6
CONTINOUS
 62
     5
 10
68.76
 20
-41.4
 11
68.76
 21
-36.36
  0
LINE
  8
DETAIL
  6
CONTINOUS
 62
     5
 10
73.8
 20
-36.36
 11
68.76
 21
-36.36
  0
LINE
  8
DETAIL
  6
CONTINOUS
 62
     5
 10
73.8
 20
-34.92
 11
73.8
 21
-29.88
  0
LINE
  8
DETAIL
  6
CONTINOUS
 62
     5
 10
73.8
 20
-34.92
 11
68.76
 21
-34.92
  0
LINE
  8
DETAIL
  6
CONTINOUS
 62
     5
 10
68.76
 20
-34.92
 11
68.76
 21
-29.88
  0
LINE
  8
DETAIL
  6
CONTINOUS
 62
     5
 10
73.8
 20
-29.88
 11
68.76
 21
-29.88
  0
LINE
  8
DETAIL
  6
CONTINOUS
 62
     5
 10
73.8
 20
-28.44
 11
73.8
 21
-23.4
  0
LINE
  8
DETAIL
  6
CONTINOUS
 62
     5
 10
73.8
 20
-28.44
 11
68.76
 21
-28.44
  0
LINE
  8
DETAIL
  6
CONTINOUS
 62
     5
 10
68.76
 20
-28.44
 11
68.76
 21
-23.4
  0
LINE
  8
DETAIL
  6
CONTINOUS
 62
     5
 10
73.8
 20
-23.4
 11
68.76
 21
-23.4
  0
LINE
  8
DETAIL
  6
CONTINOUS
 62
     5
 10
73.8
 20
-21.96
 11
73.8
 21
-16.92
  0
LINE
  8
DETAIL
  6
CONTINOUS
 62
     5
 10
73.8
 20
-21.96
 11
68.76
 21
-21.96
  0
LINE
  8
DETAIL
  6
CONTINOUS
 62
     5
 10
68.76
 20
-21.96
 11
68.76
 21
-16.92
  0
LINE
  8
DETAIL
  6
CONTINOUS
 62
     5
 10
73.8
 20
-16.92
 11
68.76
 21
-16.92
  0
LINE
  8
DETAIL
  6
CONTINOUS
 62
     5
 10
73.8
 20
-15.48
 11
73.8
 21
-10.44
  0
LINE
  8
DETAIL
  6
CONTINOUS
 62
     5
 10
73.8
 20
-15.48
 11
68.76
 21
-15.48
  0
LINE
  8
DETAIL
  6
CONTINOUS
 62
     5
 10
68.76
 20
-15.48
 11
68.76
 21
-10.44
  0
LINE
  8
DETAIL
  6
CONTINOUS
 62
     5
 10
73.8
 20
-10.44
 11
68.76
 21
-10.44
  0
LINE
  8
DETAIL
  6
CONTINOUS
 62
     5
 10
73.8
 20
-9.0
 11
73.8
 21
-3.96
  0
LINE
  8
DETAIL
  6
CONTINOUS
 62
     5
 10
73.8
 20
-9.0
 11
68.76
 21
-9.0
  0
LINE
  8
DETAIL
  6
CONTINOUS
 62
     5
 10
68.76
 20
-9.0
 11
68.76
 21
-3.96
  0
LINE
  8
DETAIL
  6
CONTINOUS
 62
     5
 10
73.8
 20
-3.96
 11
68.76
 21
-3.96
  0
LINE
  8
DETAIL
  6
CONTINOUS
 62
     5
 10
73.8
 20
-2.52
 11
73.8
 21
2.52
  0
LINE
  8
DETAIL
  6
CONTINOUS
 62
     5
 10
73.8
 20
-2.52
 11
68.76
 21
-2.52
  0
LINE
  8
DETAIL
  6
CONTINOUS
 62
     5
 10
68.76
 20
-2.52
 11
68.76
 21
2.52
  0
LINE
  8
DETAIL
  6
CONTINOUS
 62
     5
 10
73.8
 20
2.52
 11
68.76
 21
2.52
  0
LINE
  8
DETAIL
  6
CONTINOUS
 62
     5
 10
73.8
 20
3.96
 11
73.8
 21
9.0
  0
LINE
  8
DETAIL
  6
CONTINOUS
 62
     5
 10
73.8
 20
3.96
 11
68.76
 21
3.96
  0
LINE
  8
DETAIL
  6
CONTINOUS
 62
     5
 10
68.76
 20
3.96
 11
68.76
 21
9.0
  0
LINE
  8
DETAIL
  6
CONTINOUS
 62
     5
 10
73.8
 20
9.0
 11
68.76
 21
9.0
  0
LINE
  8
DETAIL
  6
CONTINOUS
 62
     5
 10
73.8
 20
10.44
 11
73.8
 21
15.48
  0
LINE
  8
DETAIL
  6
CONTINOUS
 62
     5
 10
73.8
 20
10.44
 11
68.76
 21
10.44
  0
LINE
  8
DETAIL
  6
CONTINOUS
 62
     5
 10
68.76
 20
10.44
 11
68.76
 21
15.48
  0
LINE
  8
DETAIL
  6
CONTINOUS
 62
     5
 10
73.8
 20
15.48
 11
68.76
 21
15.48
  0
LINE
  8
DETAIL
  6
CONTINOUS
 62
     5
 10
73.8
 20
16.92
 11
73.8
 21
21.96
  0
LINE
  8
DETAIL
  6
CONTINOUS
 62
     5
 10
73.8
 20
16.92
 11
68.76
 21
16.92
  0
LINE
  8
DETAIL
  6
CONTINOUS
 62
     5
 10
68.76
 20
16.92
 11
68.76
 21
21.96
  0
LINE
  8
DETAIL
  6
CONTINOUS
 62
     5
 10
73.8
 20
21.96
 11
68.76
 21
21.96
  0
LINE
  8
DETAIL
  6
CONTINOUS
 62
     5
 10
73.8
 20
23.4
 11
73.8
 21
28.44
  0
LINE
  8
DETAIL
  6
CONTINOUS
 62
     5
 10
73.8
 20
23.4
 11
68.76
 21
23.4
  0
LINE
  8
DETAIL
  6
CONTINOUS
 62
     5
 10
68.76
 20
23.4
 11
68.76
 21
28.44
  0
LINE
  8
DETAIL
  6
CONTINOUS
 62
     5
 10
73.8
 20
28.44
 11
68.76
 21
28.44
  0
LINE
  8
DETAIL
  6
CONTINOUS
 62
     5
 10
73.8
 20
29.88
 11
73.8
 21
34.92
  0
LINE
  8
DETAIL
  6
CONTINOUS
 62
     5
 10
73.8
 20
29.88
 11
68.76
 21
29.88
  0
LINE
  8
DETAIL
  6
CONTINOUS
 62
     5
 10
68.76
 20
29.88
 11
68.76
 21
34.92
  0
LINE
  8
DETAIL
  6
CONTINOUS
 62
     5
 10
73.8
 20
34.92
 11
68.76
 21
34.92
  0
LINE
  8
DETAIL
  6
CONTINOUS
 62
     5
 10
73.8
 20
36.36
 11
73.8
 21
41.4
  0
LINE
  8
DETAIL
  6
CONTINOUS
 62
     5
 10
73.8
 20
36.36
 11
68.76
 21
36.36
  0
LINE
  8
DETAIL
  6
CONTINOUS
 62
     5
 10
68.76
 20
36.36
 11
68.76
 21
41.4
  0
LINE
  8
DETAIL
  6
CONTINOUS
 62
     5
 10
73.8
 20
41.4
 11
68.76
 21
41.4
  0
LINE
  8
DETAIL
  6
CONTINOUS
 62
     5
 10
73.8
 20
42.84
 11
73.8
 21
47.88
  0
LINE
  8
DETAIL
  6
CONTINOUS
 62
     5
 10
73.8
 20
42.84
 11
68.76
 21
42.84
  0
LINE
  8
DETAIL
  6
CONTINOUS
 62
     5
 10
68.76
 20
42.84
 11
68.76
 21
47.88
  0
LINE
  8
DETAIL
  6
CONTINOUS
 62
     5
 10
73.8
 20
47.88
 11
68.76
 21
47.88
  0
LINE
  8
DETAIL
  6
CONTINOUS
 62
     5
 10
73.8
 20
49.32
 11
73.8
 21
54.36
  0
LINE
  8
DETAIL
  6
CONTINOUS
 62
     5
 10
73.8
 20
49.32
 11
68.76
 21
49.32
  0
LINE
  8
DETAIL
  6
CONTINOUS
 62
     5
 10
68.76
 20
49.32
 11
68.76
 21
54.36
  0
LINE
  8
DETAIL
  6
CONTINOUS
 62
     5
 10
73.8
 20
54.36
 11
68.76
 21
54.36
  0
LINE
  8
DETAIL
  6
CONTINOUS
 62
     5
 10
73.8
 20
55.8
 11
73.8
 21
60.84
  0
LINE
  8
DETAIL
  6
CONTINOUS
 62
     5
 10
73.8
 20
55.8
 11
68.76
 21
55.8
  0
LINE
  8
DETAIL
  6
CONTINOUS
 62
     5
 10
68.76
 20
55.8
 11
68.76
 21
60.84
  0
LINE
  8
DETAIL
  6
CONTINOUS
 62
     5
 10
73.8
 20
60.84
 11
68.76
 21
60.84
  0
LINE
  8
DETAIL
  6
CONTINOUS
 62
     5
 10
73.8
 20
62.28
 11
73.8
 21
67.32
  0
LINE
  8
DETAIL
  6
CONTINOUS
 62
     5
 10
73.8
 20
62.28
 11
68.76
 21
62.28
  0
LINE
  8
DETAIL
  6
CONTINOUS
 62
     5
 10
68.76
 20
62.28
 11
68.76
 21
67.32
  0
LINE
  8
DETAIL
  6
CONTINOUS
 62
     5
 10
73.8
 20
67.32
 11
68.76
 21
67.32
  0
LINE
  8
DETAIL
  6
CONTINOUS
 62
     5
 10
73.8
 20
68.76
 11
73.8
 21
73.8
  0
LINE
  8
DETAIL
  6
CONTINOUS
 62
     5
 10
73.8
 20
68.76
 11
68.76
 21
68.76
  0
LINE
  8
DETAIL
  6
CONTINOUS
 62
     5
 10
68.76
 20
68.76
 11
68.76
 21
73.8
  0
LINE
  8
DETAIL
  6
CONTINOUS
 62
     5
 10
73.8
 20
73.8
 11
68.76
 21
73.8
  0
LINE
  8
DETAIL
  6
CONTINOUS
 62
     5
 10
73.8
 20
75.24
 11
73.8
 21
80.28
  0
LINE
  8
DETAIL
  6
CONTINOUS
 62
     5
 10
73.8
 20
75.24
 11
68.76
 21
75.24
  0
LINE
  8
DETAIL
  6
CONTINOUS
 62
     5
 10
68.76
 20
75.24
 11
68.76
 21
80.28
  0
LINE
  8
DETAIL
  6
CONTINOUS
 62
     5
 10
73.8
 20
80.28
 11
68.76
 21
80.28
  0
LINE
  8
DETAIL
  6
CONTINOUS
 62
     5
 10
73.8
 20
81.72
 11
73.8
 21
86.76
  0
LINE
  8
DETAIL
  6
CONTINOUS
 62
     5
 10
73.8
 20
81.72
 11
68.76
 21
81.72
  0
LINE
  8
DETAIL
  6
CONTINOUS
 62
     5
 10
68.76
 20
81.72
 11
68.76
 21
86.76
  0
LINE
  8
DETAIL
  6
CONTINOUS
 62
     5
 10
73.8
 20
86.76
 11
68.76
 21
86.76
  0
LINE
  8
DETAIL
  6
CONTINOUS
 62
     5
 10
67.32
 20
-86.76
 11
67.32
 21
-81.72
  0
LINE
  8
DETAIL
  6
CONTINOUS
 62
     5
 10
67.32
 20
-86.76
 11
62.28
 21
-86.76
  0
LINE
  8
DETAIL
  6
CONTINOUS
 62
     5
 10
62.28
 20
-86.76
 11
62.28
 21
-81.72
  0
LINE
  8
DETAIL
  6
CONTINOUS
 62
     5
 10
67.32
 20
-81.72
 11
62.28
 21
-81.72
  0
LINE
  8
DETAIL
  6
CONTINOUS
 62
     5
 10
67.32
 20
-80.28
 11
67.32
 21
-75.24
  0
LINE
  8
DETAIL
  6
CONTINOUS
 62
     5
 10
67.32
 20
-80.28
 11
62.28
 21
-80.28
  0
LINE
  8
DETAIL
  6
CONTINOUS
 62
     5
 10
62.28
 20
-80.28
 11
62.28
 21
-75.24
  0
LINE
  8
DETAIL
  6
CONTINOUS
 62
     5
 10
67.32
 20
-75.24
 11
62.28
 21
-75.24
  0
LINE
  8
DETAIL
  6
CONTINOUS
 62
     5
 10
67.32
 20
-73.8
 11
67.32
 21
-68.76
  0
LINE
  8
DETAIL
  6
CONTINOUS
 62
     5
 10
67.32
 20
-73.8
 11
62.28
 21
-73.8
  0
LINE
  8
DETAIL
  6
CONTINOUS
 62
     5
 10
62.28
 20
-73.8
 11
62.28
 21
-68.76
  0
LINE
  8
DETAIL
  6
CONTINOUS
 62
     5
 10
67.32
 20
-68.76
 11
62.28
 21
-68.76
  0
LINE
  8
DETAIL
  6
CONTINOUS
 62
     5
 10
67.32
 20
-67.32
 11
67.32
 21
-62.28
  0
LINE
  8
DETAIL
  6
CONTINOUS
 62
     5
 10
67.32
 20
-67.32
 11
62.28
 21
-67.32
  0
LINE
  8
DETAIL
  6
CONTINOUS
 62
     5
 10
62.28
 20
-67.32
 11
62.28
 21
-62.28
  0
LINE
  8
DETAIL
  6
CONTINOUS
 62
     5
 10
67.32
 20
-62.28
 11
62.28
 21
-62.28
  0
LINE
  8
DETAIL
  6
CONTINOUS
 62
     5
 10
67.32
 20
-60.84
 11
67.32
 21
-55.8
  0
LINE
  8
DETAIL
  6
CONTINOUS
 62
     5
 10
67.32
 20
-60.84
 11
62.28
 21
-60.84
  0
LINE
  8
DETAIL
  6
CONTINOUS
 62
     5
 10
62.28
 20
-60.84
 11
62.28
 21
-55.8
  0
LINE
  8
DETAIL
  6
CONTINOUS
 62
     5
 10
67.32
 20
-55.8
 11
62.28
 21
-55.8
  0
LINE
  8
DETAIL
  6
CONTINOUS
 62
     5
 10
67.32
 20
-54.36
 11
67.32
 21
-49.32
  0
LINE
  8
DETAIL
  6
CONTINOUS
 62
     5
 10
67.32
 20
-54.36
 11
62.28
 21
-54.36
  0
LINE
  8
DETAIL
  6
CONTINOUS
 62
     5
 10
62.28
 20
-54.36
 11
62.28
 21
-49.32
  0
LINE
  8
DETAIL
  6
CONTINOUS
 62
     5
 10
67.32
 20
-49.32
 11
62.28
 21
-49.32
  0
LINE
  8
DETAIL
  6
CONTINOUS
 62
     5
 10
67.32
 20
-47.88
 11
67.32
 21
-42.84
  0
LINE
  8
DETAIL
  6
CONTINOUS
 62
     5
 10
67.32
 20
-47.88
 11
62.28
 21
-47.88
  0
LINE
  8
DETAIL
  6
CONTINOUS
 62
     5
 10
62.28
 20
-47.88
 11
62.28
 21
-42.84
  0
LINE
  8
DETAIL
  6
CONTINOUS
 62
     5
 10
67.32
 20
-42.84
 11
62.28
 21
-42.84
  0
LINE
  8
DETAIL
  6
CONTINOUS
 62
     5
 10
67.32
 20
-41.4
 11
67.32
 21
-36.36
  0
LINE
  8
DETAIL
  6
CONTINOUS
 62
     5
 10
67.32
 20
-41.4
 11
62.28
 21
-41.4
  0
LINE
  8
DETAIL
  6
CONTINOUS
 62
     5
 10
62.28
 20
-41.4
 11
62.28
 21
-36.36
  0
LINE
  8
DETAIL
  6
CONTINOUS
 62
     5
 10
67.32
 20
-36.36
 11
62.28
 21
-36.36
  0
LINE
  8
DETAIL
  6
CONTINOUS
 62
     5
 10
67.32
 20
-34.92
 11
67.32
 21
-29.88
  0
LINE
  8
DETAIL
  6
CONTINOUS
 62
     5
 10
67.32
 20
-34.92
 11
62.28
 21
-34.92
  0
LINE
  8
DETAIL
  6
CONTINOUS
 62
     5
 10
62.28
 20
-34.92
 11
62.28
 21
-29.88
  0
LINE
  8
DETAIL
  6
CONTINOUS
 62
     5
 10
67.32
 20
-29.88
 11
62.28
 21
-29.88
  0
LINE
  8
DETAIL
  6
CONTINOUS
 62
     5
 10
67.32
 20
-28.44
 11
67.32
 21
-23.4
  0
LINE
  8
DETAIL
  6
CONTINOUS
 62
     5
 10
67.32
 20
-28.44
 11
62.28
 21
-28.44
  0
LINE
  8
DETAIL
  6
CONTINOUS
 62
     5
 10
62.28
 20
-28.44
 11
62.28
 21
-23.4
  0
LINE
  8
DETAIL
  6
CONTINOUS
 62
     5
 10
67.32
 20
-23.4
 11
62.28
 21
-23.4
  0
LINE
  8
DETAIL
  6
CONTINOUS
 62
     5
 10
67.32
 20
-21.96
 11
67.32
 21
-16.92
  0
LINE
  8
DETAIL
  6
CONTINOUS
 62
     5
 10
67.32
 20
-21.96
 11
62.28
 21
-21.96
  0
LINE
  8
DETAIL
  6
CONTINOUS
 62
     5
 10
62.28
 20
-21.96
 11
62.28
 21
-16.92
  0
LINE
  8
DETAIL
  6
CONTINOUS
 62
     5
 10
67.32
 20
-16.92
 11
62.28
 21
-16.92
  0
LINE
  8
DETAIL
  6
CONTINOUS
 62
     5
 10
67.32
 20
-15.48
 11
67.32
 21
-10.44
  0
LINE
  8
DETAIL
  6
CONTINOUS
 62
     5
 10
67.32
 20
-15.48
 11
62.28
 21
-15.48
  0
LINE
  8
DETAIL
  6
CONTINOUS
 62
     5
 10
62.28
 20
-15.48
 11
62.28
 21
-10.44
  0
LINE
  8
DETAIL
  6
CONTINOUS
 62
     5
 10
67.32
 20
-10.44
 11
62.28
 21
-10.44
  0
LINE
  8
DETAIL
  6
CONTINOUS
 62
     5
 10
67.32
 20
-9.0
 11
67.32
 21
-3.96
  0
LINE
  8
DETAIL
  6
CONTINOUS
 62
     5
 10
67.32
 20
-9.0
 11
62.28
 21
-9.0
  0
LINE
  8
DETAIL
  6
CONTINOUS
 62
     5
 10
62.28
 20
-9.0
 11
62.28
 21
-3.96
  0
LINE
  8
DETAIL
  6
CONTINOUS
 62
     5
 10
67.32
 20
-3.96
 11
62.28
 21
-3.96
  0
LINE
  8
DETAIL
  6
CONTINOUS
 62
     5
 10
67.32
 20
-2.52
 11
67.32
 21
2.52
  0
LINE
  8
DETAIL
  6
CONTINOUS
 62
     5
 10
67.32
 20
-2.52
 11
62.28
 21
-2.52
  0
LINE
  8
DETAIL
  6
CONTINOUS
 62
     5
 10
62.28
 20
-2.52
 11
62.28
 21
2.52
  0
LINE
  8
DETAIL
  6
CONTINOUS
 62
     5
 10
67.32
 20
2.52
 11
62.28
 21
2.52
  0
LINE
  8
DETAIL
  6
CONTINOUS
 62
     5
 10
67.32
 20
3.96
 11
67.32
 21
9.0
  0
LINE
  8
DETAIL
  6
CONTINOUS
 62
     5
 10
67.32
 20
3.96
 11
62.28
 21
3.96
  0
LINE
  8
DETAIL
  6
CONTINOUS
 62
     5
 10
62.28
 20
3.96
 11
62.28
 21
9.0
  0
LINE
  8
DETAIL
  6
CONTINOUS
 62
     5
 10
67.32
 20
9.0
 11
62.28
 21
9.0
  0
LINE
  8
DETAIL
  6
CONTINOUS
 62
     5
 10
67.32
 20
10.44
 11
67.32
 21
15.48
  0
LINE
  8
DETAIL
  6
CONTINOUS
 62
     5
 10
67.32
 20
10.44
 11
62.28
 21
10.44
  0
LINE
  8
DETAIL
  6
CONTINOUS
 62
     5
 10
62.28
 20
10.44
 11
62.28
 21
15.48
  0
LINE
  8
DETAIL
  6
CONTINOUS
 62
     5
 10
67.32
 20
15.48
 11
62.28
 21
15.48
  0
LINE
  8
DETAIL
  6
CONTINOUS
 62
     5
 10
67.32
 20
16.92
 11
67.32
 21
21.96
  0
LINE
  8
DETAIL
  6
CONTINOUS
 62
     5
 10
67.32
 20
16.92
 11
62.28
 21
16.92
  0
LINE
  8
DETAIL
  6
CONTINOUS
 62
     5
 10
62.28
 20
16.92
 11
62.28
 21
21.96
  0
LINE
  8
DETAIL
  6
CONTINOUS
 62
     5
 10
67.32
 20
21.96
 11
62.28
 21
21.96
  0
LINE
  8
DETAIL
  6
CONTINOUS
 62
     5
 10
67.32
 20
23.4
 11
67.32
 21
28.44
  0
LINE
  8
DETAIL
  6
CONTINOUS
 62
     5
 10
67.32
 20
23.4
 11
62.28
 21
23.4
  0
LINE
  8
DETAIL
  6
CONTINOUS
 62
     5
 10
62.28
 20
23.4
 11
62.28
 21
28.44
  0
LINE
  8
DETAIL
  6
CONTINOUS
 62
     5
 10
67.32
 20
28.44
 11
62.28
 21
28.44
  0
LINE
  8
DETAIL
  6
CONTINOUS
 62
     5
 10
67.32
 20
29.88
 11
67.32
 21
34.92
  0
LINE
  8
DETAIL
  6
CONTINOUS
 62
     5
 10
67.32
 20
29.88
 11
62.28
 21
29.88
  0
LINE
  8
DETAIL
  6
CONTINOUS
 62
     5
 10
62.28
 20
29.88
 11
62.28
 21
34.92
  0
LINE
  8
DETAIL
  6
CONTINOUS
 62
     5
 10
67.32
 20
34.92
 11
62.28
 21
34.92
  0
LINE
  8
DETAIL
  6
CONTINOUS
 62
     5
 10
67.32
 20
36.36
 11
67.32
 21
41.4
  0
LINE
  8
DETAIL
  6
CONTINOUS
 62
     5
 10
67.32
 20
36.36
 11
62.28
 21
36.36
  0
LINE
  8
DETAIL
  6
CONTINOUS
 62
     5
 10
62.28
 20
36.36
 11
62.28
 21
41.4
  0
LINE
  8
DETAIL
  6
CONTINOUS
 62
     5
 10
67.32
 20
41.4
 11
62.28
 21
41.4
  0
LINE
  8
DETAIL
  6
CONTINOUS
 62
     5
 10
67.32
 20
42.84
 11
67.32
 21
47.88
  0
LINE
  8
DETAIL
  6
CONTINOUS
 62
     5
 10
67.32
 20
42.84
 11
62.28
 21
42.84
  0
LINE
  8
DETAIL
  6
CONTINOUS
 62
     5
 10
62.28
 20
42.84
 11
62.28
 21
47.88
  0
LINE
  8
DETAIL
  6
CONTINOUS
 62
     5
 10
67.32
 20
47.88
 11
62.28
 21
47.88
  0
LINE
  8
DETAIL
  6
CONTINOUS
 62
     5
 10
67.32
 20
49.32
 11
67.32
 21
54.36
  0
LINE
  8
DETAIL
  6
CONTINOUS
 62
     5
 10
67.32
 20
49.32
 11
62.28
 21
49.32
  0
LINE
  8
DETAIL
  6
CONTINOUS
 62
     5
 10
62.28
 20
49.32
 11
62.28
 21
54.36
  0
LINE
  8
DETAIL
  6
CONTINOUS
 62
     5
 10
67.32
 20
54.36
 11
62.28
 21
54.36
  0
LINE
  8
DETAIL
  6
CONTINOUS
 62
     5
 10
67.32
 20
55.8
 11
67.32
 21
60.84
  0
LINE
  8
DETAIL
  6
CONTINOUS
 62
     5
 10
67.32
 20
55.8
 11
62.28
 21
55.8
  0
LINE
  8
DETAIL
  6
CONTINOUS
 62
     5
 10
62.28
 20
55.8
 11
62.28
 21
60.84
  0
LINE
  8
DETAIL
  6
CONTINOUS
 62
     5
 10
67.32
 20
60.84
 11
62.28
 21
60.84
  0
LINE
  8
DETAIL
  6
CONTINOUS
 62
     5
 10
67.32
 20
62.28
 11
67.32
 21
67.32
  0
LINE
  8
DETAIL
  6
CONTINOUS
 62
     5
 10
67.32
 20
62.28
 11
62.28
 21
62.28
  0
LINE
  8
DETAIL
  6
CONTINOUS
 62
     5
 10
62.28
 20
62.28
 11
62.28
 21
67.32
  0
LINE
  8
DETAIL
  6
CONTINOUS
 62
     5
 10
67.32
 20
67.32
 11
62.28
 21
67.32
  0
LINE
  8
DETAIL
  6
CONTINOUS
 62
     5
 10
67.32
 20
68.76
 11
67.32
 21
73.8
  0
LINE
  8
DETAIL
  6
CONTINOUS
 62
     5
 10
67.32
 20
68.76
 11
62.28
 21
68.76
  0
LINE
  8
DETAIL
  6
CONTINOUS
 62
     5
 10
62.28
 20
68.76
 11
62.28
 21
73.8
  0
LINE
  8
DETAIL
  6
CONTINOUS
 62
     5
 10
67.32
 20
73.8
 11
62.28
 21
73.8
  0
LINE
  8
DETAIL
  6
CONTINOUS
 62
     5
 10
67.32
 20
75.24
 11
67.32
 21
80.28
  0
LINE
  8
DETAIL
  6
CONTINOUS
 62
     5
 10
67.32
 20
75.24
 11
62.28
 21
75.24
  0
LINE
  8
DETAIL
  6
CONTINOUS
 62
     5
 10
62.28
 20
75.24
 11
62.28
 21
80.28
  0
LINE
  8
DETAIL
  6
CONTINOUS
 62
     5
 10
67.32
 20
80.28
 11
62.28
 21
80.28
  0
LINE
  8
DETAIL
  6
CONTINOUS
 62
     5
 10
67.32
 20
81.72
 11
67.32
 21
86.76
  0
LINE
  8
DETAIL
  6
CONTINOUS
 62
     5
 10
67.32
 20
81.72
 11
62.28
 21
81.72
  0
LINE
  8
DETAIL
  6
CONTINOUS
 62
     5
 10
62.28
 20
81.72
 11
62.28
 21
86.76
  0
LINE
  8
DETAIL
  6
CONTINOUS
 62
     5
 10
67.32
 20
86.76
 11
62.28
 21
86.76
  0
LINE
  8
DETAIL
  6
CONTINOUS
 62
     5
 10
60.84
 20
-86.76
 11
60.84
 21
-81.72
  0
LINE
  8
DETAIL
  6
CONTINOUS
 62
     5
 10
60.84
 20
-86.76
 11
55.8
 21
-86.76
  0
LINE
  8
DETAIL
  6
CONTINOUS
 62
     5
 10
55.8
 20
-86.76
 11
55.8
 21
-81.72
  0
LINE
  8
DETAIL
  6
CONTINOUS
 62
     5
 10
60.84
 20
-81.72
 11
55.8
 21
-81.72
  0
LINE
  8
DETAIL
  6
CONTINOUS
 62
     5
 10
60.84
 20
-80.28
 11
60.84
 21
-75.24
  0
LINE
  8
DETAIL
  6
CONTINOUS
 62
     5
 10
60.84
 20
-80.28
 11
55.8
 21
-80.28
  0
LINE
  8
DETAIL
  6
CONTINOUS
 62
     5
 10
55.8
 20
-80.28
 11
55.8
 21
-75.24
  0
LINE
  8
DETAIL
  6
CONTINOUS
 62
     5
 10
60.84
 20
-75.24
 11
55.8
 21
-75.24
  0
LINE
  8
DETAIL
  6
CONTINOUS
 62
     5
 10
60.84
 20
-73.8
 11
60.84
 21
-68.76
  0
LINE
  8
DETAIL
  6
CONTINOUS
 62
     5
 10
60.84
 20
-73.8
 11
55.8
 21
-73.8
  0
LINE
  8
DETAIL
  6
CONTINOUS
 62
     5
 10
55.8
 20
-73.8
 11
55.8
 21
-68.76
  0
LINE
  8
DETAIL
  6
CONTINOUS
 62
     5
 10
60.84
 20
-68.76
 11
55.8
 21
-68.76
  0
LINE
  8
DETAIL
  6
CONTINOUS
 62
     5
 10
60.84
 20
-67.32
 11
60.84
 21
-62.28
  0
LINE
  8
DETAIL
  6
CONTINOUS
 62
     5
 10
60.84
 20
-67.32
 11
55.8
 21
-67.32
  0
LINE
  8
DETAIL
  6
CONTINOUS
 62
     5
 10
55.8
 20
-67.32
 11
55.8
 21
-62.28
  0
LINE
  8
DETAIL
  6
CONTINOUS
 62
     5
 10
60.84
 20
-62.28
 11
55.8
 21
-62.28
  0
LINE
  8
DETAIL
  6
CONTINOUS
 62
     5
 10
60.84
 20
-60.84
 11
60.84
 21
-55.8
  0
LINE
  8
DETAIL
  6
CONTINOUS
 62
     5
 10
60.84
 20
-60.84
 11
55.8
 21
-60.84
  0
LINE
  8
DETAIL
  6
CONTINOUS
 62
     5
 10
55.8
 20
-60.84
 11
55.8
 21
-55.8
  0
LINE
  8
DETAIL
  6
CONTINOUS
 62
     5
 10
60.84
 20
-55.8
 11
55.8
 21
-55.8
  0
LINE
  8
DETAIL
  6
CONTINOUS
 62
     5
 10
60.84
 20
-54.36
 11
60.84
 21
-49.32
  0
LINE
  8
DETAIL
  6
CONTINOUS
 62
     5
 10
60.84
 20
-54.36
 11
55.8
 21
-54.36
  0
LINE
  8
DETAIL
  6
CONTINOUS
 62
     5
 10
55.8
 20
-54.36
 11
55.8
 21
-49.32
  0
LINE
  8
DETAIL
  6
CONTINOUS
 62
     5
 10
60.84
 20
-49.32
 11
55.8
 21
-49.32
  0
LINE
  8
DETAIL
  6
CONTINOUS
 62
     5
 10
60.84
 20
-47.88
 11
60.84
 21
-42.84
  0
LINE
  8
DETAIL
  6
CONTINOUS
 62
     5
 10
60.84
 20
-47.88
 11
55.8
 21
-47.88
  0
LINE
  8
DETAIL
  6
CONTINOUS
 62
     5
 10
55.8
 20
-47.88
 11
55.8
 21
-42.84
  0
LINE
  8
DETAIL
  6
CONTINOUS
 62
     5
 10
60.84
 20
-42.84
 11
55.8
 21
-42.84
  0
LINE
  8
DETAIL
  6
CONTINOUS
 62
     5
 10
60.84
 20
-41.4
 11
60.84
 21
-36.36
  0
LINE
  8
DETAIL
  6
CONTINOUS
 62
     5
 10
60.84
 20
-41.4
 11
55.8
 21
-41.4
  0
LINE
  8
DETAIL
  6
CONTINOUS
 62
     5
 10
55.8
 20
-41.4
 11
55.8
 21
-36.36
  0
LINE
  8
DETAIL
  6
CONTINOUS
 62
     5
 10
60.84
 20
-36.36
 11
55.8
 21
-36.36
  0
LINE
  8
DETAIL
  6
CONTINOUS
 62
     5
 10
60.84
 20
-34.92
 11
60.84
 21
-29.88
  0
LINE
  8
DETAIL
  6
CONTINOUS
 62
     5
 10
60.84
 20
-34.92
 11
55.8
 21
-34.92
  0
LINE
  8
DETAIL
  6
CONTINOUS
 62
     5
 10
55.8
 20
-34.92
 11
55.8
 21
-29.88
  0
LINE
  8
DETAIL
  6
CONTINOUS
 62
     5
 10
60.84
 20
-29.88
 11
55.8
 21
-29.88
  0
LINE
  8
DETAIL
  6
CONTINOUS
 62
     5
 10
60.84
 20
-28.44
 11
60.84
 21
-23.4
  0
LINE
  8
DETAIL
  6
CONTINOUS
 62
     5
 10
60.84
 20
-28.44
 11
55.8
 21
-28.44
  0
LINE
  8
DETAIL
  6
CONTINOUS
 62
     5
 10
55.8
 20
-28.44
 11
55.8
 21
-23.4
  0
LINE
  8
DETAIL
  6
CONTINOUS
 62
     5
 10
60.84
 20
-23.4
 11
55.8
 21
-23.4
  0
LINE
  8
DETAIL
  6
CONTINOUS
 62
     5
 10
60.84
 20
-21.96
 11
60.84
 21
-16.92
  0
LINE
  8
DETAIL
  6
CONTINOUS
 62
     5
 10
60.84
 20
-21.96
 11
55.8
 21
-21.96
  0
LINE
  8
DETAIL
  6
CONTINOUS
 62
     5
 10
55.8
 20
-21.96
 11
55.8
 21
-16.92
  0
LINE
  8
DETAIL
  6
CONTINOUS
 62
     5
 10
60.84
 20
-16.92
 11
55.8
 21
-16.92
  0
LINE
  8
DETAIL
  6
CONTINOUS
 62
     5
 10
60.84
 20
-15.48
 11
60.84
 21
-10.44
  0
LINE
  8
DETAIL
  6
CONTINOUS
 62
     5
 10
60.84
 20
-15.48
 11
55.8
 21
-15.48
  0
LINE
  8
DETAIL
  6
CONTINOUS
 62
     5
 10
55.8
 20
-15.48
 11
55.8
 21
-10.44
  0
LINE
  8
DETAIL
  6
CONTINOUS
 62
     5
 10
60.84
 20
-10.44
 11
55.8
 21
-10.44
  0
LINE
  8
DETAIL
  6
CONTINOUS
 62
     5
 10
60.84
 20
-9.0
 11
60.84
 21
-3.96
  0
LINE
  8
DETAIL
  6
CONTINOUS
 62
     5
 10
60.84
 20
-9.0
 11
55.8
 21
-9.0
  0
LINE
  8
DETAIL
  6
CONTINOUS
 62
     5
 10
55.8
 20
-9.0
 11
55.8
 21
-3.96
  0
LINE
  8
DETAIL
  6
CONTINOUS
 62
     5
 10
60.84
 20
-3.96
 11
55.8
 21
-3.96
  0
LINE
  8
DETAIL
  6
CONTINOUS
 62
     5
 10
60.84
 20
-2.52
 11
60.84
 21
2.52
  0
LINE
  8
DETAIL
  6
CONTINOUS
 62
     5
 10
60.84
 20
-2.52
 11
55.8
 21
-2.52
  0
LINE
  8
DETAIL
  6
CONTINOUS
 62
     5
 10
55.8
 20
-2.52
 11
55.8
 21
2.52
  0
LINE
  8
DETAIL
  6
CONTINOUS
 62
     5
 10
60.84
 20
2.52
 11
55.8
 21
2.52
  0
LINE
  8
DETAIL
  6
CONTINOUS
 62
     5
 10
60.84
 20
3.96
 11
60.84
 21
9.0
  0
LINE
  8
DETAIL
  6
CONTINOUS
 62
     5
 10
60.84
 20
3.96
 11
55.8
 21
3.96
  0
LINE
  8
DETAIL
  6
CONTINOUS
 62
     5
 10
55.8
 20
3.96
 11
55.8
 21
9.0
  0
LINE
  8
DETAIL
  6
CONTINOUS
 62
     5
 10
60.84
 20
9.0
 11
55.8
 21
9.0
  0
LINE
  8
DETAIL
  6
CONTINOUS
 62
     5
 10
60.84
 20
10.44
 11
60.84
 21
15.48
  0
LINE
  8
DETAIL
  6
CONTINOUS
 62
     5
 10
60.84
 20
10.44
 11
55.8
 21
10.44
  0
LINE
  8
DETAIL
  6
CONTINOUS
 62
     5
 10
55.8
 20
10.44
 11
55.8
 21
15.48
  0
LINE
  8
DETAIL
  6
CONTINOUS
 62
     5
 10
60.84
 20
15.48
 11
55.8
 21
15.48
  0
LINE
  8
DETAIL
  6
CONTINOUS
 62
     5
 10
60.84
 20
16.92
 11
60.84
 21
21.96
  0
LINE
  8
DETAIL
  6
CONTINOUS
 62
     5
 10
60.84
 20
16.92
 11
55.8
 21
16.92
  0
LINE
  8
DETAIL
  6
CONTINOUS
 62
     5
 10
55.8
 20
16.92
 11
55.8
 21
21.96
  0
LINE
  8
DETAIL
  6
CONTINOUS
 62
     5
 10
60.84
 20
21.96
 11
55.8
 21
21.96
  0
LINE
  8
DETAIL
  6
CONTINOUS
 62
     5
 10
60.84
 20
23.4
 11
60.84
 21
28.44
  0
LINE
  8
DETAIL
  6
CONTINOUS
 62
     5
 10
60.84
 20
23.4
 11
55.8
 21
23.4
  0
LINE
  8
DETAIL
  6
CONTINOUS
 62
     5
 10
55.8
 20
23.4
 11
55.8
 21
28.44
  0
LINE
  8
DETAIL
  6
CONTINOUS
 62
     5
 10
60.84
 20
28.44
 11
55.8
 21
28.44
  0
LINE
  8
DETAIL
  6
CONTINOUS
 62
     5
 10
60.84
 20
29.88
 11
60.84
 21
34.92
  0
LINE
  8
DETAIL
  6
CONTINOUS
 62
     5
 10
60.84
 20
29.88
 11
55.8
 21
29.88
  0
LINE
  8
DETAIL
  6
CONTINOUS
 62
     5
 10
55.8
 20
29.88
 11
55.8
 21
34.92
  0
LINE
  8
DETAIL
  6
CONTINOUS
 62
     5
 10
60.84
 20
34.92
 11
55.8
 21
34.92
  0
LINE
  8
DETAIL
  6
CONTINOUS
 62
     5
 10
60.84
 20
36.36
 11
60.84
 21
41.4
  0
LINE
  8
DETAIL
  6
CONTINOUS
 62
     5
 10
60.84
 20
36.36
 11
55.8
 21
36.36
  0
LINE
  8
DETAIL
  6
CONTINOUS
 62
     5
 10
55.8
 20
36.36
 11
55.8
 21
41.4
  0
LINE
  8
DETAIL
  6
CONTINOUS
 62
     5
 10
60.84
 20
41.4
 11
55.8
 21
41.4
  0
LINE
  8
DETAIL
  6
CONTINOUS
 62
     5
 10
60.84
 20
42.84
 11
60.84
 21
47.88
  0
LINE
  8
DETAIL
  6
CONTINOUS
 62
     5
 10
60.84
 20
42.84
 11
55.8
 21
42.84
  0
LINE
  8
DETAIL
  6
CONTINOUS
 62
     5
 10
55.8
 20
42.84
 11
55.8
 21
47.88
  0
LINE
  8
DETAIL
  6
CONTINOUS
 62
     5
 10
60.84
 20
47.88
 11
55.8
 21
47.88
  0
LINE
  8
DETAIL
  6
CONTINOUS
 62
     5
 10
60.84
 20
49.32
 11
60.84
 21
54.36
  0
LINE
  8
DETAIL
  6
CONTINOUS
 62
     5
 10
60.84
 20
49.32
 11
55.8
 21
49.32
  0
LINE
  8
DETAIL
  6
CONTINOUS
 62
     5
 10
55.8
 20
49.32
 11
55.8
 21
54.36
  0
LINE
  8
DETAIL
  6
CONTINOUS
 62
     5
 10
60.84
 20
54.36
 11
55.8
 21
54.36
  0
LINE
  8
DETAIL
  6
CONTINOUS
 62
     5
 10
60.84
 20
55.8
 11
60.84
 21
60.84
  0
LINE
  8
DETAIL
  6
CONTINOUS
 62
     5
 10
60.84
 20
55.8
 11
55.8
 21
55.8
  0
LINE
  8
DETAIL
  6
CONTINOUS
 62
     5
 10
55.8
 20
55.8
 11
55.8
 21
60.84
  0
LINE
  8
DETAIL
  6
CONTINOUS
 62
     5
 10
60.84
 20
60.84
 11
55.8
 21
60.84
  0
LINE
  8
DETAIL
  6
CONTINOUS
 62
     5
 10
60.84
 20
62.28
 11
60.84
 21
67.32
  0
LINE
  8
DETAIL
  6
CONTINOUS
 62
     5
 10
60.84
 20
62.28
 11
55.8
 21
62.28
  0
LINE
  8
DETAIL
  6
CONTINOUS
 62
     5
 10
55.8
 20
62.28
 11
55.8
 21
67.32
  0
LINE
  8
DETAIL
  6
CONTINOUS
 62
     5
 10
60.84
 20
67.32
 11
55.8
 21
67.32
  0
LINE
  8
DETAIL
  6
CONTINOUS
 62
     5
 10
60.84
 20
68.76
 11
60.84
 21
73.8
  0
LINE
  8
DETAIL
  6
CONTINOUS
 62
     5
 10
60.84
 20
68.76
 11
55.8
 21
68.76
  0
LINE
  8
DETAIL
  6
CONTINOUS
 62
     5
 10
55.8
 20
68.76
 11
55.8
 21
73.8
  0
LINE
  8
DETAIL
  6
CONTINOUS
 62
     5
 10
60.84
 20
73.8
 11
55.8
 21
73.8
  0
LINE
  8
DETAIL
  6
CONTINOUS
 62
     5
 10
60.84
 20
75.24
 11
60.84
 21
80.28
  0
LINE
  8
DETAIL
  6
CONTINOUS
 62
     5
 10
60.84
 20
75.24
 11
55.8
 21
75.24
  0
LINE
  8
DETAIL
  6
CONTINOUS
 62
     5
 10
55.8
 20
75.24
 11
55.8
 21
80.28
  0
LINE
  8
DETAIL
  6
CONTINOUS
 62
     5
 10
60.84
 20
80.28
 11
55.8
 21
80.28
  0
LINE
  8
DETAIL
  6
CONTINOUS
 62
     5
 10
60.84
 20
81.72
 11
60.84
 21
86.76
  0
LINE
  8
DETAIL
  6
CONTINOUS
 62
     5
 10
60.84
 20
81.72
 11
55.8
 21
81.72
  0
LINE
  8
DETAIL
  6
CONTINOUS
 62
     5
 10
55.8
 20
81.72
 11
55.8
 21
86.76
  0
LINE
  8
DETAIL
  6
CONTINOUS
 62
     5
 10
60.84
 20
86.76
 11
55.8
 21
86.76
  0
LINE
  8
DETAIL
  6
CONTINOUS
 62
     5
 10
54.36
 20
-86.76
 11
54.36
 21
-81.72
  0
LINE
  8
DETAIL
  6
CONTINOUS
 62
     5
 10
54.36
 20
-86.76
 11
49.32
 21
-86.76
  0
LINE
  8
DETAIL
  6
CONTINOUS
 62
     5
 10
49.32
 20
-86.76
 11
49.32
 21
-81.72
  0
LINE
  8
DETAIL
  6
CONTINOUS
 62
     5
 10
54.36
 20
-81.72
 11
49.32
 21
-81.72
  0
LINE
  8
DETAIL
  6
CONTINOUS
 62
     5
 10
54.36
 20
-80.28
 11
54.36
 21
-75.24
  0
LINE
  8
DETAIL
  6
CONTINOUS
 62
     5
 10
54.36
 20
-80.28
 11
49.32
 21
-80.28
  0
LINE
  8
DETAIL
  6
CONTINOUS
 62
     5
 10
49.32
 20
-80.28
 11
49.32
 21
-75.24
  0
LINE
  8
DETAIL
  6
CONTINOUS
 62
     5
 10
54.36
 20
-75.24
 11
49.32
 21
-75.24
  0
LINE
  8
DETAIL
  6
CONTINOUS
 62
     5
 10
54.36
 20
-73.8
 11
54.36
 21
-68.76
  0
LINE
  8
DETAIL
  6
CONTINOUS
 62
     5
 10
54.36
 20
-73.8
 11
49.32
 21
-73.8
  0
LINE
  8
DETAIL
  6
CONTINOUS
 62
     5
 10
49.32
 20
-73.8
 11
49.32
 21
-68.76
  0
LINE
  8
DETAIL
  6
CONTINOUS
 62
     5
 10
54.36
 20
-68.76
 11
49.32
 21
-68.76
  0
LINE
  8
DETAIL
  6
CONTINOUS
 62
     5
 10
54.36
 20
-67.32
 11
54.36
 21
-62.28
  0
LINE
  8
DETAIL
  6
CONTINOUS
 62
     5
 10
54.36
 20
-67.32
 11
49.32
 21
-67.32
  0
LINE
  8
DETAIL
  6
CONTINOUS
 62
     5
 10
49.32
 20
-67.32
 11
49.32
 21
-62.28
  0
LINE
  8
DETAIL
  6
CONTINOUS
 62
     5
 10
54.36
 20
-62.28
 11
49.32
 21
-62.28
  0
LINE
  8
DETAIL
  6
CONTINOUS
 62
     5
 10
54.36
 20
-60.84
 11
54.36
 21
-55.8
  0
LINE
  8
DETAIL
  6
CONTINOUS
 62
     5
 10
54.36
 20
-60.84
 11
49.32
 21
-60.84
  0
LINE
  8
DETAIL
  6
CONTINOUS
 62
     5
 10
49.32
 20
-60.84
 11
49.32
 21
-55.8
  0
LINE
  8
DETAIL
  6
CONTINOUS
 62
     5
 10
54.36
 20
-55.8
 11
49.32
 21
-55.8
  0
LINE
  8
DETAIL
  6
CONTINOUS
 62
     5
 10
54.36
 20
-54.36
 11
54.36
 21
-49.32
  0
LINE
  8
DETAIL
  6
CONTINOUS
 62
     5
 10
54.36
 20
-54.36
 11
49.32
 21
-54.36
  0
LINE
  8
DETAIL
  6
CONTINOUS
 62
     5
 10
49.32
 20
-54.36
 11
49.32
 21
-49.32
  0
LINE
  8
DETAIL
  6
CONTINOUS
 62
     5
 10
54.36
 20
-49.32
 11
49.32
 21
-49.32
  0
LINE
  8
DETAIL
  6
CONTINOUS
 62
     5
 10
54.36
 20
-47.88
 11
54.36
 21
-42.84
  0
LINE
  8
DETAIL
  6
CONTINOUS
 62
     5
 10
54.36
 20
-47.88
 11
49.32
 21
-47.88
  0
LINE
  8
DETAIL
  6
CONTINOUS
 62
     5
 10
49.32
 20
-47.88
 11
49.32
 21
-42.84
  0
LINE
  8
DETAIL
  6
CONTINOUS
 62
     5
 10
54.36
 20
-42.84
 11
49.32
 21
-42.84
  0
LINE
  8
DETAIL
  6
CONTINOUS
 62
     5
 10
54.36
 20
-41.4
 11
54.36
 21
-36.36
  0
LINE
  8
DETAIL
  6
CONTINOUS
 62
     5
 10
54.36
 20
-41.4
 11
49.32
 21
-41.4
  0
LINE
  8
DETAIL
  6
CONTINOUS
 62
     5
 10
49.32
 20
-41.4
 11
49.32
 21
-36.36
  0
LINE
  8
DETAIL
  6
CONTINOUS
 62
     5
 10
54.36
 20
-36.36
 11
49.32
 21
-36.36
  0
LINE
  8
DETAIL
  6
CONTINOUS
 62
     5
 10
54.36
 20
-34.92
 11
54.36
 21
-29.88
  0
LINE
  8
DETAIL
  6
CONTINOUS
 62
     5
 10
54.36
 20
-34.92
 11
49.32
 21
-34.92
  0
LINE
  8
DETAIL
  6
CONTINOUS
 62
     5
 10
49.32
 20
-34.92
 11
49.32
 21
-29.88
  0
LINE
  8
DETAIL
  6
CONTINOUS
 62
     5
 10
54.36
 20
-29.88
 11
49.32
 21
-29.88
  0
LINE
  8
DETAIL
  6
CONTINOUS
 62
     5
 10
54.36
 20
-28.44
 11
54.36
 21
-23.4
  0
LINE
  8
DETAIL
  6
CONTINOUS
 62
     5
 10
54.36
 20
-28.44
 11
49.32
 21
-28.44
  0
LINE
  8
DETAIL
  6
CONTINOUS
 62
     5
 10
49.32
 20
-28.44
 11
49.32
 21
-23.4
  0
LINE
  8
DETAIL
  6
CONTINOUS
 62
     5
 10
54.36
 20
-23.4
 11
49.32
 21
-23.4
  0
LINE
  8
DETAIL
  6
CONTINOUS
 62
     5
 10
54.36
 20
-21.96
 11
54.36
 21
-16.92
  0
LINE
  8
DETAIL
  6
CONTINOUS
 62
     5
 10
54.36
 20
-21.96
 11
49.32
 21
-21.96
  0
LINE
  8
DETAIL
  6
CONTINOUS
 62
     5
 10
49.32
 20
-21.96
 11
49.32
 21
-16.92
  0
LINE
  8
DETAIL
  6
CONTINOUS
 62
     5
 10
54.36
 20
-16.92
 11
49.32
 21
-16.92
  0
LINE
  8
DETAIL
  6
CONTINOUS
 62
     5
 10
54.36
 20
-15.48
 11
54.36
 21
-10.44
  0
LINE
  8
DETAIL
  6
CONTINOUS
 62
     5
 10
54.36
 20
-15.48
 11
49.32
 21
-15.48
  0
LINE
  8
DETAIL
  6
CONTINOUS
 62
     5
 10
49.32
 20
-15.48
 11
49.32
 21
-10.44
  0
LINE
  8
DETAIL
  6
CONTINOUS
 62
     5
 10
54.36
 20
-10.44
 11
49.32
 21
-10.44
  0
LINE
  8
DETAIL
  6
CONTINOUS
 62
     5
 10
54.36
 20
-9.0
 11
54.36
 21
-3.96
  0
LINE
  8
DETAIL
  6
CONTINOUS
 62
     5
 10
54.36
 20
-9.0
 11
49.32
 21
-9.0
  0
LINE
  8
DETAIL
  6
CONTINOUS
 62
     5
 10
49.32
 20
-9.0
 11
49.32
 21
-3.96
  0
LINE
  8
DETAIL
  6
CONTINOUS
 62
     5
 10
54.36
 20
-3.96
 11
49.32
 21
-3.96
  0
LINE
  8
DETAIL
  6
CONTINOUS
 62
     5
 10
54.36
 20
-2.52
 11
54.36
 21
2.52
  0
LINE
  8
DETAIL
  6
CONTINOUS
 62
     5
 10
54.36
 20
-2.52
 11
49.32
 21
-2.52
  0
LINE
  8
DETAIL
  6
CONTINOUS
 62
     5
 10
49.32
 20
-2.52
 11
49.32
 21
2.52
  0
LINE
  8
DETAIL
  6
CONTINOUS
 62
     5
 10
54.36
 20
2.52
 11
49.32
 21
2.52
  0
LINE
  8
DETAIL
  6
CONTINOUS
 62
     5
 10
54.36
 20
3.96
 11
54.36
 21
9.0
  0
LINE
  8
DETAIL
  6
CONTINOUS
 62
     5
 10
54.36
 20
3.96
 11
49.32
 21
3.96
  0
LINE
  8
DETAIL
  6
CONTINOUS
 62
     5
 10
49.32
 20
3.96
 11
49.32
 21
9.0
  0
LINE
  8
DETAIL
  6
CONTINOUS
 62
     5
 10
54.36
 20
9.0
 11
49.32
 21
9.0
  0
LINE
  8
DETAIL
  6
CONTINOUS
 62
     5
 10
54.36
 20
10.44
 11
54.36
 21
15.48
  0
LINE
  8
DETAIL
  6
CONTINOUS
 62
     5
 10
54.36
 20
10.44
 11
49.32
 21
10.44
  0
LINE
  8
DETAIL
  6
CONTINOUS
 62
     5
 10
49.32
 20
10.44
 11
49.32
 21
15.48
  0
LINE
  8
DETAIL
  6
CONTINOUS
 62
     5
 10
54.36
 20
15.48
 11
49.32
 21
15.48
  0
LINE
  8
DETAIL
  6
CONTINOUS
 62
     5
 10
54.36
 20
16.92
 11
54.36
 21
21.96
  0
LINE
  8
DETAIL
  6
CONTINOUS
 62
     5
 10
54.36
 20
16.92
 11
49.32
 21
16.92
  0
LINE
  8
DETAIL
  6
CONTINOUS
 62
     5
 10
49.32
 20
16.92
 11
49.32
 21
21.96
  0
LINE
  8
DETAIL
  6
CONTINOUS
 62
     5
 10
54.36
 20
21.96
 11
49.32
 21
21.96
  0
LINE
  8
DETAIL
  6
CONTINOUS
 62
     5
 10
54.36
 20
23.4
 11
54.36
 21
28.44
  0
LINE
  8
DETAIL
  6
CONTINOUS
 62
     5
 10
54.36
 20
23.4
 11
49.32
 21
23.4
  0
LINE
  8
DETAIL
  6
CONTINOUS
 62
     5
 10
49.32
 20
23.4
 11
49.32
 21
28.44
  0
LINE
  8
DETAIL
  6
CONTINOUS
 62
     5
 10
54.36
 20
28.44
 11
49.32
 21
28.44
  0
LINE
  8
DETAIL
  6
CONTINOUS
 62
     5
 10
54.36
 20
29.88
 11
54.36
 21
34.92
  0
LINE
  8
DETAIL
  6
CONTINOUS
 62
     5
 10
54.36
 20
29.88
 11
49.32
 21
29.88
  0
LINE
  8
DETAIL
  6
CONTINOUS
 62
     5
 10
49.32
 20
29.88
 11
49.32
 21
34.92
  0
LINE
  8
DETAIL
  6
CONTINOUS
 62
     5
 10
54.36
 20
34.92
 11
49.32
 21
34.92
  0
LINE
  8
DETAIL
  6
CONTINOUS
 62
     5
 10
54.36
 20
36.36
 11
54.36
 21
41.4
  0
LINE
  8
DETAIL
  6
CONTINOUS
 62
     5
 10
54.36
 20
36.36
 11
49.32
 21
36.36
  0
LINE
  8
DETAIL
  6
CONTINOUS
 62
     5
 10
49.32
 20
36.36
 11
49.32
 21
41.4
  0
LINE
  8
DETAIL
  6
CONTINOUS
 62
     5
 10
54.36
 20
41.4
 11
49.32
 21
41.4
  0
LINE
  8
DETAIL
  6
CONTINOUS
 62
     5
 10
54.36
 20
42.84
 11
54.36
 21
47.88
  0
LINE
  8
DETAIL
  6
CONTINOUS
 62
     5
 10
54.36
 20
42.84
 11
49.32
 21
42.84
  0
LINE
  8
DETAIL
  6
CONTINOUS
 62
     5
 10
49.32
 20
42.84
 11
49.32
 21
47.88
  0
LINE
  8
DETAIL
  6
CONTINOUS
 62
     5
 10
54.36
 20
47.88
 11
49.32
 21
47.88
  0
LINE
  8
DETAIL
  6
CONTINOUS
 62
     5
 10
54.36
 20
49.32
 11
54.36
 21
54.36
  0
LINE
  8
DETAIL
  6
CONTINOUS
 62
     5
 10
54.36
 20
49.32
 11
49.32
 21
49.32
  0
LINE
  8
DETAIL
  6
CONTINOUS
 62
     5
 10
49.32
 20
49.32
 11
49.32
 21
54.36
  0
LINE
  8
DETAIL
  6
CONTINOUS
 62
     5
 10
54.36
 20
54.36
 11
49.32
 21
54.36
  0
LINE
  8
DETAIL
  6
CONTINOUS
 62
     5
 10
54.36
 20
55.8
 11
54.36
 21
60.84
  0
LINE
  8
DETAIL
  6
CONTINOUS
 62
     5
 10
54.36
 20
55.8
 11
49.32
 21
55.8
  0
LINE
  8
DETAIL
  6
CONTINOUS
 62
     5
 10
49.32
 20
55.8
 11
49.32
 21
60.84
  0
LINE
  8
DETAIL
  6
CONTINOUS
 62
     5
 10
54.36
 20
60.84
 11
49.32
 21
60.84
  0
LINE
  8
DETAIL
  6
CONTINOUS
 62
     5
 10
54.36
 20
62.28
 11
54.36
 21
67.32
  0
LINE
  8
DETAIL
  6
CONTINOUS
 62
     5
 10
54.36
 20
62.28
 11
49.32
 21
62.28
  0
LINE
  8
DETAIL
  6
CONTINOUS
 62
     5
 10
49.32
 20
62.28
 11
49.32
 21
67.32
  0
LINE
  8
DETAIL
  6
CONTINOUS
 62
     5
 10
54.36
 20
67.32
 11
49.32
 21
67.32
  0
LINE
  8
DETAIL
  6
CONTINOUS
 62
     5
 10
54.36
 20
68.76
 11
54.36
 21
73.8
  0
LINE
  8
DETAIL
  6
CONTINOUS
 62
     5
 10
54.36
 20
68.76
 11
49.32
 21
68.76
  0
LINE
  8
DETAIL
  6
CONTINOUS
 62
     5
 10
49.32
 20
68.76
 11
49.32
 21
73.8
  0
LINE
  8
DETAIL
  6
CONTINOUS
 62
     5
 10
54.36
 20
73.8
 11
49.32
 21
73.8
  0
LINE
  8
DETAIL
  6
CONTINOUS
 62
     5
 10
54.36
 20
75.24
 11
54.36
 21
80.28
  0
LINE
  8
DETAIL
  6
CONTINOUS
 62
     5
 10
54.36
 20
75.24
 11
49.32
 21
75.24
  0
LINE
  8
DETAIL
  6
CONTINOUS
 62
     5
 10
49.32
 20
75.24
 11
49.32
 21
80.28
  0
LINE
  8
DETAIL
  6
CONTINOUS
 62
     5
 10
54.36
 20
80.28
 11
49.32
 21
80.28
  0
LINE
  8
DETAIL
  6
CONTINOUS
 62
     5
 10
54.36
 20
81.72
 11
54.36
 21
86.76
  0
LINE
  8
DETAIL
  6
CONTINOUS
 62
     5
 10
54.36
 20
81.72
 11
49.32
 21
81.72
  0
LINE
  8
DETAIL
  6
CONTINOUS
 62
     5
 10
49.32
 20
81.72
 11
49.32
 21
86.76
  0
LINE
  8
DETAIL
  6
CONTINOUS
 62
     5
 10
54.36
 20
86.76
 11
49.32
 21
86.76
  0
LINE
  8
DETAIL
  6
CONTINOUS
 62
     5
 10
47.88
 20
-86.76
 11
47.88
 21
-81.72
  0
LINE
  8
DETAIL
  6
CONTINOUS
 62
     5
 10
47.88
 20
-86.76
 11
42.84
 21
-86.76
  0
LINE
  8
DETAIL
  6
CONTINOUS
 62
     5
 10
42.84
 20
-86.76
 11
42.84
 21
-81.72
  0
LINE
  8
DETAIL
  6
CONTINOUS
 62
     5
 10
47.88
 20
-81.72
 11
42.84
 21
-81.72
  0
LINE
  8
DETAIL
  6
CONTINOUS
 62
     5
 10
47.88
 20
-80.28
 11
47.88
 21
-75.24
  0
LINE
  8
DETAIL
  6
CONTINOUS
 62
     5
 10
47.88
 20
-80.28
 11
42.84
 21
-80.28
  0
LINE
  8
DETAIL
  6
CONTINOUS
 62
     5
 10
42.84
 20
-80.28
 11
42.84
 21
-75.24
  0
LINE
  8
DETAIL
  6
CONTINOUS
 62
     5
 10
47.88
 20
-75.24
 11
42.84
 21
-75.24
  0
LINE
  8
DETAIL
  6
CONTINOUS
 62
     5
 10
47.88
 20
-73.8
 11
47.88
 21
-68.76
  0
LINE
  8
DETAIL
  6
CONTINOUS
 62
     5
 10
47.88
 20
-73.8
 11
42.84
 21
-73.8
  0
LINE
  8
DETAIL
  6
CONTINOUS
 62
     5
 10
42.84
 20
-73.8
 11
42.84
 21
-68.76
  0
LINE
  8
DETAIL
  6
CONTINOUS
 62
     5
 10
47.88
 20
-68.76
 11
42.84
 21
-68.76
  0
LINE
  8
DETAIL
  6
CONTINOUS
 62
     5
 10
47.88
 20
-67.32
 11
47.88
 21
-62.28
  0
LINE
  8
DETAIL
  6
CONTINOUS
 62
     5
 10
47.88
 20
-67.32
 11
42.84
 21
-67.32
  0
LINE
  8
DETAIL
  6
CONTINOUS
 62
     5
 10
42.84
 20
-67.32
 11
42.84
 21
-62.28
  0
LINE
  8
DETAIL
  6
CONTINOUS
 62
     5
 10
47.88
 20
-62.28
 11
42.84
 21
-62.28
  0
LINE
  8
DETAIL
  6
CONTINOUS
 62
     5
 10
47.88
 20
-60.84
 11
47.88
 21
-55.8
  0
LINE
  8
DETAIL
  6
CONTINOUS
 62
     5
 10
47.88
 20
-60.84
 11
42.84
 21
-60.84
  0
LINE
  8
DETAIL
  6
CONTINOUS
 62
     5
 10
42.84
 20
-60.84
 11
42.84
 21
-55.8
  0
LINE
  8
DETAIL
  6
CONTINOUS
 62
     5
 10
47.88
 20
-55.8
 11
42.84
 21
-55.8
  0
LINE
  8
DETAIL
  6
CONTINOUS
 62
     5
 10
47.88
 20
-54.36
 11
47.88
 21
-49.32
  0
LINE
  8
DETAIL
  6
CONTINOUS
 62
     5
 10
47.88
 20
-54.36
 11
42.84
 21
-54.36
  0
LINE
  8
DETAIL
  6
CONTINOUS
 62
     5
 10
42.84
 20
-54.36
 11
42.84
 21
-49.32
  0
LINE
  8
DETAIL
  6
CONTINOUS
 62
     5
 10
47.88
 20
-49.32
 11
42.84
 21
-49.32
  0
LINE
  8
DETAIL
  6
CONTINOUS
 62
     5
 10
47.88
 20
-47.88
 11
47.88
 21
-42.84
  0
LINE
  8
DETAIL
  6
CONTINOUS
 62
     5
 10
47.88
 20
-47.88
 11
42.84
 21
-47.88
  0
LINE
  8
DETAIL
  6
CONTINOUS
 62
     5
 10
42.84
 20
-47.88
 11
42.84
 21
-42.84
  0
LINE
  8
DETAIL
  6
CONTINOUS
 62
     5
 10
47.88
 20
-42.84
 11
42.84
 21
-42.84
  0
LINE
  8
DETAIL
  6
CONTINOUS
 62
     5
 10
47.88
 20
-41.4
 11
47.88
 21
-36.36
  0
LINE
  8
DETAIL
  6
CONTINOUS
 62
     5
 10
47.88
 20
-41.4
 11
42.84
 21
-41.4
  0
LINE
  8
DETAIL
  6
CONTINOUS
 62
     5
 10
42.84
 20
-41.4
 11
42.84
 21
-36.36
  0
LINE
  8
DETAIL
  6
CONTINOUS
 62
     5
 10
47.88
 20
-36.36
 11
42.84
 21
-36.36
  0
LINE
  8
DETAIL
  6
CONTINOUS
 62
     5
 10
47.88
 20
-34.92
 11
47.88
 21
-29.88
  0
LINE
  8
DETAIL
  6
CONTINOUS
 62
     5
 10
47.88
 20
-34.92
 11
42.84
 21
-34.92
  0
LINE
  8
DETAIL
  6
CONTINOUS
 62
     5
 10
42.84
 20
-34.92
 11
42.84
 21
-29.88
  0
LINE
  8
DETAIL
  6
CONTINOUS
 62
     5
 10
47.88
 20
-29.88
 11
42.84
 21
-29.88
  0
LINE
  8
DETAIL
  6
CONTINOUS
 62
     5
 10
47.88
 20
-28.44
 11
47.88
 21
-23.4
  0
LINE
  8
DETAIL
  6
CONTINOUS
 62
     5
 10
47.88
 20
-28.44
 11
42.84
 21
-28.44
  0
LINE
  8
DETAIL
  6
CONTINOUS
 62
     5
 10
42.84
 20
-28.44
 11
42.84
 21
-23.4
  0
LINE
  8
DETAIL
  6
CONTINOUS
 62
     5
 10
47.88
 20
-23.4
 11
42.84
 21
-23.4
  0
LINE
  8
DETAIL
  6
CONTINOUS
 62
     5
 10
47.88
 20
-21.96
 11
47.88
 21
-16.92
  0
LINE
  8
DETAIL
  6
CONTINOUS
 62
     5
 10
47.88
 20
-21.96
 11
42.84
 21
-21.96
  0
LINE
  8
DETAIL
  6
CONTINOUS
 62
     5
 10
42.84
 20
-21.96
 11
42.84
 21
-16.92
  0
LINE
  8
DETAIL
  6
CONTINOUS
 62
     5
 10
47.88
 20
-16.92
 11
42.84
 21
-16.92
  0
LINE
  8
DETAIL
  6
CONTINOUS
 62
     5
 10
47.88
 20
-15.48
 11
47.88
 21
-10.44
  0
LINE
  8
DETAIL
  6
CONTINOUS
 62
     5
 10
47.88
 20
-15.48
 11
42.84
 21
-15.48
  0
LINE
  8
DETAIL
  6
CONTINOUS
 62
     5
 10
42.84
 20
-15.48
 11
42.84
 21
-10.44
  0
LINE
  8
DETAIL
  6
CONTINOUS
 62
     5
 10
47.88
 20
-10.44
 11
42.84
 21
-10.44
  0
LINE
  8
DETAIL
  6
CONTINOUS
 62
     5
 10
47.88
 20
-9.0
 11
47.88
 21
-3.96
  0
LINE
  8
DETAIL
  6
CONTINOUS
 62
     5
 10
47.88
 20
-9.0
 11
42.84
 21
-9.0
  0
LINE
  8
DETAIL
  6
CONTINOUS
 62
     5
 10
42.84
 20
-9.0
 11
42.84
 21
-3.96
  0
LINE
  8
DETAIL
  6
CONTINOUS
 62
     5
 10
47.88
 20
-3.96
 11
42.84
 21
-3.96
  0
LINE
  8
DETAIL
  6
CONTINOUS
 62
     5
 10
47.88
 20
-2.52
 11
47.88
 21
2.52
  0
LINE
  8
DETAIL
  6
CONTINOUS
 62
     5
 10
47.88
 20
-2.52
 11
42.84
 21
-2.52
  0
LINE
  8
DETAIL
  6
CONTINOUS
 62
     5
 10
42.84
 20
-2.52
 11
42.84
 21
2.52
  0
LINE
  8
DETAIL
  6
CONTINOUS
 62
     5
 10
47.88
 20
2.52
 11
42.84
 21
2.52
  0
LINE
  8
DETAIL
  6
CONTINOUS
 62
     5
 10
47.88
 20
3.96
 11
47.88
 21
9.0
  0
LINE
  8
DETAIL
  6
CONTINOUS
 62
     5
 10
47.88
 20
3.96
 11
42.84
 21
3.96
  0
LINE
  8
DETAIL
  6
CONTINOUS
 62
     5
 10
42.84
 20
3.96
 11
42.84
 21
9.0
  0
LINE
  8
DETAIL
  6
CONTINOUS
 62
     5
 10
47.88
 20
9.0
 11
42.84
 21
9.0
  0
LINE
  8
DETAIL
  6
CONTINOUS
 62
     5
 10
47.88
 20
10.44
 11
47.88
 21
15.48
  0
LINE
  8
DETAIL
  6
CONTINOUS
 62
     5
 10
47.88
 20
10.44
 11
42.84
 21
10.44
  0
LINE
  8
DETAIL
  6
CONTINOUS
 62
     5
 10
42.84
 20
10.44
 11
42.84
 21
15.48
  0
LINE
  8
DETAIL
  6
CONTINOUS
 62
     5
 10
47.88
 20
15.48
 11
42.84
 21
15.48
  0
LINE
  8
DETAIL
  6
CONTINOUS
 62
     5
 10
47.88
 20
16.92
 11
47.88
 21
21.96
  0
LINE
  8
DETAIL
  6
CONTINOUS
 62
     5
 10
47.88
 20
16.92
 11
42.84
 21
16.92
  0
LINE
  8
DETAIL
  6
CONTINOUS
 62
     5
 10
42.84
 20
16.92
 11
42.84
 21
21.96
  0
LINE
  8
DETAIL
  6
CONTINOUS
 62
     5
 10
47.88
 20
21.96
 11
42.84
 21
21.96
  0
LINE
  8
DETAIL
  6
CONTINOUS
 62
     5
 10
47.88
 20
23.4
 11
47.88
 21
28.44
  0
LINE
  8
DETAIL
  6
CONTINOUS
 62
     5
 10
47.88
 20
23.4
 11
42.84
 21
23.4
  0
LINE
  8
DETAIL
  6
CONTINOUS
 62
     5
 10
42.84
 20
23.4
 11
42.84
 21
28.44
  0
LINE
  8
DETAIL
  6
CONTINOUS
 62
     5
 10
47.88
 20
28.44
 11
42.84
 21
28.44
  0
LINE
  8
DETAIL
  6
CONTINOUS
 62
     5
 10
47.88
 20
29.88
 11
47.88
 21
34.92
  0
LINE
  8
DETAIL
  6
CONTINOUS
 62
     5
 10
47.88
 20
29.88
 11
42.84
 21
29.88
  0
LINE
  8
DETAIL
  6
CONTINOUS
 62
     5
 10
42.84
 20
29.88
 11
42.84
 21
34.92
  0
LINE
  8
DETAIL
  6
CONTINOUS
 62
     5
 10
47.88
 20
34.92
 11
42.84
 21
34.92
  0
LINE
  8
DETAIL
  6
CONTINOUS
 62
     5
 10
47.88
 20
36.36
 11
47.88
 21
41.4
  0
LINE
  8
DETAIL
  6
CONTINOUS
 62
     5
 10
47.88
 20
36.36
 11
42.84
 21
36.36
  0
LINE
  8
DETAIL
  6
CONTINOUS
 62
     5
 10
42.84
 20
36.36
 11
42.84
 21
41.4
  0
LINE
  8
DETAIL
  6
CONTINOUS
 62
     5
 10
47.88
 20
41.4
 11
42.84
 21
41.4
  0
LINE
  8
DETAIL
  6
CONTINOUS
 62
     5
 10
47.88
 20
42.84
 11
47.88
 21
47.88
  0
LINE
  8
DETAIL
  6
CONTINOUS
 62
     5
 10
47.88
 20
42.84
 11
42.84
 21
42.84
  0
LINE
  8
DETAIL
  6
CONTINOUS
 62
     5
 10
42.84
 20
42.84
 11
42.84
 21
47.88
  0
LINE
  8
DETAIL
  6
CONTINOUS
 62
     5
 10
47.88
 20
47.88
 11
42.84
 21
47.88
  0
LINE
  8
DETAIL
  6
CONTINOUS
 62
     5
 10
47.88
 20
49.32
 11
47.88
 21
54.36
  0
LINE
  8
DETAIL
  6
CONTINOUS
 62
     5
 10
47.88
 20
49.32
 11
42.84
 21
49.32
  0
LINE
  8
DETAIL
  6
CONTINOUS
 62
     5
 10
42.84
 20
49.32
 11
42.84
 21
54.36
  0
LINE
  8
DETAIL
  6
CONTINOUS
 62
     5
 10
47.88
 20
54.36
 11
42.84
 21
54.36
  0
LINE
  8
DETAIL
  6
CONTINOUS
 62
     5
 10
47.88
 20
55.8
 11
47.88
 21
60.84
  0
LINE
  8
DETAIL
  6
CONTINOUS
 62
     5
 10
47.88
 20
55.8
 11
42.84
 21
55.8
  0
LINE
  8
DETAIL
  6
CONTINOUS
 62
     5
 10
42.84
 20
55.8
 11
42.84
 21
60.84
  0
LINE
  8
DETAIL
  6
CONTINOUS
 62
     5
 10
47.88
 20
60.84
 11
42.84
 21
60.84
  0
LINE
  8
DETAIL
  6
CONTINOUS
 62
     5
 10
47.88
 20
62.28
 11
47.88
 21
67.32
  0
LINE
  8
DETAIL
  6
CONTINOUS
 62
     5
 10
47.88
 20
62.28
 11
42.84
 21
62.28
  0
LINE
  8
DETAIL
  6
CONTINOUS
 62
     5
 10
42.84
 20
62.28
 11
42.84
 21
67.32
  0
LINE
  8
DETAIL
  6
CONTINOUS
 62
     5
 10
47.88
 20
67.32
 11
42.84
 21
67.32
  0
LINE
  8
DETAIL
  6
CONTINOUS
 62
     5
 10
47.88
 20
68.76
 11
47.88
 21
73.8
  0
LINE
  8
DETAIL
  6
CONTINOUS
 62
     5
 10
47.88
 20
68.76
 11
42.84
 21
68.76
  0
LINE
  8
DETAIL
  6
CONTINOUS
 62
     5
 10
42.84
 20
68.76
 11
42.84
 21
73.8
  0
LINE
  8
DETAIL
  6
CONTINOUS
 62
     5
 10
47.88
 20
73.8
 11
42.84
 21
73.8
  0
LINE
  8
DETAIL
  6
CONTINOUS
 62
     5
 10
47.88
 20
75.24
 11
47.88
 21
80.28
  0
LINE
  8
DETAIL
  6
CONTINOUS
 62
     5
 10
47.88
 20
75.24
 11
42.84
 21
75.24
  0
LINE
  8
DETAIL
  6
CONTINOUS
 62
     5
 10
42.84
 20
75.24
 11
42.84
 21
80.28
  0
LINE
  8
DETAIL
  6
CONTINOUS
 62
     5
 10
47.88
 20
80.28
 11
42.84
 21
80.28
  0
LINE
  8
DETAIL
  6
CONTINOUS
 62
     5
 10
47.88
 20
81.72
 11
47.88
 21
86.76
  0
LINE
  8
DETAIL
  6
CONTINOUS
 62
     5
 10
47.88
 20
81.72
 11
42.84
 21
81.72
  0
LINE
  8
DETAIL
  6
CONTINOUS
 62
     5
 10
42.84
 20
81.72
 11
42.84
 21
86.76
  0
LINE
  8
DETAIL
  6
CONTINOUS
 62
     5
 10
47.88
 20
86.76
 11
42.84
 21
86.76
  0
LINE
  8
DETAIL
  6
CONTINOUS
 62
     5
 10
41.4
 20
-86.76
 11
41.4
 21
-81.72
  0
LINE
  8
DETAIL
  6
CONTINOUS
 62
     5
 10
41.4
 20
-86.76
 11
36.36
 21
-86.76
  0
LINE
  8
DETAIL
  6
CONTINOUS
 62
     5
 10
36.36
 20
-86.76
 11
36.36
 21
-81.72
  0
LINE
  8
DETAIL
  6
CONTINOUS
 62
     5
 10
41.4
 20
-81.72
 11
36.36
 21
-81.72
  0
LINE
  8
DETAIL
  6
CONTINOUS
 62
     5
 10
41.4
 20
-80.28
 11
41.4
 21
-75.24
  0
LINE
  8
DETAIL
  6
CONTINOUS
 62
     5
 10
41.4
 20
-80.28
 11
36.36
 21
-80.28
  0
LINE
  8
DETAIL
  6
CONTINOUS
 62
     5
 10
36.36
 20
-80.28
 11
36.36
 21
-75.24
  0
LINE
  8
DETAIL
  6
CONTINOUS
 62
     5
 10
41.4
 20
-75.24
 11
36.36
 21
-75.24
  0
LINE
  8
DETAIL
  6
CONTINOUS
 62
     5
 10
41.4
 20
-73.8
 11
41.4
 21
-68.76
  0
LINE
  8
DETAIL
  6
CONTINOUS
 62
     5
 10
41.4
 20
-73.8
 11
36.36
 21
-73.8
  0
LINE
  8
DETAIL
  6
CONTINOUS
 62
     5
 10
36.36
 20
-73.8
 11
36.36
 21
-68.76
  0
LINE
  8
DETAIL
  6
CONTINOUS
 62
     5
 10
41.4
 20
-68.76
 11
36.36
 21
-68.76
  0
LINE
  8
DETAIL
  6
CONTINOUS
 62
     5
 10
41.4
 20
-67.32
 11
41.4
 21
-62.28
  0
LINE
  8
DETAIL
  6
CONTINOUS
 62
     5
 10
41.4
 20
-67.32
 11
36.36
 21
-67.32
  0
LINE
  8
DETAIL
  6
CONTINOUS
 62
     5
 10
36.36
 20
-67.32
 11
36.36
 21
-62.28
  0
LINE
  8
DETAIL
  6
CONTINOUS
 62
     5
 10
41.4
 20
-62.28
 11
36.36
 21
-62.28
  0
LINE
  8
DETAIL
  6
CONTINOUS
 62
     5
 10
41.4
 20
-60.84
 11
41.4
 21
-55.8
  0
LINE
  8
DETAIL
  6
CONTINOUS
 62
     5
 10
41.4
 20
-60.84
 11
36.36
 21
-60.84
  0
LINE
  8
DETAIL
  6
CONTINOUS
 62
     5
 10
36.36
 20
-60.84
 11
36.36
 21
-55.8
  0
LINE
  8
DETAIL
  6
CONTINOUS
 62
     5
 10
41.4
 20
-55.8
 11
36.36
 21
-55.8
  0
LINE
  8
DETAIL
  6
CONTINOUS
 62
     5
 10
41.4
 20
-54.36
 11
41.4
 21
-49.32
  0
LINE
  8
DETAIL
  6
CONTINOUS
 62
     5
 10
41.4
 20
-54.36
 11
36.36
 21
-54.36
  0
LINE
  8
DETAIL
  6
CONTINOUS
 62
     5
 10
36.36
 20
-54.36
 11
36.36
 21
-49.32
  0
LINE
  8
DETAIL
  6
CONTINOUS
 62
     5
 10
41.4
 20
-49.32
 11
36.36
 21
-49.32
  0
LINE
  8
DETAIL
  6
CONTINOUS
 62
     5
 10
41.4
 20
-47.88
 11
41.4
 21
-42.84
  0
LINE
  8
DETAIL
  6
CONTINOUS
 62
     5
 10
41.4
 20
-47.88
 11
36.36
 21
-47.88
  0
LINE
  8
DETAIL
  6
CONTINOUS
 62
     5
 10
36.36
 20
-47.88
 11
36.36
 21
-42.84
  0
LINE
  8
DETAIL
  6
CONTINOUS
 62
     5
 10
41.4
 20
-42.84
 11
36.36
 21
-42.84
  0
LINE
  8
DETAIL
  6
CONTINOUS
 62
     5
 10
41.4
 20
-41.4
 11
41.4
 21
-36.36
  0
LINE
  8
DETAIL
  6
CONTINOUS
 62
     5
 10
41.4
 20
-41.4
 11
36.36
 21
-41.4
  0
LINE
  8
DETAIL
  6
CONTINOUS
 62
     5
 10
36.36
 20
-41.4
 11
36.36
 21
-36.36
  0
LINE
  8
DETAIL
  6
CONTINOUS
 62
     5
 10
41.4
 20
-36.36
 11
36.36
 21
-36.36
  0
LINE
  8
DETAIL
  6
CONTINOUS
 62
     5
 10
41.4
 20
-34.92
 11
41.4
 21
-29.88
  0
LINE
  8
DETAIL
  6
CONTINOUS
 62
     5
 10
41.4
 20
-34.92
 11
36.36
 21
-34.92
  0
LINE
  8
DETAIL
  6
CONTINOUS
 62
     5
 10
36.36
 20
-34.92
 11
36.36
 21
-29.88
  0
LINE
  8
DETAIL
  6
CONTINOUS
 62
     5
 10
41.4
 20
-29.88
 11
36.36
 21
-29.88
  0
LINE
  8
DETAIL
  6
CONTINOUS
 62
     5
 10
41.4
 20
-28.44
 11
41.4
 21
-23.4
  0
LINE
  8
DETAIL
  6
CONTINOUS
 62
     5
 10
41.4
 20
-28.44
 11
36.36
 21
-28.44
  0
LINE
  8
DETAIL
  6
CONTINOUS
 62
     5
 10
36.36
 20
-28.44
 11
36.36
 21
-23.4
  0
LINE
  8
DETAIL
  6
CONTINOUS
 62
     5
 10
41.4
 20
-23.4
 11
36.36
 21
-23.4
  0
LINE
  8
DETAIL
  6
CONTINOUS
 62
     5
 10
41.4
 20
-21.96
 11
41.4
 21
-16.92
  0
LINE
  8
DETAIL
  6
CONTINOUS
 62
     5
 10
41.4
 20
-21.96
 11
36.36
 21
-21.96
  0
LINE
  8
DETAIL
  6
CONTINOUS
 62
     5
 10
36.36
 20
-21.96
 11
36.36
 21
-16.92
  0
LINE
  8
DETAIL
  6
CONTINOUS
 62
     5
 10
41.4
 20
-16.92
 11
36.36
 21
-16.92
  0
LINE
  8
DETAIL
  6
CONTINOUS
 62
     5
 10
41.4
 20
-15.48
 11
41.4
 21
-10.44
  0
LINE
  8
DETAIL
  6
CONTINOUS
 62
     5
 10
41.4
 20
-15.48
 11
36.36
 21
-15.48
  0
LINE
  8
DETAIL
  6
CONTINOUS
 62
     5
 10
36.36
 20
-15.48
 11
36.36
 21
-10.44
  0
LINE
  8
DETAIL
  6
CONTINOUS
 62
     5
 10
41.4
 20
-10.44
 11
36.36
 21
-10.44
  0
LINE
  8
DETAIL
  6
CONTINOUS
 62
     5
 10
41.4
 20
-9.0
 11
41.4
 21
-3.96
  0
LINE
  8
DETAIL
  6
CONTINOUS
 62
     5
 10
41.4
 20
-9.0
 11
36.36
 21
-9.0
  0
LINE
  8
DETAIL
  6
CONTINOUS
 62
     5
 10
36.36
 20
-9.0
 11
36.36
 21
-3.96
  0
LINE
  8
DETAIL
  6
CONTINOUS
 62
     5
 10
41.4
 20
-3.96
 11
36.36
 21
-3.96
  0
LINE
  8
DETAIL
  6
CONTINOUS
 62
     5
 10
41.4
 20
-2.52
 11
41.4
 21
2.52
  0
LINE
  8
DETAIL
  6
CONTINOUS
 62
     5
 10
41.4
 20
-2.52
 11
36.36
 21
-2.52
  0
LINE
  8
DETAIL
  6
CONTINOUS
 62
     5
 10
36.36
 20
-2.52
 11
36.36
 21
2.52
  0
LINE
  8
DETAIL
  6
CONTINOUS
 62
     5
 10
41.4
 20
2.52
 11
36.36
 21
2.52
  0
LINE
  8
DETAIL
  6
CONTINOUS
 62
     5
 10
41.4
 20
3.96
 11
41.4
 21
9.0
  0
LINE
  8
DETAIL
  6
CONTINOUS
 62
     5
 10
41.4
 20
3.96
 11
36.36
 21
3.96
  0
LINE
  8
DETAIL
  6
CONTINOUS
 62
     5
 10
36.36
 20
3.96
 11
36.36
 21
9.0
  0
LINE
  8
DETAIL
  6
CONTINOUS
 62
     5
 10
41.4
 20
9.0
 11
36.36
 21
9.0
  0
LINE
  8
DETAIL
  6
CONTINOUS
 62
     5
 10
41.4
 20
10.44
 11
41.4
 21
15.48
  0
LINE
  8
DETAIL
  6
CONTINOUS
 62
     5
 10
41.4
 20
10.44
 11
36.36
 21
10.44
  0
LINE
  8
DETAIL
  6
CONTINOUS
 62
     5
 10
36.36
 20
10.44
 11
36.36
 21
15.48
  0
LINE
  8
DETAIL
  6
CONTINOUS
 62
     5
 10
41.4
 20
15.48
 11
36.36
 21
15.48
  0
LINE
  8
DETAIL
  6
CONTINOUS
 62
     5
 10
41.4
 20
16.92
 11
41.4
 21
21.96
  0
LINE
  8
DETAIL
  6
CONTINOUS
 62
     5
 10
41.4
 20
16.92
 11
36.36
 21
16.92
  0
LINE
  8
DETAIL
  6
CONTINOUS
 62
     5
 10
36.36
 20
16.92
 11
36.36
 21
21.96
  0
LINE
  8
DETAIL
  6
CONTINOUS
 62
     5
 10
41.4
 20
21.96
 11
36.36
 21
21.96
  0
LINE
  8
DETAIL
  6
CONTINOUS
 62
     5
 10
41.4
 20
23.4
 11
41.4
 21
28.44
  0
LINE
  8
DETAIL
  6
CONTINOUS
 62
     5
 10
41.4
 20
23.4
 11
36.36
 21
23.4
  0
LINE
  8
DETAIL
  6
CONTINOUS
 62
     5
 10
36.36
 20
23.4
 11
36.36
 21
28.44
  0
LINE
  8
DETAIL
  6
CONTINOUS
 62
     5
 10
41.4
 20
28.44
 11
36.36
 21
28.44
  0
LINE
  8
DETAIL
  6
CONTINOUS
 62
     5
 10
41.4
 20
29.88
 11
41.4
 21
34.92
  0
LINE
  8
DETAIL
  6
CONTINOUS
 62
     5
 10
41.4
 20
29.88
 11
36.36
 21
29.88
  0
LINE
  8
DETAIL
  6
CONTINOUS
 62
     5
 10
36.36
 20
29.88
 11
36.36
 21
34.92
  0
LINE
  8
DETAIL
  6
CONTINOUS
 62
     5
 10
41.4
 20
34.92
 11
36.36
 21
34.92
  0
LINE
  8
DETAIL
  6
CONTINOUS
 62
     5
 10
41.4
 20
36.36
 11
41.4
 21
41.4
  0
LINE
  8
DETAIL
  6
CONTINOUS
 62
     5
 10
41.4
 20
36.36
 11
36.36
 21
36.36
  0
LINE
  8
DETAIL
  6
CONTINOUS
 62
     5
 10
36.36
 20
36.36
 11
36.36
 21
41.4
  0
LINE
  8
DETAIL
  6
CONTINOUS
 62
     5
 10
41.4
 20
41.4
 11
36.36
 21
41.4
  0
LINE
  8
DETAIL
  6
CONTINOUS
 62
     5
 10
41.4
 20
42.84
 11
41.4
 21
47.88
  0
LINE
  8
DETAIL
  6
CONTINOUS
 62
     5
 10
41.4
 20
42.84
 11
36.36
 21
42.84
  0
LINE
  8
DETAIL
  6
CONTINOUS
 62
     5
 10
36.36
 20
42.84
 11
36.36
 21
47.88
  0
LINE
  8
DETAIL
  6
CONTINOUS
 62
     5
 10
41.4
 20
47.88
 11
36.36
 21
47.88
  0
LINE
  8
DETAIL
  6
CONTINOUS
 62
     5
 10
41.4
 20
49.32
 11
41.4
 21
54.36
  0
LINE
  8
DETAIL
  6
CONTINOUS
 62
     5
 10
41.4
 20
49.32
 11
36.36
 21
49.32
  0
LINE
  8
DETAIL
  6
CONTINOUS
 62
     5
 10
36.36
 20
49.32
 11
36.36
 21
54.36
  0
LINE
  8
DETAIL
  6
CONTINOUS
 62
     5
 10
41.4
 20
54.36
 11
36.36
 21
54.36
  0
LINE
  8
DETAIL
  6
CONTINOUS
 62
     5
 10
41.4
 20
55.8
 11
41.4
 21
60.84
  0
LINE
  8
DETAIL
  6
CONTINOUS
 62
     5
 10
41.4
 20
55.8
 11
36.36
 21
55.8
  0
LINE
  8
DETAIL
  6
CONTINOUS
 62
     5
 10
36.36
 20
55.8
 11
36.36
 21
60.84
  0
LINE
  8
DETAIL
  6
CONTINOUS
 62
     5
 10
41.4
 20
60.84
 11
36.36
 21
60.84
  0
LINE
  8
DETAIL
  6
CONTINOUS
 62
     5
 10
41.4
 20
62.28
 11
41.4
 21
67.32
  0
LINE
  8
DETAIL
  6
CONTINOUS
 62
     5
 10
41.4
 20
62.28
 11
36.36
 21
62.28
  0
LINE
  8
DETAIL
  6
CONTINOUS
 62
     5
 10
36.36
 20
62.28
 11
36.36
 21
67.32
  0
LINE
  8
DETAIL
  6
CONTINOUS
 62
     5
 10
41.4
 20
67.32
 11
36.36
 21
67.32
  0
LINE
  8
DETAIL
  6
CONTINOUS
 62
     5
 10
41.4
 20
68.76
 11
41.4
 21
73.8
  0
LINE
  8
DETAIL
  6
CONTINOUS
 62
     5
 10
41.4
 20
68.76
 11
36.36
 21
68.76
  0
LINE
  8
DETAIL
  6
CONTINOUS
 62
     5
 10
36.36
 20
68.76
 11
36.36
 21
73.8
  0
LINE
  8
DETAIL
  6
CONTINOUS
 62
     5
 10
41.4
 20
73.8
 11
36.36
 21
73.8
  0
LINE
  8
DETAIL
  6
CONTINOUS
 62
     5
 10
41.4
 20
75.24
 11
41.4
 21
80.28
  0
LINE
  8
DETAIL
  6
CONTINOUS
 62
     5
 10
41.4
 20
75.24
 11
36.36
 21
75.24
  0
LINE
  8
DETAIL
  6
CONTINOUS
 62
     5
 10
36.36
 20
75.24
 11
36.36
 21
80.28
  0
LINE
  8
DETAIL
  6
CONTINOUS
 62
     5
 10
41.4
 20
80.28
 11
36.36
 21
80.28
  0
LINE
  8
DETAIL
  6
CONTINOUS
 62
     5
 10
41.4
 20
81.72
 11
41.4
 21
86.76
  0
LINE
  8
DETAIL
  6
CONTINOUS
 62
     5
 10
41.4
 20
81.72
 11
36.36
 21
81.72
  0
LINE
  8
DETAIL
  6
CONTINOUS
 62
     5
 10
36.36
 20
81.72
 11
36.36
 21
86.76
  0
LINE
  8
DETAIL
  6
CONTINOUS
 62
     5
 10
41.4
 20
86.76
 11
36.36
 21
86.76
  0
LINE
  8
DETAIL
  6
CONTINOUS
 62
     5
 10
34.92
 20
-86.76
 11
34.92
 21
-81.72
  0
LINE
  8
DETAIL
  6
CONTINOUS
 62
     5
 10
34.92
 20
-86.76
 11
29.88
 21
-86.76
  0
LINE
  8
DETAIL
  6
CONTINOUS
 62
     5
 10
29.88
 20
-86.76
 11
29.88
 21
-81.72
  0
LINE
  8
DETAIL
  6
CONTINOUS
 62
     5
 10
34.92
 20
-81.72
 11
29.88
 21
-81.72
  0
LINE
  8
DETAIL
  6
CONTINOUS
 62
     5
 10
34.92
 20
-80.28
 11
34.92
 21
-75.24
  0
LINE
  8
DETAIL
  6
CONTINOUS
 62
     5
 10
34.92
 20
-80.28
 11
29.88
 21
-80.28
  0
LINE
  8
DETAIL
  6
CONTINOUS
 62
     5
 10
29.88
 20
-80.28
 11
29.88
 21
-75.24
  0
LINE
  8
DETAIL
  6
CONTINOUS
 62
     5
 10
34.92
 20
-75.24
 11
29.88
 21
-75.24
  0
LINE
  8
DETAIL
  6
CONTINOUS
 62
     5
 10
34.92
 20
-73.8
 11
34.92
 21
-68.76
  0
LINE
  8
DETAIL
  6
CONTINOUS
 62
     5
 10
34.92
 20
-73.8
 11
29.88
 21
-73.8
  0
LINE
  8
DETAIL
  6
CONTINOUS
 62
     5
 10
29.88
 20
-73.8
 11
29.88
 21
-68.76
  0
LINE
  8
DETAIL
  6
CONTINOUS
 62
     5
 10
34.92
 20
-68.76
 11
29.88
 21
-68.76
  0
LINE
  8
DETAIL
  6
CONTINOUS
 62
     5
 10
34.92
 20
-67.32
 11
34.92
 21
-62.28
  0
LINE
  8
DETAIL
  6
CONTINOUS
 62
     5
 10
34.92
 20
-67.32
 11
29.88
 21
-67.32
  0
LINE
  8
DETAIL
  6
CONTINOUS
 62
     5
 10
29.88
 20
-67.32
 11
29.88
 21
-62.28
  0
LINE
  8
DETAIL
  6
CONTINOUS
 62
     5
 10
34.92
 20
-62.28
 11
29.88
 21
-62.28
  0
LINE
  8
DETAIL
  6
CONTINOUS
 62
     5
 10
34.92
 20
-60.84
 11
34.92
 21
-55.8
  0
LINE
  8
DETAIL
  6
CONTINOUS
 62
     5
 10
34.92
 20
-60.84
 11
29.88
 21
-60.84
  0
LINE
  8
DETAIL
  6
CONTINOUS
 62
     5
 10
29.88
 20
-60.84
 11
29.88
 21
-55.8
  0
LINE
  8
DETAIL
  6
CONTINOUS
 62
     5
 10
34.92
 20
-55.8
 11
29.88
 21
-55.8
  0
LINE
  8
DETAIL
  6
CONTINOUS
 62
     5
 10
34.92
 20
-54.36
 11
34.92
 21
-49.32
  0
LINE
  8
DETAIL
  6
CONTINOUS
 62
     5
 10
34.92
 20
-54.36
 11
29.88
 21
-54.36
  0
LINE
  8
DETAIL
  6
CONTINOUS
 62
     5
 10
29.88
 20
-54.36
 11
29.88
 21
-49.32
  0
LINE
  8
DETAIL
  6
CONTINOUS
 62
     5
 10
34.92
 20
-49.32
 11
29.88
 21
-49.32
  0
LINE
  8
DETAIL
  6
CONTINOUS
 62
     5
 10
34.92
 20
-47.88
 11
34.92
 21
-42.84
  0
LINE
  8
DETAIL
  6
CONTINOUS
 62
     5
 10
34.92
 20
-47.88
 11
29.88
 21
-47.88
  0
LINE
  8
DETAIL
  6
CONTINOUS
 62
     5
 10
29.88
 20
-47.88
 11
29.88
 21
-42.84
  0
LINE
  8
DETAIL
  6
CONTINOUS
 62
     5
 10
34.92
 20
-42.84
 11
29.88
 21
-42.84
  0
LINE
  8
DETAIL
  6
CONTINOUS
 62
     5
 10
34.92
 20
-41.4
 11
34.92
 21
-36.36
  0
LINE
  8
DETAIL
  6
CONTINOUS
 62
     5
 10
34.92
 20
-41.4
 11
29.88
 21
-41.4
  0
LINE
  8
DETAIL
  6
CONTINOUS
 62
     5
 10
29.88
 20
-41.4
 11
29.88
 21
-36.36
  0
LINE
  8
DETAIL
  6
CONTINOUS
 62
     5
 10
34.92
 20
-36.36
 11
29.88
 21
-36.36
  0
LINE
  8
DETAIL
  6
CONTINOUS
 62
     5
 10
34.92
 20
-34.92
 11
34.92
 21
-29.88
  0
LINE
  8
DETAIL
  6
CONTINOUS
 62
     5
 10
34.92
 20
-34.92
 11
29.88
 21
-34.92
  0
LINE
  8
DETAIL
  6
CONTINOUS
 62
     5
 10
29.88
 20
-34.92
 11
29.88
 21
-29.88
  0
LINE
  8
DETAIL
  6
CONTINOUS
 62
     5
 10
34.92
 20
-29.88
 11
29.88
 21
-29.88
  0
LINE
  8
DETAIL
  6
CONTINOUS
 62
     5
 10
34.92
 20
-28.44
 11
34.92
 21
-23.4
  0
LINE
  8
DETAIL
  6
CONTINOUS
 62
     5
 10
34.92
 20
-28.44
 11
29.88
 21
-28.44
  0
LINE
  8
DETAIL
  6
CONTINOUS
 62
     5
 10
29.88
 20
-28.44
 11
29.88
 21
-23.4
  0
LINE
  8
DETAIL
  6
CONTINOUS
 62
     5
 10
34.92
 20
-23.4
 11
29.88
 21
-23.4
  0
LINE
  8
DETAIL
  6
CONTINOUS
 62
     5
 10
34.92
 20
-21.96
 11
34.92
 21
-16.92
  0
LINE
  8
DETAIL
  6
CONTINOUS
 62
     5
 10
34.92
 20
-21.96
 11
29.88
 21
-21.96
  0
LINE
  8
DETAIL
  6
CONTINOUS
 62
     5
 10
29.88
 20
-21.96
 11
29.88
 21
-16.92
  0
LINE
  8
DETAIL
  6
CONTINOUS
 62
     5
 10
34.92
 20
-16.92
 11
29.88
 21
-16.92
  0
LINE
  8
DETAIL
  6
CONTINOUS
 62
     5
 10
34.92
 20
-15.48
 11
34.92
 21
-10.44
  0
LINE
  8
DETAIL
  6
CONTINOUS
 62
     5
 10
34.92
 20
-15.48
 11
29.88
 21
-15.48
  0
LINE
  8
DETAIL
  6
CONTINOUS
 62
     5
 10
29.88
 20
-15.48
 11
29.88
 21
-10.44
  0
LINE
  8
DETAIL
  6
CONTINOUS
 62
     5
 10
34.92
 20
-10.44
 11
29.88
 21
-10.44
  0
LINE
  8
DETAIL
  6
CONTINOUS
 62
     5
 10
34.92
 20
-9.0
 11
34.92
 21
-3.96
  0
LINE
  8
DETAIL
  6
CONTINOUS
 62
     5
 10
34.92
 20
-9.0
 11
29.88
 21
-9.0
  0
LINE
  8
DETAIL
  6
CONTINOUS
 62
     5
 10
29.88
 20
-9.0
 11
29.88
 21
-3.96
  0
LINE
  8
DETAIL
  6
CONTINOUS
 62
     5
 10
34.92
 20
-3.96
 11
29.88
 21
-3.96
  0
LINE
  8
DETAIL
  6
CONTINOUS
 62
     5
 10
34.92
 20
-2.52
 11
34.92
 21
2.52
  0
LINE
  8
DETAIL
  6
CONTINOUS
 62
     5
 10
34.92
 20
-2.52
 11
29.88
 21
-2.52
  0
LINE
  8
DETAIL
  6
CONTINOUS
 62
     5
 10
29.88
 20
-2.52
 11
29.88
 21
2.52
  0
LINE
  8
DETAIL
  6
CONTINOUS
 62
     5
 10
34.92
 20
2.52
 11
29.88
 21
2.52
  0
LINE
  8
DETAIL
  6
CONTINOUS
 62
     5
 10
34.92
 20
3.96
 11
34.92
 21
9.0
  0
LINE
  8
DETAIL
  6
CONTINOUS
 62
     5
 10
34.92
 20
3.96
 11
29.88
 21
3.96
  0
LINE
  8
DETAIL
  6
CONTINOUS
 62
     5
 10
29.88
 20
3.96
 11
29.88
 21
9.0
  0
LINE
  8
DETAIL
  6
CONTINOUS
 62
     5
 10
34.92
 20
9.0
 11
29.88
 21
9.0
  0
LINE
  8
DETAIL
  6
CONTINOUS
 62
     5
 10
34.92
 20
10.44
 11
34.92
 21
15.48
  0
LINE
  8
DETAIL
  6
CONTINOUS
 62
     5
 10
34.92
 20
10.44
 11
29.88
 21
10.44
  0
LINE
  8
DETAIL
  6
CONTINOUS
 62
     5
 10
29.88
 20
10.44
 11
29.88
 21
15.48
  0
LINE
  8
DETAIL
  6
CONTINOUS
 62
     5
 10
34.92
 20
15.48
 11
29.88
 21
15.48
  0
LINE
  8
DETAIL
  6
CONTINOUS
 62
     5
 10
34.92
 20
16.92
 11
34.92
 21
21.96
  0
LINE
  8
DETAIL
  6
CONTINOUS
 62
     5
 10
34.92
 20
16.92
 11
29.88
 21
16.92
  0
LINE
  8
DETAIL
  6
CONTINOUS
 62
     5
 10
29.88
 20
16.92
 11
29.88
 21
21.96
  0
LINE
  8
DETAIL
  6
CONTINOUS
 62
     5
 10
34.92
 20
21.96
 11
29.88
 21
21.96
  0
LINE
  8
DETAIL
  6
CONTINOUS
 62
     5
 10
34.92
 20
23.4
 11
34.92
 21
28.44
  0
LINE
  8
DETAIL
  6
CONTINOUS
 62
     5
 10
34.92
 20
23.4
 11
29.88
 21
23.4
  0
LINE
  8
DETAIL
  6
CONTINOUS
 62
     5
 10
29.88
 20
23.4
 11
29.88
 21
28.44
  0
LINE
  8
DETAIL
  6
CONTINOUS
 62
     5
 10
34.92
 20
28.44
 11
29.88
 21
28.44
  0
LINE
  8
DETAIL
  6
CONTINOUS
 62
     5
 10
34.92
 20
29.88
 11
34.92
 21
34.92
  0
LINE
  8
DETAIL
  6
CONTINOUS
 62
     5
 10
34.92
 20
29.88
 11
29.88
 21
29.88
  0
LINE
  8
DETAIL
  6
CONTINOUS
 62
     5
 10
29.88
 20
29.88
 11
29.88
 21
34.92
  0
LINE
  8
DETAIL
  6
CONTINOUS
 62
     5
 10
34.92
 20
34.92
 11
29.88
 21
34.92
  0
LINE
  8
DETAIL
  6
CONTINOUS
 62
     5
 10
34.92
 20
36.36
 11
34.92
 21
41.4
  0
LINE
  8
DETAIL
  6
CONTINOUS
 62
     5
 10
34.92
 20
36.36
 11
29.88
 21
36.36
  0
LINE
  8
DETAIL
  6
CONTINOUS
 62
     5
 10
29.88
 20
36.36
 11
29.88
 21
41.4
  0
LINE
  8
DETAIL
  6
CONTINOUS
 62
     5
 10
34.92
 20
41.4
 11
29.88
 21
41.4
  0
LINE
  8
DETAIL
  6
CONTINOUS
 62
     5
 10
34.92
 20
42.84
 11
34.92
 21
47.88
  0
LINE
  8
DETAIL
  6
CONTINOUS
 62
     5
 10
34.92
 20
42.84
 11
29.88
 21
42.84
  0
LINE
  8
DETAIL
  6
CONTINOUS
 62
     5
 10
29.88
 20
42.84
 11
29.88
 21
47.88
  0
LINE
  8
DETAIL
  6
CONTINOUS
 62
     5
 10
34.92
 20
47.88
 11
29.88
 21
47.88
  0
LINE
  8
DETAIL
  6
CONTINOUS
 62
     5
 10
34.92
 20
49.32
 11
34.92
 21
54.36
  0
LINE
  8
DETAIL
  6
CONTINOUS
 62
     5
 10
34.92
 20
49.32
 11
29.88
 21
49.32
  0
LINE
  8
DETAIL
  6
CONTINOUS
 62
     5
 10
29.88
 20
49.32
 11
29.88
 21
54.36
  0
LINE
  8
DETAIL
  6
CONTINOUS
 62
     5
 10
34.92
 20
54.36
 11
29.88
 21
54.36
  0
LINE
  8
DETAIL
  6
CONTINOUS
 62
     5
 10
34.92
 20
55.8
 11
34.92
 21
60.84
  0
LINE
  8
DETAIL
  6
CONTINOUS
 62
     5
 10
34.92
 20
55.8
 11
29.88
 21
55.8
  0
LINE
  8
DETAIL
  6
CONTINOUS
 62
     5
 10
29.88
 20
55.8
 11
29.88
 21
60.84
  0
LINE
  8
DETAIL
  6
CONTINOUS
 62
     5
 10
34.92
 20
60.84
 11
29.88
 21
60.84
  0
LINE
  8
DETAIL
  6
CONTINOUS
 62
     5
 10
34.92
 20
62.28
 11
34.92
 21
67.32
  0
LINE
  8
DETAIL
  6
CONTINOUS
 62
     5
 10
34.92
 20
62.28
 11
29.88
 21
62.28
  0
LINE
  8
DETAIL
  6
CONTINOUS
 62
     5
 10
29.88
 20
62.28
 11
29.88
 21
67.32
  0
LINE
  8
DETAIL
  6
CONTINOUS
 62
     5
 10
34.92
 20
67.32
 11
29.88
 21
67.32
  0
LINE
  8
DETAIL
  6
CONTINOUS
 62
     5
 10
34.92
 20
68.76
 11
34.92
 21
73.8
  0
LINE
  8
DETAIL
  6
CONTINOUS
 62
     5
 10
34.92
 20
68.76
 11
29.88
 21
68.76
  0
LINE
  8
DETAIL
  6
CONTINOUS
 62
     5
 10
29.88
 20
68.76
 11
29.88
 21
73.8
  0
LINE
  8
DETAIL
  6
CONTINOUS
 62
     5
 10
34.92
 20
73.8
 11
29.88
 21
73.8
  0
LINE
  8
DETAIL
  6
CONTINOUS
 62
     5
 10
34.92
 20
75.24
 11
34.92
 21
80.28
  0
LINE
  8
DETAIL
  6
CONTINOUS
 62
     5
 10
34.92
 20
75.24
 11
29.88
 21
75.24
  0
LINE
  8
DETAIL
  6
CONTINOUS
 62
     5
 10
29.88
 20
75.24
 11
29.88
 21
80.28
  0
LINE
  8
DETAIL
  6
CONTINOUS
 62
     5
 10
34.92
 20
80.28
 11
29.88
 21
80.28
  0
LINE
  8
DETAIL
  6
CONTINOUS
 62
     5
 10
34.92
 20
81.72
 11
34.92
 21
86.76
  0
LINE
  8
DETAIL
  6
CONTINOUS
 62
     5
 10
34.92
 20
81.72
 11
29.88
 21
81.72
  0
LINE
  8
DETAIL
  6
CONTINOUS
 62
     5
 10
29.88
 20
81.72
 11
29.88
 21
86.76
  0
LINE
  8
DETAIL
  6
CONTINOUS
 62
     5
 10
34.92
 20
86.76
 11
29.88
 21
86.76
  0
LINE
  8
DETAIL
  6
CONTINOUS
 62
     5
 10
28.44
 20
-86.76
 11
28.44
 21
-81.72
  0
LINE
  8
DETAIL
  6
CONTINOUS
 62
     5
 10
28.44
 20
-86.76
 11
23.4
 21
-86.76
  0
LINE
  8
DETAIL
  6
CONTINOUS
 62
     5
 10
23.4
 20
-86.76
 11
23.4
 21
-81.72
  0
LINE
  8
DETAIL
  6
CONTINOUS
 62
     5
 10
28.44
 20
-81.72
 11
23.4
 21
-81.72
  0
LINE
  8
DETAIL
  6
CONTINOUS
 62
     5
 10
28.44
 20
-80.28
 11
28.44
 21
-75.24
  0
LINE
  8
DETAIL
  6
CONTINOUS
 62
     5
 10
28.44
 20
-80.28
 11
23.4
 21
-80.28
  0
LINE
  8
DETAIL
  6
CONTINOUS
 62
     5
 10
23.4
 20
-80.28
 11
23.4
 21
-75.24
  0
LINE
  8
DETAIL
  6
CONTINOUS
 62
     5
 10
28.44
 20
-75.24
 11
23.4
 21
-75.24
  0
LINE
  8
DETAIL
  6
CONTINOUS
 62
     5
 10
28.44
 20
-73.8
 11
28.44
 21
-68.76
  0
LINE
  8
DETAIL
  6
CONTINOUS
 62
     5
 10
28.44
 20
-73.8
 11
23.4
 21
-73.8
  0
LINE
  8
DETAIL
  6
CONTINOUS
 62
     5
 10
23.4
 20
-73.8
 11
23.4
 21
-68.76
  0
LINE
  8
DETAIL
  6
CONTINOUS
 62
     5
 10
28.44
 20
-68.76
 11
23.4
 21
-68.76
  0
LINE
  8
DETAIL
  6
CONTINOUS
 62
     5
 10
28.44
 20
-67.32
 11
28.44
 21
-62.28
  0
LINE
  8
DETAIL
  6
CONTINOUS
 62
     5
 10
28.44
 20
-67.32
 11
23.4
 21
-67.32
  0
LINE
  8
DETAIL
  6
CONTINOUS
 62
     5
 10
23.4
 20
-67.32
 11
23.4
 21
-62.28
  0
LINE
  8
DETAIL
  6
CONTINOUS
 62
     5
 10
28.44
 20
-62.28
 11
23.4
 21
-62.28
  0
LINE
  8
DETAIL
  6
CONTINOUS
 62
     5
 10
28.44
 20
-60.84
 11
28.44
 21
-55.8
  0
LINE
  8
DETAIL
  6
CONTINOUS
 62
     5
 10
28.44
 20
-60.84
 11
23.4
 21
-60.84
  0
LINE
  8
DETAIL
  6
CONTINOUS
 62
     5
 10
23.4
 20
-60.84
 11
23.4
 21
-55.8
  0
LINE
  8
DETAIL
  6
CONTINOUS
 62
     5
 10
28.44
 20
-55.8
 11
23.4
 21
-55.8
  0
LINE
  8
DETAIL
  6
CONTINOUS
 62
     5
 10
28.44
 20
-54.36
 11
28.44
 21
-49.32
  0
LINE
  8
DETAIL
  6
CONTINOUS
 62
     5
 10
28.44
 20
-54.36
 11
23.4
 21
-54.36
  0
LINE
  8
DETAIL
  6
CONTINOUS
 62
     5
 10
23.4
 20
-54.36
 11
23.4
 21
-49.32
  0
LINE
  8
DETAIL
  6
CONTINOUS
 62
     5
 10
28.44
 20
-49.32
 11
23.4
 21
-49.32
  0
LINE
  8
DETAIL
  6
CONTINOUS
 62
     5
 10
28.44
 20
-47.88
 11
28.44
 21
-42.84
  0
LINE
  8
DETAIL
  6
CONTINOUS
 62
     5
 10
28.44
 20
-47.88
 11
23.4
 21
-47.88
  0
LINE
  8
DETAIL
  6
CONTINOUS
 62
     5
 10
23.4
 20
-47.88
 11
23.4
 21
-42.84
  0
LINE
  8
DETAIL
  6
CONTINOUS
 62
     5
 10
28.44
 20
-42.84
 11
23.4
 21
-42.84
  0
LINE
  8
DETAIL
  6
CONTINOUS
 62
     5
 10
28.44
 20
-41.4
 11
28.44
 21
-36.36
  0
LINE
  8
DETAIL
  6
CONTINOUS
 62
     5
 10
28.44
 20
-41.4
 11
23.4
 21
-41.4
  0
LINE
  8
DETAIL
  6
CONTINOUS
 62
     5
 10
23.4
 20
-41.4
 11
23.4
 21
-36.36
  0
LINE
  8
DETAIL
  6
CONTINOUS
 62
     5
 10
28.44
 20
-36.36
 11
23.4
 21
-36.36
  0
LINE
  8
DETAIL
  6
CONTINOUS
 62
     5
 10
28.44
 20
-34.92
 11
28.44
 21
-29.88
  0
LINE
  8
DETAIL
  6
CONTINOUS
 62
     5
 10
28.44
 20
-34.92
 11
23.4
 21
-34.92
  0
LINE
  8
DETAIL
  6
CONTINOUS
 62
     5
 10
23.4
 20
-34.92
 11
23.4
 21
-29.88
  0
LINE
  8
DETAIL
  6
CONTINOUS
 62
     5
 10
28.44
 20
-29.88
 11
23.4
 21
-29.88
  0
LINE
  8
DETAIL
  6
CONTINOUS
 62
     5
 10
28.44
 20
-28.44
 11
28.44
 21
-23.4
  0
LINE
  8
DETAIL
  6
CONTINOUS
 62
     5
 10
28.44
 20
-28.44
 11
23.4
 21
-28.44
  0
LINE
  8
DETAIL
  6
CONTINOUS
 62
     5
 10
23.4
 20
-28.44
 11
23.4
 21
-23.4
  0
LINE
  8
DETAIL
  6
CONTINOUS
 62
     5
 10
28.44
 20
-23.4
 11
23.4
 21
-23.4
  0
LINE
  8
DETAIL
  6
CONTINOUS
 62
     5
 10
28.44
 20
-21.96
 11
28.44
 21
-16.92
  0
LINE
  8
DETAIL
  6
CONTINOUS
 62
     5
 10
28.44
 20
-21.96
 11
23.4
 21
-21.96
  0
LINE
  8
DETAIL
  6
CONTINOUS
 62
     5
 10
23.4
 20
-21.96
 11
23.4
 21
-16.92
  0
LINE
  8
DETAIL
  6
CONTINOUS
 62
     5
 10
28.44
 20
-16.92
 11
23.4
 21
-16.92
  0
LINE
  8
DETAIL
  6
CONTINOUS
 62
     5
 10
28.44
 20
-15.48
 11
28.44
 21
-10.44
  0
LINE
  8
DETAIL
  6
CONTINOUS
 62
     5
 10
28.44
 20
-15.48
 11
23.4
 21
-15.48
  0
LINE
  8
DETAIL
  6
CONTINOUS
 62
     5
 10
23.4
 20
-15.48
 11
23.4
 21
-10.44
  0
LINE
  8
DETAIL
  6
CONTINOUS
 62
     5
 10
28.44
 20
-10.44
 11
23.4
 21
-10.44
  0
LINE
  8
DETAIL
  6
CONTINOUS
 62
     5
 10
28.44
 20
-9.0
 11
28.44
 21
-3.96
  0
LINE
  8
DETAIL
  6
CONTINOUS
 62
     5
 10
28.44
 20
-9.0
 11
23.4
 21
-9.0
  0
LINE
  8
DETAIL
  6
CONTINOUS
 62
     5
 10
23.4
 20
-9.0
 11
23.4
 21
-3.96
  0
LINE
  8
DETAIL
  6
CONTINOUS
 62
     5
 10
28.44
 20
-3.96
 11
23.4
 21
-3.96
  0
LINE
  8
DETAIL
  6
CONTINOUS
 62
     5
 10
28.44
 20
-2.52
 11
28.44
 21
2.52
  0
LINE
  8
DETAIL
  6
CONTINOUS
 62
     5
 10
28.44
 20
-2.52
 11
23.4
 21
-2.52
  0
LINE
  8
DETAIL
  6
CONTINOUS
 62
     5
 10
23.4
 20
-2.52
 11
23.4
 21
2.52
  0
LINE
  8
DETAIL
  6
CONTINOUS
 62
     5
 10
28.44
 20
2.52
 11
23.4
 21
2.52
  0
LINE
  8
DETAIL
  6
CONTINOUS
 62
     5
 10
28.44
 20
3.96
 11
28.44
 21
9.0
  0
LINE
  8
DETAIL
  6
CONTINOUS
 62
     5
 10
28.44
 20
3.96
 11
23.4
 21
3.96
  0
LINE
  8
DETAIL
  6
CONTINOUS
 62
     5
 10
23.4
 20
3.96
 11
23.4
 21
9.0
  0
LINE
  8
DETAIL
  6
CONTINOUS
 62
     5
 10
28.44
 20
9.0
 11
23.4
 21
9.0
  0
LINE
  8
DETAIL
  6
CONTINOUS
 62
     5
 10
28.44
 20
10.44
 11
28.44
 21
15.48
  0
LINE
  8
DETAIL
  6
CONTINOUS
 62
     5
 10
28.44
 20
10.44
 11
23.4
 21
10.44
  0
LINE
  8
DETAIL
  6
CONTINOUS
 62
     5
 10
23.4
 20
10.44
 11
23.4
 21
15.48
  0
LINE
  8
DETAIL
  6
CONTINOUS
 62
     5
 10
28.44
 20
15.48
 11
23.4
 21
15.48
  0
LINE
  8
DETAIL
  6
CONTINOUS
 62
     5
 10
28.44
 20
16.92
 11
28.44
 21
21.96
  0
LINE
  8
DETAIL
  6
CONTINOUS
 62
     5
 10
28.44
 20
16.92
 11
23.4
 21
16.92
  0
LINE
  8
DETAIL
  6
CONTINOUS
 62
     5
 10
23.4
 20
16.92
 11
23.4
 21
21.96
  0
LINE
  8
DETAIL
  6
CONTINOUS
 62
     5
 10
28.44
 20
21.96
 11
23.4
 21
21.96
  0
LINE
  8
DETAIL
  6
CONTINOUS
 62
     5
 10
28.44
 20
23.4
 11
28.44
 21
28.44
  0
LINE
  8
DETAIL
  6
CONTINOUS
 62
     5
 10
28.44
 20
23.4
 11
23.4
 21
23.4
  0
LINE
  8
DETAIL
  6
CONTINOUS
 62
     5
 10
23.4
 20
23.4
 11
23.4
 21
28.44
  0
LINE
  8
DETAIL
  6
CONTINOUS
 62
     5
 10
28.44
 20
28.44
 11
23.4
 21
28.44
  0
LINE
  8
DETAIL
  6
CONTINOUS
 62
     5
 10
28.44
 20
29.88
 11
28.44
 21
34.92
  0
LINE
  8
DETAIL
  6
CONTINOUS
 62
     5
 10
28.44
 20
29.88
 11
23.4
 21
29.88
  0
LINE
  8
DETAIL
  6
CONTINOUS
 62
     5
 10
23.4
 20
29.88
 11
23.4
 21
34.92
  0
LINE
  8
DETAIL
  6
CONTINOUS
 62
     5
 10
28.44
 20
34.92
 11
23.4
 21
34.92
  0
LINE
  8
DETAIL
  6
CONTINOUS
 62
     5
 10
28.44
 20
36.36
 11
28.44
 21
41.4
  0
LINE
  8
DETAIL
  6
CONTINOUS
 62
     5
 10
28.44
 20
36.36
 11
23.4
 21
36.36
  0
LINE
  8
DETAIL
  6
CONTINOUS
 62
     5
 10
23.4
 20
36.36
 11
23.4
 21
41.4
  0
LINE
  8
DETAIL
  6
CONTINOUS
 62
     5
 10
28.44
 20
41.4
 11
23.4
 21
41.4
  0
LINE
  8
DETAIL
  6
CONTINOUS
 62
     5
 10
28.44
 20
42.84
 11
28.44
 21
47.88
  0
LINE
  8
DETAIL
  6
CONTINOUS
 62
     5
 10
28.44
 20
42.84
 11
23.4
 21
42.84
  0
LINE
  8
DETAIL
  6
CONTINOUS
 62
     5
 10
23.4
 20
42.84
 11
23.4
 21
47.88
  0
LINE
  8
DETAIL
  6
CONTINOUS
 62
     5
 10
28.44
 20
47.88
 11
23.4
 21
47.88
  0
LINE
  8
DETAIL
  6
CONTINOUS
 62
     5
 10
28.44
 20
49.32
 11
28.44
 21
54.36
  0
LINE
  8
DETAIL
  6
CONTINOUS
 62
     5
 10
28.44
 20
49.32
 11
23.4
 21
49.32
  0
LINE
  8
DETAIL
  6
CONTINOUS
 62
     5
 10
23.4
 20
49.32
 11
23.4
 21
54.36
  0
LINE
  8
DETAIL
  6
CONTINOUS
 62
     5
 10
28.44
 20
54.36
 11
23.4
 21
54.36
  0
LINE
  8
DETAIL
  6
CONTINOUS
 62
     5
 10
28.44
 20
55.8
 11
28.44
 21
60.84
  0
LINE
  8
DETAIL
  6
CONTINOUS
 62
     5
 10
28.44
 20
55.8
 11
23.4
 21
55.8
  0
LINE
  8
DETAIL
  6
CONTINOUS
 62
     5
 10
23.4
 20
55.8
 11
23.4
 21
60.84
  0
LINE
  8
DETAIL
  6
CONTINOUS
 62
     5
 10
28.44
 20
60.84
 11
23.4
 21
60.84
  0
LINE
  8
DETAIL
  6
CONTINOUS
 62
     5
 10
28.44
 20
62.28
 11
28.44
 21
67.32
  0
LINE
  8
DETAIL
  6
CONTINOUS
 62
     5
 10
28.44
 20
62.28
 11
23.4
 21
62.28
  0
LINE
  8
DETAIL
  6
CONTINOUS
 62
     5
 10
23.4
 20
62.28
 11
23.4
 21
67.32
  0
LINE
  8
DETAIL
  6
CONTINOUS
 62
     5
 10
28.44
 20
67.32
 11
23.4
 21
67.32
  0
LINE
  8
DETAIL
  6
CONTINOUS
 62
     5
 10
28.44
 20
68.76
 11
28.44
 21
73.8
  0
LINE
  8
DETAIL
  6
CONTINOUS
 62
     5
 10
28.44
 20
68.76
 11
23.4
 21
68.76
  0
LINE
  8
DETAIL
  6
CONTINOUS
 62
     5
 10
23.4
 20
68.76
 11
23.4
 21
73.8
  0
LINE
  8
DETAIL
  6
CONTINOUS
 62
     5
 10
28.44
 20
73.8
 11
23.4
 21
73.8
  0
LINE
  8
DETAIL
  6
CONTINOUS
 62
     5
 10
28.44
 20
75.24
 11
28.44
 21
80.28
  0
LINE
  8
DETAIL
  6
CONTINOUS
 62
     5
 10
28.44
 20
75.24
 11
23.4
 21
75.24
  0
LINE
  8
DETAIL
  6
CONTINOUS
 62
     5
 10
23.4
 20
75.24
 11
23.4
 21
80.28
  0
LINE
  8
DETAIL
  6
CONTINOUS
 62
     5
 10
28.44
 20
80.28
 11
23.4
 21
80.28
  0
LINE
  8
DETAIL
  6
CONTINOUS
 62
     5
 10
28.44
 20
81.72
 11
28.44
 21
86.76
  0
LINE
  8
DETAIL
  6
CONTINOUS
 62
     5
 10
28.44
 20
81.72
 11
23.4
 21
81.72
  0
LINE
  8
DETAIL
  6
CONTINOUS
 62
     5
 10
23.4
 20
81.72
 11
23.4
 21
86.76
  0
LINE
  8
DETAIL
  6
CONTINOUS
 62
     5
 10
28.44
 20
86.76
 11
23.4
 21
86.76
  0
LINE
  8
DETAIL
  6
CONTINOUS
 62
     5
 10
21.96
 20
-86.76
 11
21.96
 21
-81.72
  0
LINE
  8
DETAIL
  6
CONTINOUS
 62
     5
 10
21.96
 20
-86.76
 11
16.92
 21
-86.76
  0
LINE
  8
DETAIL
  6
CONTINOUS
 62
     5
 10
16.92
 20
-86.76
 11
16.92
 21
-81.72
  0
LINE
  8
DETAIL
  6
CONTINOUS
 62
     5
 10
21.96
 20
-81.72
 11
16.92
 21
-81.72
  0
LINE
  8
DETAIL
  6
CONTINOUS
 62
     5
 10
21.96
 20
-80.28
 11
21.96
 21
-75.24
  0
LINE
  8
DETAIL
  6
CONTINOUS
 62
     5
 10
21.96
 20
-80.28
 11
16.92
 21
-80.28
  0
LINE
  8
DETAIL
  6
CONTINOUS
 62
     5
 10
16.92
 20
-80.28
 11
16.92
 21
-75.24
  0
LINE
  8
DETAIL
  6
CONTINOUS
 62
     5
 10
21.96
 20
-75.24
 11
16.92
 21
-75.24
  0
LINE
  8
DETAIL
  6
CONTINOUS
 62
     5
 10
21.96
 20
-73.8
 11
21.96
 21
-68.76
  0
LINE
  8
DETAIL
  6
CONTINOUS
 62
     5
 10
21.96
 20
-73.8
 11
16.92
 21
-73.8
  0
LINE
  8
DETAIL
  6
CONTINOUS
 62
     5
 10
16.92
 20
-73.8
 11
16.92
 21
-68.76
  0
LINE
  8
DETAIL
  6
CONTINOUS
 62
     5
 10
21.96
 20
-68.76
 11
16.92
 21
-68.76
  0
LINE
  8
DETAIL
  6
CONTINOUS
 62
     5
 10
21.96
 20
-67.32
 11
21.96
 21
-62.28
  0
LINE
  8
DETAIL
  6
CONTINOUS
 62
     5
 10
21.96
 20
-67.32
 11
16.92
 21
-67.32
  0
LINE
  8
DETAIL
  6
CONTINOUS
 62
     5
 10
16.92
 20
-67.32
 11
16.92
 21
-62.28
  0
LINE
  8
DETAIL
  6
CONTINOUS
 62
     5
 10
21.96
 20
-62.28
 11
16.92
 21
-62.28
  0
LINE
  8
DETAIL
  6
CONTINOUS
 62
     5
 10
21.96
 20
-60.84
 11
21.96
 21
-55.8
  0
LINE
  8
DETAIL
  6
CONTINOUS
 62
     5
 10
21.96
 20
-60.84
 11
16.92
 21
-60.84
  0
LINE
  8
DETAIL
  6
CONTINOUS
 62
     5
 10
16.92
 20
-60.84
 11
16.92
 21
-55.8
  0
LINE
  8
DETAIL
  6
CONTINOUS
 62
     5
 10
21.96
 20
-55.8
 11
16.92
 21
-55.8
  0
LINE
  8
DETAIL
  6
CONTINOUS
 62
     5
 10
21.96
 20
-54.36
 11
21.96
 21
-49.32
  0
LINE
  8
DETAIL
  6
CONTINOUS
 62
     5
 10
21.96
 20
-54.36
 11
16.92
 21
-54.36
  0
LINE
  8
DETAIL
  6
CONTINOUS
 62
     5
 10
16.92
 20
-54.36
 11
16.92
 21
-49.32
  0
LINE
  8
DETAIL
  6
CONTINOUS
 62
     5
 10
21.96
 20
-49.32
 11
16.92
 21
-49.32
  0
LINE
  8
DETAIL
  6
CONTINOUS
 62
     5
 10
21.96
 20
-47.88
 11
21.96
 21
-42.84
  0
LINE
  8
DETAIL
  6
CONTINOUS
 62
     5
 10
21.96
 20
-47.88
 11
16.92
 21
-47.88
  0
LINE
  8
DETAIL
  6
CONTINOUS
 62
     5
 10
16.92
 20
-47.88
 11
16.92
 21
-42.84
  0
LINE
  8
DETAIL
  6
CONTINOUS
 62
     5
 10
21.96
 20
-42.84
 11
16.92
 21
-42.84
  0
LINE
  8
DETAIL
  6
CONTINOUS
 62
     5
 10
21.96
 20
-41.4
 11
21.96
 21
-36.36
  0
LINE
  8
DETAIL
  6
CONTINOUS
 62
     5
 10
21.96
 20
-41.4
 11
16.92
 21
-41.4
  0
LINE
  8
DETAIL
  6
CONTINOUS
 62
     5
 10
16.92
 20
-41.4
 11
16.92
 21
-36.36
  0
LINE
  8
DETAIL
  6
CONTINOUS
 62
     5
 10
21.96
 20
-36.36
 11
16.92
 21
-36.36
  0
LINE
  8
DETAIL
  6
CONTINOUS
 62
     5
 10
21.96
 20
-34.92
 11
21.96
 21
-29.88
  0
LINE
  8
DETAIL
  6
CONTINOUS
 62
     5
 10
21.96
 20
-34.92
 11
16.92
 21
-34.92
  0
LINE
  8
DETAIL
  6
CONTINOUS
 62
     5
 10
16.92
 20
-34.92
 11
16.92
 21
-29.88
  0
LINE
  8
DETAIL
  6
CONTINOUS
 62
     5
 10
21.96
 20
-29.88
 11
16.92
 21
-29.88
  0
LINE
  8
DETAIL
  6
CONTINOUS
 62
     5
 10
21.96
 20
-28.44
 11
21.96
 21
-23.4
  0
LINE
  8
DETAIL
  6
CONTINOUS
 62
     5
 10
21.96
 20
-28.44
 11
16.92
 21
-28.44
  0
LINE
  8
DETAIL
  6
CONTINOUS
 62
     5
 10
16.92
 20
-28.44
 11
16.92
 21
-23.4
  0
LINE
  8
DETAIL
  6
CONTINOUS
 62
     5
 10
21.96
 20
-23.4
 11
16.92
 21
-23.4
  0
LINE
  8
DETAIL
  6
CONTINOUS
 62
     5
 10
21.96
 20
-21.96
 11
21.96
 21
-16.92
  0
LINE
  8
DETAIL
  6
CONTINOUS
 62
     5
 10
21.96
 20
-21.96
 11
16.92
 21
-21.96
  0
LINE
  8
DETAIL
  6
CONTINOUS
 62
     5
 10
16.92
 20
-21.96
 11
16.92
 21
-16.92
  0
LINE
  8
DETAIL
  6
CONTINOUS
 62
     5
 10
21.96
 20
-16.92
 11
16.92
 21
-16.92
  0
LINE
  8
DETAIL
  6
CONTINOUS
 62
     5
 10
21.96
 20
-15.48
 11
21.96
 21
-10.44
  0
LINE
  8
DETAIL
  6
CONTINOUS
 62
     5
 10
21.96
 20
-15.48
 11
16.92
 21
-15.48
  0
LINE
  8
DETAIL
  6
CONTINOUS
 62
     5
 10
16.92
 20
-15.48
 11
16.92
 21
-10.44
  0
LINE
  8
DETAIL
  6
CONTINOUS
 62
     5
 10
21.96
 20
-10.44
 11
16.92
 21
-10.44
  0
LINE
  8
DETAIL
  6
CONTINOUS
 62
     5
 10
21.96
 20
-9.0
 11
21.96
 21
-3.96
  0
LINE
  8
DETAIL
  6
CONTINOUS
 62
     5
 10
21.96
 20
-9.0
 11
16.92
 21
-9.0
  0
LINE
  8
DETAIL
  6
CONTINOUS
 62
     5
 10
16.92
 20
-9.0
 11
16.92
 21
-3.96
  0
LINE
  8
DETAIL
  6
CONTINOUS
 62
     5
 10
21.96
 20
-3.96
 11
16.92
 21
-3.96
  0
LINE
  8
DETAIL
  6
CONTINOUS
 62
     5
 10
21.96
 20
-2.52
 11
21.96
 21
2.52
  0
LINE
  8
DETAIL
  6
CONTINOUS
 62
     5
 10
21.96
 20
-2.52
 11
16.92
 21
-2.52
  0
LINE
  8
DETAIL
  6
CONTINOUS
 62
     5
 10
16.92
 20
-2.52
 11
16.92
 21
2.52
  0
LINE
  8
DETAIL
  6
CONTINOUS
 62
     5
 10
21.96
 20
2.52
 11
16.92
 21
2.52
  0
LINE
  8
DETAIL
  6
CONTINOUS
 62
     5
 10
21.96
 20
3.96
 11
21.96
 21
9.0
  0
LINE
  8
DETAIL
  6
CONTINOUS
 62
     5
 10
21.96
 20
3.96
 11
16.92
 21
3.96
  0
LINE
  8
DETAIL
  6
CONTINOUS
 62
     5
 10
16.92
 20
3.96
 11
16.92
 21
9.0
  0
LINE
  8
DETAIL
  6
CONTINOUS
 62
     5
 10
21.96
 20
9.0
 11
16.92
 21
9.0
  0
LINE
  8
DETAIL
  6
CONTINOUS
 62
     5
 10
21.96
 20
10.44
 11
21.96
 21
15.48
  0
LINE
  8
DETAIL
  6
CONTINOUS
 62
     5
 10
21.96
 20
10.44
 11
16.92
 21
10.44
  0
LINE
  8
DETAIL
  6
CONTINOUS
 62
     5
 10
16.92
 20
10.44
 11
16.92
 21
15.48
  0
LINE
  8
DETAIL
  6
CONTINOUS
 62
     5
 10
21.96
 20
15.48
 11
16.92
 21
15.48
  0
LINE
  8
DETAIL
  6
CONTINOUS
 62
     5
 10
21.96
 20
16.92
 11
21.96
 21
21.96
  0
LINE
  8
DETAIL
  6
CONTINOUS
 62
     5
 10
21.96
 20
16.92
 11
16.92
 21
16.92
  0
LINE
  8
DETAIL
  6
CONTINOUS
 62
     5
 10
16.92
 20
16.92
 11
16.92
 21
21.96
  0
LINE
  8
DETAIL
  6
CONTINOUS
 62
     5
 10
21.96
 20
21.96
 11
16.92
 21
21.96
  0
LINE
  8
DETAIL
  6
CONTINOUS
 62
     5
 10
21.96
 20
23.4
 11
21.96
 21
28.44
  0
LINE
  8
DETAIL
  6
CONTINOUS
 62
     5
 10
21.96
 20
23.4
 11
16.92
 21
23.4
  0
LINE
  8
DETAIL
  6
CONTINOUS
 62
     5
 10
16.92
 20
23.4
 11
16.92
 21
28.44
  0
LINE
  8
DETAIL
  6
CONTINOUS
 62
     5
 10
21.96
 20
28.44
 11
16.92
 21
28.44
  0
LINE
  8
DETAIL
  6
CONTINOUS
 62
     5
 10
21.96
 20
29.88
 11
21.96
 21
34.92
  0
LINE
  8
DETAIL
  6
CONTINOUS
 62
     5
 10
21.96
 20
29.88
 11
16.92
 21
29.88
  0
LINE
  8
DETAIL
  6
CONTINOUS
 62
     5
 10
16.92
 20
29.88
 11
16.92
 21
34.92
  0
LINE
  8
DETAIL
  6
CONTINOUS
 62
     5
 10
21.96
 20
34.92
 11
16.92
 21
34.92
  0
LINE
  8
DETAIL
  6
CONTINOUS
 62
     5
 10
21.96
 20
36.36
 11
21.96
 21
41.4
  0
LINE
  8
DETAIL
  6
CONTINOUS
 62
     5
 10
21.96
 20
36.36
 11
16.92
 21
36.36
  0
LINE
  8
DETAIL
  6
CONTINOUS
 62
     5
 10
16.92
 20
36.36
 11
16.92
 21
41.4
  0
LINE
  8
DETAIL
  6
CONTINOUS
 62
     5
 10
21.96
 20
41.4
 11
16.92
 21
41.4
  0
LINE
  8
DETAIL
  6
CONTINOUS
 62
     5
 10
21.96
 20
42.84
 11
21.96
 21
47.88
  0
LINE
  8
DETAIL
  6
CONTINOUS
 62
     5
 10
21.96
 20
42.84
 11
16.92
 21
42.84
  0
LINE
  8
DETAIL
  6
CONTINOUS
 62
     5
 10
16.92
 20
42.84
 11
16.92
 21
47.88
  0
LINE
  8
DETAIL
  6
CONTINOUS
 62
     5
 10
21.96
 20
47.88
 11
16.92
 21
47.88
  0
LINE
  8
DETAIL
  6
CONTINOUS
 62
     5
 10
21.96
 20
49.32
 11
21.96
 21
54.36
  0
LINE
  8
DETAIL
  6
CONTINOUS
 62
     5
 10
21.96
 20
49.32
 11
16.92
 21
49.32
  0
LINE
  8
DETAIL
  6
CONTINOUS
 62
     5
 10
16.92
 20
49.32
 11
16.92
 21
54.36
  0
LINE
  8
DETAIL
  6
CONTINOUS
 62
     5
 10
21.96
 20
54.36
 11
16.92
 21
54.36
  0
LINE
  8
DETAIL
  6
CONTINOUS
 62
     5
 10
21.96
 20
55.8
 11
21.96
 21
60.84
  0
LINE
  8
DETAIL
  6
CONTINOUS
 62
     5
 10
21.96
 20
55.8
 11
16.92
 21
55.8
  0
LINE
  8
DETAIL
  6
CONTINOUS
 62
     5
 10
16.92
 20
55.8
 11
16.92
 21
60.84
  0
LINE
  8
DETAIL
  6
CONTINOUS
 62
     5
 10
21.96
 20
60.84
 11
16.92
 21
60.84
  0
LINE
  8
DETAIL
  6
CONTINOUS
 62
     5
 10
21.96
 20
62.28
 11
21.96
 21
67.32
  0
LINE
  8
DETAIL
  6
CONTINOUS
 62
     5
 10
21.96
 20
62.28
 11
16.92
 21
62.28
  0
LINE
  8
DETAIL
  6
CONTINOUS
 62
     5
 10
16.92
 20
62.28
 11
16.92
 21
67.32
  0
LINE
  8
DETAIL
  6
CONTINOUS
 62
     5
 10
21.96
 20
67.32
 11
16.92
 21
67.32
  0
LINE
  8
DETAIL
  6
CONTINOUS
 62
     5
 10
21.96
 20
68.76
 11
21.96
 21
73.8
  0
LINE
  8
DETAIL
  6
CONTINOUS
 62
     5
 10
21.96
 20
68.76
 11
16.92
 21
68.76
  0
LINE
  8
DETAIL
  6
CONTINOUS
 62
     5
 10
16.92
 20
68.76
 11
16.92
 21
73.8
  0
LINE
  8
DETAIL
  6
CONTINOUS
 62
     5
 10
21.96
 20
73.8
 11
16.92
 21
73.8
  0
LINE
  8
DETAIL
  6
CONTINOUS
 62
     5
 10
21.96
 20
75.24
 11
21.96
 21
80.28
  0
LINE
  8
DETAIL
  6
CONTINOUS
 62
     5
 10
21.96
 20
75.24
 11
16.92
 21
75.24
  0
LINE
  8
DETAIL
  6
CONTINOUS
 62
     5
 10
16.92
 20
75.24
 11
16.92
 21
80.28
  0
LINE
  8
DETAIL
  6
CONTINOUS
 62
     5
 10
21.96
 20
80.28
 11
16.92
 21
80.28
  0
LINE
  8
DETAIL
  6
CONTINOUS
 62
     5
 10
21.96
 20
81.72
 11
21.96
 21
86.76
  0
LINE
  8
DETAIL
  6
CONTINOUS
 62
     5
 10
21.96
 20
81.72
 11
16.92
 21
81.72
  0
LINE
  8
DETAIL
  6
CONTINOUS
 62
     5
 10
16.92
 20
81.72
 11
16.92
 21
86.76
  0
LINE
  8
DETAIL
  6
CONTINOUS
 62
     5
 10
21.96
 20
86.76
 11
16.92
 21
86.76
  0
LINE
  8
DETAIL
  6
CONTINOUS
 62
     5
 10
15.48
 20
-86.76
 11
15.48
 21
-81.72
  0
LINE
  8
DETAIL
  6
CONTINOUS
 62
     5
 10
15.48
 20
-86.76
 11
10.44
 21
-86.76
  0
LINE
  8
DETAIL
  6
CONTINOUS
 62
     5
 10
10.44
 20
-86.76
 11
10.44
 21
-81.72
  0
LINE
  8
DETAIL
  6
CONTINOUS
 62
     5
 10
15.48
 20
-81.72
 11
10.44
 21
-81.72
  0
LINE
  8
DETAIL
  6
CONTINOUS
 62
     5
 10
15.48
 20
-80.28
 11
15.48
 21
-75.24
  0
LINE
  8
DETAIL
  6
CONTINOUS
 62
     5
 10
15.48
 20
-80.28
 11
10.44
 21
-80.28
  0
LINE
  8
DETAIL
  6
CONTINOUS
 62
     5
 10
10.44
 20
-80.28
 11
10.44
 21
-75.24
  0
LINE
  8
DETAIL
  6
CONTINOUS
 62
     5
 10
15.48
 20
-75.24
 11
10.44
 21
-75.24
  0
LINE
  8
DETAIL
  6
CONTINOUS
 62
     5
 10
15.48
 20
-73.8
 11
15.48
 21
-68.76
  0
LINE
  8
DETAIL
  6
CONTINOUS
 62
     5
 10
15.48
 20
-73.8
 11
10.44
 21
-73.8
  0
LINE
  8
DETAIL
  6
CONTINOUS
 62
     5
 10
10.44
 20
-73.8
 11
10.44
 21
-68.76
  0
LINE
  8
DETAIL
  6
CONTINOUS
 62
     5
 10
15.48
 20
-68.76
 11
10.44
 21
-68.76
  0
LINE
  8
DETAIL
  6
CONTINOUS
 62
     5
 10
15.48
 20
-67.32
 11
15.48
 21
-62.28
  0
LINE
  8
DETAIL
  6
CONTINOUS
 62
     5
 10
15.48
 20
-67.32
 11
10.44
 21
-67.32
  0
LINE
  8
DETAIL
  6
CONTINOUS
 62
     5
 10
10.44
 20
-67.32
 11
10.44
 21
-62.28
  0
LINE
  8
DETAIL
  6
CONTINOUS
 62
     5
 10
15.48
 20
-62.28
 11
10.44
 21
-62.28
  0
LINE
  8
DETAIL
  6
CONTINOUS
 62
     5
 10
15.48
 20
-60.84
 11
15.48
 21
-55.8
  0
LINE
  8
DETAIL
  6
CONTINOUS
 62
     5
 10
15.48
 20
-60.84
 11
10.44
 21
-60.84
  0
LINE
  8
DETAIL
  6
CONTINOUS
 62
     5
 10
10.44
 20
-60.84
 11
10.44
 21
-55.8
  0
LINE
  8
DETAIL
  6
CONTINOUS
 62
     5
 10
15.48
 20
-55.8
 11
10.44
 21
-55.8
  0
LINE
  8
DETAIL
  6
CONTINOUS
 62
     5
 10
15.48
 20
-54.36
 11
15.48
 21
-49.32
  0
LINE
  8
DETAIL
  6
CONTINOUS
 62
     5
 10
15.48
 20
-54.36
 11
10.44
 21
-54.36
  0
LINE
  8
DETAIL
  6
CONTINOUS
 62
     5
 10
10.44
 20
-54.36
 11
10.44
 21
-49.32
  0
LINE
  8
DETAIL
  6
CONTINOUS
 62
     5
 10
15.48
 20
-49.32
 11
10.44
 21
-49.32
  0
LINE
  8
DETAIL
  6
CONTINOUS
 62
     5
 10
15.48
 20
-47.88
 11
15.48
 21
-42.84
  0
LINE
  8
DETAIL
  6
CONTINOUS
 62
     5
 10
15.48
 20
-47.88
 11
10.44
 21
-47.88
  0
LINE
  8
DETAIL
  6
CONTINOUS
 62
     5
 10
10.44
 20
-47.88
 11
10.44
 21
-42.84
  0
LINE
  8
DETAIL
  6
CONTINOUS
 62
     5
 10
15.48
 20
-42.84
 11
10.44
 21
-42.84
  0
LINE
  8
DETAIL
  6
CONTINOUS
 62
     5
 10
15.48
 20
-41.4
 11
15.48
 21
-36.36
  0
LINE
  8
DETAIL
  6
CONTINOUS
 62
     5
 10
15.48
 20
-41.4
 11
10.44
 21
-41.4
  0
LINE
  8
DETAIL
  6
CONTINOUS
 62
     5
 10
10.44
 20
-41.4
 11
10.44
 21
-36.36
  0
LINE
  8
DETAIL
  6
CONTINOUS
 62
     5
 10
15.48
 20
-36.36
 11
10.44
 21
-36.36
  0
LINE
  8
DETAIL
  6
CONTINOUS
 62
     5
 10
15.48
 20
-34.92
 11
15.48
 21
-29.88
  0
LINE
  8
DETAIL
  6
CONTINOUS
 62
     5
 10
15.48
 20
-34.92
 11
10.44
 21
-34.92
  0
LINE
  8
DETAIL
  6
CONTINOUS
 62
     5
 10
10.44
 20
-34.92
 11
10.44
 21
-29.88
  0
LINE
  8
DETAIL
  6
CONTINOUS
 62
     5
 10
15.48
 20
-29.88
 11
10.44
 21
-29.88
  0
LINE
  8
DETAIL
  6
CONTINOUS
 62
     5
 10
15.48
 20
-28.44
 11
15.48
 21
-23.4
  0
LINE
  8
DETAIL
  6
CONTINOUS
 62
     5
 10
15.48
 20
-28.44
 11
10.44
 21
-28.44
  0
LINE
  8
DETAIL
  6
CONTINOUS
 62
     5
 10
10.44
 20
-28.44
 11
10.44
 21
-23.4
  0
LINE
  8
DETAIL
  6
CONTINOUS
 62
     5
 10
15.48
 20
-23.4
 11
10.44
 21
-23.4
  0
LINE
  8
DETAIL
  6
CONTINOUS
 62
     5
 10
15.48
 20
-21.96
 11
15.48
 21
-16.92
  0
LINE
  8
DETAIL
  6
CONTINOUS
 62
     5
 10
15.48
 20
-21.96
 11
10.44
 21
-21.96
  0
LINE
  8
DETAIL
  6
CONTINOUS
 62
     5
 10
10.44
 20
-21.96
 11
10.44
 21
-16.92
  0
LINE
  8
DETAIL
  6
CONTINOUS
 62
     5
 10
15.48
 20
-16.92
 11
10.44
 21
-16.92
  0
LINE
  8
DETAIL
  6
CONTINOUS
 62
     5
 10
15.48
 20
-15.48
 11
15.48
 21
-10.44
  0
LINE
  8
DETAIL
  6
CONTINOUS
 62
     5
 10
15.48
 20
-15.48
 11
10.44
 21
-15.48
  0
LINE
  8
DETAIL
  6
CONTINOUS
 62
     5
 10
10.44
 20
-15.48
 11
10.44
 21
-10.44
  0
LINE
  8
DETAIL
  6
CONTINOUS
 62
     5
 10
15.48
 20
-10.44
 11
10.44
 21
-10.44
  0
LINE
  8
DETAIL
  6
CONTINOUS
 62
     5
 10
15.48
 20
-9.0
 11
15.48
 21
-3.96
  0
LINE
  8
DETAIL
  6
CONTINOUS
 62
     5
 10
15.48
 20
-9.0
 11
10.44
 21
-9.0
  0
LINE
  8
DETAIL
  6
CONTINOUS
 62
     5
 10
10.44
 20
-9.0
 11
10.44
 21
-3.96
  0
LINE
  8
DETAIL
  6
CONTINOUS
 62
     5
 10
15.48
 20
-3.96
 11
10.44
 21
-3.96
  0
LINE
  8
DETAIL
  6
CONTINOUS
 62
     5
 10
15.48
 20
-2.52
 11
15.48
 21
2.52
  0
LINE
  8
DETAIL
  6
CONTINOUS
 62
     5
 10
15.48
 20
-2.52
 11
10.44
 21
-2.52
  0
LINE
  8
DETAIL
  6
CONTINOUS
 62
     5
 10
10.44
 20
-2.52
 11
10.44
 21
2.52
  0
LINE
  8
DETAIL
  6
CONTINOUS
 62
     5
 10
15.48
 20
2.52
 11
10.44
 21
2.52
  0
LINE
  8
DETAIL
  6
CONTINOUS
 62
     5
 10
15.48
 20
3.96
 11
15.48
 21
9.0
  0
LINE
  8
DETAIL
  6
CONTINOUS
 62
     5
 10
15.48
 20
3.96
 11
10.44
 21
3.96
  0
LINE
  8
DETAIL
  6
CONTINOUS
 62
     5
 10
10.44
 20
3.96
 11
10.44
 21
9.0
  0
LINE
  8
DETAIL
  6
CONTINOUS
 62
     5
 10
15.48
 20
9.0
 11
10.44
 21
9.0
  0
LINE
  8
DETAIL
  6
CONTINOUS
 62
     5
 10
15.48
 20
10.44
 11
15.48
 21
15.48
  0
LINE
  8
DETAIL
  6
CONTINOUS
 62
     5
 10
15.48
 20
10.44
 11
10.44
 21
10.44
  0
LINE
  8
DETAIL
  6
CONTINOUS
 62
     5
 10
10.44
 20
10.44
 11
10.44
 21
15.48
  0
LINE
  8
DETAIL
  6
CONTINOUS
 62
     5
 10
15.48
 20
15.48
 11
10.44
 21
15.48
  0
LINE
  8
DETAIL
  6
CONTINOUS
 62
     5
 10
15.48
 20
16.92
 11
15.48
 21
21.96
  0
LINE
  8
DETAIL
  6
CONTINOUS
 62
     5
 10
15.48
 20
16.92
 11
10.44
 21
16.92
  0
LINE
  8
DETAIL
  6
CONTINOUS
 62
     5
 10
10.44
 20
16.92
 11
10.44
 21
21.96
  0
LINE
  8
DETAIL
  6
CONTINOUS
 62
     5
 10
15.48
 20
21.96
 11
10.44
 21
21.96
  0
LINE
  8
DETAIL
  6
CONTINOUS
 62
     5
 10
15.48
 20
23.4
 11
15.48
 21
28.44
  0
LINE
  8
DETAIL
  6
CONTINOUS
 62
     5
 10
15.48
 20
23.4
 11
10.44
 21
23.4
  0
LINE
  8
DETAIL
  6
CONTINOUS
 62
     5
 10
10.44
 20
23.4
 11
10.44
 21
28.44
  0
LINE
  8
DETAIL
  6
CONTINOUS
 62
     5
 10
15.48
 20
28.44
 11
10.44
 21
28.44
  0
LINE
  8
DETAIL
  6
CONTINOUS
 62
     5
 10
15.48
 20
29.88
 11
15.48
 21
34.92
  0
LINE
  8
DETAIL
  6
CONTINOUS
 62
     5
 10
15.48
 20
29.88
 11
10.44
 21
29.88
  0
LINE
  8
DETAIL
  6
CONTINOUS
 62
     5
 10
10.44
 20
29.88
 11
10.44
 21
34.92
  0
LINE
  8
DETAIL
  6
CONTINOUS
 62
     5
 10
15.48
 20
34.92
 11
10.44
 21
34.92
  0
LINE
  8
DETAIL
  6
CONTINOUS
 62
     5
 10
15.48
 20
36.36
 11
15.48
 21
41.4
  0
LINE
  8
DETAIL
  6
CONTINOUS
 62
     5
 10
15.48
 20
36.36
 11
10.44
 21
36.36
  0
LINE
  8
DETAIL
  6
CONTINOUS
 62
     5
 10
10.44
 20
36.36
 11
10.44
 21
41.4
  0
LINE
  8
DETAIL
  6
CONTINOUS
 62
     5
 10
15.48
 20
41.4
 11
10.44
 21
41.4
  0
LINE
  8
DETAIL
  6
CONTINOUS
 62
     5
 10
15.48
 20
42.84
 11
15.48
 21
47.88
  0
LINE
  8
DETAIL
  6
CONTINOUS
 62
     5
 10
15.48
 20
42.84
 11
10.44
 21
42.84
  0
LINE
  8
DETAIL
  6
CONTINOUS
 62
     5
 10
10.44
 20
42.84
 11
10.44
 21
47.88
  0
LINE
  8
DETAIL
  6
CONTINOUS
 62
     5
 10
15.48
 20
47.88
 11
10.44
 21
47.88
  0
LINE
  8
DETAIL
  6
CONTINOUS
 62
     5
 10
15.48
 20
49.32
 11
15.48
 21
54.36
  0
LINE
  8
DETAIL
  6
CONTINOUS
 62
     5
 10
15.48
 20
49.32
 11
10.44
 21
49.32
  0
LINE
  8
DETAIL
  6
CONTINOUS
 62
     5
 10
10.44
 20
49.32
 11
10.44
 21
54.36
  0
LINE
  8
DETAIL
  6
CONTINOUS
 62
     5
 10
15.48
 20
54.36
 11
10.44
 21
54.36
  0
LINE
  8
DETAIL
  6
CONTINOUS
 62
     5
 10
15.48
 20
55.8
 11
15.48
 21
60.84
  0
LINE
  8
DETAIL
  6
CONTINOUS
 62
     5
 10
15.48
 20
55.8
 11
10.44
 21
55.8
  0
LINE
  8
DETAIL
  6
CONTINOUS
 62
     5
 10
10.44
 20
55.8
 11
10.44
 21
60.84
  0
LINE
  8
DETAIL
  6
CONTINOUS
 62
     5
 10
15.48
 20
60.84
 11
10.44
 21
60.84
  0
LINE
  8
DETAIL
  6
CONTINOUS
 62
     5
 10
15.48
 20
62.28
 11
15.48
 21
67.32
  0
LINE
  8
DETAIL
  6
CONTINOUS
 62
     5
 10
15.48
 20
62.28
 11
10.44
 21
62.28
  0
LINE
  8
DETAIL
  6
CONTINOUS
 62
     5
 10
10.44
 20
62.28
 11
10.44
 21
67.32
  0
LINE
  8
DETAIL
  6
CONTINOUS
 62
     5
 10
15.48
 20
67.32
 11
10.44
 21
67.32
  0
LINE
  8
DETAIL
  6
CONTINOUS
 62
     5
 10
15.48
 20
68.76
 11
15.48
 21
73.8
  0
LINE
  8
DETAIL
  6
CONTINOUS
 62
     5
 10
15.48
 20
68.76
 11
10.44
 21
68.76
  0
LINE
  8
DETAIL
  6
CONTINOUS
 62
     5
 10
10.44
 20
68.76
 11
10.44
 21
73.8
  0
LINE
  8
DETAIL
  6
CONTINOUS
 62
     5
 10
15.48
 20
73.8
 11
10.44
 21
73.8
  0
LINE
  8
DETAIL
  6
CONTINOUS
 62
     5
 10
15.48
 20
75.24
 11
15.48
 21
80.28
  0
LINE
  8
DETAIL
  6
CONTINOUS
 62
     5
 10
15.48
 20
75.24
 11
10.44
 21
75.24
  0
LINE
  8
DETAIL
  6
CONTINOUS
 62
     5
 10
10.44
 20
75.24
 11
10.44
 21
80.28
  0
LINE
  8
DETAIL
  6
CONTINOUS
 62
     5
 10
15.48
 20
80.28
 11
10.44
 21
80.28
  0
LINE
  8
DETAIL
  6
CONTINOUS
 62
     5
 10
15.48
 20
81.72
 11
15.48
 21
86.76
  0
LINE
  8
DETAIL
  6
CONTINOUS
 62
     5
 10
15.48
 20
81.72
 11
10.44
 21
81.72
  0
LINE
  8
DETAIL
  6
CONTINOUS
 62
     5
 10
10.44
 20
81.72
 11
10.44
 21
86.76
  0
LINE
  8
DETAIL
  6
CONTINOUS
 62
     5
 10
15.48
 20
86.76
 11
10.44
 21
86.76
  0
LINE
  8
DETAIL
  6
CONTINOUS
 62
     5
 10
9.0
 20
-86.76
 11
9.0
 21
-81.72
  0
LINE
  8
DETAIL
  6
CONTINOUS
 62
     5
 10
9.0
 20
-86.76
 11
3.96
 21
-86.76
  0
LINE
  8
DETAIL
  6
CONTINOUS
 62
     5
 10
3.96
 20
-86.76
 11
3.96
 21
-81.72
  0
LINE
  8
DETAIL
  6
CONTINOUS
 62
     5
 10
9.0
 20
-81.72
 11
3.96
 21
-81.72
  0
LINE
  8
DETAIL
  6
CONTINOUS
 62
     5
 10
9.0
 20
-80.28
 11
9.0
 21
-75.24
  0
LINE
  8
DETAIL
  6
CONTINOUS
 62
     5
 10
9.0
 20
-80.28
 11
3.96
 21
-80.28
  0
LINE
  8
DETAIL
  6
CONTINOUS
 62
     5
 10
3.96
 20
-80.28
 11
3.96
 21
-75.24
  0
LINE
  8
DETAIL
  6
CONTINOUS
 62
     5
 10
9.0
 20
-75.24
 11
3.96
 21
-75.24
  0
LINE
  8
DETAIL
  6
CONTINOUS
 62
     5
 10
9.0
 20
-73.8
 11
9.0
 21
-68.76
  0
LINE
  8
DETAIL
  6
CONTINOUS
 62
     5
 10
9.0
 20
-73.8
 11
3.96
 21
-73.8
  0
LINE
  8
DETAIL
  6
CONTINOUS
 62
     5
 10
3.96
 20
-73.8
 11
3.96
 21
-68.76
  0
LINE
  8
DETAIL
  6
CONTINOUS
 62
     5
 10
9.0
 20
-68.76
 11
3.96
 21
-68.76
  0
LINE
  8
DETAIL
  6
CONTINOUS
 62
     5
 10
9.0
 20
-67.32
 11
9.0
 21
-62.28
  0
LINE
  8
DETAIL
  6
CONTINOUS
 62
     5
 10
9.0
 20
-67.32
 11
3.96
 21
-67.32
  0
LINE
  8
DETAIL
  6
CONTINOUS
 62
     5
 10
3.96
 20
-67.32
 11
3.96
 21
-62.28
  0
LINE
  8
DETAIL
  6
CONTINOUS
 62
     5
 10
9.0
 20
-62.28
 11
3.96
 21
-62.28
  0
LINE
  8
DETAIL
  6
CONTINOUS
 62
     5
 10
9.0
 20
-60.84
 11
9.0
 21
-55.8
  0
LINE
  8
DETAIL
  6
CONTINOUS
 62
     5
 10
9.0
 20
-60.84
 11
3.96
 21
-60.84
  0
LINE
  8
DETAIL
  6
CONTINOUS
 62
     5
 10
3.96
 20
-60.84
 11
3.96
 21
-55.8
  0
LINE
  8
DETAIL
  6
CONTINOUS
 62
     5
 10
9.0
 20
-55.8
 11
3.96
 21
-55.8
  0
LINE
  8
DETAIL
  6
CONTINOUS
 62
     5
 10
9.0
 20
-54.36
 11
9.0
 21
-49.32
  0
LINE
  8
DETAIL
  6
CONTINOUS
 62
     5
 10
9.0
 20
-54.36
 11
3.96
 21
-54.36
  0
LINE
  8
DETAIL
  6
CONTINOUS
 62
     5
 10
3.96
 20
-54.36
 11
3.96
 21
-49.32
  0
LINE
  8
DETAIL
  6
CONTINOUS
 62
     5
 10
9.0
 20
-49.32
 11
3.96
 21
-49.32
  0
LINE
  8
DETAIL
  6
CONTINOUS
 62
     5
 10
9.0
 20
-47.88
 11
9.0
 21
-42.84
  0
LINE
  8
DETAIL
  6
CONTINOUS
 62
     5
 10
9.0
 20
-47.88
 11
3.96
 21
-47.88
  0
LINE
  8
DETAIL
  6
CONTINOUS
 62
     5
 10
3.96
 20
-47.88
 11
3.96
 21
-42.84
  0
LINE
  8
DETAIL
  6
CONTINOUS
 62
     5
 10
9.0
 20
-42.84
 11
3.96
 21
-42.84
  0
LINE
  8
DETAIL
  6
CONTINOUS
 62
     5
 10
9.0
 20
-41.4
 11
9.0
 21
-36.36
  0
LINE
  8
DETAIL
  6
CONTINOUS
 62
     5
 10
9.0
 20
-41.4
 11
3.96
 21
-41.4
  0
LINE
  8
DETAIL
  6
CONTINOUS
 62
     5
 10
3.96
 20
-41.4
 11
3.96
 21
-36.36
  0
LINE
  8
DETAIL
  6
CONTINOUS
 62
     5
 10
9.0
 20
-36.36
 11
3.96
 21
-36.36
  0
LINE
  8
DETAIL
  6
CONTINOUS
 62
     5
 10
9.0
 20
-34.92
 11
9.0
 21
-29.88
  0
LINE
  8
DETAIL
  6
CONTINOUS
 62
     5
 10
9.0
 20
-34.92
 11
3.96
 21
-34.92
  0
LINE
  8
DETAIL
  6
CONTINOUS
 62
     5
 10
3.96
 20
-34.92
 11
3.96
 21
-29.88
  0
LINE
  8
DETAIL
  6
CONTINOUS
 62
     5
 10
9.0
 20
-29.88
 11
3.96
 21
-29.88
  0
LINE
  8
DETAIL
  6
CONTINOUS
 62
     5
 10
9.0
 20
-28.44
 11
9.0
 21
-23.4
  0
LINE
  8
DETAIL
  6
CONTINOUS
 62
     5
 10
9.0
 20
-28.44
 11
3.96
 21
-28.44
  0
LINE
  8
DETAIL
  6
CONTINOUS
 62
     5
 10
3.96
 20
-28.44
 11
3.96
 21
-23.4
  0
LINE
  8
DETAIL
  6
CONTINOUS
 62
     5
 10
9.0
 20
-23.4
 11
3.96
 21
-23.4
  0
LINE
  8
DETAIL
  6
CONTINOUS
 62
     5
 10
9.0
 20
-21.96
 11
9.0
 21
-16.92
  0
LINE
  8
DETAIL
  6
CONTINOUS
 62
     5
 10
9.0
 20
-21.96
 11
3.96
 21
-21.96
  0
LINE
  8
DETAIL
  6
CONTINOUS
 62
     5
 10
3.96
 20
-21.96
 11
3.96
 21
-16.92
  0
LINE
  8
DETAIL
  6
CONTINOUS
 62
     5
 10
9.0
 20
-16.92
 11
3.96
 21
-16.92
  0
LINE
  8
DETAIL
  6
CONTINOUS
 62
     5
 10
9.0
 20
-15.48
 11
9.0
 21
-10.44
  0
LINE
  8
DETAIL
  6
CONTINOUS
 62
     5
 10
9.0
 20
-15.48
 11
3.96
 21
-15.48
  0
LINE
  8
DETAIL
  6
CONTINOUS
 62
     5
 10
3.96
 20
-15.48
 11
3.96
 21
-10.44
  0
LINE
  8
DETAIL
  6
CONTINOUS
 62
     5
 10
9.0
 20
-10.44
 11
3.96
 21
-10.44
  0
LINE
  8
DETAIL
  6
CONTINOUS
 62
     5
 10
9.0
 20
-9.0
 11
9.0
 21
-3.96
  0
LINE
  8
DETAIL
  6
CONTINOUS
 62
     5
 10
9.0
 20
-9.0
 11
3.96
 21
-9.0
  0
LINE
  8
DETAIL
  6
CONTINOUS
 62
     5
 10
3.96
 20
-9.0
 11
3.96
 21
-3.96
  0
LINE
  8
DETAIL
  6
CONTINOUS
 62
     5
 10
9.0
 20
-3.96
 11
3.96
 21
-3.96
  0
LINE
  8
DETAIL
  6
CONTINOUS
 62
     5
 10
9.0
 20
-2.52
 11
9.0
 21
2.52
  0
LINE
  8
DETAIL
  6
CONTINOUS
 62
     5
 10
9.0
 20
-2.52
 11
3.96
 21
-2.52
  0
LINE
  8
DETAIL
  6
CONTINOUS
 62
     5
 10
3.96
 20
-2.52
 11
3.96
 21
2.52
  0
LINE
  8
DETAIL
  6
CONTINOUS
 62
     5
 10
9.0
 20
2.52
 11
3.96
 21
2.52
  0
LINE
  8
DETAIL
  6
CONTINOUS
 62
     5
 10
9.0
 20
3.96
 11
9.0
 21
9.0
  0
LINE
  8
DETAIL
  6
CONTINOUS
 62
     5
 10
9.0
 20
3.96
 11
3.96
 21
3.96
  0
LINE
  8
DETAIL
  6
CONTINOUS
 62
     5
 10
3.96
 20
3.96
 11
3.96
 21
9.0
  0
LINE
  8
DETAIL
  6
CONTINOUS
 62
     5
 10
9.0
 20
9.0
 11
3.96
 21
9.0
  0
LINE
  8
DETAIL
  6
CONTINOUS
 62
     5
 10
9.0
 20
10.44
 11
9.0
 21
15.48
  0
LINE
  8
DETAIL
  6
CONTINOUS
 62
     5
 10
9.0
 20
10.44
 11
3.96
 21
10.44
  0
LINE
  8
DETAIL
  6
CONTINOUS
 62
     5
 10
3.96
 20
10.44
 11
3.96
 21
15.48
  0
LINE
  8
DETAIL
  6
CONTINOUS
 62
     5
 10
9.0
 20
15.48
 11
3.96
 21
15.48
  0
LINE
  8
DETAIL
  6
CONTINOUS
 62
     5
 10
9.0
 20
16.92
 11
9.0
 21
21.96
  0
LINE
  8
DETAIL
  6
CONTINOUS
 62
     5
 10
9.0
 20
16.92
 11
3.96
 21
16.92
  0
LINE
  8
DETAIL
  6
CONTINOUS
 62
     5
 10
3.96
 20
16.92
 11
3.96
 21
21.96
  0
LINE
  8
DETAIL
  6
CONTINOUS
 62
     5
 10
9.0
 20
21.96
 11
3.96
 21
21.96
  0
LINE
  8
DETAIL
  6
CONTINOUS
 62
     5
 10
9.0
 20
23.4
 11
9.0
 21
28.44
  0
LINE
  8
DETAIL
  6
CONTINOUS
 62
     5
 10
9.0
 20
23.4
 11
3.96
 21
23.4
  0
LINE
  8
DETAIL
  6
CONTINOUS
 62
     5
 10
3.96
 20
23.4
 11
3.96
 21
28.44
  0
LINE
  8
DETAIL
  6
CONTINOUS
 62
     5
 10
9.0
 20
28.44
 11
3.96
 21
28.44
  0
LINE
  8
DETAIL
  6
CONTINOUS
 62
     5
 10
9.0
 20
29.88
 11
9.0
 21
34.92
  0
LINE
  8
DETAIL
  6
CONTINOUS
 62
     5
 10
9.0
 20
29.88
 11
3.96
 21
29.88
  0
LINE
  8
DETAIL
  6
CONTINOUS
 62
     5
 10
3.96
 20
29.88
 11
3.96
 21
34.92
  0
LINE
  8
DETAIL
  6
CONTINOUS
 62
     5
 10
9.0
 20
34.92
 11
3.96
 21
34.92
  0
LINE
  8
DETAIL
  6
CONTINOUS
 62
     5
 10
9.0
 20
36.36
 11
9.0
 21
41.4
  0
LINE
  8
DETAIL
  6
CONTINOUS
 62
     5
 10
9.0
 20
36.36
 11
3.96
 21
36.36
  0
LINE
  8
DETAIL
  6
CONTINOUS
 62
     5
 10
3.96
 20
36.36
 11
3.96
 21
41.4
  0
LINE
  8
DETAIL
  6
CONTINOUS
 62
     5
 10
9.0
 20
41.4
 11
3.96
 21
41.4
  0
LINE
  8
DETAIL
  6
CONTINOUS
 62
     5
 10
9.0
 20
42.84
 11
9.0
 21
47.88
  0
LINE
  8
DETAIL
  6
CONTINOUS
 62
     5
 10
9.0
 20
42.84
 11
3.96
 21
42.84
  0
LINE
  8
DETAIL
  6
CONTINOUS
 62
     5
 10
3.96
 20
42.84
 11
3.96
 21
47.88
  0
LINE
  8
DETAIL
  6
CONTINOUS
 62
     5
 10
9.0
 20
47.88
 11
3.96
 21
47.88
  0
LINE
  8
DETAIL
  6
CONTINOUS
 62
     5
 10
9.0
 20
49.32
 11
9.0
 21
54.36
  0
LINE
  8
DETAIL
  6
CONTINOUS
 62
     5
 10
9.0
 20
49.32
 11
3.96
 21
49.32
  0
LINE
  8
DETAIL
  6
CONTINOUS
 62
     5
 10
3.96
 20
49.32
 11
3.96
 21
54.36
  0
LINE
  8
DETAIL
  6
CONTINOUS
 62
     5
 10
9.0
 20
54.36
 11
3.96
 21
54.36
  0
LINE
  8
DETAIL
  6
CONTINOUS
 62
     5
 10
9.0
 20
55.8
 11
9.0
 21
60.84
  0
LINE
  8
DETAIL
  6
CONTINOUS
 62
     5
 10
9.0
 20
55.8
 11
3.96
 21
55.8
  0
LINE
  8
DETAIL
  6
CONTINOUS
 62
     5
 10
3.96
 20
55.8
 11
3.96
 21
60.84
  0
LINE
  8
DETAIL
  6
CONTINOUS
 62
     5
 10
9.0
 20
60.84
 11
3.96
 21
60.84
  0
LINE
  8
DETAIL
  6
CONTINOUS
 62
     5
 10
9.0
 20
62.28
 11
9.0
 21
67.32
  0
LINE
  8
DETAIL
  6
CONTINOUS
 62
     5
 10
9.0
 20
62.28
 11
3.96
 21
62.28
  0
LINE
  8
DETAIL
  6
CONTINOUS
 62
     5
 10
3.96
 20
62.28
 11
3.96
 21
67.32
  0
LINE
  8
DETAIL
  6
CONTINOUS
 62
     5
 10
9.0
 20
67.32
 11
3.96
 21
67.32
  0
LINE
  8
DETAIL
  6
CONTINOUS
 62
     5
 10
9.0
 20
68.76
 11
9.0
 21
73.8
  0
LINE
  8
DETAIL
  6
CONTINOUS
 62
     5
 10
9.0
 20
68.76
 11
3.96
 21
68.76
  0
LINE
  8
DETAIL
  6
CONTINOUS
 62
     5
 10
3.96
 20
68.76
 11
3.96
 21
73.8
  0
LINE
  8
DETAIL
  6
CONTINOUS
 62
     5
 10
9.0
 20
73.8
 11
3.96
 21
73.8
  0
LINE
  8
DETAIL
  6
CONTINOUS
 62
     5
 10
9.0
 20
75.24
 11
9.0
 21
80.28
  0
LINE
  8
DETAIL
  6
CONTINOUS
 62
     5
 10
9.0
 20
75.24
 11
3.96
 21
75.24
  0
LINE
  8
DETAIL
  6
CONTINOUS
 62
     5
 10
3.96
 20
75.24
 11
3.96
 21
80.28
  0
LINE
  8
DETAIL
  6
CONTINOUS
 62
     5
 10
9.0
 20
80.28
 11
3.96
 21
80.28
  0
LINE
  8
DETAIL
  6
CONTINOUS
 62
     5
 10
9.0
 20
81.72
 11
9.0
 21
86.76
  0
LINE
  8
DETAIL
  6
CONTINOUS
 62
     5
 10
9.0
 20
81.72
 11
3.96
 21
81.72
  0
LINE
  8
DETAIL
  6
CONTINOUS
 62
     5
 10
3.96
 20
81.72
 11
3.96
 21
86.76
  0
LINE
  8
DETAIL
  6
CONTINOUS
 62
     5
 10
9.0
 20
86.76
 11
3.96
 21
86.76
  0
LINE
  8
DETAIL
  6
CONTINOUS
 62
     5
 10
2.52
 20
-86.76
 11
2.52
 21
-81.72
  0
LINE
  8
DETAIL
  6
CONTINOUS
 62
     5
 10
2.52
 20
-86.76
 11
-0.0
 21
-86.76
  0
LINE
  8
DETAIL
  6
CONTINOUS
 62
     5
 10
2.52
 20
-81.72
 11
-0.0
 21
-81.72
  0
LINE
  8
DETAIL
  6
CONTINOUS
 62
     5
 10
2.52
 20
-80.28
 11
2.52
 21
-75.24
  0
LINE
  8
DETAIL
  6
CONTINOUS
 62
     5
 10
2.52
 20
-80.28
 11
-0.0
 21
-80.28
  0
LINE
  8
DETAIL
  6
CONTINOUS
 62
     5
 10
2.52
 20
-75.24
 11
-0.0
 21
-75.24
  0
LINE
  8
DETAIL
  6
CONTINOUS
 62
     5
 10
2.52
 20
-73.8
 11
2.52
 21
-68.76
  0
LINE
  8
DETAIL
  6
CONTINOUS
 62
     5
 10
2.52
 20
-73.8
 11
-0.0
 21
-73.8
  0
LINE
  8
DETAIL
  6
CONTINOUS
 62
     5
 10
2.52
 20
-68.76
 11
-0.0
 21
-68.76
  0
LINE
  8
DETAIL
  6
CONTINOUS
 62
     5
 10
2.52
 20
-67.32
 11
2.52
 21
-62.28
  0
LINE
  8
DETAIL
  6
CONTINOUS
 62
     5
 10
2.52
 20
-67.32
 11
-0.0
 21
-67.32
  0
LINE
  8
DETAIL
  6
CONTINOUS
 62
     5
 10
2.52
 20
-62.28
 11
-0.0
 21
-62.28
  0
LINE
  8
DETAIL
  6
CONTINOUS
 62
     5
 10
2.52
 20
-60.84
 11
2.52
 21
-55.8
  0
LINE
  8
DETAIL
  6
CONTINOUS
 62
     5
 10
2.52
 20
-60.84
 11
-0.0
 21
-60.84
  0
LINE
  8
DETAIL
  6
CONTINOUS
 62
     5
 10
2.52
 20
-55.8
 11
-0.0
 21
-55.8
  0
LINE
  8
DETAIL
  6
CONTINOUS
 62
     5
 10
2.52
 20
-54.36
 11
2.52
 21
-49.32
  0
LINE
  8
DETAIL
  6
CONTINOUS
 62
     5
 10
2.52
 20
-54.36
 11
-0.0
 21
-54.36
  0
LINE
  8
DETAIL
  6
CONTINOUS
 62
     5
 10
2.52
 20
-49.32
 11
-0.0
 21
-49.32
  0
LINE
  8
DETAIL
  6
CONTINOUS
 62
     5
 10
2.52
 20
-47.88
 11
2.52
 21
-42.84
  0
LINE
  8
DETAIL
  6
CONTINOUS
 62
     5
 10
2.52
 20
-47.88
 11
-0.0
 21
-47.88
  0
LINE
  8
DETAIL
  6
CONTINOUS
 62
     5
 10
2.52
 20
-42.84
 11
-0.0
 21
-42.84
  0
LINE
  8
DETAIL
  6
CONTINOUS
 62
     5
 10
2.52
 20
-41.4
 11
2.52
 21
-36.36
  0
LINE
  8
DETAIL
  6
CONTINOUS
 62
     5
 10
2.52
 20
-41.4
 11
-0.0
 21
-41.4
  0
LINE
  8
DETAIL
  6
CONTINOUS
 62
     5
 10
2.52
 20
-36.36
 11
-0.0
 21
-36.36
  0
LINE
  8
DETAIL
  6
CONTINOUS
 62
     5
 10
2.52
 20
-34.92
 11
2.52
 21
-29.88
  0
LINE
  8
DETAIL
  6
CONTINOUS
 62
     5
 10
2.52
 20
-34.92
 11
-0.0
 21
-34.92
  0
LINE
  8
DETAIL
  6
CONTINOUS
 62
     5
 10
2.52
 20
-29.88
 11
-0.0
 21
-29.88
  0
LINE
  8
DETAIL
  6
CONTINOUS
 62
     5
 10
2.52
 20
-28.44
 11
2.52
 21
-23.4
  0
LINE
  8
DETAIL
  6
CONTINOUS
 62
     5
 10
2.52
 20
-28.44
 11
-0.0
 21
-28.44
  0
LINE
  8
DETAIL
  6
CONTINOUS
 62
     5
 10
2.52
 20
-23.4
 11
-0.0
 21
-23.4
  0
LINE
  8
DETAIL
  6
CONTINOUS
 62
     5
 10
2.52
 20
-21.96
 11
2.52
 21
-16.92
  0
LINE
  8
DETAIL
  6
CONTINOUS
 62
     5
 10
2.52
 20
-21.96
 11
-0.0
 21
-21.96
  0
LINE
  8
DETAIL
  6
CONTINOUS
 62
     5
 10
2.52
 20
-16.92
 11
-0.0
 21
-16.92
  0
LINE
  8
DETAIL
  6
CONTINOUS
 62
     5
 10
2.52
 20
-15.48
 11
2.52
 21
-10.44
  0
LINE
  8
DETAIL
  6
CONTINOUS
 62
     5
 10
2.52
 20
-15.48
 11
-0.0
 21
-15.48
  0
LINE
  8
DETAIL
  6
CONTINOUS
 62
     5
 10
2.52
 20
-10.44
 11
-0.0
 21
-10.44
  0
LINE
  8
DETAIL
  6
CONTINOUS
 62
     5
 10
2.52
 20
-9.0
 11
2.52
 21
-3.96
  0
LINE
  8
DETAIL
  6
CONTINOUS
 62
     5
 10
2.52
 20
-9.0
 11
-0.0
 21
-9.0
  0
LINE
  8
DETAIL
  6
CONTINOUS
 62
     5
 10
2.52
 20
-3.96
 11
-0.0
 21
-3.96
  0
LINE
  8
DETAIL
  6
CONTINOUS
 62
     5
 10
2.52
 20
-2.52
 11
2.52
 21
2.52
  0
LINE
  8
DETAIL
  6
CONTINOUS
 62
     5
 10
2.52
 20
-2.52
 11
-0.0
 21
-2.52
  0
LINE
  8
DETAIL
  6
CONTINOUS
 62
     5
 10
2.52
 20
2.52
 11
-0.0
 21
2.52
  0
LINE
  8
DETAIL
  6
CONTINOUS
 62
     5
 10
2.52
 20
3.96
 11
2.52
 21
9.0
  0
LINE
  8
DETAIL
  6
CONTINOUS
 62
     5
 10
2.52
 20
3.96
 11
-0.0
 21
3.96
  0
LINE
  8
DETAIL
  6
CONTINOUS
 62
     5
 10
2.52
 20
9.0
 11
-0.0
 21
9.0
  0
LINE
  8
DETAIL
  6
CONTINOUS
 62
     5
 10
2.52
 20
10.44
 11
2.52
 21
15.48
  0
LINE
  8
DETAIL
  6
CONTINOUS
 62
     5
 10
2.52
 20
10.44
 11
-0.0
 21
10.44
  0
LINE
  8
DETAIL
  6
CONTINOUS
 62
     5
 10
2.52
 20
15.48
 11
-0.0
 21
15.48
  0
LINE
  8
DETAIL
  6
CONTINOUS
 62
     5
 10
2.52
 20
16.92
 11
2.52
 21
21.96
  0
LINE
  8
DETAIL
  6
CONTINOUS
 62
     5
 10
2.52
 20
16.92
 11
-0.0
 21
16.92
  0
LINE
  8
DETAIL
  6
CONTINOUS
 62
     5
 10
2.52
 20
21.96
 11
-0.0
 21
21.96
  0
LINE
  8
DETAIL
  6
CONTINOUS
 62
     5
 10
2.52
 20
23.4
 11
2.52
 21
28.44
  0
LINE
  8
DETAIL
  6
CONTINOUS
 62
     5
 10
2.52
 20
23.4
 11
-0.0
 21
23.4
  0
LINE
  8
DETAIL
  6
CONTINOUS
 62
     5
 10
2.52
 20
28.44
 11
-0.0
 21
28.44
  0
LINE
  8
DETAIL
  6
CONTINOUS
 62
     5
 10
2.52
 20
29.88
 11
2.52
 21
34.92
  0
LINE
  8
DETAIL
  6
CONTINOUS
 62
     5
 10
2.52
 20
29.88
 11
-0.0
 21
29.88
  0
LINE
  8
DETAIL
  6
CONTINOUS
 62
     5
 10
2.52
 20
34.92
 11
-0.0
 21
34.92
  0
LINE
  8
DETAIL
  6
CONTINOUS
 62
     5
 10
2.52
 20
36.36
 11
2.52
 21
41.4
  0
LINE
  8
DETAIL
  6
CONTINOUS
 62
     5
 10
2.52
 20
36.36
 11
-0.0
 21
36.36
  0
LINE
  8
DETAIL
  6
CONTINOUS
 62
     5
 10
2.52
 20
41.4
 11
-0.0
 21
41.4
  0
LINE
  8
DETAIL
  6
CONTINOUS
 62
     5
 10
2.52
 20
42.84
 11
2.52
 21
47.88
  0
LINE
  8
DETAIL
  6
CONTINOUS
 62
     5
 10
2.52
 20
42.84
 11
-0.0
 21
42.84
  0
LINE
  8
DETAIL
  6
CONTINOUS
 62
     5
 10
2.52
 20
47.88
 11
-0.0
 21
47.88
  0
LINE
  8
DETAIL
  6
CONTINOUS
 62
     5
 10
2.52
 20
49.32
 11
2.52
 21
54.36
  0
LINE
  8
DETAIL
  6
CONTINOUS
 62
     5
 10
2.52
 20
49.32
 11
-0.0
 21
49.32
  0
LINE
  8
DETAIL
  6
CONTINOUS
 62
     5
 10
2.52
 20
54.36
 11
-0.0
 21
54.36
  0
LINE
  8
DETAIL
  6
CONTINOUS
 62
     5
 10
2.52
 20
55.8
 11
2.52
 21
60.84
  0
LINE
  8
DETAIL
  6
CONTINOUS
 62
     5
 10
2.52
 20
55.8
 11
-0.0
 21
55.8
  0
LINE
  8
DETAIL
  6
CONTINOUS
 62
     5
 10
2.52
 20
60.84
 11
-0.0
 21
60.84
  0
LINE
  8
DETAIL
  6
CONTINOUS
 62
     5
 10
2.52
 20
62.28
 11
2.52
 21
67.32
  0
LINE
  8
DETAIL
  6
CONTINOUS
 62
     5
 10
2.52
 20
62.28
 11
-0.0
 21
62.28
  0
LINE
  8
DETAIL
  6
CONTINOUS
 62
     5
 10
2.52
 20
67.32
 11
-0.0
 21
67.32
  0
LINE
  8
DETAIL
  6
CONTINOUS
 62
     5
 10
2.52
 20
68.76
 11
2.52
 21
73.8
  0
LINE
  8
DETAIL
  6
CONTINOUS
 62
     5
 10
2.52
 20
68.76
 11
-0.0
 21
68.76
  0
LINE
  8
DETAIL
  6
CONTINOUS
 62
     5
 10
2.52
 20
73.8
 11
-0.0
 21
73.8
  0
LINE
  8
DETAIL
  6
CONTINOUS
 62
     5
 10
2.52
 20
75.24
 11
2.52
 21
80.28
  0
LINE
  8
DETAIL
  6
CONTINOUS
 62
     5
 10
2.52
 20
75.24
 11
-0.0
 21
75.24
  0
LINE
  8
DETAIL
  6
CONTINOUS
 62
     5
 10
2.52
 20
80.28
 11
-0.0
 21
80.28
  0
LINE
  8
DETAIL
  6
CONTINOUS
 62
     5
 10
2.52
 20
81.72
 11
2.52
 21
86.76
  0
LINE
  8
DETAIL
  6
CONTINOUS
 62
     5
 10
2.52
 20
81.72
 11
-0.0
 21
81.72
  0
LINE
  8
DETAIL
  6
CONTINOUS
 62
     5
 10
2.52
 20
86.76
 11
-0.0
 21
86.76
  0
LINE
  8
DETAIL
  6
CONTINOUS
 62
     5
 10
86.76
 20
81.72
 11
81.72
 21
81.72
  0
LINE
  8
DETAIL
  6
CONTINOUS
 62
     5
 10
86.76
 20
80.28
 11
81.72
 21
80.28
  0
LINE
  8
DETAIL
  6
CONTINOUS
 62
     5
 10
86.76
 20
75.24
 11
81.72
 21
75.24
  0
LINE
  8
DETAIL
  6
CONTINOUS
 62
     5
 10
86.76
 20
73.8
 11
81.72
 21
73.8
  0
LINE
  8
DETAIL
  6
CONTINOUS
 62
     5
 10
86.76
 20
68.76
 11
81.72
 21
68.76
  0
LINE
  8
DETAIL
  6
CONTINOUS
 62
     5
 10
86.76
 20
67.32
 11
81.72
 21
67.32
  0
LINE
  8
DETAIL
  6
CONTINOUS
 62
     5
 10
86.76
 20
62.28
 11
81.72
 21
62.28
  0
LINE
  8
DETAIL
  6
CONTINOUS
 62
     5
 10
86.76
 20
60.84
 11
81.72
 21
60.84
  0
LINE
  8
DETAIL
  6
CONTINOUS
 62
     5
 10
86.76
 20
55.8
 11
81.72
 21
55.8
  0
LINE
  8
DETAIL
  6
CONTINOUS
 62
     5
 10
86.76
 20
54.36
 11
81.72
 21
54.36
  0
LINE
  8
DETAIL
  6
CONTINOUS
 62
     5
 10
86.76
 20
49.32
 11
81.72
 21
49.32
  0
LINE
  8
DETAIL
  6
CONTINOUS
 62
     5
 10
86.76
 20
47.88
 11
81.72
 21
47.88
  0
LINE
  8
DETAIL
  6
CONTINOUS
 62
     5
 10
86.76
 20
42.84
 11
81.72
 21
42.84
  0
LINE
  8
DETAIL
  6
CONTINOUS
 62
     5
 10
86.76
 20
41.4
 11
81.72
 21
41.4
  0
LINE
  8
DETAIL
  6
CONTINOUS
 62
     5
 10
86.76
 20
36.36
 11
81.72
 21
36.36
  0
LINE
  8
DETAIL
  6
CONTINOUS
 62
     5
 10
86.76
 20
34.92
 11
81.72
 21
34.92
  0
LINE
  8
DETAIL
  6
CONTINOUS
 62
     5
 10
86.76
 20
29.88
 11
81.72
 21
29.88
  0
LINE
  8
DETAIL
  6
CONTINOUS
 62
     5
 10
86.76
 20
28.44
 11
81.72
 21
28.44
  0
LINE
  8
DETAIL
  6
CONTINOUS
 62
     5
 10
86.76
 20
23.4
 11
81.72
 21
23.4
  0
LINE
  8
DETAIL
  6
CONTINOUS
 62
     5
 10
86.76
 20
21.96
 11
81.72
 21
21.96
  0
LINE
  8
DETAIL
  6
CONTINOUS
 62
     5
 10
86.76
 20
16.92
 11
81.72
 21
16.92
  0
LINE
  8
DETAIL
  6
CONTINOUS
 62
     5
 10
86.76
 20
15.48
 11
81.72
 21
15.48
  0
LINE
  8
DETAIL
  6
CONTINOUS
 62
     5
 10
86.76
 20
10.44
 11
81.72
 21
10.44
  0
LINE
  8
DETAIL
  6
CONTINOUS
 62
     5
 10
86.76
 20
9.0
 11
81.72
 21
9.0
  0
LINE
  8
DETAIL
  6
CONTINOUS
 62
     5
 10
86.76
 20
3.96
 11
81.72
 21
3.96
  0
LINE
  8
DETAIL
  6
CONTINOUS
 62
     5
 10
86.76
 20
2.52
 11
81.72
 21
2.52
  0
ARC
  8
DETAIL
  6
CONTINOUS
 62
     5
 10
-113.0
 20
113.0
 40
12.0
 50
90.0
 51
180.0
  0
ARC
  8
DETAIL
  6
CONTINOUS
 62
     5
 10
-113.0
 20
-113.0
 40
12.0
 50
180.0
 51
270.0
  0
ARC
  8
DETAIL
  6
CONTINOUS
 62
     5
 10
113.0
 20
-113.0
 40
12.0
 50
270.0
 51
0.0
  0
ARC
  8
DETAIL
  6
CONTINOUS
 62
     5
 10
113.0
 20
113.0
 40
12.0
 50
360.0
 51
90.0
  0
ARC
  8
DETAIL
  6
CONTINUOUS
 62
     5
 10
113.0
 20
-113.0
 40
12.0
 50
270.0
 51
0.0
  0
LINE
  8
DETAIL
  6
CONTINUOUS
 62
     5
 10
48.0
 20
-125.0
 11
113.0
 21
-125.0
  0
TEXT
  8
NOTE
  6
CONTINUOUS
 62
     4
 10
-43.143807
 20
-281.128135
 40
64.0
  1
EA
 41
0.9
  0
ARC
  8
OUTLINE
  6
CONTINUOUS
 62
     3
 10
113.0
 20
-113.0
 40
12.0
 50
270.0
 51
0.0
  0
ARC
  8
OUTLINE
  6
CONTINOUS
 62
     3
 10
113.0
 20
113.0
 40
12.0
 50
360.0
 51
90.0
  0
ARC
  8
OUTLINE
  6
CONTINOUS
 62
     3
 10
113.0
 20
-113.0
 40
12.0
 50
270.0
 51
0.0
  0
ARC
  8
OUTLINE
  6
CONTINOUS
 62
     3
 10
-113.0
 20
-113.0
 40
12.0
 50
180.0
 51
270.0
  0
ARC
  8
OUTLINE
  6
CONTINOUS
 62
     3
 10
-113.0
 20
113.0
 40
12.0
 50
90.0
 51
180.0
  0
LINE
  8
OUTLINE
  6
CONTINOUS
 62
     3
 10
114.0
 20
-125.0
 11
-113.0
 21
-125.0
  0
LINE
  8
OUTLINE
  6
CONTINOUS
 62
     3
 10
125.0
 20
-113.0
 11
125.0
 21
113.0
  0
LINE
  8
OUTLINE
  6
CONTINOUS
 62
     3
 10
-114.0
 20
125.0
 11
113.0
 21
125.0
  0
LINE
  8
OUTLINE
  6
CONTINOUS
 62
     3
 10
-125.0
 20
-113.0
 11
-125.0
 21
113.0
  0
LINE
  8
OUTLINE
  6
CONTINUOUS
 62
     3
 10
108.0
 20
125.0
 11
-108.0
 21
125.0
  0
LINE
  8
OUTLINE
  6
CONTINUOUS
 62
     3
 10
-125.0
 20
108.0
 11
-125.0
 21
-108.0
  0
LINE
  8
OUTLINE
  6
CONTINUOUS
 62
     3
 10
125.0
 20
108.0
 11
125.0
 21
-108.0
  0
POINT
  8
ARRANGE
  6
CONTINUOUS
 62
     1
 10
0.0
 20
0.0
  0
CIRCLE
  8
ARRANGE
  6
CONTINUOUS
 62
     1
 10
0.0
 20
0.0
 40
40.0
  0
TEXT
  8
ETC
  6
CONTINUOUS
 62
    10
 10
309.651193
 20
405.52835
 40
64.0
  1
NVD0126
 41
0.9
  0
LINE
  8
DETAIL
  6
CONTINUOUS
 62
     5
 10
63.0
 20
-135.5
 11
52.5
 21
-147.5
  0
LINE
  8
DETAIL
  6
CONTINUOUS
 62
     5
 10
-63.0
 20
-135.5
 11
-52.5
 21
-147.5
  0
LINE
  8
DETAIL
  6
CONTINUOUS
 62
     5
 10
52.5
 20
-172.5
 11
52.5
 21
-147.5
  0
LINE
  8
DETAIL
  6
CONTINUOUS
 62
     5
 10
-52.5
 20
-172.5
 11
-52.5
 21
-147.5
  0
LINE
  8
DETAIL
  6
CONTINOUS
 62
     5
 10
52.5
 20
-147.5
 11
-52.5
 21
-147.5
  0
LINE
  8
DETAIL
  6
CONTINOUS
 62
     5
 10
52.5
 20
-172.5
 11
-52.5
 21
-172.5
  0
LINE
  8
DETAIL
  6
CONTINOUS
 62
     5
 10
49.0
 20
-202.5
 11
-49.0
 21
-202.5
  0
LINE
  8
DETAIL
  6
CONTINOUS
 62
     5
 10
49.0
 20
-202.5
 11
49.0
 21
-172.5
  0
LINE
  8
DETAIL
  6
CONTINOUS
 62
     5
 10
-49.0
 20
-202.5
 11
-49.0
 21
-172.5
  0
LINE
  8
DETAIL
  6
CONTINOUS
 62
     5
 10
63.0
 20
-135.5
 11
63.0
 21
-125.0
  0
LINE
  8
DETAIL
  6
CONTINOUS
 62
     5
 10
-63.0
 20
-135.5
 11
-63.0
 21
-125.0
  0
LINE
  8
SIZE
  6
CONTINUOUS
 62
     8
 10
62.5
 20
-369.183352
 11
259.235339
 21
-369.183352
  0
LINE
  8
SIZE
  6
CONTINUOUS
 62
     8
 10
478.421646
 20
-64.5
 11
478.421646
 21
-289.661386
  0
LINE
  8
NOTE
  6
CONTINUOUS
 62
     4
 10
62.5
 20
-62.5
 11
163.191209
 21
-210.749162
  0
LINE
  8
NOTE
  6
CONTINUOUS
 62
     4
 10
42.5
 20
-62.5
 11
82.5
 21
-62.5
  0
LINE
  8
NOTE
  6
CONTINUOUS
 62
     4
 10
62.5
 20
-42.5
 11
62.5
 21
-82.5
  0
LINE
  8
SIZE
  6
CONTINUOUS
 62
     8
 10
53.0
 20
-512.558602
 11
250.199831
 21
-512.558602
  0
LINE
  8
SIZE
  6
CONTINUOUS
 62
     8
 10
56.5
 20
-653.477967
 11
284.445218
 21
-653.477967
  0
LINE
  8
SIZE
  6
CONTINUOUS
 62
     8
 10
-154.516236
 20
-206.5
 11
-154.516236
 21
-335.342458
  0
LINE
  8
SIZE
  6
CONTINUOUS
 62
     8
 10
-275.925766
 20
-206.5
 11
-275.925766
 21
-335.342458
  0
LINE
  8
NOTE
  6
CONTINUOUS
 62
     4
 10
163.191209
 20
-210.749162
 11
286.502282
 21
-210.749162
  0
TEXT
  8
NOTE
  6
CONTINUOUS
 62
     4
 10
189.673434
 20
-188.647392
 40
64.0
  1
EL
 41
0.9
  0
LINE
  8
SERVICESPACE
  6
DASHDOT
 62
     2
 10
-90.0
 20
90.0
 11
90.0
 21
-90.0
  0
LINE
  8
SERVICESPACE
  6
DASHDOT
 62
     2
 10
90.0
 20
90.0
 11
-90.0
 21
90.0
  0
LINE
  8
SERVICESPACE
  6
DASHDOT
 62
     2
 10
90.0
 20
90.0
 11
-90.0
 21
-90.0
  0
LINE
  8
SERVICESPACE
  6
DASHDOT
 62
     2
 10
-90.0
 20
-90.0
 11
-90.0
 21
90.0
  0
LINE
  8
SERVICESPACE
  6
DASHDOT
 62
     2
 10
90.0
 20
-90.0
 11
-90.0
 21
-90.0
  0
LINE
  8
SERVICESPACE
  6
DASHDOT
 62
     2
 10
90.0
 20
-90.0
 11
90.0
 21
90.0
  0
TEXT
  8
NOTE
  6
CONTINUOUS
 62
     4
 10
-653.305003
 20
-204.946669
 40
64.0
  1
天井開口寸法
 50
90.0
 41
0.9
  0
LINE
  8
SIZE
  6
CONTINUOUS
 62
     8
 10
-399.032177
 20
-206.5
 11
-399.032177
 21
-482.104787
  0
LINE
  8
SIZE
  6
BYBLOCK
 62
     8
 10
-128.0
 20
125.0
 11
-540.31868
 21
125.0
  0
LINE
  8
SIZE
  6
BYBLOCK
 62
     8
 10
-69.0
 20
-202.5
 11
-540.31868
 21
-202.5
  0
LINE
  8
SIZE
  6
BYBLOCK
 62
     8
 10
-510.31868
 20
123.0
 11
-510.31868
 21
-38.75
  0
LINE
  8
SIZE
  6
BYBLOCK
 62
     8
 10
-510.31868
 20
-200.5
 11
-510.31868
 21
-38.75
  0
TEXT
  8
SIZE
  6
BYBLOCK
 62
     8
 10
-542.31868
 20
-135.05106
 40
64.0
  1
327.5
 50
90.0
 41
0.9
  0
LINE
  8
SIZE
  6
BYBLOCK
 62
     8
 10
-182.997075
 20
0.0
 11
-429.032177
 21
0.0
  0
LINE
  8
SIZE
  6
BYBLOCK
 62
     8
 10
-69.0
 20
-202.5
 11
-429.032177
 21
-202.5
  0
LINE
  8
SIZE
  6
BYBLOCK
 62
     8
 10
-399.032177
 20
-204.5
 11
-399.032177
 21
-206.5
  0
LINE
  8
SIZE
  6
BYBLOCK
 62
     8
 10
-399.032177
 20
2.0
 11
-399.032177
 21
4.0
  0
LINE
  8
SIZE
  6
BYBLOCK
 62
     8
 10
-399.032177
 20
-202.5
 11
-399.032177
 21
0.0
  0
TEXT
  8
SIZE
  6
BYBLOCK
 62
     8
 10
-431.032177
 20
-453.736696
 40
64.0
  1
202.5
 50
90.0
 41
0.9
  0
LINE
  8
SIZE
  6
BYBLOCK
 62
     8
 10
-110.0
 20
-90.0
 11
-784.219604
 21
-90.0
  0
LINE
  8
SIZE
  6
BYBLOCK
 62
     8
 10
-110.0
 20
90.0
 11
-784.219604
 21
90.0
  0
LINE
  8
SIZE
  6
BYBLOCK
 62
     8
 10
-754.219604
 20
92.0
 11
-754.219604
 21
94.0
  0
LINE
  8
SIZE
  6
BYBLOCK
 62
     8
 10
-754.219604
 20
-92.0
 11
-754.219604
 21
-94.0
  0
LINE
  8
SIZE
  6
BYBLOCK
 62
     8
 10
-754.219604
 20
90.0
 11
-754.219604
 21
-90.0
  0
TEXT
  8
SIZE
  6
BYBLOCK
 62
     8
 10
-786.219604
 20
-98.125445
 40
64.0
  1
□180
 50
90.0
 41
0.9
  0
LINE
  8
SIZE
  6
BYBLOCK
 62
     8
 10
169.585888
 20
-0.0
 11
508.421646
 21
-0.0
  0
LINE
  8
SIZE
  6
BYBLOCK
 62
     8
 10
102.5
 20
-62.5
 11
508.421646
 21
-62.5
  0
LINE
  8
SIZE
  6
BYBLOCK
 62
     8
 10
478.421646
 20
-64.5
 11
478.421646
 21
-66.5
  0
LINE
  8
SIZE
  6
BYBLOCK
 62
     8
 10
478.421646
 20
2.0
 11
478.421646
 21
4.0
  0
LINE
  8
SIZE
  6
BYBLOCK
 62
     8
 10
478.421646
 20
-62.5
 11
478.421646
 21
-0.0
  0
TEXT
  8
SIZE
  6
BYBLOCK
 62
     8
 10
446.421646
 20
-268.520465
 40
64.0
  1
62.5
 50
90.0
 41
0.9
  0
LINE
  8
SIZE
  6
BYBLOCK
 62
     8
 10
-69.0
 20
-202.5
 11
-305.925766
 21
-202.5
  0
LINE
  8
SIZE
  6
BYBLOCK
 62
     8
 10
-72.5
 20
-147.5
 11
-305.925766
 21
-147.5
  0
LINE
  8
SIZE
  6
BYBLOCK
 62
     8
 10
-275.925766
 20
-145.5
 11
-275.925766
 21
-143.5
  0
LINE
  8
SIZE
  6
BYBLOCK
 62
     8
 10
-275.925766
 20
-204.5
 11
-275.925766
 21
-206.5
  0
LINE
  8
SIZE
  6
BYBLOCK
 62
     8
 10
-275.925766
 20
-147.5
 11
-275.925766
 21
-202.5
  0
TEXT
  8
SIZE
  6
BYBLOCK
 62
     8
 10
-307.925766
 20
-317.671753
 40
64.0
  1
55
 50
90.0
 41
0.9
  0
LINE
  8
SIZE
  6
BYBLOCK
 62
     8
 10
-69.0
 20
-202.5
 11
-184.516236
 21
-202.5
  0
LINE
  8
SIZE
  6
BYBLOCK
 62
     8
 10
-72.5
 20
-172.5
 11
-184.516236
 21
-172.5
  0
LINE
  8
SIZE
  6
BYBLOCK
 62
     8
 10
-154.516236
 20
-170.5
 11
-154.516236
 21
-168.5
  0
LINE
  8
SIZE
  6
BYBLOCK
 62
     8
 10
-154.516236
 20
-204.5
 11
-154.516236
 21
-206.5
  0
LINE
  8
SIZE
  6
BYBLOCK
 62
     8
 10
-154.516236
 20
-172.5
 11
-154.516236
 21
-202.5
  0
TEXT
  8
SIZE
  6
BYBLOCK
 62
     8
 10
-186.516236
 20
-320.205007
 40
64.0
  1
30
 50
90.0
 41
0.9
  0
LINE
  8
SIZE
  6
BYBLOCK
 62
     8
 10
52.5
 20
-192.5
 11
52.5
 21
-683.477967
  0
LINE
  8
SIZE
  6
BYBLOCK
 62
     8
 10
-52.5
 20
-192.5
 11
-52.5
 21
-683.477967
  0
LINE
  8
SIZE
  6
BYBLOCK
 62
     8
 10
-54.5
 20
-653.477967
 11
-56.5
 21
-653.477967
  0
LINE
  8
SIZE
  6
BYBLOCK
 62
     8
 10
54.5
 20
-653.477967
 11
56.5
 21
-653.477967
  0
LINE
  8
SIZE
  6
BYBLOCK
 62
     8
 10
-52.5
 20
-653.477967
 11
52.5
 21
-653.477967
  0
TEXT
  8
SIZE
  6
BYBLOCK
 62
     8
 10
69.941747
 20
-621.477967
 40
64.0
  1
φ105
 41
0.9
  0
LINE
  8
SIZE
  6
BYBLOCK
 62
     8
 10
49.0
 20
-222.5
 11
49.0
 21
-542.558602
  0
LINE
  8
SIZE
  6
BYBLOCK
 62
     8
 10
-49.0
 20
-222.5
 11
-49.0
 21
-542.558602
  0
LINE
  8
SIZE
  6
BYBLOCK
 62
     8
 10
-51.0
 20
-512.558602
 11
-53.0
 21
-512.558602
  0
LINE
  8
SIZE
  6
BYBLOCK
 62
     8
 10
51.0
 20
-512.558602
 11
53.0
 21
-512.558602
  0
LINE
  8
SIZE
  6
BYBLOCK
 62
     8
 10
-49.0
 20
-512.558602
 11
49.0
 21
-512.558602
  0
TEXT
  8
SIZE
  6
BYBLOCK
 62
     8
 10
71.337372
 20
-480.558602
 40
64.0
  1
φ98
 41
0.9
  0
LINE
  8
SIZE
  6
BYBLOCK
 62
     8
 10
0.0
 20
-254.074866
 11
0.0
 21
-399.183352
  0
LINE
  8
SIZE
  6
BYBLOCK
 62
     8
 10
62.5
 20
-102.5
 11
62.5
 21
-399.183352
  0
LINE
  8
SIZE
  6
BYBLOCK
 62
     8
 10
64.5
 20
-369.183352
 11
66.5
 21
-369.183352
  0
LINE
  8
SIZE
  6
BYBLOCK
 62
     8
 10
-2.0
 20
-369.183352
 11
-4.0
 21
-369.183352
  0
LINE
  8
SIZE
  6
BYBLOCK
 62
     8
 10
62.5
 20
-369.183352
 11
0.0
 21
-369.183352
  0
TEXT
  8
SIZE
  6
BYBLOCK
 62
     8
 10
88.821453
 20
-337.183352
 40
64.0
  1
62.5
 41
0.9
  0
LINE
  8
SIZE
  6
BYBLOCK
 62
     8
 10
125.0
 20
128.0
 11
125.0
 21
393.555869
  0
LINE
  8
SIZE
  6
BYBLOCK
 62
     8
 10
-125.0
 20
133.0
 11
-125.0
 21
393.555869
  0
LINE
  8
SIZE
  6
BYBLOCK
 62
     8
 10
123.0
 20
363.555869
 11
-0.0
 21
363.555869
  0
LINE
  8
SIZE
  6
BYBLOCK
 62
     8
 10
-123.0
 20
363.555869
 11
-0.0
 21
363.555869
  0
TEXT
  8
SIZE
  6
BYBLOCK
 62
     8
 10
-106.697143
 20
395.555869
 40
64.0
  1
□250
 41
0.9
  0
CIRCLE
  8
SIZE
  6
CONTINUOUS
 62
     8
 10
-125.0
 20
363.555869
 40
6.0
  0
CIRCLE
  8
SIZE
  6
CONTINUOUS
 62
     8
 10
125.0
 20
363.555869
 40
6.0
  0
CIRCLE
  8
SIZE
  6
CONTINUOUS
 62
     8
 10
0.0
 20
-369.183352
 40
6.0
  0
CIRCLE
  8
SIZE
  6
CONTINUOUS
 62
     8
 10
62.5
 20
-369.183352
 40
6.0
  0
CIRCLE
  8
SIZE
  6
CONTINUOUS
 62
     8
 10
49.0
 20
-512.558602
 40
6.0
  0
CIRCLE
  8
SIZE
  6
CONTINUOUS
 62
     8
 10
-49.0
 20
-512.558602
 40
6.0
  0
CIRCLE
  8
SIZE
  6
CONTINUOUS
 62
     8
 10
52.5
 20
-653.477967
 40
6.0
  0
CIRCLE
  8
SIZE
  6
CONTINUOUS
 62
     8
 10
-52.5
 20
-653.477967
 40
6.0
  0
CIRCLE
  8
SIZE
  6
CONTINUOUS
 62
     8
 10
-154.516236
 20
-202.5
 40
6.0
  0
CIRCLE
  8
SIZE
  6
CONTINUOUS
 62
     8
 10
-154.516236
 20
-172.5
 40
6.0
  0
CIRCLE
  8
SIZE
  6
CONTINUOUS
 62
     8
 10
-275.925766
 20
-202.5
 40
6.0
  0
CIRCLE
  8
SIZE
  6
CONTINUOUS
 62
     8
 10
-275.925766
 20
-147.5
 40
6.0
  0
CIRCLE
  8
SIZE
  6
CONTINUOUS
 62
     8
 10
478.421646
 20
-0.0
 40
6.0
  0
CIRCLE
  8
SIZE
  6
CONTINUOUS
 62
     8
 10
478.421646
 20
-62.5
 40
6.0
  0
CIRCLE
  8
SIZE
  6
CONTINUOUS
 62
     8
 10
-754.219604
 20
-90.0
 40
6.0
  0
CIRCLE
  8
SIZE
  6
CONTINUOUS
 62
     8
 10
-754.219604
 20
90.0
 40
6.0
  0
CIRCLE
  8
SIZE
  6
CONTINUOUS
 62
     8
 10
-399.032177
 20
0.0
 40
6.0
  0
CIRCLE
  8
SIZE
  6
CONTINUOUS
 62
     8
 10
-399.032177
 20
-202.5
 40
6.0
  0
CIRCLE
  8
SIZE
  6
CONTINUOUS
 62
     8
 10
-510.31868
 20
-202.5
 40
6.0
  0
CIRCLE
  8
SIZE
  6
CONTINUOUS
 62
     8
 10
-510.31868
 20
125.0
 40
6.0
  0
POLYLINE
  8
NOTE
  6
CONTINUOUS
 62
     4
 66
     1
  0
VERTEX
  8
NOTE
  6
CONTINUOUS
 62
     4
 10
91.03549
 20
-90.530801
 50
120.511184
  0
VERTEX
  8
NOTE
  6
CONTINUOUS
 62
     4
 10
62.5
 20
-62.5
 50
120.511184
  0
VERTEX
  8
NOTE
  6
CONTINUOUS
 62
     4
 10
73.197058
 20
-101.043131
 50
120.511184
  0
SEQEND
  8
NOTE
  6
CONTINUOUS
 62
     4
  0
ENDSEC
  0
EOF
