  0
SECTION
  2
HEADER
  9
$ACADVER
  1
AC1006
  9
$INSBASE
 10
0.0
 20
0.0
 30
0.0
  9
$EXTMIN
 10
-863.656932
 20
-699.477967
  9
$EXTMAX
 10
778.879684
 20
421.040093
  9
$LIMMIN
 10
-2970.0
 20
-2100.0
  9
$LIMMAX
 10
2970.0
 20
2100.0
  9
$ORTHOMODE
 70
     1
  9
$REGENMODE
 70
     0
  9
$FILLMODE
 70
     1
  9
$QTEXTMODE
 70
     0
  9
$MIRRTEXT
 70
     0
  9
$DRAGMODE
 70
     2
  9
$LTSCALE
 40
20.0
  9
$OSMODE
 70
     0
  9
$ATTMODE
 70
     1
  9
$TEXTSIZE
 40
64.0
  9
$TRACEWID
 40
0.05
  9
$TEXTSTYLE
  7
STANDARD
  9
$CLAYER
  8
0
  9
$CELTYPE
  6
CONTINUOUS
  9
$CECOLOR
 62
     8
  9
$DIMSCALE
 40
1.0
  9
$DIMASZ
 40
2.0
  9
$DIMEXO
 40
20.0
  9
$DIMDLI
 40
200.0
  9
$DIMRND
 40
0.0
  9
$DIMDLE
 40
0.0
  9
$DIMEXE
 40
30.0
  9
$DIMTP
 40
0.0
  9
$DIMTM
 40
0.0
  9
$DIMTXT
 40
64.0
  9
$DIMCEN
 40
0.09
  9
$DIMTSZ
 40
0.0
  9
$DIMTOL
 70
     0
  9
$DIMLIM
 70
     0
  9
$DIMTIH
 70
     0
  9
$DIMTOH
 70
     0
  9
$DIMSE1
 70
     0
  9
$DIMSE2
 70
     0
  9
$DIMTAD
 70
     1
  9
$DIMZIN
 70
     8
  9
$DIMBLK
  1
DOT1
  9
$DIMASO
 70
     1
  9
$DIMSHO
 70
     0
  9
$DIMPOST
  1

  9
$DIMAPOST
  1

  9
$DIMALT
 70
     0
  9
$DIMALTD
 70
     2
  9
$DIMALTF
 40
25.4
  9
$DIMLFAC
 40
1.0
  9
$DIMTOFL
 70
     1
  9
$DIMTVP
 40
0.0
  9
$DIMTIX
 70
     1
  9
$DIMSOXD
 70
     0
  9
$DIMSAH
 70
     0
  9
$DIMBLK1
  1

  9
$DIMBLK2
  1

  9
$LUNITS
 70
     2
  9
$LUPREC
 70
     4
  9
$AXISMODE
 70
     0
  9
$AXISUNIT
 10
0.0
 20
0.0
  9
$SKETCHINC
 40
0.1
  9
$FILLETRAD
 40
7.0
  9
$AUNITS
 70
     1
  9
$AUPREC
 70
     3
  9
$MENU
  1
ACAD
  9
$ELEVATION
 40
0.0
  9
$THICKNESS
 40
0.0
  9
$LIMCHECK
 70
     0
  9
$BLIPMODE
 70
     0
  9
$CHAMFERA
 40
0.0
  9
$CHAMFERB
 40
0.0
  9
$SKPOLY
 70
     0
  9
$TDCREATE
 40
2451344.4978356482
  9
$TDUPDATE
 40
2451451.6810416668
  9
$TDINDWG
 40
0.0229513889
  9
$TDUSRTIMER
 40
0.0229513889
  9
$USRTIMER
 70
     1
  9
$ANGBASE
 50
0.0
  9
$ANGDIR
 70
     0
  9
$PDMODE
 70
     3
  9
$PDSIZE
 40
-2.0
  9
$PLINEWID
 40
0.0
  9
$COORDS
 70
     2
  9
$SPLFRAME
 70
     0
  9
$SPLINETYPE
 70
     6
  9
$SPLINESEGS
 70
     8
  9
$ATTDIA
 70
     0
  9
$ATTREQ
 70
     1
  9
$HANDLING
 70
     0
  9
$HANDSEED
  5
0
  9
$SURFTAB1
 70
     6
  9
$SURFTAB2
 70
     6
  9
$SURFTYPE
 70
     6
  9
$SURFU
 70
     6
  9
$SURFV
 70
     6
  9
$FLATLAND
 70
     1
  9
$UCSNAME
  2

  9
$UCSORG
 10
0.0
 20
0.0
 30
0.0
  9
$UCSXDIR
 10
1.0
 20
0.0
 30
0.0
  9
$UCSYDIR
 10
0.0
 20
1.0
 30
0.0
  9
$USERI1
 70
     0
  9
$USERI2
 70
     0
  9
$USERI3
 70
     0
  9
$USERI4
 70
     0
  9
$USERI5
 70
     0
  9
$USERR1
 40
20.0
  9
$USERR2
 40
0.0
  9
$USERR3
 40
0.0
  9
$USERR4
 40
0.0
  9
$USERR5
 40
0.0
  9
$WORLDVIEW
 70
     1
  9
$VIEWCTR
 10
-26.565972
 20
-77.941841
  9
$VIEWSIZE
 40
4282.619808
  9
$SNAPMODE
 70
     0
  9
$SNAPUNIT
 10
50.0
 20
50.0
  9
$SNAPBASE
 10
0.0
 20
0.0
  9
$SNAPANG
 50
0.0
  9
$SNAPSTYLE
 70
     0
  9
$SNAPISOPAIR
 70
     2
  9
$GRIDMODE
 70
     0
  9
$GRIDUNIT
 10
400.0
 20
400.0
  9
$FASTZOOM
 70
     1
  9
$VIEWDIR
 10
0.0
 20
0.0
 30
1.0
  0
ENDSEC
  0
SECTION
  2
TABLES
  0
TABLE
  2
VPORT
 70
     2
  0
VPORT
  2
*ACTIVE
 70
     0
 10
0.0
 20
0.0
 11
1.0
 21
1.0
 12
-26.565972
 22
-77.941841
 13
0.0
 23
0.0
 14
50.0
 24
50.0
 15
400.0
 25
400.0
 16
0.0
 26
0.0
 36
1.0
 17
0.0
 27
0.0
 37
0.0
 40
1760.98503
 41
1.387001
 42
50.0
 43
0.0
 44
0.0
 50
0.0
 51
0.0
 71
     0
 72
   500
 73
     1
 74
     0
 75
     0
 76
     0
 77
     0
 78
     2
  0
ENDTAB
  0
TABLE
  2
LTYPE
 70
     8
  0
LTYPE
  2
CONTINUOUS
 70
    64
  3
実線
 72
    65
 73
     0
 40
0.0
  0
LTYPE
  2
DASHDOT
 70
    64
  3
____ _ ____ _ ____ _ ____ _ ____ _ ____ _ ____
 72
    65
 73
     4
 40
5.5
 49
4.0
 49
-0.6
 49
0.3
 49
-0.6
  0
LTYPE
  2
CONTINOUS
 70
    64
  3
Solid line
 72
    65
 73
     0
 40
0.0
  0
LTYPE
  2
DASHED
 70
    64
  3
_ _ _ _ _ _ _ _ _ _ _ _ _ _ _ _ _ _ _ _ _ _ _
 72
    65
 73
     2
 40
2.0
 49
1.2
 49
-0.8
  0
LTYPE
  2
DOT
 70
    64
  3
...............................................
 72
    65
 73
     2
 40
0.8
 49
0.5
 49
-0.3
  0
LTYPE
  2
DASHDOT1
 70
    64
  3
____ _ ____ _ ____ _ ____ _ ____ _ ____ _ ____
 72
    65
 73
     4
 40
2.0
 49
1.5
 49
-0.2
 49
0.1
 49
-0.2
  0
LTYPE
  2
DIVIDE
 70
    64
  3
_____ _ _ _____ _ _ _____ _ _ _____ _ _ ____
 72
    65
 73
     6
 40
6.4
 49
4.0
 49
-0.6
 49
0.3
 49
-0.6
 49
0.3
 49
-0.6
  0
LTYPE
  2
DIVIDE1
 70
    64
  3
_____ _ _ _____ _ _ _____ _ _ _____ _ _ ____
 72
    65
 73
     6
 40
3.2
 49
2.0
 49
-0.3
 49
0.15
 49
-0.3
 49
0.15
 49
-0.3
  0
ENDTAB
  0
TABLE
  2
LAYER
 70
    12
  0
LAYER
  2
0
 70
     0
 62
     2
  6
CONTINUOUS
  0
LAYER
  2
OUTLINE
 70
    64
 62
     4
  6
CONTINUOUS
  0
LAYER
  2
DETAIL
 70
    64
 62
     1
  6
CONTINUOUS
  0
LAYER
  2
BASIS
 70
    64
 62
     1
  6
CONTINUOUS
  0
LAYER
  2
NOTE
 70
    64
 62
     1
  6
CONTINUOUS
  0
LAYER
  2
DEFPOINTS
 70
     0
 62
     7
  6
CONTINUOUS
  0
LAYER
  2
SIZE
 70
    64
 62
     7
  6
CONTINUOUS
  0
LAYER
  2
ARRANGE
 70
    64
 62
     7
  6
CONTINUOUS
  0
LAYER
  2
SERVICESPACE
 70
    64
 62
     7
  6
CONTINUOUS
  0
LAYER
  2
ETC
 70
    64
 62
     7
  6
CONTINUOUS
  0
LAYER
  2
FIX
 70
     0
 62
     7
  6
CONTINUOUS
  0
LAYER
  2
SYMBOLLINE
 70
     0
 62
     7
  6
CONTINUOUS
  0
ENDTAB
  0
TABLE
  2
STYLE
 70
     1
  0
STYLE
  2
STANDARD
 70
    64
 40
0.0
 41
0.9
 50
0.0
 71
     0
 42
64.0
  3
SIMPLEX
  4
BIGFONT
  0
ENDTAB
  0
TABLE
  2
VIEW
 70
     1
  0
VIEW
  2
ALL
 70
     0
 40
4282.619808
 10
-0.0
 20
41.309904
 41
5940.0
 11
0.0
 21
0.0
 31
1.0
 12
0.0
 22
0.0
 32
0.0
 42
50.0
 43
0.0
 44
0.0
 50
0.0
 71
     0
  0
ENDTAB
  0
TABLE
  2
UCS
 70
     0
  0
ENDTAB
  0
TABLE
  2
DWGMGR
 70
     0
  0
ENDTAB
  0
ENDSEC
  0
SECTION
  2
BLOCKS
  0
ENDSEC
  0
SECTION
  2
ENTITIES
  0
TEXT
  8
ETC
  6
CONTINUOUS
 62
    10
 10
406.119355
 20
236.268086
 40
64.0
  1
換気扇
 41
0.9
  0
TEXT
  8
ETC
  6
CONTINUOUS
 62
    10
 10
416.822541
 20
342.693096
 40
64.0
  1
NVD0156
 41
0.9
  0
LINE
  8
BASIS
  6
DASHDOT
 62
     6
 10
200.584362
 20
0.0
 11
-200.0
 21
0.0
  0
LINE
  8
BASIS
  6
DASHDOT
 62
     6
 10
0.0
 20
211.076098
 11
0.0
 21
-257.024365
  0
LINE
  8
DETAIL
  6
CONTINUOUS
 62
     5
 10
-43.2432
 20
-143.0
 11
-123.552
 21
-143.0
  0
LINE
  8
DETAIL
  6
CONTINUOUS
 62
     5
 10
143.0
 20
123.552
 11
143.0
 21
-123.552
  0
LINE
  8
DETAIL
  6
CONTINUOUS
 62
     5
 10
-143.0
 20
123.552
 11
-143.0
 21
-123.552
  0
LINE
  8
DETAIL
  6
CONTINUOUS
 62
     5
 10
123.552
 20
143.0
 11
-123.552
 21
143.0
  0
LINE
  8
DETAIL
  6
CONTINUOUS
 62
     5
 10
104.60736
 20
102.13632
 11
-92.25216
 21
102.13632
  0
LINE
  8
DETAIL
  6
CONTINUOUS
 62
     5
 10
104.60736
 20
-102.13632
 11
-104.60736
 21
-102.13632
  0
LINE
  8
DETAIL
  6
CONTINOUS
 62
     5
 10
-99.25344
 20
2.88288
 11
-93.48768
 21
2.88288
  0
LINE
  8
DETAIL
  6
CONTINOUS
 62
     5
 10
-99.25344
 20
4.53024
 11
-93.48768
 21
4.53024
  0
LINE
  8
DETAIL
  6
CONTINOUS
 62
     5
 10
-99.25344
 20
10.296
 11
-93.48768
 21
10.296
  0
LINE
  8
DETAIL
  6
CONTINOUS
 62
     5
 10
-99.25344
 20
11.94336
 11
-93.48768
 21
11.94336
  0
LINE
  8
DETAIL
  6
CONTINOUS
 62
     5
 10
-99.25344
 20
17.70912
 11
-93.48768
 21
17.70912
  0
LINE
  8
DETAIL
  6
CONTINOUS
 62
     5
 10
-99.25344
 20
19.35648
 11
-93.48768
 21
19.35648
  0
LINE
  8
DETAIL
  6
CONTINOUS
 62
     5
 10
-99.25344
 20
25.12224
 11
-93.48768
 21
25.12224
  0
LINE
  8
DETAIL
  6
CONTINOUS
 62
     5
 10
-99.25344
 20
26.7696
 11
-93.48768
 21
26.7696
  0
LINE
  8
DETAIL
  6
CONTINOUS
 62
     5
 10
-99.25344
 20
32.53536
 11
-93.48768
 21
32.53536
  0
LINE
  8
DETAIL
  6
CONTINOUS
 62
     5
 10
-99.25344
 20
34.18272
 11
-93.48768
 21
34.18272
  0
LINE
  8
DETAIL
  6
CONTINOUS
 62
     5
 10
-99.25344
 20
39.94848
 11
-93.48768
 21
39.94848
  0
LINE
  8
DETAIL
  6
CONTINOUS
 62
     5
 10
-99.25344
 20
41.59584
 11
-93.48768
 21
41.59584
  0
LINE
  8
DETAIL
  6
CONTINOUS
 62
     5
 10
-99.25344
 20
47.3616
 11
-93.48768
 21
47.3616
  0
LINE
  8
DETAIL
  6
CONTINOUS
 62
     5
 10
-99.25344
 20
49.00896
 11
-93.48768
 21
49.00896
  0
LINE
  8
DETAIL
  6
CONTINOUS
 62
     5
 10
-99.25344
 20
54.77472
 11
-93.48768
 21
54.77472
  0
LINE
  8
DETAIL
  6
CONTINOUS
 62
     5
 10
-99.25344
 20
56.42208
 11
-93.48768
 21
56.42208
  0
LINE
  8
DETAIL
  6
CONTINOUS
 62
     5
 10
-99.25344
 20
62.18784
 11
-93.48768
 21
62.18784
  0
LINE
  8
DETAIL
  6
CONTINOUS
 62
     5
 10
-99.25344
 20
63.8352
 11
-93.48768
 21
63.8352
  0
LINE
  8
DETAIL
  6
CONTINOUS
 62
     5
 10
-99.25344
 20
69.60096
 11
-93.48768
 21
69.60096
  0
LINE
  8
DETAIL
  6
CONTINOUS
 62
     5
 10
-99.25344
 20
71.24832
 11
-93.48768
 21
71.24832
  0
LINE
  8
DETAIL
  6
CONTINOUS
 62
     5
 10
-99.25344
 20
77.01408
 11
-93.48768
 21
77.01408
  0
LINE
  8
DETAIL
  6
CONTINOUS
 62
     5
 10
-99.25344
 20
78.66144
 11
-93.48768
 21
78.66144
  0
LINE
  8
DETAIL
  6
CONTINOUS
 62
     5
 10
-99.25344
 20
84.4272
 11
-93.48768
 21
84.4272
  0
LINE
  8
DETAIL
  6
CONTINOUS
 62
     5
 10
-99.25344
 20
86.07456
 11
-93.48768
 21
86.07456
  0
LINE
  8
DETAIL
  6
CONTINOUS
 62
     5
 10
-99.25344
 20
91.84032
 11
-93.48768
 21
91.84032
  0
LINE
  8
DETAIL
  6
CONTINOUS
 62
     5
 10
-99.25344
 20
93.48768
 11
-93.48768
 21
93.48768
  0
LINE
  8
DETAIL
  6
CONTINOUS
 62
     5
 10
-2.88288
 20
93.48768
 11
-2.88288
 21
99.25344
  0
LINE
  8
DETAIL
  6
CONTINOUS
 62
     5
 10
-2.88288
 20
86.07456
 11
-2.88288
 21
91.84032
  0
LINE
  8
DETAIL
  6
CONTINOUS
 62
     5
 10
-2.88288
 20
78.66144
 11
-2.88288
 21
84.4272
  0
LINE
  8
DETAIL
  6
CONTINOUS
 62
     5
 10
-2.88288
 20
71.24832
 11
-2.88288
 21
77.01408
  0
LINE
  8
DETAIL
  6
CONTINOUS
 62
     5
 10
-2.88288
 20
63.8352
 11
-2.88288
 21
69.60096
  0
LINE
  8
DETAIL
  6
CONTINOUS
 62
     5
 10
-2.88288
 20
56.42208
 11
-2.88288
 21
62.18784
  0
LINE
  8
DETAIL
  6
CONTINOUS
 62
     5
 10
-2.88288
 20
49.00896
 11
-2.88288
 21
54.77472
  0
LINE
  8
DETAIL
  6
CONTINOUS
 62
     5
 10
-2.88288
 20
41.59584
 11
-2.88288
 21
47.3616
  0
LINE
  8
DETAIL
  6
CONTINOUS
 62
     5
 10
-2.88288
 20
34.18272
 11
-2.88288
 21
39.94848
  0
LINE
  8
DETAIL
  6
CONTINOUS
 62
     5
 10
-2.88288
 20
26.7696
 11
-2.88288
 21
32.53536
  0
LINE
  8
DETAIL
  6
CONTINOUS
 62
     5
 10
-2.88288
 20
19.35648
 11
-2.88288
 21
25.12224
  0
LINE
  8
DETAIL
  6
CONTINOUS
 62
     5
 10
-2.88288
 20
11.94336
 11
-2.88288
 21
17.70912
  0
LINE
  8
DETAIL
  6
CONTINOUS
 62
     5
 10
-2.88288
 20
4.53024
 11
-2.88288
 21
10.296
  0
LINE
  8
DETAIL
  6
CONTINOUS
 62
     5
 10
-2.88288
 20
-2.88288
 11
-2.88288
 21
2.88288
  0
LINE
  8
DETAIL
  6
CONTINOUS
 62
     5
 10
-2.88288
 20
-10.296
 11
-2.88288
 21
-4.53024
  0
LINE
  8
DETAIL
  6
CONTINOUS
 62
     5
 10
-2.88288
 20
-17.70912
 11
-2.88288
 21
-11.94336
  0
LINE
  8
DETAIL
  6
CONTINOUS
 62
     5
 10
-2.88288
 20
-25.12224
 11
-2.88288
 21
-19.35648
  0
LINE
  8
DETAIL
  6
CONTINOUS
 62
     5
 10
-2.88288
 20
-32.53536
 11
-2.88288
 21
-26.7696
  0
LINE
  8
DETAIL
  6
CONTINOUS
 62
     5
 10
-2.88288
 20
-39.94848
 11
-2.88288
 21
-34.18272
  0
LINE
  8
DETAIL
  6
CONTINOUS
 62
     5
 10
-2.88288
 20
-47.3616
 11
-2.88288
 21
-41.59584
  0
LINE
  8
DETAIL
  6
CONTINOUS
 62
     5
 10
-2.88288
 20
-54.77472
 11
-2.88288
 21
-49.00896
  0
LINE
  8
DETAIL
  6
CONTINOUS
 62
     5
 10
-2.88288
 20
-62.18784
 11
-2.88288
 21
-56.42208
  0
LINE
  8
DETAIL
  6
CONTINOUS
 62
     5
 10
-2.88288
 20
-69.60096
 11
-2.88288
 21
-63.8352
  0
LINE
  8
DETAIL
  6
CONTINOUS
 62
     5
 10
-2.88288
 20
-77.01408
 11
-2.88288
 21
-71.24832
  0
LINE
  8
DETAIL
  6
CONTINOUS
 62
     5
 10
-2.88288
 20
-84.4272
 11
-2.88288
 21
-78.66144
  0
LINE
  8
DETAIL
  6
CONTINOUS
 62
     5
 10
-2.88288
 20
-91.84032
 11
-2.88288
 21
-86.07456
  0
LINE
  8
DETAIL
  6
CONTINOUS
 62
     5
 10
-2.88288
 20
-99.25344
 11
-2.88288
 21
-93.48768
  0
LINE
  8
DETAIL
  6
CONTINOUS
 62
     5
 10
-10.296
 20
99.25344
 11
-4.53024
 21
99.25344
  0
LINE
  8
DETAIL
  6
CONTINOUS
 62
     5
 10
-4.53024
 20
93.48768
 11
-4.53024
 21
99.25344
  0
LINE
  8
DETAIL
  6
CONTINOUS
 62
     5
 10
-10.296
 20
93.48768
 11
-4.53024
 21
93.48768
  0
LINE
  8
DETAIL
  6
CONTINOUS
 62
     5
 10
-10.296
 20
93.48768
 11
-10.296
 21
99.25344
  0
LINE
  8
DETAIL
  6
CONTINOUS
 62
     5
 10
-10.296
 20
91.84032
 11
-4.53024
 21
91.84032
  0
LINE
  8
DETAIL
  6
CONTINOUS
 62
     5
 10
-4.53024
 20
86.07456
 11
-4.53024
 21
91.84032
  0
LINE
  8
DETAIL
  6
CONTINOUS
 62
     5
 10
-10.296
 20
86.07456
 11
-4.53024
 21
86.07456
  0
LINE
  8
DETAIL
  6
CONTINOUS
 62
     5
 10
-10.296
 20
86.07456
 11
-10.296
 21
91.84032
  0
LINE
  8
DETAIL
  6
CONTINOUS
 62
     5
 10
-10.296
 20
84.4272
 11
-4.53024
 21
84.4272
  0
LINE
  8
DETAIL
  6
CONTINOUS
 62
     5
 10
-4.53024
 20
78.66144
 11
-4.53024
 21
84.4272
  0
LINE
  8
DETAIL
  6
CONTINOUS
 62
     5
 10
-10.296
 20
78.66144
 11
-4.53024
 21
78.66144
  0
LINE
  8
DETAIL
  6
CONTINOUS
 62
     5
 10
-10.296
 20
78.66144
 11
-10.296
 21
84.4272
  0
LINE
  8
DETAIL
  6
CONTINOUS
 62
     5
 10
-10.296
 20
77.01408
 11
-4.53024
 21
77.01408
  0
LINE
  8
DETAIL
  6
CONTINOUS
 62
     5
 10
-4.53024
 20
71.24832
 11
-4.53024
 21
77.01408
  0
LINE
  8
DETAIL
  6
CONTINOUS
 62
     5
 10
-10.296
 20
71.24832
 11
-4.53024
 21
71.24832
  0
LINE
  8
DETAIL
  6
CONTINOUS
 62
     5
 10
-10.296
 20
71.24832
 11
-10.296
 21
77.01408
  0
LINE
  8
DETAIL
  6
CONTINOUS
 62
     5
 10
-10.296
 20
69.60096
 11
-4.53024
 21
69.60096
  0
LINE
  8
DETAIL
  6
CONTINOUS
 62
     5
 10
-4.53024
 20
63.8352
 11
-4.53024
 21
69.60096
  0
LINE
  8
DETAIL
  6
CONTINOUS
 62
     5
 10
-10.296
 20
63.8352
 11
-4.53024
 21
63.8352
  0
LINE
  8
DETAIL
  6
CONTINOUS
 62
     5
 10
-10.296
 20
63.8352
 11
-10.296
 21
69.60096
  0
LINE
  8
DETAIL
  6
CONTINOUS
 62
     5
 10
-10.296
 20
62.18784
 11
-4.53024
 21
62.18784
  0
LINE
  8
DETAIL
  6
CONTINOUS
 62
     5
 10
-4.53024
 20
56.42208
 11
-4.53024
 21
62.18784
  0
LINE
  8
DETAIL
  6
CONTINOUS
 62
     5
 10
-10.296
 20
56.42208
 11
-4.53024
 21
56.42208
  0
LINE
  8
DETAIL
  6
CONTINOUS
 62
     5
 10
-10.296
 20
56.42208
 11
-10.296
 21
62.18784
  0
LINE
  8
DETAIL
  6
CONTINOUS
 62
     5
 10
-10.296
 20
54.77472
 11
-4.53024
 21
54.77472
  0
LINE
  8
DETAIL
  6
CONTINOUS
 62
     5
 10
-4.53024
 20
49.00896
 11
-4.53024
 21
54.77472
  0
LINE
  8
DETAIL
  6
CONTINOUS
 62
     5
 10
-10.296
 20
49.00896
 11
-4.53024
 21
49.00896
  0
LINE
  8
DETAIL
  6
CONTINOUS
 62
     5
 10
-10.296
 20
49.00896
 11
-10.296
 21
54.77472
  0
LINE
  8
DETAIL
  6
CONTINOUS
 62
     5
 10
-10.296
 20
47.3616
 11
-4.53024
 21
47.3616
  0
LINE
  8
DETAIL
  6
CONTINOUS
 62
     5
 10
-4.53024
 20
41.59584
 11
-4.53024
 21
47.3616
  0
LINE
  8
DETAIL
  6
CONTINOUS
 62
     5
 10
-10.296
 20
41.59584
 11
-4.53024
 21
41.59584
  0
LINE
  8
DETAIL
  6
CONTINOUS
 62
     5
 10
-10.296
 20
41.59584
 11
-10.296
 21
47.3616
  0
LINE
  8
DETAIL
  6
CONTINOUS
 62
     5
 10
-10.296
 20
39.94848
 11
-4.53024
 21
39.94848
  0
LINE
  8
DETAIL
  6
CONTINOUS
 62
     5
 10
-4.53024
 20
34.18272
 11
-4.53024
 21
39.94848
  0
LINE
  8
DETAIL
  6
CONTINOUS
 62
     5
 10
-10.296
 20
34.18272
 11
-4.53024
 21
34.18272
  0
LINE
  8
DETAIL
  6
CONTINOUS
 62
     5
 10
-10.296
 20
34.18272
 11
-10.296
 21
39.94848
  0
LINE
  8
DETAIL
  6
CONTINOUS
 62
     5
 10
-10.296
 20
32.53536
 11
-4.53024
 21
32.53536
  0
LINE
  8
DETAIL
  6
CONTINOUS
 62
     5
 10
-4.53024
 20
26.7696
 11
-4.53024
 21
32.53536
  0
LINE
  8
DETAIL
  6
CONTINOUS
 62
     5
 10
-10.296
 20
26.7696
 11
-4.53024
 21
26.7696
  0
LINE
  8
DETAIL
  6
CONTINOUS
 62
     5
 10
-10.296
 20
26.7696
 11
-10.296
 21
32.53536
  0
LINE
  8
DETAIL
  6
CONTINOUS
 62
     5
 10
-10.296
 20
25.12224
 11
-4.53024
 21
25.12224
  0
LINE
  8
DETAIL
  6
CONTINOUS
 62
     5
 10
-4.53024
 20
19.35648
 11
-4.53024
 21
25.12224
  0
LINE
  8
DETAIL
  6
CONTINOUS
 62
     5
 10
-10.296
 20
19.35648
 11
-4.53024
 21
19.35648
  0
LINE
  8
DETAIL
  6
CONTINOUS
 62
     5
 10
-10.296
 20
19.35648
 11
-10.296
 21
25.12224
  0
LINE
  8
DETAIL
  6
CONTINOUS
 62
     5
 10
-10.296
 20
17.70912
 11
-4.53024
 21
17.70912
  0
LINE
  8
DETAIL
  6
CONTINOUS
 62
     5
 10
-4.53024
 20
11.94336
 11
-4.53024
 21
17.70912
  0
LINE
  8
DETAIL
  6
CONTINOUS
 62
     5
 10
-10.296
 20
11.94336
 11
-4.53024
 21
11.94336
  0
LINE
  8
DETAIL
  6
CONTINOUS
 62
     5
 10
-10.296
 20
11.94336
 11
-10.296
 21
17.70912
  0
LINE
  8
DETAIL
  6
CONTINOUS
 62
     5
 10
-10.296
 20
10.296
 11
-4.53024
 21
10.296
  0
LINE
  8
DETAIL
  6
CONTINOUS
 62
     5
 10
-4.53024
 20
4.53024
 11
-4.53024
 21
10.296
  0
LINE
  8
DETAIL
  6
CONTINOUS
 62
     5
 10
-10.296
 20
4.53024
 11
-4.53024
 21
4.53024
  0
LINE
  8
DETAIL
  6
CONTINOUS
 62
     5
 10
-10.296
 20
4.53024
 11
-10.296
 21
10.296
  0
LINE
  8
DETAIL
  6
CONTINOUS
 62
     5
 10
-10.296
 20
2.88288
 11
-4.53024
 21
2.88288
  0
LINE
  8
DETAIL
  6
CONTINOUS
 62
     5
 10
-4.53024
 20
-2.88288
 11
-4.53024
 21
2.88288
  0
LINE
  8
DETAIL
  6
CONTINOUS
 62
     5
 10
-10.296
 20
-2.88288
 11
-4.53024
 21
-2.88288
  0
LINE
  8
DETAIL
  6
CONTINOUS
 62
     5
 10
-10.296
 20
-2.88288
 11
-10.296
 21
2.88288
  0
LINE
  8
DETAIL
  6
CONTINOUS
 62
     5
 10
-10.296
 20
-4.53024
 11
-4.53024
 21
-4.53024
  0
LINE
  8
DETAIL
  6
CONTINOUS
 62
     5
 10
-4.53024
 20
-10.296
 11
-4.53024
 21
-4.53024
  0
LINE
  8
DETAIL
  6
CONTINOUS
 62
     5
 10
-10.296
 20
-10.296
 11
-4.53024
 21
-10.296
  0
LINE
  8
DETAIL
  6
CONTINOUS
 62
     5
 10
-10.296
 20
-10.296
 11
-10.296
 21
-4.53024
  0
LINE
  8
DETAIL
  6
CONTINOUS
 62
     5
 10
-10.296
 20
-11.94336
 11
-4.53024
 21
-11.94336
  0
LINE
  8
DETAIL
  6
CONTINOUS
 62
     5
 10
-4.53024
 20
-17.70912
 11
-4.53024
 21
-11.94336
  0
LINE
  8
DETAIL
  6
CONTINOUS
 62
     5
 10
-10.296
 20
-17.70912
 11
-4.53024
 21
-17.70912
  0
LINE
  8
DETAIL
  6
CONTINOUS
 62
     5
 10
-10.296
 20
-17.70912
 11
-10.296
 21
-11.94336
  0
LINE
  8
DETAIL
  6
CONTINOUS
 62
     5
 10
-10.296
 20
-19.35648
 11
-4.53024
 21
-19.35648
  0
LINE
  8
DETAIL
  6
CONTINOUS
 62
     5
 10
-4.53024
 20
-25.12224
 11
-4.53024
 21
-19.35648
  0
LINE
  8
DETAIL
  6
CONTINOUS
 62
     5
 10
-10.296
 20
-25.12224
 11
-4.53024
 21
-25.12224
  0
LINE
  8
DETAIL
  6
CONTINOUS
 62
     5
 10
-10.296
 20
-25.12224
 11
-10.296
 21
-19.35648
  0
LINE
  8
DETAIL
  6
CONTINOUS
 62
     5
 10
-10.296
 20
-26.7696
 11
-4.53024
 21
-26.7696
  0
LINE
  8
DETAIL
  6
CONTINOUS
 62
     5
 10
-4.53024
 20
-32.53536
 11
-4.53024
 21
-26.7696
  0
LINE
  8
DETAIL
  6
CONTINOUS
 62
     5
 10
-10.296
 20
-32.53536
 11
-4.53024
 21
-32.53536
  0
LINE
  8
DETAIL
  6
CONTINOUS
 62
     5
 10
-10.296
 20
-32.53536
 11
-10.296
 21
-26.7696
  0
LINE
  8
DETAIL
  6
CONTINOUS
 62
     5
 10
-10.296
 20
-34.18272
 11
-4.53024
 21
-34.18272
  0
LINE
  8
DETAIL
  6
CONTINOUS
 62
     5
 10
-4.53024
 20
-39.94848
 11
-4.53024
 21
-34.18272
  0
LINE
  8
DETAIL
  6
CONTINOUS
 62
     5
 10
-10.296
 20
-39.94848
 11
-4.53024
 21
-39.94848
  0
LINE
  8
DETAIL
  6
CONTINOUS
 62
     5
 10
-10.296
 20
-39.94848
 11
-10.296
 21
-34.18272
  0
LINE
  8
DETAIL
  6
CONTINOUS
 62
     5
 10
-10.296
 20
-41.59584
 11
-4.53024
 21
-41.59584
  0
LINE
  8
DETAIL
  6
CONTINOUS
 62
     5
 10
-4.53024
 20
-47.3616
 11
-4.53024
 21
-41.59584
  0
LINE
  8
DETAIL
  6
CONTINOUS
 62
     5
 10
-10.296
 20
-47.3616
 11
-4.53024
 21
-47.3616
  0
LINE
  8
DETAIL
  6
CONTINOUS
 62
     5
 10
-10.296
 20
-47.3616
 11
-10.296
 21
-41.59584
  0
LINE
  8
DETAIL
  6
CONTINOUS
 62
     5
 10
-10.296
 20
-49.00896
 11
-4.53024
 21
-49.00896
  0
LINE
  8
DETAIL
  6
CONTINOUS
 62
     5
 10
-4.53024
 20
-54.77472
 11
-4.53024
 21
-49.00896
  0
LINE
  8
DETAIL
  6
CONTINOUS
 62
     5
 10
-10.296
 20
-54.77472
 11
-4.53024
 21
-54.77472
  0
LINE
  8
DETAIL
  6
CONTINOUS
 62
     5
 10
-10.296
 20
-54.77472
 11
-10.296
 21
-49.00896
  0
LINE
  8
DETAIL
  6
CONTINOUS
 62
     5
 10
-10.296
 20
-56.42208
 11
-4.53024
 21
-56.42208
  0
LINE
  8
DETAIL
  6
CONTINOUS
 62
     5
 10
-4.53024
 20
-62.18784
 11
-4.53024
 21
-56.42208
  0
LINE
  8
DETAIL
  6
CONTINOUS
 62
     5
 10
-10.296
 20
-62.18784
 11
-4.53024
 21
-62.18784
  0
LINE
  8
DETAIL
  6
CONTINOUS
 62
     5
 10
-10.296
 20
-62.18784
 11
-10.296
 21
-56.42208
  0
LINE
  8
DETAIL
  6
CONTINOUS
 62
     5
 10
-10.296
 20
-63.8352
 11
-4.53024
 21
-63.8352
  0
LINE
  8
DETAIL
  6
CONTINOUS
 62
     5
 10
-4.53024
 20
-69.60096
 11
-4.53024
 21
-63.8352
  0
LINE
  8
DETAIL
  6
CONTINOUS
 62
     5
 10
-10.296
 20
-69.60096
 11
-4.53024
 21
-69.60096
  0
LINE
  8
DETAIL
  6
CONTINOUS
 62
     5
 10
-10.296
 20
-69.60096
 11
-10.296
 21
-63.8352
  0
LINE
  8
DETAIL
  6
CONTINOUS
 62
     5
 10
-10.296
 20
-71.24832
 11
-4.53024
 21
-71.24832
  0
LINE
  8
DETAIL
  6
CONTINOUS
 62
     5
 10
-4.53024
 20
-77.01408
 11
-4.53024
 21
-71.24832
  0
LINE
  8
DETAIL
  6
CONTINOUS
 62
     5
 10
-10.296
 20
-77.01408
 11
-4.53024
 21
-77.01408
  0
LINE
  8
DETAIL
  6
CONTINOUS
 62
     5
 10
-10.296
 20
-77.01408
 11
-10.296
 21
-71.24832
  0
LINE
  8
DETAIL
  6
CONTINOUS
 62
     5
 10
-10.296
 20
-78.66144
 11
-4.53024
 21
-78.66144
  0
LINE
  8
DETAIL
  6
CONTINOUS
 62
     5
 10
-4.53024
 20
-84.4272
 11
-4.53024
 21
-78.66144
  0
LINE
  8
DETAIL
  6
CONTINOUS
 62
     5
 10
-10.296
 20
-84.4272
 11
-4.53024
 21
-84.4272
  0
LINE
  8
DETAIL
  6
CONTINOUS
 62
     5
 10
-10.296
 20
-84.4272
 11
-10.296
 21
-78.66144
  0
LINE
  8
DETAIL
  6
CONTINOUS
 62
     5
 10
-10.296
 20
-86.07456
 11
-4.53024
 21
-86.07456
  0
LINE
  8
DETAIL
  6
CONTINOUS
 62
     5
 10
-4.53024
 20
-91.84032
 11
-4.53024
 21
-86.07456
  0
LINE
  8
DETAIL
  6
CONTINOUS
 62
     5
 10
-10.296
 20
-91.84032
 11
-4.53024
 21
-91.84032
  0
LINE
  8
DETAIL
  6
CONTINOUS
 62
     5
 10
-10.296
 20
-91.84032
 11
-10.296
 21
-86.07456
  0
LINE
  8
DETAIL
  6
CONTINOUS
 62
     5
 10
-10.296
 20
-93.48768
 11
-4.53024
 21
-93.48768
  0
LINE
  8
DETAIL
  6
CONTINOUS
 62
     5
 10
-4.53024
 20
-99.25344
 11
-4.53024
 21
-93.48768
  0
LINE
  8
DETAIL
  6
CONTINOUS
 62
     5
 10
-10.296
 20
-99.25344
 11
-4.53024
 21
-99.25344
  0
LINE
  8
DETAIL
  6
CONTINOUS
 62
     5
 10
-10.296
 20
-99.25344
 11
-10.296
 21
-93.48768
  0
LINE
  8
DETAIL
  6
CONTINOUS
 62
     5
 10
-17.70912
 20
99.25344
 11
-11.94336
 21
99.25344
  0
LINE
  8
DETAIL
  6
CONTINOUS
 62
     5
 10
-11.94336
 20
93.48768
 11
-11.94336
 21
99.25344
  0
LINE
  8
DETAIL
  6
CONTINOUS
 62
     5
 10
-17.70912
 20
93.48768
 11
-11.94336
 21
93.48768
  0
LINE
  8
DETAIL
  6
CONTINOUS
 62
     5
 10
-17.70912
 20
93.48768
 11
-17.70912
 21
99.25344
  0
LINE
  8
DETAIL
  6
CONTINOUS
 62
     5
 10
-17.70912
 20
91.84032
 11
-11.94336
 21
91.84032
  0
LINE
  8
DETAIL
  6
CONTINOUS
 62
     5
 10
-11.94336
 20
86.07456
 11
-11.94336
 21
91.84032
  0
LINE
  8
DETAIL
  6
CONTINOUS
 62
     5
 10
-17.70912
 20
86.07456
 11
-11.94336
 21
86.07456
  0
LINE
  8
DETAIL
  6
CONTINOUS
 62
     5
 10
-17.70912
 20
86.07456
 11
-17.70912
 21
91.84032
  0
LINE
  8
DETAIL
  6
CONTINOUS
 62
     5
 10
-17.70912
 20
84.4272
 11
-11.94336
 21
84.4272
  0
LINE
  8
DETAIL
  6
CONTINOUS
 62
     5
 10
-11.94336
 20
78.66144
 11
-11.94336
 21
84.4272
  0
LINE
  8
DETAIL
  6
CONTINOUS
 62
     5
 10
-17.70912
 20
78.66144
 11
-11.94336
 21
78.66144
  0
LINE
  8
DETAIL
  6
CONTINOUS
 62
     5
 10
-17.70912
 20
78.66144
 11
-17.70912
 21
84.4272
  0
LINE
  8
DETAIL
  6
CONTINOUS
 62
     5
 10
-17.70912
 20
77.01408
 11
-11.94336
 21
77.01408
  0
LINE
  8
DETAIL
  6
CONTINOUS
 62
     5
 10
-11.94336
 20
71.24832
 11
-11.94336
 21
77.01408
  0
LINE
  8
DETAIL
  6
CONTINOUS
 62
     5
 10
-17.70912
 20
71.24832
 11
-11.94336
 21
71.24832
  0
LINE
  8
DETAIL
  6
CONTINOUS
 62
     5
 10
-17.70912
 20
71.24832
 11
-17.70912
 21
77.01408
  0
LINE
  8
DETAIL
  6
CONTINOUS
 62
     5
 10
-17.70912
 20
69.60096
 11
-11.94336
 21
69.60096
  0
LINE
  8
DETAIL
  6
CONTINOUS
 62
     5
 10
-11.94336
 20
63.8352
 11
-11.94336
 21
69.60096
  0
LINE
  8
DETAIL
  6
CONTINOUS
 62
     5
 10
-17.70912
 20
63.8352
 11
-11.94336
 21
63.8352
  0
LINE
  8
DETAIL
  6
CONTINOUS
 62
     5
 10
-17.70912
 20
63.8352
 11
-17.70912
 21
69.60096
  0
LINE
  8
DETAIL
  6
CONTINOUS
 62
     5
 10
-17.70912
 20
62.18784
 11
-11.94336
 21
62.18784
  0
LINE
  8
DETAIL
  6
CONTINOUS
 62
     5
 10
-11.94336
 20
56.42208
 11
-11.94336
 21
62.18784
  0
LINE
  8
DETAIL
  6
CONTINOUS
 62
     5
 10
-17.70912
 20
56.42208
 11
-11.94336
 21
56.42208
  0
LINE
  8
DETAIL
  6
CONTINOUS
 62
     5
 10
-17.70912
 20
56.42208
 11
-17.70912
 21
62.18784
  0
LINE
  8
DETAIL
  6
CONTINOUS
 62
     5
 10
-17.70912
 20
54.77472
 11
-11.94336
 21
54.77472
  0
LINE
  8
DETAIL
  6
CONTINOUS
 62
     5
 10
-11.94336
 20
49.00896
 11
-11.94336
 21
54.77472
  0
LINE
  8
DETAIL
  6
CONTINOUS
 62
     5
 10
-17.70912
 20
49.00896
 11
-11.94336
 21
49.00896
  0
LINE
  8
DETAIL
  6
CONTINOUS
 62
     5
 10
-17.70912
 20
49.00896
 11
-17.70912
 21
54.77472
  0
LINE
  8
DETAIL
  6
CONTINOUS
 62
     5
 10
-17.70912
 20
47.3616
 11
-11.94336
 21
47.3616
  0
LINE
  8
DETAIL
  6
CONTINOUS
 62
     5
 10
-11.94336
 20
41.59584
 11
-11.94336
 21
47.3616
  0
LINE
  8
DETAIL
  6
CONTINOUS
 62
     5
 10
-17.70912
 20
41.59584
 11
-11.94336
 21
41.59584
  0
LINE
  8
DETAIL
  6
CONTINOUS
 62
     5
 10
-17.70912
 20
41.59584
 11
-17.70912
 21
47.3616
  0
LINE
  8
DETAIL
  6
CONTINOUS
 62
     5
 10
-17.70912
 20
39.94848
 11
-11.94336
 21
39.94848
  0
LINE
  8
DETAIL
  6
CONTINOUS
 62
     5
 10
-11.94336
 20
34.18272
 11
-11.94336
 21
39.94848
  0
LINE
  8
DETAIL
  6
CONTINOUS
 62
     5
 10
-17.70912
 20
34.18272
 11
-11.94336
 21
34.18272
  0
LINE
  8
DETAIL
  6
CONTINOUS
 62
     5
 10
-17.70912
 20
34.18272
 11
-17.70912
 21
39.94848
  0
LINE
  8
DETAIL
  6
CONTINOUS
 62
     5
 10
-17.70912
 20
32.53536
 11
-11.94336
 21
32.53536
  0
LINE
  8
DETAIL
  6
CONTINOUS
 62
     5
 10
-11.94336
 20
26.7696
 11
-11.94336
 21
32.53536
  0
LINE
  8
DETAIL
  6
CONTINOUS
 62
     5
 10
-17.70912
 20
26.7696
 11
-11.94336
 21
26.7696
  0
LINE
  8
DETAIL
  6
CONTINOUS
 62
     5
 10
-17.70912
 20
26.7696
 11
-17.70912
 21
32.53536
  0
LINE
  8
DETAIL
  6
CONTINOUS
 62
     5
 10
-17.70912
 20
25.12224
 11
-11.94336
 21
25.12224
  0
LINE
  8
DETAIL
  6
CONTINOUS
 62
     5
 10
-11.94336
 20
19.35648
 11
-11.94336
 21
25.12224
  0
LINE
  8
DETAIL
  6
CONTINOUS
 62
     5
 10
-17.70912
 20
19.35648
 11
-11.94336
 21
19.35648
  0
LINE
  8
DETAIL
  6
CONTINOUS
 62
     5
 10
-17.70912
 20
19.35648
 11
-17.70912
 21
25.12224
  0
LINE
  8
DETAIL
  6
CONTINOUS
 62
     5
 10
-17.70912
 20
17.70912
 11
-11.94336
 21
17.70912
  0
LINE
  8
DETAIL
  6
CONTINOUS
 62
     5
 10
-11.94336
 20
11.94336
 11
-11.94336
 21
17.70912
  0
LINE
  8
DETAIL
  6
CONTINOUS
 62
     5
 10
-17.70912
 20
11.94336
 11
-11.94336
 21
11.94336
  0
LINE
  8
DETAIL
  6
CONTINOUS
 62
     5
 10
-17.70912
 20
11.94336
 11
-17.70912
 21
17.70912
  0
LINE
  8
DETAIL
  6
CONTINOUS
 62
     5
 10
-17.70912
 20
10.296
 11
-11.94336
 21
10.296
  0
LINE
  8
DETAIL
  6
CONTINOUS
 62
     5
 10
-11.94336
 20
4.53024
 11
-11.94336
 21
10.296
  0
LINE
  8
DETAIL
  6
CONTINOUS
 62
     5
 10
-17.70912
 20
4.53024
 11
-11.94336
 21
4.53024
  0
LINE
  8
DETAIL
  6
CONTINOUS
 62
     5
 10
-17.70912
 20
4.53024
 11
-17.70912
 21
10.296
  0
LINE
  8
DETAIL
  6
CONTINOUS
 62
     5
 10
-17.70912
 20
2.88288
 11
-11.94336
 21
2.88288
  0
LINE
  8
DETAIL
  6
CONTINOUS
 62
     5
 10
-11.94336
 20
-2.88288
 11
-11.94336
 21
2.88288
  0
LINE
  8
DETAIL
  6
CONTINOUS
 62
     5
 10
-17.70912
 20
-2.88288
 11
-11.94336
 21
-2.88288
  0
LINE
  8
DETAIL
  6
CONTINOUS
 62
     5
 10
-17.70912
 20
-2.88288
 11
-17.70912
 21
2.88288
  0
LINE
  8
DETAIL
  6
CONTINOUS
 62
     5
 10
-17.70912
 20
-4.53024
 11
-11.94336
 21
-4.53024
  0
LINE
  8
DETAIL
  6
CONTINOUS
 62
     5
 10
-11.94336
 20
-10.296
 11
-11.94336
 21
-4.53024
  0
LINE
  8
DETAIL
  6
CONTINOUS
 62
     5
 10
-17.70912
 20
-10.296
 11
-11.94336
 21
-10.296
  0
LINE
  8
DETAIL
  6
CONTINOUS
 62
     5
 10
-17.70912
 20
-10.296
 11
-17.70912
 21
-4.53024
  0
LINE
  8
DETAIL
  6
CONTINOUS
 62
     5
 10
-17.70912
 20
-11.94336
 11
-11.94336
 21
-11.94336
  0
LINE
  8
DETAIL
  6
CONTINOUS
 62
     5
 10
-11.94336
 20
-17.70912
 11
-11.94336
 21
-11.94336
  0
LINE
  8
DETAIL
  6
CONTINOUS
 62
     5
 10
-17.70912
 20
-17.70912
 11
-11.94336
 21
-17.70912
  0
LINE
  8
DETAIL
  6
CONTINOUS
 62
     5
 10
-17.70912
 20
-17.70912
 11
-17.70912
 21
-11.94336
  0
LINE
  8
DETAIL
  6
CONTINOUS
 62
     5
 10
-17.70912
 20
-19.35648
 11
-11.94336
 21
-19.35648
  0
LINE
  8
DETAIL
  6
CONTINOUS
 62
     5
 10
-11.94336
 20
-25.12224
 11
-11.94336
 21
-19.35648
  0
LINE
  8
DETAIL
  6
CONTINOUS
 62
     5
 10
-17.70912
 20
-25.12224
 11
-11.94336
 21
-25.12224
  0
LINE
  8
DETAIL
  6
CONTINOUS
 62
     5
 10
-17.70912
 20
-25.12224
 11
-17.70912
 21
-19.35648
  0
LINE
  8
DETAIL
  6
CONTINOUS
 62
     5
 10
-17.70912
 20
-26.7696
 11
-11.94336
 21
-26.7696
  0
LINE
  8
DETAIL
  6
CONTINOUS
 62
     5
 10
-11.94336
 20
-32.53536
 11
-11.94336
 21
-26.7696
  0
LINE
  8
DETAIL
  6
CONTINOUS
 62
     5
 10
-17.70912
 20
-32.53536
 11
-11.94336
 21
-32.53536
  0
LINE
  8
DETAIL
  6
CONTINOUS
 62
     5
 10
-17.70912
 20
-32.53536
 11
-17.70912
 21
-26.7696
  0
LINE
  8
DETAIL
  6
CONTINOUS
 62
     5
 10
-17.70912
 20
-34.18272
 11
-11.94336
 21
-34.18272
  0
LINE
  8
DETAIL
  6
CONTINOUS
 62
     5
 10
-11.94336
 20
-39.94848
 11
-11.94336
 21
-34.18272
  0
LINE
  8
DETAIL
  6
CONTINOUS
 62
     5
 10
-17.70912
 20
-39.94848
 11
-11.94336
 21
-39.94848
  0
LINE
  8
DETAIL
  6
CONTINOUS
 62
     5
 10
-17.70912
 20
-39.94848
 11
-17.70912
 21
-34.18272
  0
LINE
  8
DETAIL
  6
CONTINOUS
 62
     5
 10
-17.70912
 20
-41.59584
 11
-11.94336
 21
-41.59584
  0
LINE
  8
DETAIL
  6
CONTINOUS
 62
     5
 10
-11.94336
 20
-47.3616
 11
-11.94336
 21
-41.59584
  0
LINE
  8
DETAIL
  6
CONTINOUS
 62
     5
 10
-17.70912
 20
-47.3616
 11
-11.94336
 21
-47.3616
  0
LINE
  8
DETAIL
  6
CONTINOUS
 62
     5
 10
-17.70912
 20
-47.3616
 11
-17.70912
 21
-41.59584
  0
LINE
  8
DETAIL
  6
CONTINOUS
 62
     5
 10
-17.70912
 20
-49.00896
 11
-11.94336
 21
-49.00896
  0
LINE
  8
DETAIL
  6
CONTINOUS
 62
     5
 10
-11.94336
 20
-54.77472
 11
-11.94336
 21
-49.00896
  0
LINE
  8
DETAIL
  6
CONTINOUS
 62
     5
 10
-17.70912
 20
-54.77472
 11
-11.94336
 21
-54.77472
  0
LINE
  8
DETAIL
  6
CONTINOUS
 62
     5
 10
-17.70912
 20
-54.77472
 11
-17.70912
 21
-49.00896
  0
LINE
  8
DETAIL
  6
CONTINOUS
 62
     5
 10
-17.70912
 20
-56.42208
 11
-11.94336
 21
-56.42208
  0
LINE
  8
DETAIL
  6
CONTINOUS
 62
     5
 10
-11.94336
 20
-62.18784
 11
-11.94336
 21
-56.42208
  0
LINE
  8
DETAIL
  6
CONTINOUS
 62
     5
 10
-17.70912
 20
-62.18784
 11
-11.94336
 21
-62.18784
  0
LINE
  8
DETAIL
  6
CONTINOUS
 62
     5
 10
-17.70912
 20
-62.18784
 11
-17.70912
 21
-56.42208
  0
LINE
  8
DETAIL
  6
CONTINOUS
 62
     5
 10
-17.70912
 20
-63.8352
 11
-11.94336
 21
-63.8352
  0
LINE
  8
DETAIL
  6
CONTINOUS
 62
     5
 10
-11.94336
 20
-69.60096
 11
-11.94336
 21
-63.8352
  0
LINE
  8
DETAIL
  6
CONTINOUS
 62
     5
 10
-17.70912
 20
-69.60096
 11
-11.94336
 21
-69.60096
  0
LINE
  8
DETAIL
  6
CONTINOUS
 62
     5
 10
-17.70912
 20
-69.60096
 11
-17.70912
 21
-63.8352
  0
LINE
  8
DETAIL
  6
CONTINOUS
 62
     5
 10
-17.70912
 20
-71.24832
 11
-11.94336
 21
-71.24832
  0
LINE
  8
DETAIL
  6
CONTINOUS
 62
     5
 10
-11.94336
 20
-77.01408
 11
-11.94336
 21
-71.24832
  0
LINE
  8
DETAIL
  6
CONTINOUS
 62
     5
 10
-17.70912
 20
-77.01408
 11
-11.94336
 21
-77.01408
  0
LINE
  8
DETAIL
  6
CONTINOUS
 62
     5
 10
-17.70912
 20
-77.01408
 11
-17.70912
 21
-71.24832
  0
LINE
  8
DETAIL
  6
CONTINOUS
 62
     5
 10
-17.70912
 20
-78.66144
 11
-11.94336
 21
-78.66144
  0
LINE
  8
DETAIL
  6
CONTINOUS
 62
     5
 10
-11.94336
 20
-84.4272
 11
-11.94336
 21
-78.66144
  0
LINE
  8
DETAIL
  6
CONTINOUS
 62
     5
 10
-17.70912
 20
-84.4272
 11
-11.94336
 21
-84.4272
  0
LINE
  8
DETAIL
  6
CONTINOUS
 62
     5
 10
-17.70912
 20
-84.4272
 11
-17.70912
 21
-78.66144
  0
LINE
  8
DETAIL
  6
CONTINOUS
 62
     5
 10
-17.70912
 20
-86.07456
 11
-11.94336
 21
-86.07456
  0
LINE
  8
DETAIL
  6
CONTINOUS
 62
     5
 10
-11.94336
 20
-91.84032
 11
-11.94336
 21
-86.07456
  0
LINE
  8
DETAIL
  6
CONTINOUS
 62
     5
 10
-17.70912
 20
-91.84032
 11
-11.94336
 21
-91.84032
  0
LINE
  8
DETAIL
  6
CONTINOUS
 62
     5
 10
-17.70912
 20
-91.84032
 11
-17.70912
 21
-86.07456
  0
LINE
  8
DETAIL
  6
CONTINOUS
 62
     5
 10
-17.70912
 20
-93.48768
 11
-11.94336
 21
-93.48768
  0
LINE
  8
DETAIL
  6
CONTINOUS
 62
     5
 10
-11.94336
 20
-99.25344
 11
-11.94336
 21
-93.48768
  0
LINE
  8
DETAIL
  6
CONTINOUS
 62
     5
 10
-17.70912
 20
-99.25344
 11
-11.94336
 21
-99.25344
  0
LINE
  8
DETAIL
  6
CONTINOUS
 62
     5
 10
-17.70912
 20
-99.25344
 11
-17.70912
 21
-93.48768
  0
LINE
  8
DETAIL
  6
CONTINOUS
 62
     5
 10
-25.12224
 20
99.25344
 11
-19.35648
 21
99.25344
  0
LINE
  8
DETAIL
  6
CONTINOUS
 62
     5
 10
-19.35648
 20
93.48768
 11
-19.35648
 21
99.25344
  0
LINE
  8
DETAIL
  6
CONTINOUS
 62
     5
 10
-25.12224
 20
93.48768
 11
-19.35648
 21
93.48768
  0
LINE
  8
DETAIL
  6
CONTINOUS
 62
     5
 10
-25.12224
 20
93.48768
 11
-25.12224
 21
99.25344
  0
LINE
  8
DETAIL
  6
CONTINOUS
 62
     5
 10
-25.12224
 20
91.84032
 11
-19.35648
 21
91.84032
  0
LINE
  8
DETAIL
  6
CONTINOUS
 62
     5
 10
-19.35648
 20
86.07456
 11
-19.35648
 21
91.84032
  0
LINE
  8
DETAIL
  6
CONTINOUS
 62
     5
 10
-25.12224
 20
86.07456
 11
-19.35648
 21
86.07456
  0
LINE
  8
DETAIL
  6
CONTINOUS
 62
     5
 10
-25.12224
 20
86.07456
 11
-25.12224
 21
91.84032
  0
LINE
  8
DETAIL
  6
CONTINOUS
 62
     5
 10
-25.12224
 20
84.4272
 11
-19.35648
 21
84.4272
  0
LINE
  8
DETAIL
  6
CONTINOUS
 62
     5
 10
-19.35648
 20
78.66144
 11
-19.35648
 21
84.4272
  0
LINE
  8
DETAIL
  6
CONTINOUS
 62
     5
 10
-25.12224
 20
78.66144
 11
-19.35648
 21
78.66144
  0
LINE
  8
DETAIL
  6
CONTINOUS
 62
     5
 10
-25.12224
 20
78.66144
 11
-25.12224
 21
84.4272
  0
LINE
  8
DETAIL
  6
CONTINOUS
 62
     5
 10
-25.12224
 20
77.01408
 11
-19.35648
 21
77.01408
  0
LINE
  8
DETAIL
  6
CONTINOUS
 62
     5
 10
-19.35648
 20
71.24832
 11
-19.35648
 21
77.01408
  0
LINE
  8
DETAIL
  6
CONTINOUS
 62
     5
 10
-25.12224
 20
71.24832
 11
-19.35648
 21
71.24832
  0
LINE
  8
DETAIL
  6
CONTINOUS
 62
     5
 10
-25.12224
 20
71.24832
 11
-25.12224
 21
77.01408
  0
LINE
  8
DETAIL
  6
CONTINOUS
 62
     5
 10
-25.12224
 20
69.60096
 11
-19.35648
 21
69.60096
  0
LINE
  8
DETAIL
  6
CONTINOUS
 62
     5
 10
-19.35648
 20
63.8352
 11
-19.35648
 21
69.60096
  0
LINE
  8
DETAIL
  6
CONTINOUS
 62
     5
 10
-25.12224
 20
63.8352
 11
-19.35648
 21
63.8352
  0
LINE
  8
DETAIL
  6
CONTINOUS
 62
     5
 10
-25.12224
 20
63.8352
 11
-25.12224
 21
69.60096
  0
LINE
  8
DETAIL
  6
CONTINOUS
 62
     5
 10
-25.12224
 20
62.18784
 11
-19.35648
 21
62.18784
  0
LINE
  8
DETAIL
  6
CONTINOUS
 62
     5
 10
-19.35648
 20
56.42208
 11
-19.35648
 21
62.18784
  0
LINE
  8
DETAIL
  6
CONTINOUS
 62
     5
 10
-25.12224
 20
56.42208
 11
-19.35648
 21
56.42208
  0
LINE
  8
DETAIL
  6
CONTINOUS
 62
     5
 10
-25.12224
 20
56.42208
 11
-25.12224
 21
62.18784
  0
LINE
  8
DETAIL
  6
CONTINOUS
 62
     5
 10
-25.12224
 20
54.77472
 11
-19.35648
 21
54.77472
  0
LINE
  8
DETAIL
  6
CONTINOUS
 62
     5
 10
-19.35648
 20
49.00896
 11
-19.35648
 21
54.77472
  0
LINE
  8
DETAIL
  6
CONTINOUS
 62
     5
 10
-25.12224
 20
49.00896
 11
-19.35648
 21
49.00896
  0
LINE
  8
DETAIL
  6
CONTINOUS
 62
     5
 10
-25.12224
 20
49.00896
 11
-25.12224
 21
54.77472
  0
LINE
  8
DETAIL
  6
CONTINOUS
 62
     5
 10
-25.12224
 20
47.3616
 11
-19.35648
 21
47.3616
  0
LINE
  8
DETAIL
  6
CONTINOUS
 62
     5
 10
-19.35648
 20
41.59584
 11
-19.35648
 21
47.3616
  0
LINE
  8
DETAIL
  6
CONTINOUS
 62
     5
 10
-25.12224
 20
41.59584
 11
-19.35648
 21
41.59584
  0
LINE
  8
DETAIL
  6
CONTINOUS
 62
     5
 10
-25.12224
 20
41.59584
 11
-25.12224
 21
47.3616
  0
LINE
  8
DETAIL
  6
CONTINOUS
 62
     5
 10
-25.12224
 20
39.94848
 11
-19.35648
 21
39.94848
  0
LINE
  8
DETAIL
  6
CONTINOUS
 62
     5
 10
-19.35648
 20
34.18272
 11
-19.35648
 21
39.94848
  0
LINE
  8
DETAIL
  6
CONTINOUS
 62
     5
 10
-25.12224
 20
34.18272
 11
-19.35648
 21
34.18272
  0
LINE
  8
DETAIL
  6
CONTINOUS
 62
     5
 10
-25.12224
 20
34.18272
 11
-25.12224
 21
39.94848
  0
LINE
  8
DETAIL
  6
CONTINOUS
 62
     5
 10
-25.12224
 20
32.53536
 11
-19.35648
 21
32.53536
  0
LINE
  8
DETAIL
  6
CONTINOUS
 62
     5
 10
-19.35648
 20
26.7696
 11
-19.35648
 21
32.53536
  0
LINE
  8
DETAIL
  6
CONTINOUS
 62
     5
 10
-25.12224
 20
26.7696
 11
-19.35648
 21
26.7696
  0
LINE
  8
DETAIL
  6
CONTINOUS
 62
     5
 10
-25.12224
 20
26.7696
 11
-25.12224
 21
32.53536
  0
LINE
  8
DETAIL
  6
CONTINOUS
 62
     5
 10
-25.12224
 20
25.12224
 11
-19.35648
 21
25.12224
  0
LINE
  8
DETAIL
  6
CONTINOUS
 62
     5
 10
-19.35648
 20
19.35648
 11
-19.35648
 21
25.12224
  0
LINE
  8
DETAIL
  6
CONTINOUS
 62
     5
 10
-25.12224
 20
19.35648
 11
-19.35648
 21
19.35648
  0
LINE
  8
DETAIL
  6
CONTINOUS
 62
     5
 10
-25.12224
 20
19.35648
 11
-25.12224
 21
25.12224
  0
LINE
  8
DETAIL
  6
CONTINOUS
 62
     5
 10
-25.12224
 20
17.70912
 11
-19.35648
 21
17.70912
  0
LINE
  8
DETAIL
  6
CONTINOUS
 62
     5
 10
-19.35648
 20
11.94336
 11
-19.35648
 21
17.70912
  0
LINE
  8
DETAIL
  6
CONTINOUS
 62
     5
 10
-25.12224
 20
11.94336
 11
-19.35648
 21
11.94336
  0
LINE
  8
DETAIL
  6
CONTINOUS
 62
     5
 10
-25.12224
 20
11.94336
 11
-25.12224
 21
17.70912
  0
LINE
  8
DETAIL
  6
CONTINOUS
 62
     5
 10
-25.12224
 20
10.296
 11
-19.35648
 21
10.296
  0
LINE
  8
DETAIL
  6
CONTINOUS
 62
     5
 10
-19.35648
 20
4.53024
 11
-19.35648
 21
10.296
  0
LINE
  8
DETAIL
  6
CONTINOUS
 62
     5
 10
-25.12224
 20
4.53024
 11
-19.35648
 21
4.53024
  0
LINE
  8
DETAIL
  6
CONTINOUS
 62
     5
 10
-25.12224
 20
4.53024
 11
-25.12224
 21
10.296
  0
LINE
  8
DETAIL
  6
CONTINOUS
 62
     5
 10
-25.12224
 20
2.88288
 11
-19.35648
 21
2.88288
  0
LINE
  8
DETAIL
  6
CONTINOUS
 62
     5
 10
-19.35648
 20
-2.88288
 11
-19.35648
 21
2.88288
  0
LINE
  8
DETAIL
  6
CONTINOUS
 62
     5
 10
-25.12224
 20
-2.88288
 11
-19.35648
 21
-2.88288
  0
LINE
  8
DETAIL
  6
CONTINOUS
 62
     5
 10
-25.12224
 20
-2.88288
 11
-25.12224
 21
2.88288
  0
LINE
  8
DETAIL
  6
CONTINOUS
 62
     5
 10
-25.12224
 20
-4.53024
 11
-19.35648
 21
-4.53024
  0
LINE
  8
DETAIL
  6
CONTINOUS
 62
     5
 10
-19.35648
 20
-10.296
 11
-19.35648
 21
-4.53024
  0
LINE
  8
DETAIL
  6
CONTINOUS
 62
     5
 10
-25.12224
 20
-10.296
 11
-19.35648
 21
-10.296
  0
LINE
  8
DETAIL
  6
CONTINOUS
 62
     5
 10
-25.12224
 20
-10.296
 11
-25.12224
 21
-4.53024
  0
LINE
  8
DETAIL
  6
CONTINOUS
 62
     5
 10
-25.12224
 20
-11.94336
 11
-19.35648
 21
-11.94336
  0
LINE
  8
DETAIL
  6
CONTINOUS
 62
     5
 10
-19.35648
 20
-17.70912
 11
-19.35648
 21
-11.94336
  0
LINE
  8
DETAIL
  6
CONTINOUS
 62
     5
 10
-25.12224
 20
-17.70912
 11
-19.35648
 21
-17.70912
  0
LINE
  8
DETAIL
  6
CONTINOUS
 62
     5
 10
-25.12224
 20
-17.70912
 11
-25.12224
 21
-11.94336
  0
LINE
  8
DETAIL
  6
CONTINOUS
 62
     5
 10
-25.12224
 20
-19.35648
 11
-19.35648
 21
-19.35648
  0
LINE
  8
DETAIL
  6
CONTINOUS
 62
     5
 10
-19.35648
 20
-25.12224
 11
-19.35648
 21
-19.35648
  0
LINE
  8
DETAIL
  6
CONTINOUS
 62
     5
 10
-25.12224
 20
-25.12224
 11
-19.35648
 21
-25.12224
  0
LINE
  8
DETAIL
  6
CONTINOUS
 62
     5
 10
-25.12224
 20
-25.12224
 11
-25.12224
 21
-19.35648
  0
LINE
  8
DETAIL
  6
CONTINOUS
 62
     5
 10
-25.12224
 20
-26.7696
 11
-19.35648
 21
-26.7696
  0
LINE
  8
DETAIL
  6
CONTINOUS
 62
     5
 10
-19.35648
 20
-32.53536
 11
-19.35648
 21
-26.7696
  0
LINE
  8
DETAIL
  6
CONTINOUS
 62
     5
 10
-25.12224
 20
-32.53536
 11
-19.35648
 21
-32.53536
  0
LINE
  8
DETAIL
  6
CONTINOUS
 62
     5
 10
-25.12224
 20
-32.53536
 11
-25.12224
 21
-26.7696
  0
LINE
  8
DETAIL
  6
CONTINOUS
 62
     5
 10
-25.12224
 20
-34.18272
 11
-19.35648
 21
-34.18272
  0
LINE
  8
DETAIL
  6
CONTINOUS
 62
     5
 10
-19.35648
 20
-39.94848
 11
-19.35648
 21
-34.18272
  0
LINE
  8
DETAIL
  6
CONTINOUS
 62
     5
 10
-25.12224
 20
-39.94848
 11
-19.35648
 21
-39.94848
  0
LINE
  8
DETAIL
  6
CONTINOUS
 62
     5
 10
-25.12224
 20
-39.94848
 11
-25.12224
 21
-34.18272
  0
LINE
  8
DETAIL
  6
CONTINOUS
 62
     5
 10
-25.12224
 20
-41.59584
 11
-19.35648
 21
-41.59584
  0
LINE
  8
DETAIL
  6
CONTINOUS
 62
     5
 10
-19.35648
 20
-47.3616
 11
-19.35648
 21
-41.59584
  0
LINE
  8
DETAIL
  6
CONTINOUS
 62
     5
 10
-25.12224
 20
-47.3616
 11
-19.35648
 21
-47.3616
  0
LINE
  8
DETAIL
  6
CONTINOUS
 62
     5
 10
-25.12224
 20
-47.3616
 11
-25.12224
 21
-41.59584
  0
LINE
  8
DETAIL
  6
CONTINOUS
 62
     5
 10
-25.12224
 20
-49.00896
 11
-19.35648
 21
-49.00896
  0
LINE
  8
DETAIL
  6
CONTINOUS
 62
     5
 10
-19.35648
 20
-54.77472
 11
-19.35648
 21
-49.00896
  0
LINE
  8
DETAIL
  6
CONTINOUS
 62
     5
 10
-25.12224
 20
-54.77472
 11
-19.35648
 21
-54.77472
  0
LINE
  8
DETAIL
  6
CONTINOUS
 62
     5
 10
-25.12224
 20
-54.77472
 11
-25.12224
 21
-49.00896
  0
LINE
  8
DETAIL
  6
CONTINOUS
 62
     5
 10
-25.12224
 20
-56.42208
 11
-19.35648
 21
-56.42208
  0
LINE
  8
DETAIL
  6
CONTINOUS
 62
     5
 10
-19.35648
 20
-62.18784
 11
-19.35648
 21
-56.42208
  0
LINE
  8
DETAIL
  6
CONTINOUS
 62
     5
 10
-25.12224
 20
-62.18784
 11
-19.35648
 21
-62.18784
  0
LINE
  8
DETAIL
  6
CONTINOUS
 62
     5
 10
-25.12224
 20
-62.18784
 11
-25.12224
 21
-56.42208
  0
LINE
  8
DETAIL
  6
CONTINOUS
 62
     5
 10
-25.12224
 20
-63.8352
 11
-19.35648
 21
-63.8352
  0
LINE
  8
DETAIL
  6
CONTINOUS
 62
     5
 10
-19.35648
 20
-69.60096
 11
-19.35648
 21
-63.8352
  0
LINE
  8
DETAIL
  6
CONTINOUS
 62
     5
 10
-25.12224
 20
-69.60096
 11
-19.35648
 21
-69.60096
  0
LINE
  8
DETAIL
  6
CONTINOUS
 62
     5
 10
-25.12224
 20
-69.60096
 11
-25.12224
 21
-63.8352
  0
LINE
  8
DETAIL
  6
CONTINOUS
 62
     5
 10
-25.12224
 20
-71.24832
 11
-19.35648
 21
-71.24832
  0
LINE
  8
DETAIL
  6
CONTINOUS
 62
     5
 10
-19.35648
 20
-77.01408
 11
-19.35648
 21
-71.24832
  0
LINE
  8
DETAIL
  6
CONTINOUS
 62
     5
 10
-25.12224
 20
-77.01408
 11
-19.35648
 21
-77.01408
  0
LINE
  8
DETAIL
  6
CONTINOUS
 62
     5
 10
-25.12224
 20
-77.01408
 11
-25.12224
 21
-71.24832
  0
LINE
  8
DETAIL
  6
CONTINOUS
 62
     5
 10
-25.12224
 20
-78.66144
 11
-19.35648
 21
-78.66144
  0
LINE
  8
DETAIL
  6
CONTINOUS
 62
     5
 10
-19.35648
 20
-84.4272
 11
-19.35648
 21
-78.66144
  0
LINE
  8
DETAIL
  6
CONTINOUS
 62
     5
 10
-25.12224
 20
-84.4272
 11
-19.35648
 21
-84.4272
  0
LINE
  8
DETAIL
  6
CONTINOUS
 62
     5
 10
-25.12224
 20
-84.4272
 11
-25.12224
 21
-78.66144
  0
LINE
  8
DETAIL
  6
CONTINOUS
 62
     5
 10
-25.12224
 20
-86.07456
 11
-19.35648
 21
-86.07456
  0
LINE
  8
DETAIL
  6
CONTINOUS
 62
     5
 10
-19.35648
 20
-91.84032
 11
-19.35648
 21
-86.07456
  0
LINE
  8
DETAIL
  6
CONTINOUS
 62
     5
 10
-25.12224
 20
-91.84032
 11
-19.35648
 21
-91.84032
  0
LINE
  8
DETAIL
  6
CONTINOUS
 62
     5
 10
-25.12224
 20
-91.84032
 11
-25.12224
 21
-86.07456
  0
LINE
  8
DETAIL
  6
CONTINOUS
 62
     5
 10
-25.12224
 20
-93.48768
 11
-19.35648
 21
-93.48768
  0
LINE
  8
DETAIL
  6
CONTINOUS
 62
     5
 10
-19.35648
 20
-99.25344
 11
-19.35648
 21
-93.48768
  0
LINE
  8
DETAIL
  6
CONTINOUS
 62
     5
 10
-25.12224
 20
-99.25344
 11
-19.35648
 21
-99.25344
  0
LINE
  8
DETAIL
  6
CONTINOUS
 62
     5
 10
-25.12224
 20
-99.25344
 11
-25.12224
 21
-93.48768
  0
LINE
  8
DETAIL
  6
CONTINOUS
 62
     5
 10
-32.53536
 20
99.25344
 11
-26.7696
 21
99.25344
  0
LINE
  8
DETAIL
  6
CONTINOUS
 62
     5
 10
-26.7696
 20
93.48768
 11
-26.7696
 21
99.25344
  0
LINE
  8
DETAIL
  6
CONTINOUS
 62
     5
 10
-32.53536
 20
93.48768
 11
-26.7696
 21
93.48768
  0
LINE
  8
DETAIL
  6
CONTINOUS
 62
     5
 10
-32.53536
 20
93.48768
 11
-32.53536
 21
99.25344
  0
LINE
  8
DETAIL
  6
CONTINOUS
 62
     5
 10
-32.53536
 20
91.84032
 11
-26.7696
 21
91.84032
  0
LINE
  8
DETAIL
  6
CONTINOUS
 62
     5
 10
-26.7696
 20
86.07456
 11
-26.7696
 21
91.84032
  0
LINE
  8
DETAIL
  6
CONTINOUS
 62
     5
 10
-32.53536
 20
86.07456
 11
-26.7696
 21
86.07456
  0
LINE
  8
DETAIL
  6
CONTINOUS
 62
     5
 10
-32.53536
 20
86.07456
 11
-32.53536
 21
91.84032
  0
LINE
  8
DETAIL
  6
CONTINOUS
 62
     5
 10
-32.53536
 20
84.4272
 11
-26.7696
 21
84.4272
  0
LINE
  8
DETAIL
  6
CONTINOUS
 62
     5
 10
-26.7696
 20
78.66144
 11
-26.7696
 21
84.4272
  0
LINE
  8
DETAIL
  6
CONTINOUS
 62
     5
 10
-32.53536
 20
78.66144
 11
-26.7696
 21
78.66144
  0
LINE
  8
DETAIL
  6
CONTINOUS
 62
     5
 10
-32.53536
 20
78.66144
 11
-32.53536
 21
84.4272
  0
LINE
  8
DETAIL
  6
CONTINOUS
 62
     5
 10
-32.53536
 20
77.01408
 11
-26.7696
 21
77.01408
  0
LINE
  8
DETAIL
  6
CONTINOUS
 62
     5
 10
-26.7696
 20
71.24832
 11
-26.7696
 21
77.01408
  0
LINE
  8
DETAIL
  6
CONTINOUS
 62
     5
 10
-32.53536
 20
71.24832
 11
-26.7696
 21
71.24832
  0
LINE
  8
DETAIL
  6
CONTINOUS
 62
     5
 10
-32.53536
 20
71.24832
 11
-32.53536
 21
77.01408
  0
LINE
  8
DETAIL
  6
CONTINOUS
 62
     5
 10
-32.53536
 20
69.60096
 11
-26.7696
 21
69.60096
  0
LINE
  8
DETAIL
  6
CONTINOUS
 62
     5
 10
-26.7696
 20
63.8352
 11
-26.7696
 21
69.60096
  0
LINE
  8
DETAIL
  6
CONTINOUS
 62
     5
 10
-32.53536
 20
63.8352
 11
-26.7696
 21
63.8352
  0
LINE
  8
DETAIL
  6
CONTINOUS
 62
     5
 10
-32.53536
 20
63.8352
 11
-32.53536
 21
69.60096
  0
LINE
  8
DETAIL
  6
CONTINOUS
 62
     5
 10
-32.53536
 20
62.18784
 11
-26.7696
 21
62.18784
  0
LINE
  8
DETAIL
  6
CONTINOUS
 62
     5
 10
-26.7696
 20
56.42208
 11
-26.7696
 21
62.18784
  0
LINE
  8
DETAIL
  6
CONTINOUS
 62
     5
 10
-32.53536
 20
56.42208
 11
-26.7696
 21
56.42208
  0
LINE
  8
DETAIL
  6
CONTINOUS
 62
     5
 10
-32.53536
 20
56.42208
 11
-32.53536
 21
62.18784
  0
LINE
  8
DETAIL
  6
CONTINOUS
 62
     5
 10
-32.53536
 20
54.77472
 11
-26.7696
 21
54.77472
  0
LINE
  8
DETAIL
  6
CONTINOUS
 62
     5
 10
-26.7696
 20
49.00896
 11
-26.7696
 21
54.77472
  0
LINE
  8
DETAIL
  6
CONTINOUS
 62
     5
 10
-32.53536
 20
49.00896
 11
-26.7696
 21
49.00896
  0
LINE
  8
DETAIL
  6
CONTINOUS
 62
     5
 10
-32.53536
 20
49.00896
 11
-32.53536
 21
54.77472
  0
LINE
  8
DETAIL
  6
CONTINOUS
 62
     5
 10
-32.53536
 20
47.3616
 11
-26.7696
 21
47.3616
  0
LINE
  8
DETAIL
  6
CONTINOUS
 62
     5
 10
-26.7696
 20
41.59584
 11
-26.7696
 21
47.3616
  0
LINE
  8
DETAIL
  6
CONTINOUS
 62
     5
 10
-32.53536
 20
41.59584
 11
-26.7696
 21
41.59584
  0
LINE
  8
DETAIL
  6
CONTINOUS
 62
     5
 10
-32.53536
 20
41.59584
 11
-32.53536
 21
47.3616
  0
LINE
  8
DETAIL
  6
CONTINOUS
 62
     5
 10
-32.53536
 20
39.94848
 11
-26.7696
 21
39.94848
  0
LINE
  8
DETAIL
  6
CONTINOUS
 62
     5
 10
-26.7696
 20
34.18272
 11
-26.7696
 21
39.94848
  0
LINE
  8
DETAIL
  6
CONTINOUS
 62
     5
 10
-32.53536
 20
34.18272
 11
-26.7696
 21
34.18272
  0
LINE
  8
DETAIL
  6
CONTINOUS
 62
     5
 10
-32.53536
 20
34.18272
 11
-32.53536
 21
39.94848
  0
LINE
  8
DETAIL
  6
CONTINOUS
 62
     5
 10
-32.53536
 20
32.53536
 11
-26.7696
 21
32.53536
  0
LINE
  8
DETAIL
  6
CONTINOUS
 62
     5
 10
-26.7696
 20
26.7696
 11
-26.7696
 21
32.53536
  0
LINE
  8
DETAIL
  6
CONTINOUS
 62
     5
 10
-32.53536
 20
26.7696
 11
-26.7696
 21
26.7696
  0
LINE
  8
DETAIL
  6
CONTINOUS
 62
     5
 10
-32.53536
 20
26.7696
 11
-32.53536
 21
32.53536
  0
LINE
  8
DETAIL
  6
CONTINOUS
 62
     5
 10
-32.53536
 20
25.12224
 11
-26.7696
 21
25.12224
  0
LINE
  8
DETAIL
  6
CONTINOUS
 62
     5
 10
-26.7696
 20
19.35648
 11
-26.7696
 21
25.12224
  0
LINE
  8
DETAIL
  6
CONTINOUS
 62
     5
 10
-32.53536
 20
19.35648
 11
-26.7696
 21
19.35648
  0
LINE
  8
DETAIL
  6
CONTINOUS
 62
     5
 10
-32.53536
 20
19.35648
 11
-32.53536
 21
25.12224
  0
LINE
  8
DETAIL
  6
CONTINOUS
 62
     5
 10
-32.53536
 20
17.70912
 11
-26.7696
 21
17.70912
  0
LINE
  8
DETAIL
  6
CONTINOUS
 62
     5
 10
-26.7696
 20
11.94336
 11
-26.7696
 21
17.70912
  0
LINE
  8
DETAIL
  6
CONTINOUS
 62
     5
 10
-32.53536
 20
11.94336
 11
-26.7696
 21
11.94336
  0
LINE
  8
DETAIL
  6
CONTINOUS
 62
     5
 10
-32.53536
 20
11.94336
 11
-32.53536
 21
17.70912
  0
LINE
  8
DETAIL
  6
CONTINOUS
 62
     5
 10
-32.53536
 20
10.296
 11
-26.7696
 21
10.296
  0
LINE
  8
DETAIL
  6
CONTINOUS
 62
     5
 10
-26.7696
 20
4.53024
 11
-26.7696
 21
10.296
  0
LINE
  8
DETAIL
  6
CONTINOUS
 62
     5
 10
-32.53536
 20
4.53024
 11
-26.7696
 21
4.53024
  0
LINE
  8
DETAIL
  6
CONTINOUS
 62
     5
 10
-32.53536
 20
4.53024
 11
-32.53536
 21
10.296
  0
LINE
  8
DETAIL
  6
CONTINOUS
 62
     5
 10
-32.53536
 20
2.88288
 11
-26.7696
 21
2.88288
  0
LINE
  8
DETAIL
  6
CONTINOUS
 62
     5
 10
-26.7696
 20
-2.88288
 11
-26.7696
 21
2.88288
  0
LINE
  8
DETAIL
  6
CONTINOUS
 62
     5
 10
-32.53536
 20
-2.88288
 11
-26.7696
 21
-2.88288
  0
LINE
  8
DETAIL
  6
CONTINOUS
 62
     5
 10
-32.53536
 20
-2.88288
 11
-32.53536
 21
2.88288
  0
LINE
  8
DETAIL
  6
CONTINOUS
 62
     5
 10
-32.53536
 20
-4.53024
 11
-26.7696
 21
-4.53024
  0
LINE
  8
DETAIL
  6
CONTINOUS
 62
     5
 10
-26.7696
 20
-10.296
 11
-26.7696
 21
-4.53024
  0
LINE
  8
DETAIL
  6
CONTINOUS
 62
     5
 10
-32.53536
 20
-10.296
 11
-26.7696
 21
-10.296
  0
LINE
  8
DETAIL
  6
CONTINOUS
 62
     5
 10
-32.53536
 20
-10.296
 11
-32.53536
 21
-4.53024
  0
LINE
  8
DETAIL
  6
CONTINOUS
 62
     5
 10
-32.53536
 20
-11.94336
 11
-26.7696
 21
-11.94336
  0
LINE
  8
DETAIL
  6
CONTINOUS
 62
     5
 10
-26.7696
 20
-17.70912
 11
-26.7696
 21
-11.94336
  0
LINE
  8
DETAIL
  6
CONTINOUS
 62
     5
 10
-32.53536
 20
-17.70912
 11
-26.7696
 21
-17.70912
  0
LINE
  8
DETAIL
  6
CONTINOUS
 62
     5
 10
-32.53536
 20
-17.70912
 11
-32.53536
 21
-11.94336
  0
LINE
  8
DETAIL
  6
CONTINOUS
 62
     5
 10
-32.53536
 20
-19.35648
 11
-26.7696
 21
-19.35648
  0
LINE
  8
DETAIL
  6
CONTINOUS
 62
     5
 10
-26.7696
 20
-25.12224
 11
-26.7696
 21
-19.35648
  0
LINE
  8
DETAIL
  6
CONTINOUS
 62
     5
 10
-32.53536
 20
-25.12224
 11
-26.7696
 21
-25.12224
  0
LINE
  8
DETAIL
  6
CONTINOUS
 62
     5
 10
-32.53536
 20
-25.12224
 11
-32.53536
 21
-19.35648
  0
LINE
  8
DETAIL
  6
CONTINOUS
 62
     5
 10
-32.53536
 20
-26.7696
 11
-26.7696
 21
-26.7696
  0
LINE
  8
DETAIL
  6
CONTINOUS
 62
     5
 10
-26.7696
 20
-32.53536
 11
-26.7696
 21
-26.7696
  0
LINE
  8
DETAIL
  6
CONTINOUS
 62
     5
 10
-32.53536
 20
-32.53536
 11
-26.7696
 21
-32.53536
  0
LINE
  8
DETAIL
  6
CONTINOUS
 62
     5
 10
-32.53536
 20
-32.53536
 11
-32.53536
 21
-26.7696
  0
LINE
  8
DETAIL
  6
CONTINOUS
 62
     5
 10
-32.53536
 20
-34.18272
 11
-26.7696
 21
-34.18272
  0
LINE
  8
DETAIL
  6
CONTINOUS
 62
     5
 10
-26.7696
 20
-39.94848
 11
-26.7696
 21
-34.18272
  0
LINE
  8
DETAIL
  6
CONTINOUS
 62
     5
 10
-32.53536
 20
-39.94848
 11
-26.7696
 21
-39.94848
  0
LINE
  8
DETAIL
  6
CONTINOUS
 62
     5
 10
-32.53536
 20
-39.94848
 11
-32.53536
 21
-34.18272
  0
LINE
  8
DETAIL
  6
CONTINOUS
 62
     5
 10
-32.53536
 20
-41.59584
 11
-26.7696
 21
-41.59584
  0
LINE
  8
DETAIL
  6
CONTINOUS
 62
     5
 10
-26.7696
 20
-47.3616
 11
-26.7696
 21
-41.59584
  0
LINE
  8
DETAIL
  6
CONTINOUS
 62
     5
 10
-32.53536
 20
-47.3616
 11
-26.7696
 21
-47.3616
  0
LINE
  8
DETAIL
  6
CONTINOUS
 62
     5
 10
-32.53536
 20
-47.3616
 11
-32.53536
 21
-41.59584
  0
LINE
  8
DETAIL
  6
CONTINOUS
 62
     5
 10
-32.53536
 20
-49.00896
 11
-26.7696
 21
-49.00896
  0
LINE
  8
DETAIL
  6
CONTINOUS
 62
     5
 10
-26.7696
 20
-54.77472
 11
-26.7696
 21
-49.00896
  0
LINE
  8
DETAIL
  6
CONTINOUS
 62
     5
 10
-32.53536
 20
-54.77472
 11
-26.7696
 21
-54.77472
  0
LINE
  8
DETAIL
  6
CONTINOUS
 62
     5
 10
-32.53536
 20
-54.77472
 11
-32.53536
 21
-49.00896
  0
LINE
  8
DETAIL
  6
CONTINOUS
 62
     5
 10
-32.53536
 20
-56.42208
 11
-26.7696
 21
-56.42208
  0
LINE
  8
DETAIL
  6
CONTINOUS
 62
     5
 10
-26.7696
 20
-62.18784
 11
-26.7696
 21
-56.42208
  0
LINE
  8
DETAIL
  6
CONTINOUS
 62
     5
 10
-32.53536
 20
-62.18784
 11
-26.7696
 21
-62.18784
  0
LINE
  8
DETAIL
  6
CONTINOUS
 62
     5
 10
-32.53536
 20
-62.18784
 11
-32.53536
 21
-56.42208
  0
LINE
  8
DETAIL
  6
CONTINOUS
 62
     5
 10
-32.53536
 20
-63.8352
 11
-26.7696
 21
-63.8352
  0
LINE
  8
DETAIL
  6
CONTINOUS
 62
     5
 10
-26.7696
 20
-69.60096
 11
-26.7696
 21
-63.8352
  0
LINE
  8
DETAIL
  6
CONTINOUS
 62
     5
 10
-32.53536
 20
-69.60096
 11
-26.7696
 21
-69.60096
  0
LINE
  8
DETAIL
  6
CONTINOUS
 62
     5
 10
-32.53536
 20
-69.60096
 11
-32.53536
 21
-63.8352
  0
LINE
  8
DETAIL
  6
CONTINOUS
 62
     5
 10
-32.53536
 20
-71.24832
 11
-26.7696
 21
-71.24832
  0
LINE
  8
DETAIL
  6
CONTINOUS
 62
     5
 10
-26.7696
 20
-77.01408
 11
-26.7696
 21
-71.24832
  0
LINE
  8
DETAIL
  6
CONTINOUS
 62
     5
 10
-32.53536
 20
-77.01408
 11
-26.7696
 21
-77.01408
  0
LINE
  8
DETAIL
  6
CONTINOUS
 62
     5
 10
-32.53536
 20
-77.01408
 11
-32.53536
 21
-71.24832
  0
LINE
  8
DETAIL
  6
CONTINOUS
 62
     5
 10
-32.53536
 20
-78.66144
 11
-26.7696
 21
-78.66144
  0
LINE
  8
DETAIL
  6
CONTINOUS
 62
     5
 10
-26.7696
 20
-84.4272
 11
-26.7696
 21
-78.66144
  0
LINE
  8
DETAIL
  6
CONTINOUS
 62
     5
 10
-32.53536
 20
-84.4272
 11
-26.7696
 21
-84.4272
  0
LINE
  8
DETAIL
  6
CONTINOUS
 62
     5
 10
-32.53536
 20
-84.4272
 11
-32.53536
 21
-78.66144
  0
LINE
  8
DETAIL
  6
CONTINOUS
 62
     5
 10
-32.53536
 20
-86.07456
 11
-26.7696
 21
-86.07456
  0
LINE
  8
DETAIL
  6
CONTINOUS
 62
     5
 10
-26.7696
 20
-91.84032
 11
-26.7696
 21
-86.07456
  0
LINE
  8
DETAIL
  6
CONTINOUS
 62
     5
 10
-32.53536
 20
-91.84032
 11
-26.7696
 21
-91.84032
  0
LINE
  8
DETAIL
  6
CONTINOUS
 62
     5
 10
-32.53536
 20
-91.84032
 11
-32.53536
 21
-86.07456
  0
LINE
  8
DETAIL
  6
CONTINOUS
 62
     5
 10
-32.53536
 20
-93.48768
 11
-26.7696
 21
-93.48768
  0
LINE
  8
DETAIL
  6
CONTINOUS
 62
     5
 10
-26.7696
 20
-99.25344
 11
-26.7696
 21
-93.48768
  0
LINE
  8
DETAIL
  6
CONTINOUS
 62
     5
 10
-32.53536
 20
-99.25344
 11
-26.7696
 21
-99.25344
  0
LINE
  8
DETAIL
  6
CONTINOUS
 62
     5
 10
-32.53536
 20
-99.25344
 11
-32.53536
 21
-93.48768
  0
LINE
  8
DETAIL
  6
CONTINOUS
 62
     5
 10
-39.94848
 20
99.25344
 11
-34.18272
 21
99.25344
  0
LINE
  8
DETAIL
  6
CONTINOUS
 62
     5
 10
-34.18272
 20
93.48768
 11
-34.18272
 21
99.25344
  0
LINE
  8
DETAIL
  6
CONTINOUS
 62
     5
 10
-39.94848
 20
93.48768
 11
-34.18272
 21
93.48768
  0
LINE
  8
DETAIL
  6
CONTINOUS
 62
     5
 10
-39.94848
 20
93.48768
 11
-39.94848
 21
99.25344
  0
LINE
  8
DETAIL
  6
CONTINOUS
 62
     5
 10
-39.94848
 20
91.84032
 11
-34.18272
 21
91.84032
  0
LINE
  8
DETAIL
  6
CONTINOUS
 62
     5
 10
-34.18272
 20
86.07456
 11
-34.18272
 21
91.84032
  0
LINE
  8
DETAIL
  6
CONTINOUS
 62
     5
 10
-39.94848
 20
86.07456
 11
-34.18272
 21
86.07456
  0
LINE
  8
DETAIL
  6
CONTINOUS
 62
     5
 10
-39.94848
 20
86.07456
 11
-39.94848
 21
91.84032
  0
LINE
  8
DETAIL
  6
CONTINOUS
 62
     5
 10
-39.94848
 20
84.4272
 11
-34.18272
 21
84.4272
  0
LINE
  8
DETAIL
  6
CONTINOUS
 62
     5
 10
-34.18272
 20
78.66144
 11
-34.18272
 21
84.4272
  0
LINE
  8
DETAIL
  6
CONTINOUS
 62
     5
 10
-39.94848
 20
78.66144
 11
-34.18272
 21
78.66144
  0
LINE
  8
DETAIL
  6
CONTINOUS
 62
     5
 10
-39.94848
 20
78.66144
 11
-39.94848
 21
84.4272
  0
LINE
  8
DETAIL
  6
CONTINOUS
 62
     5
 10
-39.94848
 20
77.01408
 11
-34.18272
 21
77.01408
  0
LINE
  8
DETAIL
  6
CONTINOUS
 62
     5
 10
-34.18272
 20
71.24832
 11
-34.18272
 21
77.01408
  0
LINE
  8
DETAIL
  6
CONTINOUS
 62
     5
 10
-39.94848
 20
71.24832
 11
-34.18272
 21
71.24832
  0
LINE
  8
DETAIL
  6
CONTINOUS
 62
     5
 10
-39.94848
 20
71.24832
 11
-39.94848
 21
77.01408
  0
LINE
  8
DETAIL
  6
CONTINOUS
 62
     5
 10
-39.94848
 20
69.60096
 11
-34.18272
 21
69.60096
  0
LINE
  8
DETAIL
  6
CONTINOUS
 62
     5
 10
-34.18272
 20
63.8352
 11
-34.18272
 21
69.60096
  0
LINE
  8
DETAIL
  6
CONTINOUS
 62
     5
 10
-39.94848
 20
63.8352
 11
-34.18272
 21
63.8352
  0
LINE
  8
DETAIL
  6
CONTINOUS
 62
     5
 10
-39.94848
 20
63.8352
 11
-39.94848
 21
69.60096
  0
LINE
  8
DETAIL
  6
CONTINOUS
 62
     5
 10
-39.94848
 20
62.18784
 11
-34.18272
 21
62.18784
  0
LINE
  8
DETAIL
  6
CONTINOUS
 62
     5
 10
-34.18272
 20
56.42208
 11
-34.18272
 21
62.18784
  0
LINE
  8
DETAIL
  6
CONTINOUS
 62
     5
 10
-39.94848
 20
56.42208
 11
-34.18272
 21
56.42208
  0
LINE
  8
DETAIL
  6
CONTINOUS
 62
     5
 10
-39.94848
 20
56.42208
 11
-39.94848
 21
62.18784
  0
LINE
  8
DETAIL
  6
CONTINOUS
 62
     5
 10
-39.94848
 20
54.77472
 11
-34.18272
 21
54.77472
  0
LINE
  8
DETAIL
  6
CONTINOUS
 62
     5
 10
-34.18272
 20
49.00896
 11
-34.18272
 21
54.77472
  0
LINE
  8
DETAIL
  6
CONTINOUS
 62
     5
 10
-39.94848
 20
49.00896
 11
-34.18272
 21
49.00896
  0
LINE
  8
DETAIL
  6
CONTINOUS
 62
     5
 10
-39.94848
 20
49.00896
 11
-39.94848
 21
54.77472
  0
LINE
  8
DETAIL
  6
CONTINOUS
 62
     5
 10
-39.94848
 20
47.3616
 11
-34.18272
 21
47.3616
  0
LINE
  8
DETAIL
  6
CONTINOUS
 62
     5
 10
-34.18272
 20
41.59584
 11
-34.18272
 21
47.3616
  0
LINE
  8
DETAIL
  6
CONTINOUS
 62
     5
 10
-39.94848
 20
41.59584
 11
-34.18272
 21
41.59584
  0
LINE
  8
DETAIL
  6
CONTINOUS
 62
     5
 10
-39.94848
 20
41.59584
 11
-39.94848
 21
47.3616
  0
LINE
  8
DETAIL
  6
CONTINOUS
 62
     5
 10
-39.94848
 20
39.94848
 11
-34.18272
 21
39.94848
  0
LINE
  8
DETAIL
  6
CONTINOUS
 62
     5
 10
-34.18272
 20
34.18272
 11
-34.18272
 21
39.94848
  0
LINE
  8
DETAIL
  6
CONTINOUS
 62
     5
 10
-39.94848
 20
34.18272
 11
-34.18272
 21
34.18272
  0
LINE
  8
DETAIL
  6
CONTINOUS
 62
     5
 10
-39.94848
 20
34.18272
 11
-39.94848
 21
39.94848
  0
LINE
  8
DETAIL
  6
CONTINOUS
 62
     5
 10
-39.94848
 20
32.53536
 11
-34.18272
 21
32.53536
  0
LINE
  8
DETAIL
  6
CONTINOUS
 62
     5
 10
-34.18272
 20
26.7696
 11
-34.18272
 21
32.53536
  0
LINE
  8
DETAIL
  6
CONTINOUS
 62
     5
 10
-39.94848
 20
26.7696
 11
-34.18272
 21
26.7696
  0
LINE
  8
DETAIL
  6
CONTINOUS
 62
     5
 10
-39.94848
 20
26.7696
 11
-39.94848
 21
32.53536
  0
LINE
  8
DETAIL
  6
CONTINOUS
 62
     5
 10
-39.94848
 20
25.12224
 11
-34.18272
 21
25.12224
  0
LINE
  8
DETAIL
  6
CONTINOUS
 62
     5
 10
-34.18272
 20
19.35648
 11
-34.18272
 21
25.12224
  0
LINE
  8
DETAIL
  6
CONTINOUS
 62
     5
 10
-39.94848
 20
19.35648
 11
-34.18272
 21
19.35648
  0
LINE
  8
DETAIL
  6
CONTINOUS
 62
     5
 10
-39.94848
 20
19.35648
 11
-39.94848
 21
25.12224
  0
LINE
  8
DETAIL
  6
CONTINOUS
 62
     5
 10
-39.94848
 20
17.70912
 11
-34.18272
 21
17.70912
  0
LINE
  8
DETAIL
  6
CONTINOUS
 62
     5
 10
-34.18272
 20
11.94336
 11
-34.18272
 21
17.70912
  0
LINE
  8
DETAIL
  6
CONTINOUS
 62
     5
 10
-39.94848
 20
11.94336
 11
-34.18272
 21
11.94336
  0
LINE
  8
DETAIL
  6
CONTINOUS
 62
     5
 10
-39.94848
 20
11.94336
 11
-39.94848
 21
17.70912
  0
LINE
  8
DETAIL
  6
CONTINOUS
 62
     5
 10
-39.94848
 20
10.296
 11
-34.18272
 21
10.296
  0
LINE
  8
DETAIL
  6
CONTINOUS
 62
     5
 10
-34.18272
 20
4.53024
 11
-34.18272
 21
10.296
  0
LINE
  8
DETAIL
  6
CONTINOUS
 62
     5
 10
-39.94848
 20
4.53024
 11
-34.18272
 21
4.53024
  0
LINE
  8
DETAIL
  6
CONTINOUS
 62
     5
 10
-39.94848
 20
4.53024
 11
-39.94848
 21
10.296
  0
LINE
  8
DETAIL
  6
CONTINOUS
 62
     5
 10
-39.94848
 20
2.88288
 11
-34.18272
 21
2.88288
  0
LINE
  8
DETAIL
  6
CONTINOUS
 62
     5
 10
-34.18272
 20
-2.88288
 11
-34.18272
 21
2.88288
  0
LINE
  8
DETAIL
  6
CONTINOUS
 62
     5
 10
-39.94848
 20
-2.88288
 11
-34.18272
 21
-2.88288
  0
LINE
  8
DETAIL
  6
CONTINOUS
 62
     5
 10
-39.94848
 20
-2.88288
 11
-39.94848
 21
2.88288
  0
LINE
  8
DETAIL
  6
CONTINOUS
 62
     5
 10
-39.94848
 20
-4.53024
 11
-34.18272
 21
-4.53024
  0
LINE
  8
DETAIL
  6
CONTINOUS
 62
     5
 10
-34.18272
 20
-10.296
 11
-34.18272
 21
-4.53024
  0
LINE
  8
DETAIL
  6
CONTINOUS
 62
     5
 10
-39.94848
 20
-10.296
 11
-34.18272
 21
-10.296
  0
LINE
  8
DETAIL
  6
CONTINOUS
 62
     5
 10
-39.94848
 20
-10.296
 11
-39.94848
 21
-4.53024
  0
LINE
  8
DETAIL
  6
CONTINOUS
 62
     5
 10
-39.94848
 20
-11.94336
 11
-34.18272
 21
-11.94336
  0
LINE
  8
DETAIL
  6
CONTINOUS
 62
     5
 10
-34.18272
 20
-17.70912
 11
-34.18272
 21
-11.94336
  0
LINE
  8
DETAIL
  6
CONTINOUS
 62
     5
 10
-39.94848
 20
-17.70912
 11
-34.18272
 21
-17.70912
  0
LINE
  8
DETAIL
  6
CONTINOUS
 62
     5
 10
-39.94848
 20
-17.70912
 11
-39.94848
 21
-11.94336
  0
LINE
  8
DETAIL
  6
CONTINOUS
 62
     5
 10
-39.94848
 20
-19.35648
 11
-34.18272
 21
-19.35648
  0
LINE
  8
DETAIL
  6
CONTINOUS
 62
     5
 10
-34.18272
 20
-25.12224
 11
-34.18272
 21
-19.35648
  0
LINE
  8
DETAIL
  6
CONTINOUS
 62
     5
 10
-39.94848
 20
-25.12224
 11
-34.18272
 21
-25.12224
  0
LINE
  8
DETAIL
  6
CONTINOUS
 62
     5
 10
-39.94848
 20
-25.12224
 11
-39.94848
 21
-19.35648
  0
LINE
  8
DETAIL
  6
CONTINOUS
 62
     5
 10
-39.94848
 20
-26.7696
 11
-34.18272
 21
-26.7696
  0
LINE
  8
DETAIL
  6
CONTINOUS
 62
     5
 10
-34.18272
 20
-32.53536
 11
-34.18272
 21
-26.7696
  0
LINE
  8
DETAIL
  6
CONTINOUS
 62
     5
 10
-39.94848
 20
-32.53536
 11
-34.18272
 21
-32.53536
  0
LINE
  8
DETAIL
  6
CONTINOUS
 62
     5
 10
-39.94848
 20
-32.53536
 11
-39.94848
 21
-26.7696
  0
LINE
  8
DETAIL
  6
CONTINOUS
 62
     5
 10
-39.94848
 20
-34.18272
 11
-34.18272
 21
-34.18272
  0
LINE
  8
DETAIL
  6
CONTINOUS
 62
     5
 10
-34.18272
 20
-39.94848
 11
-34.18272
 21
-34.18272
  0
LINE
  8
DETAIL
  6
CONTINOUS
 62
     5
 10
-39.94848
 20
-39.94848
 11
-34.18272
 21
-39.94848
  0
LINE
  8
DETAIL
  6
CONTINOUS
 62
     5
 10
-39.94848
 20
-39.94848
 11
-39.94848
 21
-34.18272
  0
LINE
  8
DETAIL
  6
CONTINOUS
 62
     5
 10
-39.94848
 20
-41.59584
 11
-34.18272
 21
-41.59584
  0
LINE
  8
DETAIL
  6
CONTINOUS
 62
     5
 10
-34.18272
 20
-47.3616
 11
-34.18272
 21
-41.59584
  0
LINE
  8
DETAIL
  6
CONTINOUS
 62
     5
 10
-39.94848
 20
-47.3616
 11
-34.18272
 21
-47.3616
  0
LINE
  8
DETAIL
  6
CONTINOUS
 62
     5
 10
-39.94848
 20
-47.3616
 11
-39.94848
 21
-41.59584
  0
LINE
  8
DETAIL
  6
CONTINOUS
 62
     5
 10
-39.94848
 20
-49.00896
 11
-34.18272
 21
-49.00896
  0
LINE
  8
DETAIL
  6
CONTINOUS
 62
     5
 10
-34.18272
 20
-54.77472
 11
-34.18272
 21
-49.00896
  0
LINE
  8
DETAIL
  6
CONTINOUS
 62
     5
 10
-39.94848
 20
-54.77472
 11
-34.18272
 21
-54.77472
  0
LINE
  8
DETAIL
  6
CONTINOUS
 62
     5
 10
-39.94848
 20
-54.77472
 11
-39.94848
 21
-49.00896
  0
LINE
  8
DETAIL
  6
CONTINOUS
 62
     5
 10
-39.94848
 20
-56.42208
 11
-34.18272
 21
-56.42208
  0
LINE
  8
DETAIL
  6
CONTINOUS
 62
     5
 10
-34.18272
 20
-62.18784
 11
-34.18272
 21
-56.42208
  0
LINE
  8
DETAIL
  6
CONTINOUS
 62
     5
 10
-39.94848
 20
-62.18784
 11
-34.18272
 21
-62.18784
  0
LINE
  8
DETAIL
  6
CONTINOUS
 62
     5
 10
-39.94848
 20
-62.18784
 11
-39.94848
 21
-56.42208
  0
LINE
  8
DETAIL
  6
CONTINOUS
 62
     5
 10
-39.94848
 20
-63.8352
 11
-34.18272
 21
-63.8352
  0
LINE
  8
DETAIL
  6
CONTINOUS
 62
     5
 10
-34.18272
 20
-69.60096
 11
-34.18272
 21
-63.8352
  0
LINE
  8
DETAIL
  6
CONTINOUS
 62
     5
 10
-39.94848
 20
-69.60096
 11
-34.18272
 21
-69.60096
  0
LINE
  8
DETAIL
  6
CONTINOUS
 62
     5
 10
-39.94848
 20
-69.60096
 11
-39.94848
 21
-63.8352
  0
LINE
  8
DETAIL
  6
CONTINOUS
 62
     5
 10
-39.94848
 20
-71.24832
 11
-34.18272
 21
-71.24832
  0
LINE
  8
DETAIL
  6
CONTINOUS
 62
     5
 10
-34.18272
 20
-77.01408
 11
-34.18272
 21
-71.24832
  0
LINE
  8
DETAIL
  6
CONTINOUS
 62
     5
 10
-39.94848
 20
-77.01408
 11
-34.18272
 21
-77.01408
  0
LINE
  8
DETAIL
  6
CONTINOUS
 62
     5
 10
-39.94848
 20
-77.01408
 11
-39.94848
 21
-71.24832
  0
LINE
  8
DETAIL
  6
CONTINOUS
 62
     5
 10
-39.94848
 20
-78.66144
 11
-34.18272
 21
-78.66144
  0
LINE
  8
DETAIL
  6
CONTINOUS
 62
     5
 10
-34.18272
 20
-84.4272
 11
-34.18272
 21
-78.66144
  0
LINE
  8
DETAIL
  6
CONTINOUS
 62
     5
 10
-39.94848
 20
-84.4272
 11
-34.18272
 21
-84.4272
  0
LINE
  8
DETAIL
  6
CONTINOUS
 62
     5
 10
-39.94848
 20
-84.4272
 11
-39.94848
 21
-78.66144
  0
LINE
  8
DETAIL
  6
CONTINOUS
 62
     5
 10
-39.94848
 20
-86.07456
 11
-34.18272
 21
-86.07456
  0
LINE
  8
DETAIL
  6
CONTINOUS
 62
     5
 10
-34.18272
 20
-91.84032
 11
-34.18272
 21
-86.07456
  0
LINE
  8
DETAIL
  6
CONTINOUS
 62
     5
 10
-39.94848
 20
-91.84032
 11
-34.18272
 21
-91.84032
  0
LINE
  8
DETAIL
  6
CONTINOUS
 62
     5
 10
-39.94848
 20
-91.84032
 11
-39.94848
 21
-86.07456
  0
LINE
  8
DETAIL
  6
CONTINOUS
 62
     5
 10
-39.94848
 20
-93.48768
 11
-34.18272
 21
-93.48768
  0
LINE
  8
DETAIL
  6
CONTINOUS
 62
     5
 10
-34.18272
 20
-99.25344
 11
-34.18272
 21
-93.48768
  0
LINE
  8
DETAIL
  6
CONTINOUS
 62
     5
 10
-39.94848
 20
-99.25344
 11
-34.18272
 21
-99.25344
  0
LINE
  8
DETAIL
  6
CONTINOUS
 62
     5
 10
-39.94848
 20
-99.25344
 11
-39.94848
 21
-93.48768
  0
LINE
  8
DETAIL
  6
CONTINOUS
 62
     5
 10
-47.3616
 20
99.25344
 11
-41.59584
 21
99.25344
  0
LINE
  8
DETAIL
  6
CONTINOUS
 62
     5
 10
-41.59584
 20
93.48768
 11
-41.59584
 21
99.25344
  0
LINE
  8
DETAIL
  6
CONTINOUS
 62
     5
 10
-47.3616
 20
93.48768
 11
-41.59584
 21
93.48768
  0
LINE
  8
DETAIL
  6
CONTINOUS
 62
     5
 10
-47.3616
 20
93.48768
 11
-47.3616
 21
99.25344
  0
LINE
  8
DETAIL
  6
CONTINOUS
 62
     5
 10
-47.3616
 20
91.84032
 11
-41.59584
 21
91.84032
  0
LINE
  8
DETAIL
  6
CONTINOUS
 62
     5
 10
-41.59584
 20
86.07456
 11
-41.59584
 21
91.84032
  0
LINE
  8
DETAIL
  6
CONTINOUS
 62
     5
 10
-47.3616
 20
86.07456
 11
-41.59584
 21
86.07456
  0
LINE
  8
DETAIL
  6
CONTINOUS
 62
     5
 10
-47.3616
 20
86.07456
 11
-47.3616
 21
91.84032
  0
LINE
  8
DETAIL
  6
CONTINOUS
 62
     5
 10
-47.3616
 20
84.4272
 11
-41.59584
 21
84.4272
  0
LINE
  8
DETAIL
  6
CONTINOUS
 62
     5
 10
-41.59584
 20
78.66144
 11
-41.59584
 21
84.4272
  0
LINE
  8
DETAIL
  6
CONTINOUS
 62
     5
 10
-47.3616
 20
78.66144
 11
-41.59584
 21
78.66144
  0
LINE
  8
DETAIL
  6
CONTINOUS
 62
     5
 10
-47.3616
 20
78.66144
 11
-47.3616
 21
84.4272
  0
LINE
  8
DETAIL
  6
CONTINOUS
 62
     5
 10
-47.3616
 20
77.01408
 11
-41.59584
 21
77.01408
  0
LINE
  8
DETAIL
  6
CONTINOUS
 62
     5
 10
-41.59584
 20
71.24832
 11
-41.59584
 21
77.01408
  0
LINE
  8
DETAIL
  6
CONTINOUS
 62
     5
 10
-47.3616
 20
71.24832
 11
-41.59584
 21
71.24832
  0
LINE
  8
DETAIL
  6
CONTINOUS
 62
     5
 10
-47.3616
 20
71.24832
 11
-47.3616
 21
77.01408
  0
LINE
  8
DETAIL
  6
CONTINOUS
 62
     5
 10
-47.3616
 20
69.60096
 11
-41.59584
 21
69.60096
  0
LINE
  8
DETAIL
  6
CONTINOUS
 62
     5
 10
-41.59584
 20
63.8352
 11
-41.59584
 21
69.60096
  0
LINE
  8
DETAIL
  6
CONTINOUS
 62
     5
 10
-47.3616
 20
63.8352
 11
-41.59584
 21
63.8352
  0
LINE
  8
DETAIL
  6
CONTINOUS
 62
     5
 10
-47.3616
 20
63.8352
 11
-47.3616
 21
69.60096
  0
LINE
  8
DETAIL
  6
CONTINOUS
 62
     5
 10
-47.3616
 20
62.18784
 11
-41.59584
 21
62.18784
  0
LINE
  8
DETAIL
  6
CONTINOUS
 62
     5
 10
-41.59584
 20
56.42208
 11
-41.59584
 21
62.18784
  0
LINE
  8
DETAIL
  6
CONTINOUS
 62
     5
 10
-47.3616
 20
56.42208
 11
-41.59584
 21
56.42208
  0
LINE
  8
DETAIL
  6
CONTINOUS
 62
     5
 10
-47.3616
 20
56.42208
 11
-47.3616
 21
62.18784
  0
LINE
  8
DETAIL
  6
CONTINOUS
 62
     5
 10
-47.3616
 20
54.77472
 11
-41.59584
 21
54.77472
  0
LINE
  8
DETAIL
  6
CONTINOUS
 62
     5
 10
-41.59584
 20
49.00896
 11
-41.59584
 21
54.77472
  0
LINE
  8
DETAIL
  6
CONTINOUS
 62
     5
 10
-47.3616
 20
49.00896
 11
-41.59584
 21
49.00896
  0
LINE
  8
DETAIL
  6
CONTINOUS
 62
     5
 10
-47.3616
 20
49.00896
 11
-47.3616
 21
54.77472
  0
LINE
  8
DETAIL
  6
CONTINOUS
 62
     5
 10
-47.3616
 20
47.3616
 11
-41.59584
 21
47.3616
  0
LINE
  8
DETAIL
  6
CONTINOUS
 62
     5
 10
-41.59584
 20
41.59584
 11
-41.59584
 21
47.3616
  0
LINE
  8
DETAIL
  6
CONTINOUS
 62
     5
 10
-47.3616
 20
41.59584
 11
-41.59584
 21
41.59584
  0
LINE
  8
DETAIL
  6
CONTINOUS
 62
     5
 10
-47.3616
 20
41.59584
 11
-47.3616
 21
47.3616
  0
LINE
  8
DETAIL
  6
CONTINOUS
 62
     5
 10
-47.3616
 20
39.94848
 11
-41.59584
 21
39.94848
  0
LINE
  8
DETAIL
  6
CONTINOUS
 62
     5
 10
-41.59584
 20
34.18272
 11
-41.59584
 21
39.94848
  0
LINE
  8
DETAIL
  6
CONTINOUS
 62
     5
 10
-47.3616
 20
34.18272
 11
-41.59584
 21
34.18272
  0
LINE
  8
DETAIL
  6
CONTINOUS
 62
     5
 10
-47.3616
 20
34.18272
 11
-47.3616
 21
39.94848
  0
LINE
  8
DETAIL
  6
CONTINOUS
 62
     5
 10
-47.3616
 20
32.53536
 11
-41.59584
 21
32.53536
  0
LINE
  8
DETAIL
  6
CONTINOUS
 62
     5
 10
-41.59584
 20
26.7696
 11
-41.59584
 21
32.53536
  0
LINE
  8
DETAIL
  6
CONTINOUS
 62
     5
 10
-47.3616
 20
26.7696
 11
-41.59584
 21
26.7696
  0
LINE
  8
DETAIL
  6
CONTINOUS
 62
     5
 10
-47.3616
 20
26.7696
 11
-47.3616
 21
32.53536
  0
LINE
  8
DETAIL
  6
CONTINOUS
 62
     5
 10
-47.3616
 20
25.12224
 11
-41.59584
 21
25.12224
  0
LINE
  8
DETAIL
  6
CONTINOUS
 62
     5
 10
-41.59584
 20
19.35648
 11
-41.59584
 21
25.12224
  0
LINE
  8
DETAIL
  6
CONTINOUS
 62
     5
 10
-47.3616
 20
19.35648
 11
-41.59584
 21
19.35648
  0
LINE
  8
DETAIL
  6
CONTINOUS
 62
     5
 10
-47.3616
 20
19.35648
 11
-47.3616
 21
25.12224
  0
LINE
  8
DETAIL
  6
CONTINOUS
 62
     5
 10
-47.3616
 20
17.70912
 11
-41.59584
 21
17.70912
  0
LINE
  8
DETAIL
  6
CONTINOUS
 62
     5
 10
-41.59584
 20
11.94336
 11
-41.59584
 21
17.70912
  0
LINE
  8
DETAIL
  6
CONTINOUS
 62
     5
 10
-47.3616
 20
11.94336
 11
-41.59584
 21
11.94336
  0
LINE
  8
DETAIL
  6
CONTINOUS
 62
     5
 10
-47.3616
 20
11.94336
 11
-47.3616
 21
17.70912
  0
LINE
  8
DETAIL
  6
CONTINOUS
 62
     5
 10
-47.3616
 20
10.296
 11
-41.59584
 21
10.296
  0
LINE
  8
DETAIL
  6
CONTINOUS
 62
     5
 10
-41.59584
 20
4.53024
 11
-41.59584
 21
10.296
  0
LINE
  8
DETAIL
  6
CONTINOUS
 62
     5
 10
-47.3616
 20
4.53024
 11
-41.59584
 21
4.53024
  0
LINE
  8
DETAIL
  6
CONTINOUS
 62
     5
 10
-47.3616
 20
4.53024
 11
-47.3616
 21
10.296
  0
LINE
  8
DETAIL
  6
CONTINOUS
 62
     5
 10
-47.3616
 20
2.88288
 11
-41.59584
 21
2.88288
  0
LINE
  8
DETAIL
  6
CONTINOUS
 62
     5
 10
-41.59584
 20
-2.88288
 11
-41.59584
 21
2.88288
  0
LINE
  8
DETAIL
  6
CONTINOUS
 62
     5
 10
-47.3616
 20
-2.88288
 11
-41.59584
 21
-2.88288
  0
LINE
  8
DETAIL
  6
CONTINOUS
 62
     5
 10
-47.3616
 20
-2.88288
 11
-47.3616
 21
2.88288
  0
LINE
  8
DETAIL
  6
CONTINOUS
 62
     5
 10
-47.3616
 20
-4.53024
 11
-41.59584
 21
-4.53024
  0
LINE
  8
DETAIL
  6
CONTINOUS
 62
     5
 10
-41.59584
 20
-10.296
 11
-41.59584
 21
-4.53024
  0
LINE
  8
DETAIL
  6
CONTINOUS
 62
     5
 10
-47.3616
 20
-10.296
 11
-41.59584
 21
-10.296
  0
LINE
  8
DETAIL
  6
CONTINOUS
 62
     5
 10
-47.3616
 20
-10.296
 11
-47.3616
 21
-4.53024
  0
LINE
  8
DETAIL
  6
CONTINOUS
 62
     5
 10
-47.3616
 20
-11.94336
 11
-41.59584
 21
-11.94336
  0
LINE
  8
DETAIL
  6
CONTINOUS
 62
     5
 10
-41.59584
 20
-17.70912
 11
-41.59584
 21
-11.94336
  0
LINE
  8
DETAIL
  6
CONTINOUS
 62
     5
 10
-47.3616
 20
-17.70912
 11
-41.59584
 21
-17.70912
  0
LINE
  8
DETAIL
  6
CONTINOUS
 62
     5
 10
-47.3616
 20
-17.70912
 11
-47.3616
 21
-11.94336
  0
LINE
  8
DETAIL
  6
CONTINOUS
 62
     5
 10
-47.3616
 20
-19.35648
 11
-41.59584
 21
-19.35648
  0
LINE
  8
DETAIL
  6
CONTINOUS
 62
     5
 10
-41.59584
 20
-25.12224
 11
-41.59584
 21
-19.35648
  0
LINE
  8
DETAIL
  6
CONTINOUS
 62
     5
 10
-47.3616
 20
-25.12224
 11
-41.59584
 21
-25.12224
  0
LINE
  8
DETAIL
  6
CONTINOUS
 62
     5
 10
-47.3616
 20
-25.12224
 11
-47.3616
 21
-19.35648
  0
LINE
  8
DETAIL
  6
CONTINOUS
 62
     5
 10
-47.3616
 20
-26.7696
 11
-41.59584
 21
-26.7696
  0
LINE
  8
DETAIL
  6
CONTINOUS
 62
     5
 10
-41.59584
 20
-32.53536
 11
-41.59584
 21
-26.7696
  0
LINE
  8
DETAIL
  6
CONTINOUS
 62
     5
 10
-47.3616
 20
-32.53536
 11
-41.59584
 21
-32.53536
  0
LINE
  8
DETAIL
  6
CONTINOUS
 62
     5
 10
-47.3616
 20
-32.53536
 11
-47.3616
 21
-26.7696
  0
LINE
  8
DETAIL
  6
CONTINOUS
 62
     5
 10
-47.3616
 20
-34.18272
 11
-41.59584
 21
-34.18272
  0
LINE
  8
DETAIL
  6
CONTINOUS
 62
     5
 10
-41.59584
 20
-39.94848
 11
-41.59584
 21
-34.18272
  0
LINE
  8
DETAIL
  6
CONTINOUS
 62
     5
 10
-47.3616
 20
-39.94848
 11
-41.59584
 21
-39.94848
  0
LINE
  8
DETAIL
  6
CONTINOUS
 62
     5
 10
-47.3616
 20
-39.94848
 11
-47.3616
 21
-34.18272
  0
LINE
  8
DETAIL
  6
CONTINOUS
 62
     5
 10
-47.3616
 20
-41.59584
 11
-41.59584
 21
-41.59584
  0
LINE
  8
DETAIL
  6
CONTINOUS
 62
     5
 10
-41.59584
 20
-47.3616
 11
-41.59584
 21
-41.59584
  0
LINE
  8
DETAIL
  6
CONTINOUS
 62
     5
 10
-47.3616
 20
-47.3616
 11
-41.59584
 21
-47.3616
  0
LINE
  8
DETAIL
  6
CONTINOUS
 62
     5
 10
-47.3616
 20
-47.3616
 11
-47.3616
 21
-41.59584
  0
LINE
  8
DETAIL
  6
CONTINOUS
 62
     5
 10
-47.3616
 20
-49.00896
 11
-41.59584
 21
-49.00896
  0
LINE
  8
DETAIL
  6
CONTINOUS
 62
     5
 10
-41.59584
 20
-54.77472
 11
-41.59584
 21
-49.00896
  0
LINE
  8
DETAIL
  6
CONTINOUS
 62
     5
 10
-47.3616
 20
-54.77472
 11
-41.59584
 21
-54.77472
  0
LINE
  8
DETAIL
  6
CONTINOUS
 62
     5
 10
-47.3616
 20
-54.77472
 11
-47.3616
 21
-49.00896
  0
LINE
  8
DETAIL
  6
CONTINOUS
 62
     5
 10
-47.3616
 20
-56.42208
 11
-41.59584
 21
-56.42208
  0
LINE
  8
DETAIL
  6
CONTINOUS
 62
     5
 10
-41.59584
 20
-62.18784
 11
-41.59584
 21
-56.42208
  0
LINE
  8
DETAIL
  6
CONTINOUS
 62
     5
 10
-47.3616
 20
-62.18784
 11
-41.59584
 21
-62.18784
  0
LINE
  8
DETAIL
  6
CONTINOUS
 62
     5
 10
-47.3616
 20
-62.18784
 11
-47.3616
 21
-56.42208
  0
LINE
  8
DETAIL
  6
CONTINOUS
 62
     5
 10
-47.3616
 20
-63.8352
 11
-41.59584
 21
-63.8352
  0
LINE
  8
DETAIL
  6
CONTINOUS
 62
     5
 10
-41.59584
 20
-69.60096
 11
-41.59584
 21
-63.8352
  0
LINE
  8
DETAIL
  6
CONTINOUS
 62
     5
 10
-47.3616
 20
-69.60096
 11
-41.59584
 21
-69.60096
  0
LINE
  8
DETAIL
  6
CONTINOUS
 62
     5
 10
-47.3616
 20
-69.60096
 11
-47.3616
 21
-63.8352
  0
LINE
  8
DETAIL
  6
CONTINOUS
 62
     5
 10
-47.3616
 20
-71.24832
 11
-41.59584
 21
-71.24832
  0
LINE
  8
DETAIL
  6
CONTINOUS
 62
     5
 10
-41.59584
 20
-77.01408
 11
-41.59584
 21
-71.24832
  0
LINE
  8
DETAIL
  6
CONTINOUS
 62
     5
 10
-47.3616
 20
-77.01408
 11
-41.59584
 21
-77.01408
  0
LINE
  8
DETAIL
  6
CONTINOUS
 62
     5
 10
-47.3616
 20
-77.01408
 11
-47.3616
 21
-71.24832
  0
LINE
  8
DETAIL
  6
CONTINOUS
 62
     5
 10
-47.3616
 20
-78.66144
 11
-41.59584
 21
-78.66144
  0
LINE
  8
DETAIL
  6
CONTINOUS
 62
     5
 10
-41.59584
 20
-84.4272
 11
-41.59584
 21
-78.66144
  0
LINE
  8
DETAIL
  6
CONTINOUS
 62
     5
 10
-47.3616
 20
-84.4272
 11
-41.59584
 21
-84.4272
  0
LINE
  8
DETAIL
  6
CONTINOUS
 62
     5
 10
-47.3616
 20
-84.4272
 11
-47.3616
 21
-78.66144
  0
LINE
  8
DETAIL
  6
CONTINOUS
 62
     5
 10
-47.3616
 20
-86.07456
 11
-41.59584
 21
-86.07456
  0
LINE
  8
DETAIL
  6
CONTINOUS
 62
     5
 10
-41.59584
 20
-91.84032
 11
-41.59584
 21
-86.07456
  0
LINE
  8
DETAIL
  6
CONTINOUS
 62
     5
 10
-47.3616
 20
-91.84032
 11
-41.59584
 21
-91.84032
  0
LINE
  8
DETAIL
  6
CONTINOUS
 62
     5
 10
-47.3616
 20
-91.84032
 11
-47.3616
 21
-86.07456
  0
LINE
  8
DETAIL
  6
CONTINOUS
 62
     5
 10
-47.3616
 20
-93.48768
 11
-41.59584
 21
-93.48768
  0
LINE
  8
DETAIL
  6
CONTINOUS
 62
     5
 10
-41.59584
 20
-99.25344
 11
-41.59584
 21
-93.48768
  0
LINE
  8
DETAIL
  6
CONTINOUS
 62
     5
 10
-47.3616
 20
-99.25344
 11
-41.59584
 21
-99.25344
  0
LINE
  8
DETAIL
  6
CONTINOUS
 62
     5
 10
-47.3616
 20
-99.25344
 11
-47.3616
 21
-93.48768
  0
LINE
  8
DETAIL
  6
CONTINOUS
 62
     5
 10
-54.77472
 20
99.25344
 11
-49.00896
 21
99.25344
  0
LINE
  8
DETAIL
  6
CONTINOUS
 62
     5
 10
-49.00896
 20
93.48768
 11
-49.00896
 21
99.25344
  0
LINE
  8
DETAIL
  6
CONTINOUS
 62
     5
 10
-54.77472
 20
93.48768
 11
-49.00896
 21
93.48768
  0
LINE
  8
DETAIL
  6
CONTINOUS
 62
     5
 10
-54.77472
 20
93.48768
 11
-54.77472
 21
99.25344
  0
LINE
  8
DETAIL
  6
CONTINOUS
 62
     5
 10
-54.77472
 20
91.84032
 11
-49.00896
 21
91.84032
  0
LINE
  8
DETAIL
  6
CONTINOUS
 62
     5
 10
-49.00896
 20
86.07456
 11
-49.00896
 21
91.84032
  0
LINE
  8
DETAIL
  6
CONTINOUS
 62
     5
 10
-54.77472
 20
86.07456
 11
-49.00896
 21
86.07456
  0
LINE
  8
DETAIL
  6
CONTINOUS
 62
     5
 10
-54.77472
 20
86.07456
 11
-54.77472
 21
91.84032
  0
LINE
  8
DETAIL
  6
CONTINOUS
 62
     5
 10
-54.77472
 20
84.4272
 11
-49.00896
 21
84.4272
  0
LINE
  8
DETAIL
  6
CONTINOUS
 62
     5
 10
-49.00896
 20
78.66144
 11
-49.00896
 21
84.4272
  0
LINE
  8
DETAIL
  6
CONTINOUS
 62
     5
 10
-54.77472
 20
78.66144
 11
-49.00896
 21
78.66144
  0
LINE
  8
DETAIL
  6
CONTINOUS
 62
     5
 10
-54.77472
 20
78.66144
 11
-54.77472
 21
84.4272
  0
LINE
  8
DETAIL
  6
CONTINOUS
 62
     5
 10
-54.77472
 20
77.01408
 11
-49.00896
 21
77.01408
  0
LINE
  8
DETAIL
  6
CONTINOUS
 62
     5
 10
-49.00896
 20
71.24832
 11
-49.00896
 21
77.01408
  0
LINE
  8
DETAIL
  6
CONTINOUS
 62
     5
 10
-54.77472
 20
71.24832
 11
-49.00896
 21
71.24832
  0
LINE
  8
DETAIL
  6
CONTINOUS
 62
     5
 10
-54.77472
 20
71.24832
 11
-54.77472
 21
77.01408
  0
LINE
  8
DETAIL
  6
CONTINOUS
 62
     5
 10
-54.77472
 20
69.60096
 11
-49.00896
 21
69.60096
  0
LINE
  8
DETAIL
  6
CONTINOUS
 62
     5
 10
-49.00896
 20
63.8352
 11
-49.00896
 21
69.60096
  0
LINE
  8
DETAIL
  6
CONTINOUS
 62
     5
 10
-54.77472
 20
63.8352
 11
-49.00896
 21
63.8352
  0
LINE
  8
DETAIL
  6
CONTINOUS
 62
     5
 10
-54.77472
 20
63.8352
 11
-54.77472
 21
69.60096
  0
LINE
  8
DETAIL
  6
CONTINOUS
 62
     5
 10
-54.77472
 20
62.18784
 11
-49.00896
 21
62.18784
  0
LINE
  8
DETAIL
  6
CONTINOUS
 62
     5
 10
-49.00896
 20
56.42208
 11
-49.00896
 21
62.18784
  0
LINE
  8
DETAIL
  6
CONTINOUS
 62
     5
 10
-54.77472
 20
56.42208
 11
-49.00896
 21
56.42208
  0
LINE
  8
DETAIL
  6
CONTINOUS
 62
     5
 10
-54.77472
 20
56.42208
 11
-54.77472
 21
62.18784
  0
LINE
  8
DETAIL
  6
CONTINOUS
 62
     5
 10
-54.77472
 20
54.77472
 11
-49.00896
 21
54.77472
  0
LINE
  8
DETAIL
  6
CONTINOUS
 62
     5
 10
-49.00896
 20
49.00896
 11
-49.00896
 21
54.77472
  0
LINE
  8
DETAIL
  6
CONTINOUS
 62
     5
 10
-54.77472
 20
49.00896
 11
-49.00896
 21
49.00896
  0
LINE
  8
DETAIL
  6
CONTINOUS
 62
     5
 10
-54.77472
 20
49.00896
 11
-54.77472
 21
54.77472
  0
LINE
  8
DETAIL
  6
CONTINOUS
 62
     5
 10
-54.77472
 20
47.3616
 11
-49.00896
 21
47.3616
  0
LINE
  8
DETAIL
  6
CONTINOUS
 62
     5
 10
-49.00896
 20
41.59584
 11
-49.00896
 21
47.3616
  0
LINE
  8
DETAIL
  6
CONTINOUS
 62
     5
 10
-54.77472
 20
41.59584
 11
-49.00896
 21
41.59584
  0
LINE
  8
DETAIL
  6
CONTINOUS
 62
     5
 10
-54.77472
 20
41.59584
 11
-54.77472
 21
47.3616
  0
LINE
  8
DETAIL
  6
CONTINOUS
 62
     5
 10
-54.77472
 20
39.94848
 11
-49.00896
 21
39.94848
  0
LINE
  8
DETAIL
  6
CONTINOUS
 62
     5
 10
-49.00896
 20
34.18272
 11
-49.00896
 21
39.94848
  0
LINE
  8
DETAIL
  6
CONTINOUS
 62
     5
 10
-54.77472
 20
34.18272
 11
-49.00896
 21
34.18272
  0
LINE
  8
DETAIL
  6
CONTINOUS
 62
     5
 10
-54.77472
 20
34.18272
 11
-54.77472
 21
39.94848
  0
LINE
  8
DETAIL
  6
CONTINOUS
 62
     5
 10
-54.77472
 20
32.53536
 11
-49.00896
 21
32.53536
  0
LINE
  8
DETAIL
  6
CONTINOUS
 62
     5
 10
-49.00896
 20
26.7696
 11
-49.00896
 21
32.53536
  0
LINE
  8
DETAIL
  6
CONTINOUS
 62
     5
 10
-54.77472
 20
26.7696
 11
-49.00896
 21
26.7696
  0
LINE
  8
DETAIL
  6
CONTINOUS
 62
     5
 10
-54.77472
 20
26.7696
 11
-54.77472
 21
32.53536
  0
LINE
  8
DETAIL
  6
CONTINOUS
 62
     5
 10
-54.77472
 20
25.12224
 11
-49.00896
 21
25.12224
  0
LINE
  8
DETAIL
  6
CONTINOUS
 62
     5
 10
-49.00896
 20
19.35648
 11
-49.00896
 21
25.12224
  0
LINE
  8
DETAIL
  6
CONTINOUS
 62
     5
 10
-54.77472
 20
19.35648
 11
-49.00896
 21
19.35648
  0
LINE
  8
DETAIL
  6
CONTINOUS
 62
     5
 10
-54.77472
 20
19.35648
 11
-54.77472
 21
25.12224
  0
LINE
  8
DETAIL
  6
CONTINOUS
 62
     5
 10
-54.77472
 20
17.70912
 11
-49.00896
 21
17.70912
  0
LINE
  8
DETAIL
  6
CONTINOUS
 62
     5
 10
-49.00896
 20
11.94336
 11
-49.00896
 21
17.70912
  0
LINE
  8
DETAIL
  6
CONTINOUS
 62
     5
 10
-54.77472
 20
11.94336
 11
-49.00896
 21
11.94336
  0
LINE
  8
DETAIL
  6
CONTINOUS
 62
     5
 10
-54.77472
 20
11.94336
 11
-54.77472
 21
17.70912
  0
LINE
  8
DETAIL
  6
CONTINOUS
 62
     5
 10
-54.77472
 20
10.296
 11
-49.00896
 21
10.296
  0
LINE
  8
DETAIL
  6
CONTINOUS
 62
     5
 10
-49.00896
 20
4.53024
 11
-49.00896
 21
10.296
  0
LINE
  8
DETAIL
  6
CONTINOUS
 62
     5
 10
-54.77472
 20
4.53024
 11
-49.00896
 21
4.53024
  0
LINE
  8
DETAIL
  6
CONTINOUS
 62
     5
 10
-54.77472
 20
4.53024
 11
-54.77472
 21
10.296
  0
LINE
  8
DETAIL
  6
CONTINOUS
 62
     5
 10
-54.77472
 20
2.88288
 11
-49.00896
 21
2.88288
  0
LINE
  8
DETAIL
  6
CONTINOUS
 62
     5
 10
-49.00896
 20
-2.88288
 11
-49.00896
 21
2.88288
  0
LINE
  8
DETAIL
  6
CONTINOUS
 62
     5
 10
-54.77472
 20
-2.88288
 11
-49.00896
 21
-2.88288
  0
LINE
  8
DETAIL
  6
CONTINOUS
 62
     5
 10
-54.77472
 20
-2.88288
 11
-54.77472
 21
2.88288
  0
LINE
  8
DETAIL
  6
CONTINOUS
 62
     5
 10
-54.77472
 20
-4.53024
 11
-49.00896
 21
-4.53024
  0
LINE
  8
DETAIL
  6
CONTINOUS
 62
     5
 10
-49.00896
 20
-10.296
 11
-49.00896
 21
-4.53024
  0
LINE
  8
DETAIL
  6
CONTINOUS
 62
     5
 10
-54.77472
 20
-10.296
 11
-49.00896
 21
-10.296
  0
LINE
  8
DETAIL
  6
CONTINOUS
 62
     5
 10
-54.77472
 20
-10.296
 11
-54.77472
 21
-4.53024
  0
LINE
  8
DETAIL
  6
CONTINOUS
 62
     5
 10
-54.77472
 20
-11.94336
 11
-49.00896
 21
-11.94336
  0
LINE
  8
DETAIL
  6
CONTINOUS
 62
     5
 10
-49.00896
 20
-17.70912
 11
-49.00896
 21
-11.94336
  0
LINE
  8
DETAIL
  6
CONTINOUS
 62
     5
 10
-54.77472
 20
-17.70912
 11
-49.00896
 21
-17.70912
  0
LINE
  8
DETAIL
  6
CONTINOUS
 62
     5
 10
-54.77472
 20
-17.70912
 11
-54.77472
 21
-11.94336
  0
LINE
  8
DETAIL
  6
CONTINOUS
 62
     5
 10
-54.77472
 20
-19.35648
 11
-49.00896
 21
-19.35648
  0
LINE
  8
DETAIL
  6
CONTINOUS
 62
     5
 10
-49.00896
 20
-25.12224
 11
-49.00896
 21
-19.35648
  0
LINE
  8
DETAIL
  6
CONTINOUS
 62
     5
 10
-54.77472
 20
-25.12224
 11
-49.00896
 21
-25.12224
  0
LINE
  8
DETAIL
  6
CONTINOUS
 62
     5
 10
-54.77472
 20
-25.12224
 11
-54.77472
 21
-19.35648
  0
LINE
  8
DETAIL
  6
CONTINOUS
 62
     5
 10
-54.77472
 20
-26.7696
 11
-49.00896
 21
-26.7696
  0
LINE
  8
DETAIL
  6
CONTINOUS
 62
     5
 10
-49.00896
 20
-32.53536
 11
-49.00896
 21
-26.7696
  0
LINE
  8
DETAIL
  6
CONTINOUS
 62
     5
 10
-54.77472
 20
-32.53536
 11
-49.00896
 21
-32.53536
  0
LINE
  8
DETAIL
  6
CONTINOUS
 62
     5
 10
-54.77472
 20
-32.53536
 11
-54.77472
 21
-26.7696
  0
LINE
  8
DETAIL
  6
CONTINOUS
 62
     5
 10
-54.77472
 20
-34.18272
 11
-49.00896
 21
-34.18272
  0
LINE
  8
DETAIL
  6
CONTINOUS
 62
     5
 10
-49.00896
 20
-39.94848
 11
-49.00896
 21
-34.18272
  0
LINE
  8
DETAIL
  6
CONTINOUS
 62
     5
 10
-54.77472
 20
-39.94848
 11
-49.00896
 21
-39.94848
  0
LINE
  8
DETAIL
  6
CONTINOUS
 62
     5
 10
-54.77472
 20
-39.94848
 11
-54.77472
 21
-34.18272
  0
LINE
  8
DETAIL
  6
CONTINOUS
 62
     5
 10
-54.77472
 20
-41.59584
 11
-49.00896
 21
-41.59584
  0
LINE
  8
DETAIL
  6
CONTINOUS
 62
     5
 10
-49.00896
 20
-47.3616
 11
-49.00896
 21
-41.59584
  0
LINE
  8
DETAIL
  6
CONTINOUS
 62
     5
 10
-54.77472
 20
-47.3616
 11
-49.00896
 21
-47.3616
  0
LINE
  8
DETAIL
  6
CONTINOUS
 62
     5
 10
-54.77472
 20
-47.3616
 11
-54.77472
 21
-41.59584
  0
LINE
  8
DETAIL
  6
CONTINOUS
 62
     5
 10
-54.77472
 20
-49.00896
 11
-49.00896
 21
-49.00896
  0
LINE
  8
DETAIL
  6
CONTINOUS
 62
     5
 10
-49.00896
 20
-54.77472
 11
-49.00896
 21
-49.00896
  0
LINE
  8
DETAIL
  6
CONTINOUS
 62
     5
 10
-54.77472
 20
-54.77472
 11
-49.00896
 21
-54.77472
  0
LINE
  8
DETAIL
  6
CONTINOUS
 62
     5
 10
-54.77472
 20
-54.77472
 11
-54.77472
 21
-49.00896
  0
LINE
  8
DETAIL
  6
CONTINOUS
 62
     5
 10
-54.77472
 20
-56.42208
 11
-49.00896
 21
-56.42208
  0
LINE
  8
DETAIL
  6
CONTINOUS
 62
     5
 10
-49.00896
 20
-62.18784
 11
-49.00896
 21
-56.42208
  0
LINE
  8
DETAIL
  6
CONTINOUS
 62
     5
 10
-54.77472
 20
-62.18784
 11
-49.00896
 21
-62.18784
  0
LINE
  8
DETAIL
  6
CONTINOUS
 62
     5
 10
-54.77472
 20
-62.18784
 11
-54.77472
 21
-56.42208
  0
LINE
  8
DETAIL
  6
CONTINOUS
 62
     5
 10
-54.77472
 20
-63.8352
 11
-49.00896
 21
-63.8352
  0
LINE
  8
DETAIL
  6
CONTINOUS
 62
     5
 10
-49.00896
 20
-69.60096
 11
-49.00896
 21
-63.8352
  0
LINE
  8
DETAIL
  6
CONTINOUS
 62
     5
 10
-54.77472
 20
-69.60096
 11
-49.00896
 21
-69.60096
  0
LINE
  8
DETAIL
  6
CONTINOUS
 62
     5
 10
-54.77472
 20
-69.60096
 11
-54.77472
 21
-63.8352
  0
LINE
  8
DETAIL
  6
CONTINOUS
 62
     5
 10
-54.77472
 20
-71.24832
 11
-49.00896
 21
-71.24832
  0
LINE
  8
DETAIL
  6
CONTINOUS
 62
     5
 10
-49.00896
 20
-77.01408
 11
-49.00896
 21
-71.24832
  0
LINE
  8
DETAIL
  6
CONTINOUS
 62
     5
 10
-54.77472
 20
-77.01408
 11
-49.00896
 21
-77.01408
  0
LINE
  8
DETAIL
  6
CONTINOUS
 62
     5
 10
-54.77472
 20
-77.01408
 11
-54.77472
 21
-71.24832
  0
LINE
  8
DETAIL
  6
CONTINOUS
 62
     5
 10
-54.77472
 20
-78.66144
 11
-49.00896
 21
-78.66144
  0
LINE
  8
DETAIL
  6
CONTINOUS
 62
     5
 10
-49.00896
 20
-84.4272
 11
-49.00896
 21
-78.66144
  0
LINE
  8
DETAIL
  6
CONTINOUS
 62
     5
 10
-54.77472
 20
-84.4272
 11
-49.00896
 21
-84.4272
  0
LINE
  8
DETAIL
  6
CONTINOUS
 62
     5
 10
-54.77472
 20
-84.4272
 11
-54.77472
 21
-78.66144
  0
LINE
  8
DETAIL
  6
CONTINOUS
 62
     5
 10
-54.77472
 20
-86.07456
 11
-49.00896
 21
-86.07456
  0
LINE
  8
DETAIL
  6
CONTINOUS
 62
     5
 10
-49.00896
 20
-91.84032
 11
-49.00896
 21
-86.07456
  0
LINE
  8
DETAIL
  6
CONTINOUS
 62
     5
 10
-54.77472
 20
-91.84032
 11
-49.00896
 21
-91.84032
  0
LINE
  8
DETAIL
  6
CONTINOUS
 62
     5
 10
-54.77472
 20
-91.84032
 11
-54.77472
 21
-86.07456
  0
LINE
  8
DETAIL
  6
CONTINOUS
 62
     5
 10
-54.77472
 20
-93.48768
 11
-49.00896
 21
-93.48768
  0
LINE
  8
DETAIL
  6
CONTINOUS
 62
     5
 10
-49.00896
 20
-99.25344
 11
-49.00896
 21
-93.48768
  0
LINE
  8
DETAIL
  6
CONTINOUS
 62
     5
 10
-54.77472
 20
-99.25344
 11
-49.00896
 21
-99.25344
  0
LINE
  8
DETAIL
  6
CONTINOUS
 62
     5
 10
-54.77472
 20
-99.25344
 11
-54.77472
 21
-93.48768
  0
LINE
  8
DETAIL
  6
CONTINOUS
 62
     5
 10
-62.18784
 20
99.25344
 11
-56.42208
 21
99.25344
  0
LINE
  8
DETAIL
  6
CONTINOUS
 62
     5
 10
-56.42208
 20
93.48768
 11
-56.42208
 21
99.25344
  0
LINE
  8
DETAIL
  6
CONTINOUS
 62
     5
 10
-62.18784
 20
93.48768
 11
-56.42208
 21
93.48768
  0
LINE
  8
DETAIL
  6
CONTINOUS
 62
     5
 10
-62.18784
 20
93.48768
 11
-62.18784
 21
99.25344
  0
LINE
  8
DETAIL
  6
CONTINOUS
 62
     5
 10
-62.18784
 20
91.84032
 11
-56.42208
 21
91.84032
  0
LINE
  8
DETAIL
  6
CONTINOUS
 62
     5
 10
-56.42208
 20
86.07456
 11
-56.42208
 21
91.84032
  0
LINE
  8
DETAIL
  6
CONTINOUS
 62
     5
 10
-62.18784
 20
86.07456
 11
-56.42208
 21
86.07456
  0
LINE
  8
DETAIL
  6
CONTINOUS
 62
     5
 10
-62.18784
 20
86.07456
 11
-62.18784
 21
91.84032
  0
LINE
  8
DETAIL
  6
CONTINOUS
 62
     5
 10
-62.18784
 20
84.4272
 11
-56.42208
 21
84.4272
  0
LINE
  8
DETAIL
  6
CONTINOUS
 62
     5
 10
-56.42208
 20
78.66144
 11
-56.42208
 21
84.4272
  0
LINE
  8
DETAIL
  6
CONTINOUS
 62
     5
 10
-62.18784
 20
78.66144
 11
-56.42208
 21
78.66144
  0
LINE
  8
DETAIL
  6
CONTINOUS
 62
     5
 10
-62.18784
 20
78.66144
 11
-62.18784
 21
84.4272
  0
LINE
  8
DETAIL
  6
CONTINOUS
 62
     5
 10
-62.18784
 20
77.01408
 11
-56.42208
 21
77.01408
  0
LINE
  8
DETAIL
  6
CONTINOUS
 62
     5
 10
-56.42208
 20
71.24832
 11
-56.42208
 21
77.01408
  0
LINE
  8
DETAIL
  6
CONTINOUS
 62
     5
 10
-62.18784
 20
71.24832
 11
-56.42208
 21
71.24832
  0
LINE
  8
DETAIL
  6
CONTINOUS
 62
     5
 10
-62.18784
 20
71.24832
 11
-62.18784
 21
77.01408
  0
LINE
  8
DETAIL
  6
CONTINOUS
 62
     5
 10
-62.18784
 20
69.60096
 11
-56.42208
 21
69.60096
  0
LINE
  8
DETAIL
  6
CONTINOUS
 62
     5
 10
-56.42208
 20
63.8352
 11
-56.42208
 21
69.60096
  0
LINE
  8
DETAIL
  6
CONTINOUS
 62
     5
 10
-62.18784
 20
63.8352
 11
-56.42208
 21
63.8352
  0
LINE
  8
DETAIL
  6
CONTINOUS
 62
     5
 10
-62.18784
 20
63.8352
 11
-62.18784
 21
69.60096
  0
LINE
  8
DETAIL
  6
CONTINOUS
 62
     5
 10
-62.18784
 20
62.18784
 11
-56.42208
 21
62.18784
  0
LINE
  8
DETAIL
  6
CONTINOUS
 62
     5
 10
-56.42208
 20
56.42208
 11
-56.42208
 21
62.18784
  0
LINE
  8
DETAIL
  6
CONTINOUS
 62
     5
 10
-62.18784
 20
56.42208
 11
-56.42208
 21
56.42208
  0
LINE
  8
DETAIL
  6
CONTINOUS
 62
     5
 10
-62.18784
 20
56.42208
 11
-62.18784
 21
62.18784
  0
LINE
  8
DETAIL
  6
CONTINOUS
 62
     5
 10
-62.18784
 20
54.77472
 11
-56.42208
 21
54.77472
  0
LINE
  8
DETAIL
  6
CONTINOUS
 62
     5
 10
-56.42208
 20
49.00896
 11
-56.42208
 21
54.77472
  0
LINE
  8
DETAIL
  6
CONTINOUS
 62
     5
 10
-62.18784
 20
49.00896
 11
-56.42208
 21
49.00896
  0
LINE
  8
DETAIL
  6
CONTINOUS
 62
     5
 10
-62.18784
 20
49.00896
 11
-62.18784
 21
54.77472
  0
LINE
  8
DETAIL
  6
CONTINOUS
 62
     5
 10
-62.18784
 20
47.3616
 11
-56.42208
 21
47.3616
  0
LINE
  8
DETAIL
  6
CONTINOUS
 62
     5
 10
-56.42208
 20
41.59584
 11
-56.42208
 21
47.3616
  0
LINE
  8
DETAIL
  6
CONTINOUS
 62
     5
 10
-62.18784
 20
41.59584
 11
-56.42208
 21
41.59584
  0
LINE
  8
DETAIL
  6
CONTINOUS
 62
     5
 10
-62.18784
 20
41.59584
 11
-62.18784
 21
47.3616
  0
LINE
  8
DETAIL
  6
CONTINOUS
 62
     5
 10
-62.18784
 20
39.94848
 11
-56.42208
 21
39.94848
  0
LINE
  8
DETAIL
  6
CONTINOUS
 62
     5
 10
-56.42208
 20
34.18272
 11
-56.42208
 21
39.94848
  0
LINE
  8
DETAIL
  6
CONTINOUS
 62
     5
 10
-62.18784
 20
34.18272
 11
-56.42208
 21
34.18272
  0
LINE
  8
DETAIL
  6
CONTINOUS
 62
     5
 10
-62.18784
 20
34.18272
 11
-62.18784
 21
39.94848
  0
LINE
  8
DETAIL
  6
CONTINOUS
 62
     5
 10
-62.18784
 20
32.53536
 11
-56.42208
 21
32.53536
  0
LINE
  8
DETAIL
  6
CONTINOUS
 62
     5
 10
-56.42208
 20
26.7696
 11
-56.42208
 21
32.53536
  0
LINE
  8
DETAIL
  6
CONTINOUS
 62
     5
 10
-62.18784
 20
26.7696
 11
-56.42208
 21
26.7696
  0
LINE
  8
DETAIL
  6
CONTINOUS
 62
     5
 10
-62.18784
 20
26.7696
 11
-62.18784
 21
32.53536
  0
LINE
  8
DETAIL
  6
CONTINOUS
 62
     5
 10
-62.18784
 20
25.12224
 11
-56.42208
 21
25.12224
  0
LINE
  8
DETAIL
  6
CONTINOUS
 62
     5
 10
-56.42208
 20
19.35648
 11
-56.42208
 21
25.12224
  0
LINE
  8
DETAIL
  6
CONTINOUS
 62
     5
 10
-62.18784
 20
19.35648
 11
-56.42208
 21
19.35648
  0
LINE
  8
DETAIL
  6
CONTINOUS
 62
     5
 10
-62.18784
 20
19.35648
 11
-62.18784
 21
25.12224
  0
LINE
  8
DETAIL
  6
CONTINOUS
 62
     5
 10
-62.18784
 20
17.70912
 11
-56.42208
 21
17.70912
  0
LINE
  8
DETAIL
  6
CONTINOUS
 62
     5
 10
-56.42208
 20
11.94336
 11
-56.42208
 21
17.70912
  0
LINE
  8
DETAIL
  6
CONTINOUS
 62
     5
 10
-62.18784
 20
11.94336
 11
-56.42208
 21
11.94336
  0
LINE
  8
DETAIL
  6
CONTINOUS
 62
     5
 10
-62.18784
 20
11.94336
 11
-62.18784
 21
17.70912
  0
LINE
  8
DETAIL
  6
CONTINOUS
 62
     5
 10
-62.18784
 20
10.296
 11
-56.42208
 21
10.296
  0
LINE
  8
DETAIL
  6
CONTINOUS
 62
     5
 10
-56.42208
 20
4.53024
 11
-56.42208
 21
10.296
  0
LINE
  8
DETAIL
  6
CONTINOUS
 62
     5
 10
-62.18784
 20
4.53024
 11
-56.42208
 21
4.53024
  0
LINE
  8
DETAIL
  6
CONTINOUS
 62
     5
 10
-62.18784
 20
4.53024
 11
-62.18784
 21
10.296
  0
LINE
  8
DETAIL
  6
CONTINOUS
 62
     5
 10
-62.18784
 20
2.88288
 11
-56.42208
 21
2.88288
  0
LINE
  8
DETAIL
  6
CONTINOUS
 62
     5
 10
-56.42208
 20
-2.88288
 11
-56.42208
 21
2.88288
  0
LINE
  8
DETAIL
  6
CONTINOUS
 62
     5
 10
-62.18784
 20
-2.88288
 11
-56.42208
 21
-2.88288
  0
LINE
  8
DETAIL
  6
CONTINOUS
 62
     5
 10
-62.18784
 20
-2.88288
 11
-62.18784
 21
2.88288
  0
LINE
  8
DETAIL
  6
CONTINOUS
 62
     5
 10
-62.18784
 20
-4.53024
 11
-56.42208
 21
-4.53024
  0
LINE
  8
DETAIL
  6
CONTINOUS
 62
     5
 10
-56.42208
 20
-10.296
 11
-56.42208
 21
-4.53024
  0
LINE
  8
DETAIL
  6
CONTINOUS
 62
     5
 10
-62.18784
 20
-10.296
 11
-56.42208
 21
-10.296
  0
LINE
  8
DETAIL
  6
CONTINOUS
 62
     5
 10
-62.18784
 20
-10.296
 11
-62.18784
 21
-4.53024
  0
LINE
  8
DETAIL
  6
CONTINOUS
 62
     5
 10
-62.18784
 20
-11.94336
 11
-56.42208
 21
-11.94336
  0
LINE
  8
DETAIL
  6
CONTINOUS
 62
     5
 10
-56.42208
 20
-17.70912
 11
-56.42208
 21
-11.94336
  0
LINE
  8
DETAIL
  6
CONTINOUS
 62
     5
 10
-62.18784
 20
-17.70912
 11
-56.42208
 21
-17.70912
  0
LINE
  8
DETAIL
  6
CONTINOUS
 62
     5
 10
-62.18784
 20
-17.70912
 11
-62.18784
 21
-11.94336
  0
LINE
  8
DETAIL
  6
CONTINOUS
 62
     5
 10
-62.18784
 20
-19.35648
 11
-56.42208
 21
-19.35648
  0
LINE
  8
DETAIL
  6
CONTINOUS
 62
     5
 10
-56.42208
 20
-25.12224
 11
-56.42208
 21
-19.35648
  0
LINE
  8
DETAIL
  6
CONTINOUS
 62
     5
 10
-62.18784
 20
-25.12224
 11
-56.42208
 21
-25.12224
  0
LINE
  8
DETAIL
  6
CONTINOUS
 62
     5
 10
-62.18784
 20
-25.12224
 11
-62.18784
 21
-19.35648
  0
LINE
  8
DETAIL
  6
CONTINOUS
 62
     5
 10
-62.18784
 20
-26.7696
 11
-56.42208
 21
-26.7696
  0
LINE
  8
DETAIL
  6
CONTINOUS
 62
     5
 10
-56.42208
 20
-32.53536
 11
-56.42208
 21
-26.7696
  0
LINE
  8
DETAIL
  6
CONTINOUS
 62
     5
 10
-62.18784
 20
-32.53536
 11
-56.42208
 21
-32.53536
  0
LINE
  8
DETAIL
  6
CONTINOUS
 62
     5
 10
-62.18784
 20
-32.53536
 11
-62.18784
 21
-26.7696
  0
LINE
  8
DETAIL
  6
CONTINOUS
 62
     5
 10
-62.18784
 20
-34.18272
 11
-56.42208
 21
-34.18272
  0
LINE
  8
DETAIL
  6
CONTINOUS
 62
     5
 10
-56.42208
 20
-39.94848
 11
-56.42208
 21
-34.18272
  0
LINE
  8
DETAIL
  6
CONTINOUS
 62
     5
 10
-62.18784
 20
-39.94848
 11
-56.42208
 21
-39.94848
  0
LINE
  8
DETAIL
  6
CONTINOUS
 62
     5
 10
-62.18784
 20
-39.94848
 11
-62.18784
 21
-34.18272
  0
LINE
  8
DETAIL
  6
CONTINOUS
 62
     5
 10
-62.18784
 20
-41.59584
 11
-56.42208
 21
-41.59584
  0
LINE
  8
DETAIL
  6
CONTINOUS
 62
     5
 10
-56.42208
 20
-47.3616
 11
-56.42208
 21
-41.59584
  0
LINE
  8
DETAIL
  6
CONTINOUS
 62
     5
 10
-62.18784
 20
-47.3616
 11
-56.42208
 21
-47.3616
  0
LINE
  8
DETAIL
  6
CONTINOUS
 62
     5
 10
-62.18784
 20
-47.3616
 11
-62.18784
 21
-41.59584
  0
LINE
  8
DETAIL
  6
CONTINOUS
 62
     5
 10
-62.18784
 20
-49.00896
 11
-56.42208
 21
-49.00896
  0
LINE
  8
DETAIL
  6
CONTINOUS
 62
     5
 10
-56.42208
 20
-54.77472
 11
-56.42208
 21
-49.00896
  0
LINE
  8
DETAIL
  6
CONTINOUS
 62
     5
 10
-62.18784
 20
-54.77472
 11
-56.42208
 21
-54.77472
  0
LINE
  8
DETAIL
  6
CONTINOUS
 62
     5
 10
-62.18784
 20
-54.77472
 11
-62.18784
 21
-49.00896
  0
LINE
  8
DETAIL
  6
CONTINOUS
 62
     5
 10
-62.18784
 20
-56.42208
 11
-56.42208
 21
-56.42208
  0
LINE
  8
DETAIL
  6
CONTINOUS
 62
     5
 10
-56.42208
 20
-62.18784
 11
-56.42208
 21
-56.42208
  0
LINE
  8
DETAIL
  6
CONTINOUS
 62
     5
 10
-62.18784
 20
-62.18784
 11
-56.42208
 21
-62.18784
  0
LINE
  8
DETAIL
  6
CONTINOUS
 62
     5
 10
-62.18784
 20
-62.18784
 11
-62.18784
 21
-56.42208
  0
LINE
  8
DETAIL
  6
CONTINOUS
 62
     5
 10
-62.18784
 20
-63.8352
 11
-56.42208
 21
-63.8352
  0
LINE
  8
DETAIL
  6
CONTINOUS
 62
     5
 10
-56.42208
 20
-69.60096
 11
-56.42208
 21
-63.8352
  0
LINE
  8
DETAIL
  6
CONTINOUS
 62
     5
 10
-62.18784
 20
-69.60096
 11
-56.42208
 21
-69.60096
  0
LINE
  8
DETAIL
  6
CONTINOUS
 62
     5
 10
-62.18784
 20
-69.60096
 11
-62.18784
 21
-63.8352
  0
LINE
  8
DETAIL
  6
CONTINOUS
 62
     5
 10
-62.18784
 20
-71.24832
 11
-56.42208
 21
-71.24832
  0
LINE
  8
DETAIL
  6
CONTINOUS
 62
     5
 10
-56.42208
 20
-77.01408
 11
-56.42208
 21
-71.24832
  0
LINE
  8
DETAIL
  6
CONTINOUS
 62
     5
 10
-62.18784
 20
-77.01408
 11
-56.42208
 21
-77.01408
  0
LINE
  8
DETAIL
  6
CONTINOUS
 62
     5
 10
-62.18784
 20
-77.01408
 11
-62.18784
 21
-71.24832
  0
LINE
  8
DETAIL
  6
CONTINOUS
 62
     5
 10
-62.18784
 20
-78.66144
 11
-56.42208
 21
-78.66144
  0
LINE
  8
DETAIL
  6
CONTINOUS
 62
     5
 10
-56.42208
 20
-84.4272
 11
-56.42208
 21
-78.66144
  0
LINE
  8
DETAIL
  6
CONTINOUS
 62
     5
 10
-62.18784
 20
-84.4272
 11
-56.42208
 21
-84.4272
  0
LINE
  8
DETAIL
  6
CONTINOUS
 62
     5
 10
-62.18784
 20
-84.4272
 11
-62.18784
 21
-78.66144
  0
LINE
  8
DETAIL
  6
CONTINOUS
 62
     5
 10
-62.18784
 20
-86.07456
 11
-56.42208
 21
-86.07456
  0
LINE
  8
DETAIL
  6
CONTINOUS
 62
     5
 10
-56.42208
 20
-91.84032
 11
-56.42208
 21
-86.07456
  0
LINE
  8
DETAIL
  6
CONTINOUS
 62
     5
 10
-62.18784
 20
-91.84032
 11
-56.42208
 21
-91.84032
  0
LINE
  8
DETAIL
  6
CONTINOUS
 62
     5
 10
-62.18784
 20
-91.84032
 11
-62.18784
 21
-86.07456
  0
LINE
  8
DETAIL
  6
CONTINOUS
 62
     5
 10
-62.18784
 20
-93.48768
 11
-56.42208
 21
-93.48768
  0
LINE
  8
DETAIL
  6
CONTINOUS
 62
     5
 10
-56.42208
 20
-99.25344
 11
-56.42208
 21
-93.48768
  0
LINE
  8
DETAIL
  6
CONTINOUS
 62
     5
 10
-62.18784
 20
-99.25344
 11
-56.42208
 21
-99.25344
  0
LINE
  8
DETAIL
  6
CONTINOUS
 62
     5
 10
-62.18784
 20
-99.25344
 11
-62.18784
 21
-93.48768
  0
LINE
  8
DETAIL
  6
CONTINOUS
 62
     5
 10
-69.60096
 20
99.25344
 11
-63.8352
 21
99.25344
  0
LINE
  8
DETAIL
  6
CONTINOUS
 62
     5
 10
-63.8352
 20
93.48768
 11
-63.8352
 21
99.25344
  0
LINE
  8
DETAIL
  6
CONTINOUS
 62
     5
 10
-69.60096
 20
93.48768
 11
-63.8352
 21
93.48768
  0
LINE
  8
DETAIL
  6
CONTINOUS
 62
     5
 10
-69.60096
 20
93.48768
 11
-69.60096
 21
99.25344
  0
LINE
  8
DETAIL
  6
CONTINOUS
 62
     5
 10
-69.60096
 20
91.84032
 11
-63.8352
 21
91.84032
  0
LINE
  8
DETAIL
  6
CONTINOUS
 62
     5
 10
-63.8352
 20
86.07456
 11
-63.8352
 21
91.84032
  0
LINE
  8
DETAIL
  6
CONTINOUS
 62
     5
 10
-69.60096
 20
86.07456
 11
-63.8352
 21
86.07456
  0
LINE
  8
DETAIL
  6
CONTINOUS
 62
     5
 10
-69.60096
 20
86.07456
 11
-69.60096
 21
91.84032
  0
LINE
  8
DETAIL
  6
CONTINOUS
 62
     5
 10
-69.60096
 20
84.4272
 11
-63.8352
 21
84.4272
  0
LINE
  8
DETAIL
  6
CONTINOUS
 62
     5
 10
-63.8352
 20
78.66144
 11
-63.8352
 21
84.4272
  0
LINE
  8
DETAIL
  6
CONTINOUS
 62
     5
 10
-69.60096
 20
78.66144
 11
-63.8352
 21
78.66144
  0
LINE
  8
DETAIL
  6
CONTINOUS
 62
     5
 10
-69.60096
 20
78.66144
 11
-69.60096
 21
84.4272
  0
LINE
  8
DETAIL
  6
CONTINOUS
 62
     5
 10
-69.60096
 20
77.01408
 11
-63.8352
 21
77.01408
  0
LINE
  8
DETAIL
  6
CONTINOUS
 62
     5
 10
-63.8352
 20
71.24832
 11
-63.8352
 21
77.01408
  0
LINE
  8
DETAIL
  6
CONTINOUS
 62
     5
 10
-69.60096
 20
71.24832
 11
-63.8352
 21
71.24832
  0
LINE
  8
DETAIL
  6
CONTINOUS
 62
     5
 10
-69.60096
 20
71.24832
 11
-69.60096
 21
77.01408
  0
LINE
  8
DETAIL
  6
CONTINOUS
 62
     5
 10
-69.60096
 20
69.60096
 11
-63.8352
 21
69.60096
  0
LINE
  8
DETAIL
  6
CONTINOUS
 62
     5
 10
-63.8352
 20
63.8352
 11
-63.8352
 21
69.60096
  0
LINE
  8
DETAIL
  6
CONTINOUS
 62
     5
 10
-69.60096
 20
63.8352
 11
-63.8352
 21
63.8352
  0
LINE
  8
DETAIL
  6
CONTINOUS
 62
     5
 10
-69.60096
 20
63.8352
 11
-69.60096
 21
69.60096
  0
LINE
  8
DETAIL
  6
CONTINOUS
 62
     5
 10
-69.60096
 20
62.18784
 11
-63.8352
 21
62.18784
  0
LINE
  8
DETAIL
  6
CONTINOUS
 62
     5
 10
-63.8352
 20
56.42208
 11
-63.8352
 21
62.18784
  0
LINE
  8
DETAIL
  6
CONTINOUS
 62
     5
 10
-69.60096
 20
56.42208
 11
-63.8352
 21
56.42208
  0
LINE
  8
DETAIL
  6
CONTINOUS
 62
     5
 10
-69.60096
 20
56.42208
 11
-69.60096
 21
62.18784
  0
LINE
  8
DETAIL
  6
CONTINOUS
 62
     5
 10
-69.60096
 20
54.77472
 11
-63.8352
 21
54.77472
  0
LINE
  8
DETAIL
  6
CONTINOUS
 62
     5
 10
-63.8352
 20
49.00896
 11
-63.8352
 21
54.77472
  0
LINE
  8
DETAIL
  6
CONTINOUS
 62
     5
 10
-69.60096
 20
49.00896
 11
-63.8352
 21
49.00896
  0
LINE
  8
DETAIL
  6
CONTINOUS
 62
     5
 10
-69.60096
 20
49.00896
 11
-69.60096
 21
54.77472
  0
LINE
  8
DETAIL
  6
CONTINOUS
 62
     5
 10
-69.60096
 20
47.3616
 11
-63.8352
 21
47.3616
  0
LINE
  8
DETAIL
  6
CONTINOUS
 62
     5
 10
-63.8352
 20
41.59584
 11
-63.8352
 21
47.3616
  0
LINE
  8
DETAIL
  6
CONTINOUS
 62
     5
 10
-69.60096
 20
41.59584
 11
-63.8352
 21
41.59584
  0
LINE
  8
DETAIL
  6
CONTINOUS
 62
     5
 10
-69.60096
 20
41.59584
 11
-69.60096
 21
47.3616
  0
LINE
  8
DETAIL
  6
CONTINOUS
 62
     5
 10
-69.60096
 20
39.94848
 11
-63.8352
 21
39.94848
  0
LINE
  8
DETAIL
  6
CONTINOUS
 62
     5
 10
-63.8352
 20
34.18272
 11
-63.8352
 21
39.94848
  0
LINE
  8
DETAIL
  6
CONTINOUS
 62
     5
 10
-69.60096
 20
34.18272
 11
-63.8352
 21
34.18272
  0
LINE
  8
DETAIL
  6
CONTINOUS
 62
     5
 10
-69.60096
 20
34.18272
 11
-69.60096
 21
39.94848
  0
LINE
  8
DETAIL
  6
CONTINOUS
 62
     5
 10
-69.60096
 20
32.53536
 11
-63.8352
 21
32.53536
  0
LINE
  8
DETAIL
  6
CONTINOUS
 62
     5
 10
-63.8352
 20
26.7696
 11
-63.8352
 21
32.53536
  0
LINE
  8
DETAIL
  6
CONTINOUS
 62
     5
 10
-69.60096
 20
26.7696
 11
-63.8352
 21
26.7696
  0
LINE
  8
DETAIL
  6
CONTINOUS
 62
     5
 10
-69.60096
 20
26.7696
 11
-69.60096
 21
32.53536
  0
LINE
  8
DETAIL
  6
CONTINOUS
 62
     5
 10
-69.60096
 20
25.12224
 11
-63.8352
 21
25.12224
  0
LINE
  8
DETAIL
  6
CONTINOUS
 62
     5
 10
-63.8352
 20
19.35648
 11
-63.8352
 21
25.12224
  0
LINE
  8
DETAIL
  6
CONTINOUS
 62
     5
 10
-69.60096
 20
19.35648
 11
-63.8352
 21
19.35648
  0
LINE
  8
DETAIL
  6
CONTINOUS
 62
     5
 10
-69.60096
 20
19.35648
 11
-69.60096
 21
25.12224
  0
LINE
  8
DETAIL
  6
CONTINOUS
 62
     5
 10
-69.60096
 20
17.70912
 11
-63.8352
 21
17.70912
  0
LINE
  8
DETAIL
  6
CONTINOUS
 62
     5
 10
-63.8352
 20
11.94336
 11
-63.8352
 21
17.70912
  0
LINE
  8
DETAIL
  6
CONTINOUS
 62
     5
 10
-69.60096
 20
11.94336
 11
-63.8352
 21
11.94336
  0
LINE
  8
DETAIL
  6
CONTINOUS
 62
     5
 10
-69.60096
 20
11.94336
 11
-69.60096
 21
17.70912
  0
LINE
  8
DETAIL
  6
CONTINOUS
 62
     5
 10
-69.60096
 20
10.296
 11
-63.8352
 21
10.296
  0
LINE
  8
DETAIL
  6
CONTINOUS
 62
     5
 10
-63.8352
 20
4.53024
 11
-63.8352
 21
10.296
  0
LINE
  8
DETAIL
  6
CONTINOUS
 62
     5
 10
-69.60096
 20
4.53024
 11
-63.8352
 21
4.53024
  0
LINE
  8
DETAIL
  6
CONTINOUS
 62
     5
 10
-69.60096
 20
4.53024
 11
-69.60096
 21
10.296
  0
LINE
  8
DETAIL
  6
CONTINOUS
 62
     5
 10
-69.60096
 20
2.88288
 11
-63.8352
 21
2.88288
  0
LINE
  8
DETAIL
  6
CONTINOUS
 62
     5
 10
-63.8352
 20
-2.88288
 11
-63.8352
 21
2.88288
  0
LINE
  8
DETAIL
  6
CONTINOUS
 62
     5
 10
-69.60096
 20
-2.88288
 11
-63.8352
 21
-2.88288
  0
LINE
  8
DETAIL
  6
CONTINOUS
 62
     5
 10
-69.60096
 20
-2.88288
 11
-69.60096
 21
2.88288
  0
LINE
  8
DETAIL
  6
CONTINOUS
 62
     5
 10
-69.60096
 20
-4.53024
 11
-63.8352
 21
-4.53024
  0
LINE
  8
DETAIL
  6
CONTINOUS
 62
     5
 10
-63.8352
 20
-10.296
 11
-63.8352
 21
-4.53024
  0
LINE
  8
DETAIL
  6
CONTINOUS
 62
     5
 10
-69.60096
 20
-10.296
 11
-63.8352
 21
-10.296
  0
LINE
  8
DETAIL
  6
CONTINOUS
 62
     5
 10
-69.60096
 20
-10.296
 11
-69.60096
 21
-4.53024
  0
LINE
  8
DETAIL
  6
CONTINOUS
 62
     5
 10
-69.60096
 20
-11.94336
 11
-63.8352
 21
-11.94336
  0
LINE
  8
DETAIL
  6
CONTINOUS
 62
     5
 10
-63.8352
 20
-17.70912
 11
-63.8352
 21
-11.94336
  0
LINE
  8
DETAIL
  6
CONTINOUS
 62
     5
 10
-69.60096
 20
-17.70912
 11
-63.8352
 21
-17.70912
  0
LINE
  8
DETAIL
  6
CONTINOUS
 62
     5
 10
-69.60096
 20
-17.70912
 11
-69.60096
 21
-11.94336
  0
LINE
  8
DETAIL
  6
CONTINOUS
 62
     5
 10
-69.60096
 20
-19.35648
 11
-63.8352
 21
-19.35648
  0
LINE
  8
DETAIL
  6
CONTINOUS
 62
     5
 10
-63.8352
 20
-25.12224
 11
-63.8352
 21
-19.35648
  0
LINE
  8
DETAIL
  6
CONTINOUS
 62
     5
 10
-69.60096
 20
-25.12224
 11
-63.8352
 21
-25.12224
  0
LINE
  8
DETAIL
  6
CONTINOUS
 62
     5
 10
-69.60096
 20
-25.12224
 11
-69.60096
 21
-19.35648
  0
LINE
  8
DETAIL
  6
CONTINOUS
 62
     5
 10
-69.60096
 20
-26.7696
 11
-63.8352
 21
-26.7696
  0
LINE
  8
DETAIL
  6
CONTINOUS
 62
     5
 10
-63.8352
 20
-32.53536
 11
-63.8352
 21
-26.7696
  0
LINE
  8
DETAIL
  6
CONTINOUS
 62
     5
 10
-69.60096
 20
-32.53536
 11
-63.8352
 21
-32.53536
  0
LINE
  8
DETAIL
  6
CONTINOUS
 62
     5
 10
-69.60096
 20
-32.53536
 11
-69.60096
 21
-26.7696
  0
LINE
  8
DETAIL
  6
CONTINOUS
 62
     5
 10
-69.60096
 20
-34.18272
 11
-63.8352
 21
-34.18272
  0
LINE
  8
DETAIL
  6
CONTINOUS
 62
     5
 10
-63.8352
 20
-39.94848
 11
-63.8352
 21
-34.18272
  0
LINE
  8
DETAIL
  6
CONTINOUS
 62
     5
 10
-69.60096
 20
-39.94848
 11
-63.8352
 21
-39.94848
  0
LINE
  8
DETAIL
  6
CONTINOUS
 62
     5
 10
-69.60096
 20
-39.94848
 11
-69.60096
 21
-34.18272
  0
LINE
  8
DETAIL
  6
CONTINOUS
 62
     5
 10
-69.60096
 20
-41.59584
 11
-63.8352
 21
-41.59584
  0
LINE
  8
DETAIL
  6
CONTINOUS
 62
     5
 10
-63.8352
 20
-47.3616
 11
-63.8352
 21
-41.59584
  0
LINE
  8
DETAIL
  6
CONTINOUS
 62
     5
 10
-69.60096
 20
-47.3616
 11
-63.8352
 21
-47.3616
  0
LINE
  8
DETAIL
  6
CONTINOUS
 62
     5
 10
-69.60096
 20
-47.3616
 11
-69.60096
 21
-41.59584
  0
LINE
  8
DETAIL
  6
CONTINOUS
 62
     5
 10
-69.60096
 20
-49.00896
 11
-63.8352
 21
-49.00896
  0
LINE
  8
DETAIL
  6
CONTINOUS
 62
     5
 10
-63.8352
 20
-54.77472
 11
-63.8352
 21
-49.00896
  0
LINE
  8
DETAIL
  6
CONTINOUS
 62
     5
 10
-69.60096
 20
-54.77472
 11
-63.8352
 21
-54.77472
  0
LINE
  8
DETAIL
  6
CONTINOUS
 62
     5
 10
-69.60096
 20
-54.77472
 11
-69.60096
 21
-49.00896
  0
LINE
  8
DETAIL
  6
CONTINOUS
 62
     5
 10
-69.60096
 20
-56.42208
 11
-63.8352
 21
-56.42208
  0
LINE
  8
DETAIL
  6
CONTINOUS
 62
     5
 10
-63.8352
 20
-62.18784
 11
-63.8352
 21
-56.42208
  0
LINE
  8
DETAIL
  6
CONTINOUS
 62
     5
 10
-69.60096
 20
-62.18784
 11
-63.8352
 21
-62.18784
  0
LINE
  8
DETAIL
  6
CONTINOUS
 62
     5
 10
-69.60096
 20
-62.18784
 11
-69.60096
 21
-56.42208
  0
LINE
  8
DETAIL
  6
CONTINOUS
 62
     5
 10
-69.60096
 20
-63.8352
 11
-63.8352
 21
-63.8352
  0
LINE
  8
DETAIL
  6
CONTINOUS
 62
     5
 10
-63.8352
 20
-69.60096
 11
-63.8352
 21
-63.8352
  0
LINE
  8
DETAIL
  6
CONTINOUS
 62
     5
 10
-69.60096
 20
-69.60096
 11
-63.8352
 21
-69.60096
  0
LINE
  8
DETAIL
  6
CONTINOUS
 62
     5
 10
-69.60096
 20
-69.60096
 11
-69.60096
 21
-63.8352
  0
LINE
  8
DETAIL
  6
CONTINOUS
 62
     5
 10
-69.60096
 20
-71.24832
 11
-63.8352
 21
-71.24832
  0
LINE
  8
DETAIL
  6
CONTINOUS
 62
     5
 10
-63.8352
 20
-77.01408
 11
-63.8352
 21
-71.24832
  0
LINE
  8
DETAIL
  6
CONTINOUS
 62
     5
 10
-69.60096
 20
-77.01408
 11
-63.8352
 21
-77.01408
  0
LINE
  8
DETAIL
  6
CONTINOUS
 62
     5
 10
-69.60096
 20
-77.01408
 11
-69.60096
 21
-71.24832
  0
LINE
  8
DETAIL
  6
CONTINOUS
 62
     5
 10
-69.60096
 20
-78.66144
 11
-63.8352
 21
-78.66144
  0
LINE
  8
DETAIL
  6
CONTINOUS
 62
     5
 10
-63.8352
 20
-84.4272
 11
-63.8352
 21
-78.66144
  0
LINE
  8
DETAIL
  6
CONTINOUS
 62
     5
 10
-69.60096
 20
-84.4272
 11
-63.8352
 21
-84.4272
  0
LINE
  8
DETAIL
  6
CONTINOUS
 62
     5
 10
-69.60096
 20
-84.4272
 11
-69.60096
 21
-78.66144
  0
LINE
  8
DETAIL
  6
CONTINOUS
 62
     5
 10
-69.60096
 20
-86.07456
 11
-63.8352
 21
-86.07456
  0
LINE
  8
DETAIL
  6
CONTINOUS
 62
     5
 10
-63.8352
 20
-91.84032
 11
-63.8352
 21
-86.07456
  0
LINE
  8
DETAIL
  6
CONTINOUS
 62
     5
 10
-69.60096
 20
-91.84032
 11
-63.8352
 21
-91.84032
  0
LINE
  8
DETAIL
  6
CONTINOUS
 62
     5
 10
-69.60096
 20
-91.84032
 11
-69.60096
 21
-86.07456
  0
LINE
  8
DETAIL
  6
CONTINOUS
 62
     5
 10
-69.60096
 20
-93.48768
 11
-63.8352
 21
-93.48768
  0
LINE
  8
DETAIL
  6
CONTINOUS
 62
     5
 10
-63.8352
 20
-99.25344
 11
-63.8352
 21
-93.48768
  0
LINE
  8
DETAIL
  6
CONTINOUS
 62
     5
 10
-69.60096
 20
-99.25344
 11
-63.8352
 21
-99.25344
  0
LINE
  8
DETAIL
  6
CONTINOUS
 62
     5
 10
-69.60096
 20
-99.25344
 11
-69.60096
 21
-93.48768
  0
LINE
  8
DETAIL
  6
CONTINOUS
 62
     5
 10
-77.01408
 20
99.25344
 11
-71.24832
 21
99.25344
  0
LINE
  8
DETAIL
  6
CONTINOUS
 62
     5
 10
-71.24832
 20
93.48768
 11
-71.24832
 21
99.25344
  0
LINE
  8
DETAIL
  6
CONTINOUS
 62
     5
 10
-77.01408
 20
93.48768
 11
-71.24832
 21
93.48768
  0
LINE
  8
DETAIL
  6
CONTINOUS
 62
     5
 10
-77.01408
 20
93.48768
 11
-77.01408
 21
99.25344
  0
LINE
  8
DETAIL
  6
CONTINOUS
 62
     5
 10
-77.01408
 20
91.84032
 11
-71.24832
 21
91.84032
  0
LINE
  8
DETAIL
  6
CONTINOUS
 62
     5
 10
-71.24832
 20
86.07456
 11
-71.24832
 21
91.84032
  0
LINE
  8
DETAIL
  6
CONTINOUS
 62
     5
 10
-77.01408
 20
86.07456
 11
-71.24832
 21
86.07456
  0
LINE
  8
DETAIL
  6
CONTINOUS
 62
     5
 10
-77.01408
 20
86.07456
 11
-77.01408
 21
91.84032
  0
LINE
  8
DETAIL
  6
CONTINOUS
 62
     5
 10
-77.01408
 20
84.4272
 11
-71.24832
 21
84.4272
  0
LINE
  8
DETAIL
  6
CONTINOUS
 62
     5
 10
-71.24832
 20
78.66144
 11
-71.24832
 21
84.4272
  0
LINE
  8
DETAIL
  6
CONTINOUS
 62
     5
 10
-77.01408
 20
78.66144
 11
-71.24832
 21
78.66144
  0
LINE
  8
DETAIL
  6
CONTINOUS
 62
     5
 10
-77.01408
 20
78.66144
 11
-77.01408
 21
84.4272
  0
LINE
  8
DETAIL
  6
CONTINOUS
 62
     5
 10
-77.01408
 20
77.01408
 11
-71.24832
 21
77.01408
  0
LINE
  8
DETAIL
  6
CONTINOUS
 62
     5
 10
-71.24832
 20
71.24832
 11
-71.24832
 21
77.01408
  0
LINE
  8
DETAIL
  6
CONTINOUS
 62
     5
 10
-77.01408
 20
71.24832
 11
-71.24832
 21
71.24832
  0
LINE
  8
DETAIL
  6
CONTINOUS
 62
     5
 10
-77.01408
 20
71.24832
 11
-77.01408
 21
77.01408
  0
LINE
  8
DETAIL
  6
CONTINOUS
 62
     5
 10
-77.01408
 20
69.60096
 11
-71.24832
 21
69.60096
  0
LINE
  8
DETAIL
  6
CONTINOUS
 62
     5
 10
-71.24832
 20
63.8352
 11
-71.24832
 21
69.60096
  0
LINE
  8
DETAIL
  6
CONTINOUS
 62
     5
 10
-77.01408
 20
63.8352
 11
-71.24832
 21
63.8352
  0
LINE
  8
DETAIL
  6
CONTINOUS
 62
     5
 10
-77.01408
 20
63.8352
 11
-77.01408
 21
69.60096
  0
LINE
  8
DETAIL
  6
CONTINOUS
 62
     5
 10
-77.01408
 20
62.18784
 11
-71.24832
 21
62.18784
  0
LINE
  8
DETAIL
  6
CONTINOUS
 62
     5
 10
-71.24832
 20
56.42208
 11
-71.24832
 21
62.18784
  0
LINE
  8
DETAIL
  6
CONTINOUS
 62
     5
 10
-77.01408
 20
56.42208
 11
-71.24832
 21
56.42208
  0
LINE
  8
DETAIL
  6
CONTINOUS
 62
     5
 10
-77.01408
 20
56.42208
 11
-77.01408
 21
62.18784
  0
LINE
  8
DETAIL
  6
CONTINOUS
 62
     5
 10
-77.01408
 20
54.77472
 11
-71.24832
 21
54.77472
  0
LINE
  8
DETAIL
  6
CONTINOUS
 62
     5
 10
-71.24832
 20
49.00896
 11
-71.24832
 21
54.77472
  0
LINE
  8
DETAIL
  6
CONTINOUS
 62
     5
 10
-77.01408
 20
49.00896
 11
-71.24832
 21
49.00896
  0
LINE
  8
DETAIL
  6
CONTINOUS
 62
     5
 10
-77.01408
 20
49.00896
 11
-77.01408
 21
54.77472
  0
LINE
  8
DETAIL
  6
CONTINOUS
 62
     5
 10
-77.01408
 20
47.3616
 11
-71.24832
 21
47.3616
  0
LINE
  8
DETAIL
  6
CONTINOUS
 62
     5
 10
-71.24832
 20
41.59584
 11
-71.24832
 21
47.3616
  0
LINE
  8
DETAIL
  6
CONTINOUS
 62
     5
 10
-77.01408
 20
41.59584
 11
-71.24832
 21
41.59584
  0
LINE
  8
DETAIL
  6
CONTINOUS
 62
     5
 10
-77.01408
 20
41.59584
 11
-77.01408
 21
47.3616
  0
LINE
  8
DETAIL
  6
CONTINOUS
 62
     5
 10
-77.01408
 20
39.94848
 11
-71.24832
 21
39.94848
  0
LINE
  8
DETAIL
  6
CONTINOUS
 62
     5
 10
-71.24832
 20
34.18272
 11
-71.24832
 21
39.94848
  0
LINE
  8
DETAIL
  6
CONTINOUS
 62
     5
 10
-77.01408
 20
34.18272
 11
-71.24832
 21
34.18272
  0
LINE
  8
DETAIL
  6
CONTINOUS
 62
     5
 10
-77.01408
 20
34.18272
 11
-77.01408
 21
39.94848
  0
LINE
  8
DETAIL
  6
CONTINOUS
 62
     5
 10
-77.01408
 20
32.53536
 11
-71.24832
 21
32.53536
  0
LINE
  8
DETAIL
  6
CONTINOUS
 62
     5
 10
-71.24832
 20
26.7696
 11
-71.24832
 21
32.53536
  0
LINE
  8
DETAIL
  6
CONTINOUS
 62
     5
 10
-77.01408
 20
26.7696
 11
-71.24832
 21
26.7696
  0
LINE
  8
DETAIL
  6
CONTINOUS
 62
     5
 10
-77.01408
 20
26.7696
 11
-77.01408
 21
32.53536
  0
LINE
  8
DETAIL
  6
CONTINOUS
 62
     5
 10
-77.01408
 20
25.12224
 11
-71.24832
 21
25.12224
  0
LINE
  8
DETAIL
  6
CONTINOUS
 62
     5
 10
-71.24832
 20
19.35648
 11
-71.24832
 21
25.12224
  0
LINE
  8
DETAIL
  6
CONTINOUS
 62
     5
 10
-77.01408
 20
19.35648
 11
-71.24832
 21
19.35648
  0
LINE
  8
DETAIL
  6
CONTINOUS
 62
     5
 10
-77.01408
 20
19.35648
 11
-77.01408
 21
25.12224
  0
LINE
  8
DETAIL
  6
CONTINOUS
 62
     5
 10
-77.01408
 20
17.70912
 11
-71.24832
 21
17.70912
  0
LINE
  8
DETAIL
  6
CONTINOUS
 62
     5
 10
-71.24832
 20
11.94336
 11
-71.24832
 21
17.70912
  0
LINE
  8
DETAIL
  6
CONTINOUS
 62
     5
 10
-77.01408
 20
11.94336
 11
-71.24832
 21
11.94336
  0
LINE
  8
DETAIL
  6
CONTINOUS
 62
     5
 10
-77.01408
 20
11.94336
 11
-77.01408
 21
17.70912
  0
LINE
  8
DETAIL
  6
CONTINOUS
 62
     5
 10
-77.01408
 20
10.296
 11
-71.24832
 21
10.296
  0
LINE
  8
DETAIL
  6
CONTINOUS
 62
     5
 10
-71.24832
 20
4.53024
 11
-71.24832
 21
10.296
  0
LINE
  8
DETAIL
  6
CONTINOUS
 62
     5
 10
-77.01408
 20
4.53024
 11
-71.24832
 21
4.53024
  0
LINE
  8
DETAIL
  6
CONTINOUS
 62
     5
 10
-77.01408
 20
4.53024
 11
-77.01408
 21
10.296
  0
LINE
  8
DETAIL
  6
CONTINOUS
 62
     5
 10
-77.01408
 20
2.88288
 11
-71.24832
 21
2.88288
  0
LINE
  8
DETAIL
  6
CONTINOUS
 62
     5
 10
-71.24832
 20
-2.88288
 11
-71.24832
 21
2.88288
  0
LINE
  8
DETAIL
  6
CONTINOUS
 62
     5
 10
-77.01408
 20
-2.88288
 11
-71.24832
 21
-2.88288
  0
LINE
  8
DETAIL
  6
CONTINOUS
 62
     5
 10
-77.01408
 20
-2.88288
 11
-77.01408
 21
2.88288
  0
LINE
  8
DETAIL
  6
CONTINOUS
 62
     5
 10
-77.01408
 20
-4.53024
 11
-71.24832
 21
-4.53024
  0
LINE
  8
DETAIL
  6
CONTINOUS
 62
     5
 10
-71.24832
 20
-10.296
 11
-71.24832
 21
-4.53024
  0
LINE
  8
DETAIL
  6
CONTINOUS
 62
     5
 10
-77.01408
 20
-10.296
 11
-71.24832
 21
-10.296
  0
LINE
  8
DETAIL
  6
CONTINOUS
 62
     5
 10
-77.01408
 20
-10.296
 11
-77.01408
 21
-4.53024
  0
LINE
  8
DETAIL
  6
CONTINOUS
 62
     5
 10
-77.01408
 20
-11.94336
 11
-71.24832
 21
-11.94336
  0
LINE
  8
DETAIL
  6
CONTINOUS
 62
     5
 10
-71.24832
 20
-17.70912
 11
-71.24832
 21
-11.94336
  0
LINE
  8
DETAIL
  6
CONTINOUS
 62
     5
 10
-77.01408
 20
-17.70912
 11
-71.24832
 21
-17.70912
  0
LINE
  8
DETAIL
  6
CONTINOUS
 62
     5
 10
-77.01408
 20
-17.70912
 11
-77.01408
 21
-11.94336
  0
LINE
  8
DETAIL
  6
CONTINOUS
 62
     5
 10
-77.01408
 20
-19.35648
 11
-71.24832
 21
-19.35648
  0
LINE
  8
DETAIL
  6
CONTINOUS
 62
     5
 10
-71.24832
 20
-25.12224
 11
-71.24832
 21
-19.35648
  0
LINE
  8
DETAIL
  6
CONTINOUS
 62
     5
 10
-77.01408
 20
-25.12224
 11
-71.24832
 21
-25.12224
  0
LINE
  8
DETAIL
  6
CONTINOUS
 62
     5
 10
-77.01408
 20
-25.12224
 11
-77.01408
 21
-19.35648
  0
LINE
  8
DETAIL
  6
CONTINOUS
 62
     5
 10
-77.01408
 20
-26.7696
 11
-71.24832
 21
-26.7696
  0
LINE
  8
DETAIL
  6
CONTINOUS
 62
     5
 10
-71.24832
 20
-32.53536
 11
-71.24832
 21
-26.7696
  0
LINE
  8
DETAIL
  6
CONTINOUS
 62
     5
 10
-77.01408
 20
-32.53536
 11
-71.24832
 21
-32.53536
  0
LINE
  8
DETAIL
  6
CONTINOUS
 62
     5
 10
-77.01408
 20
-32.53536
 11
-77.01408
 21
-26.7696
  0
LINE
  8
DETAIL
  6
CONTINOUS
 62
     5
 10
-77.01408
 20
-34.18272
 11
-71.24832
 21
-34.18272
  0
LINE
  8
DETAIL
  6
CONTINOUS
 62
     5
 10
-71.24832
 20
-39.94848
 11
-71.24832
 21
-34.18272
  0
LINE
  8
DETAIL
  6
CONTINOUS
 62
     5
 10
-77.01408
 20
-39.94848
 11
-71.24832
 21
-39.94848
  0
LINE
  8
DETAIL
  6
CONTINOUS
 62
     5
 10
-77.01408
 20
-39.94848
 11
-77.01408
 21
-34.18272
  0
LINE
  8
DETAIL
  6
CONTINOUS
 62
     5
 10
-77.01408
 20
-41.59584
 11
-71.24832
 21
-41.59584
  0
LINE
  8
DETAIL
  6
CONTINOUS
 62
     5
 10
-71.24832
 20
-47.3616
 11
-71.24832
 21
-41.59584
  0
LINE
  8
DETAIL
  6
CONTINOUS
 62
     5
 10
-77.01408
 20
-47.3616
 11
-71.24832
 21
-47.3616
  0
LINE
  8
DETAIL
  6
CONTINOUS
 62
     5
 10
-77.01408
 20
-47.3616
 11
-77.01408
 21
-41.59584
  0
LINE
  8
DETAIL
  6
CONTINOUS
 62
     5
 10
-77.01408
 20
-49.00896
 11
-71.24832
 21
-49.00896
  0
LINE
  8
DETAIL
  6
CONTINOUS
 62
     5
 10
-71.24832
 20
-54.77472
 11
-71.24832
 21
-49.00896
  0
LINE
  8
DETAIL
  6
CONTINOUS
 62
     5
 10
-77.01408
 20
-54.77472
 11
-71.24832
 21
-54.77472
  0
LINE
  8
DETAIL
  6
CONTINOUS
 62
     5
 10
-77.01408
 20
-54.77472
 11
-77.01408
 21
-49.00896
  0
LINE
  8
DETAIL
  6
CONTINOUS
 62
     5
 10
-77.01408
 20
-56.42208
 11
-71.24832
 21
-56.42208
  0
LINE
  8
DETAIL
  6
CONTINOUS
 62
     5
 10
-71.24832
 20
-62.18784
 11
-71.24832
 21
-56.42208
  0
LINE
  8
DETAIL
  6
CONTINOUS
 62
     5
 10
-77.01408
 20
-62.18784
 11
-71.24832
 21
-62.18784
  0
LINE
  8
DETAIL
  6
CONTINOUS
 62
     5
 10
-77.01408
 20
-62.18784
 11
-77.01408
 21
-56.42208
  0
LINE
  8
DETAIL
  6
CONTINOUS
 62
     5
 10
-77.01408
 20
-63.8352
 11
-71.24832
 21
-63.8352
  0
LINE
  8
DETAIL
  6
CONTINOUS
 62
     5
 10
-71.24832
 20
-69.60096
 11
-71.24832
 21
-63.8352
  0
LINE
  8
DETAIL
  6
CONTINOUS
 62
     5
 10
-77.01408
 20
-69.60096
 11
-71.24832
 21
-69.60096
  0
LINE
  8
DETAIL
  6
CONTINOUS
 62
     5
 10
-77.01408
 20
-69.60096
 11
-77.01408
 21
-63.8352
  0
LINE
  8
DETAIL
  6
CONTINOUS
 62
     5
 10
-77.01408
 20
-71.24832
 11
-71.24832
 21
-71.24832
  0
LINE
  8
DETAIL
  6
CONTINOUS
 62
     5
 10
-71.24832
 20
-77.01408
 11
-71.24832
 21
-71.24832
  0
LINE
  8
DETAIL
  6
CONTINOUS
 62
     5
 10
-77.01408
 20
-77.01408
 11
-71.24832
 21
-77.01408
  0
LINE
  8
DETAIL
  6
CONTINOUS
 62
     5
 10
-77.01408
 20
-77.01408
 11
-77.01408
 21
-71.24832
  0
LINE
  8
DETAIL
  6
CONTINOUS
 62
     5
 10
-77.01408
 20
-78.66144
 11
-71.24832
 21
-78.66144
  0
LINE
  8
DETAIL
  6
CONTINOUS
 62
     5
 10
-71.24832
 20
-84.4272
 11
-71.24832
 21
-78.66144
  0
LINE
  8
DETAIL
  6
CONTINOUS
 62
     5
 10
-77.01408
 20
-84.4272
 11
-71.24832
 21
-84.4272
  0
LINE
  8
DETAIL
  6
CONTINOUS
 62
     5
 10
-77.01408
 20
-84.4272
 11
-77.01408
 21
-78.66144
  0
LINE
  8
DETAIL
  6
CONTINOUS
 62
     5
 10
-77.01408
 20
-86.07456
 11
-71.24832
 21
-86.07456
  0
LINE
  8
DETAIL
  6
CONTINOUS
 62
     5
 10
-71.24832
 20
-91.84032
 11
-71.24832
 21
-86.07456
  0
LINE
  8
DETAIL
  6
CONTINOUS
 62
     5
 10
-77.01408
 20
-91.84032
 11
-71.24832
 21
-91.84032
  0
LINE
  8
DETAIL
  6
CONTINOUS
 62
     5
 10
-77.01408
 20
-91.84032
 11
-77.01408
 21
-86.07456
  0
LINE
  8
DETAIL
  6
CONTINOUS
 62
     5
 10
-77.01408
 20
-93.48768
 11
-71.24832
 21
-93.48768
  0
LINE
  8
DETAIL
  6
CONTINOUS
 62
     5
 10
-71.24832
 20
-99.25344
 11
-71.24832
 21
-93.48768
  0
LINE
  8
DETAIL
  6
CONTINOUS
 62
     5
 10
-77.01408
 20
-99.25344
 11
-71.24832
 21
-99.25344
  0
LINE
  8
DETAIL
  6
CONTINOUS
 62
     5
 10
-77.01408
 20
-99.25344
 11
-77.01408
 21
-93.48768
  0
LINE
  8
DETAIL
  6
CONTINOUS
 62
     5
 10
-84.4272
 20
99.25344
 11
-78.66144
 21
99.25344
  0
LINE
  8
DETAIL
  6
CONTINOUS
 62
     5
 10
-78.66144
 20
93.48768
 11
-78.66144
 21
99.25344
  0
LINE
  8
DETAIL
  6
CONTINOUS
 62
     5
 10
-84.4272
 20
93.48768
 11
-78.66144
 21
93.48768
  0
LINE
  8
DETAIL
  6
CONTINOUS
 62
     5
 10
-84.4272
 20
93.48768
 11
-84.4272
 21
99.25344
  0
LINE
  8
DETAIL
  6
CONTINOUS
 62
     5
 10
-84.4272
 20
91.84032
 11
-78.66144
 21
91.84032
  0
LINE
  8
DETAIL
  6
CONTINOUS
 62
     5
 10
-78.66144
 20
86.07456
 11
-78.66144
 21
91.84032
  0
LINE
  8
DETAIL
  6
CONTINOUS
 62
     5
 10
-84.4272
 20
86.07456
 11
-78.66144
 21
86.07456
  0
LINE
  8
DETAIL
  6
CONTINOUS
 62
     5
 10
-84.4272
 20
86.07456
 11
-84.4272
 21
91.84032
  0
LINE
  8
DETAIL
  6
CONTINOUS
 62
     5
 10
-84.4272
 20
84.4272
 11
-78.66144
 21
84.4272
  0
LINE
  8
DETAIL
  6
CONTINOUS
 62
     5
 10
-78.66144
 20
78.66144
 11
-78.66144
 21
84.4272
  0
LINE
  8
DETAIL
  6
CONTINOUS
 62
     5
 10
-84.4272
 20
78.66144
 11
-78.66144
 21
78.66144
  0
LINE
  8
DETAIL
  6
CONTINOUS
 62
     5
 10
-84.4272
 20
78.66144
 11
-84.4272
 21
84.4272
  0
LINE
  8
DETAIL
  6
CONTINOUS
 62
     5
 10
-84.4272
 20
77.01408
 11
-78.66144
 21
77.01408
  0
LINE
  8
DETAIL
  6
CONTINOUS
 62
     5
 10
-78.66144
 20
71.24832
 11
-78.66144
 21
77.01408
  0
LINE
  8
DETAIL
  6
CONTINOUS
 62
     5
 10
-84.4272
 20
71.24832
 11
-78.66144
 21
71.24832
  0
LINE
  8
DETAIL
  6
CONTINOUS
 62
     5
 10
-84.4272
 20
71.24832
 11
-84.4272
 21
77.01408
  0
LINE
  8
DETAIL
  6
CONTINOUS
 62
     5
 10
-84.4272
 20
69.60096
 11
-78.66144
 21
69.60096
  0
LINE
  8
DETAIL
  6
CONTINOUS
 62
     5
 10
-78.66144
 20
63.8352
 11
-78.66144
 21
69.60096
  0
LINE
  8
DETAIL
  6
CONTINOUS
 62
     5
 10
-84.4272
 20
63.8352
 11
-78.66144
 21
63.8352
  0
LINE
  8
DETAIL
  6
CONTINOUS
 62
     5
 10
-84.4272
 20
63.8352
 11
-84.4272
 21
69.60096
  0
LINE
  8
DETAIL
  6
CONTINOUS
 62
     5
 10
-84.4272
 20
62.18784
 11
-78.66144
 21
62.18784
  0
LINE
  8
DETAIL
  6
CONTINOUS
 62
     5
 10
-78.66144
 20
56.42208
 11
-78.66144
 21
62.18784
  0
LINE
  8
DETAIL
  6
CONTINOUS
 62
     5
 10
-84.4272
 20
56.42208
 11
-78.66144
 21
56.42208
  0
LINE
  8
DETAIL
  6
CONTINOUS
 62
     5
 10
-84.4272
 20
56.42208
 11
-84.4272
 21
62.18784
  0
LINE
  8
DETAIL
  6
CONTINOUS
 62
     5
 10
-84.4272
 20
54.77472
 11
-78.66144
 21
54.77472
  0
LINE
  8
DETAIL
  6
CONTINOUS
 62
     5
 10
-78.66144
 20
49.00896
 11
-78.66144
 21
54.77472
  0
LINE
  8
DETAIL
  6
CONTINOUS
 62
     5
 10
-84.4272
 20
49.00896
 11
-78.66144
 21
49.00896
  0
LINE
  8
DETAIL
  6
CONTINOUS
 62
     5
 10
-84.4272
 20
49.00896
 11
-84.4272
 21
54.77472
  0
LINE
  8
DETAIL
  6
CONTINOUS
 62
     5
 10
-84.4272
 20
47.3616
 11
-78.66144
 21
47.3616
  0
LINE
  8
DETAIL
  6
CONTINOUS
 62
     5
 10
-78.66144
 20
41.59584
 11
-78.66144
 21
47.3616
  0
LINE
  8
DETAIL
  6
CONTINOUS
 62
     5
 10
-84.4272
 20
41.59584
 11
-78.66144
 21
41.59584
  0
LINE
  8
DETAIL
  6
CONTINOUS
 62
     5
 10
-84.4272
 20
41.59584
 11
-84.4272
 21
47.3616
  0
LINE
  8
DETAIL
  6
CONTINOUS
 62
     5
 10
-84.4272
 20
39.94848
 11
-78.66144
 21
39.94848
  0
LINE
  8
DETAIL
  6
CONTINOUS
 62
     5
 10
-78.66144
 20
34.18272
 11
-78.66144
 21
39.94848
  0
LINE
  8
DETAIL
  6
CONTINOUS
 62
     5
 10
-84.4272
 20
34.18272
 11
-78.66144
 21
34.18272
  0
LINE
  8
DETAIL
  6
CONTINOUS
 62
     5
 10
-84.4272
 20
34.18272
 11
-84.4272
 21
39.94848
  0
LINE
  8
DETAIL
  6
CONTINOUS
 62
     5
 10
-84.4272
 20
32.53536
 11
-78.66144
 21
32.53536
  0
LINE
  8
DETAIL
  6
CONTINOUS
 62
     5
 10
-78.66144
 20
26.7696
 11
-78.66144
 21
32.53536
  0
LINE
  8
DETAIL
  6
CONTINOUS
 62
     5
 10
-84.4272
 20
26.7696
 11
-78.66144
 21
26.7696
  0
LINE
  8
DETAIL
  6
CONTINOUS
 62
     5
 10
-84.4272
 20
26.7696
 11
-84.4272
 21
32.53536
  0
LINE
  8
DETAIL
  6
CONTINOUS
 62
     5
 10
-84.4272
 20
25.12224
 11
-78.66144
 21
25.12224
  0
LINE
  8
DETAIL
  6
CONTINOUS
 62
     5
 10
-78.66144
 20
19.35648
 11
-78.66144
 21
25.12224
  0
LINE
  8
DETAIL
  6
CONTINOUS
 62
     5
 10
-84.4272
 20
19.35648
 11
-78.66144
 21
19.35648
  0
LINE
  8
DETAIL
  6
CONTINOUS
 62
     5
 10
-84.4272
 20
19.35648
 11
-84.4272
 21
25.12224
  0
LINE
  8
DETAIL
  6
CONTINOUS
 62
     5
 10
-84.4272
 20
17.70912
 11
-78.66144
 21
17.70912
  0
LINE
  8
DETAIL
  6
CONTINOUS
 62
     5
 10
-78.66144
 20
11.94336
 11
-78.66144
 21
17.70912
  0
LINE
  8
DETAIL
  6
CONTINOUS
 62
     5
 10
-84.4272
 20
11.94336
 11
-78.66144
 21
11.94336
  0
LINE
  8
DETAIL
  6
CONTINOUS
 62
     5
 10
-84.4272
 20
11.94336
 11
-84.4272
 21
17.70912
  0
LINE
  8
DETAIL
  6
CONTINOUS
 62
     5
 10
-84.4272
 20
10.296
 11
-78.66144
 21
10.296
  0
LINE
  8
DETAIL
  6
CONTINOUS
 62
     5
 10
-78.66144
 20
4.53024
 11
-78.66144
 21
10.296
  0
LINE
  8
DETAIL
  6
CONTINOUS
 62
     5
 10
-84.4272
 20
4.53024
 11
-78.66144
 21
4.53024
  0
LINE
  8
DETAIL
  6
CONTINOUS
 62
     5
 10
-84.4272
 20
4.53024
 11
-84.4272
 21
10.296
  0
LINE
  8
DETAIL
  6
CONTINOUS
 62
     5
 10
-84.4272
 20
2.88288
 11
-78.66144
 21
2.88288
  0
LINE
  8
DETAIL
  6
CONTINOUS
 62
     5
 10
-78.66144
 20
-2.88288
 11
-78.66144
 21
2.88288
  0
LINE
  8
DETAIL
  6
CONTINOUS
 62
     5
 10
-84.4272
 20
-2.88288
 11
-78.66144
 21
-2.88288
  0
LINE
  8
DETAIL
  6
CONTINOUS
 62
     5
 10
-84.4272
 20
-2.88288
 11
-84.4272
 21
2.88288
  0
LINE
  8
DETAIL
  6
CONTINOUS
 62
     5
 10
-84.4272
 20
-4.53024
 11
-78.66144
 21
-4.53024
  0
LINE
  8
DETAIL
  6
CONTINOUS
 62
     5
 10
-78.66144
 20
-10.296
 11
-78.66144
 21
-4.53024
  0
LINE
  8
DETAIL
  6
CONTINOUS
 62
     5
 10
-84.4272
 20
-10.296
 11
-78.66144
 21
-10.296
  0
LINE
  8
DETAIL
  6
CONTINOUS
 62
     5
 10
-84.4272
 20
-10.296
 11
-84.4272
 21
-4.53024
  0
LINE
  8
DETAIL
  6
CONTINOUS
 62
     5
 10
-84.4272
 20
-11.94336
 11
-78.66144
 21
-11.94336
  0
LINE
  8
DETAIL
  6
CONTINOUS
 62
     5
 10
-78.66144
 20
-17.70912
 11
-78.66144
 21
-11.94336
  0
LINE
  8
DETAIL
  6
CONTINOUS
 62
     5
 10
-84.4272
 20
-17.70912
 11
-78.66144
 21
-17.70912
  0
LINE
  8
DETAIL
  6
CONTINOUS
 62
     5
 10
-84.4272
 20
-17.70912
 11
-84.4272
 21
-11.94336
  0
LINE
  8
DETAIL
  6
CONTINOUS
 62
     5
 10
-84.4272
 20
-19.35648
 11
-78.66144
 21
-19.35648
  0
LINE
  8
DETAIL
  6
CONTINOUS
 62
     5
 10
-78.66144
 20
-25.12224
 11
-78.66144
 21
-19.35648
  0
LINE
  8
DETAIL
  6
CONTINOUS
 62
     5
 10
-84.4272
 20
-25.12224
 11
-78.66144
 21
-25.12224
  0
LINE
  8
DETAIL
  6
CONTINOUS
 62
     5
 10
-84.4272
 20
-25.12224
 11
-84.4272
 21
-19.35648
  0
LINE
  8
DETAIL
  6
CONTINOUS
 62
     5
 10
-84.4272
 20
-26.7696
 11
-78.66144
 21
-26.7696
  0
LINE
  8
DETAIL
  6
CONTINOUS
 62
     5
 10
-78.66144
 20
-32.53536
 11
-78.66144
 21
-26.7696
  0
LINE
  8
DETAIL
  6
CONTINOUS
 62
     5
 10
-84.4272
 20
-32.53536
 11
-78.66144
 21
-32.53536
  0
LINE
  8
DETAIL
  6
CONTINOUS
 62
     5
 10
-84.4272
 20
-32.53536
 11
-84.4272
 21
-26.7696
  0
LINE
  8
DETAIL
  6
CONTINOUS
 62
     5
 10
-84.4272
 20
-34.18272
 11
-78.66144
 21
-34.18272
  0
LINE
  8
DETAIL
  6
CONTINOUS
 62
     5
 10
-78.66144
 20
-39.94848
 11
-78.66144
 21
-34.18272
  0
LINE
  8
DETAIL
  6
CONTINOUS
 62
     5
 10
-84.4272
 20
-39.94848
 11
-78.66144
 21
-39.94848
  0
LINE
  8
DETAIL
  6
CONTINOUS
 62
     5
 10
-84.4272
 20
-39.94848
 11
-84.4272
 21
-34.18272
  0
LINE
  8
DETAIL
  6
CONTINOUS
 62
     5
 10
-84.4272
 20
-41.59584
 11
-78.66144
 21
-41.59584
  0
LINE
  8
DETAIL
  6
CONTINOUS
 62
     5
 10
-78.66144
 20
-47.3616
 11
-78.66144
 21
-41.59584
  0
LINE
  8
DETAIL
  6
CONTINOUS
 62
     5
 10
-84.4272
 20
-47.3616
 11
-78.66144
 21
-47.3616
  0
LINE
  8
DETAIL
  6
CONTINOUS
 62
     5
 10
-84.4272
 20
-47.3616
 11
-84.4272
 21
-41.59584
  0
LINE
  8
DETAIL
  6
CONTINOUS
 62
     5
 10
-84.4272
 20
-49.00896
 11
-78.66144
 21
-49.00896
  0
LINE
  8
DETAIL
  6
CONTINOUS
 62
     5
 10
-78.66144
 20
-54.77472
 11
-78.66144
 21
-49.00896
  0
LINE
  8
DETAIL
  6
CONTINOUS
 62
     5
 10
-84.4272
 20
-54.77472
 11
-78.66144
 21
-54.77472
  0
LINE
  8
DETAIL
  6
CONTINOUS
 62
     5
 10
-84.4272
 20
-54.77472
 11
-84.4272
 21
-49.00896
  0
LINE
  8
DETAIL
  6
CONTINOUS
 62
     5
 10
-84.4272
 20
-56.42208
 11
-78.66144
 21
-56.42208
  0
LINE
  8
DETAIL
  6
CONTINOUS
 62
     5
 10
-78.66144
 20
-62.18784
 11
-78.66144
 21
-56.42208
  0
LINE
  8
DETAIL
  6
CONTINOUS
 62
     5
 10
-84.4272
 20
-62.18784
 11
-78.66144
 21
-62.18784
  0
LINE
  8
DETAIL
  6
CONTINOUS
 62
     5
 10
-84.4272
 20
-62.18784
 11
-84.4272
 21
-56.42208
  0
LINE
  8
DETAIL
  6
CONTINOUS
 62
     5
 10
-84.4272
 20
-63.8352
 11
-78.66144
 21
-63.8352
  0
LINE
  8
DETAIL
  6
CONTINOUS
 62
     5
 10
-78.66144
 20
-69.60096
 11
-78.66144
 21
-63.8352
  0
LINE
  8
DETAIL
  6
CONTINOUS
 62
     5
 10
-84.4272
 20
-69.60096
 11
-78.66144
 21
-69.60096
  0
LINE
  8
DETAIL
  6
CONTINOUS
 62
     5
 10
-84.4272
 20
-69.60096
 11
-84.4272
 21
-63.8352
  0
LINE
  8
DETAIL
  6
CONTINOUS
 62
     5
 10
-84.4272
 20
-71.24832
 11
-78.66144
 21
-71.24832
  0
LINE
  8
DETAIL
  6
CONTINOUS
 62
     5
 10
-78.66144
 20
-77.01408
 11
-78.66144
 21
-71.24832
  0
LINE
  8
DETAIL
  6
CONTINOUS
 62
     5
 10
-84.4272
 20
-77.01408
 11
-78.66144
 21
-77.01408
  0
LINE
  8
DETAIL
  6
CONTINOUS
 62
     5
 10
-84.4272
 20
-77.01408
 11
-84.4272
 21
-71.24832
  0
LINE
  8
DETAIL
  6
CONTINOUS
 62
     5
 10
-84.4272
 20
-78.66144
 11
-78.66144
 21
-78.66144
  0
LINE
  8
DETAIL
  6
CONTINOUS
 62
     5
 10
-78.66144
 20
-84.4272
 11
-78.66144
 21
-78.66144
  0
LINE
  8
DETAIL
  6
CONTINOUS
 62
     5
 10
-84.4272
 20
-84.4272
 11
-78.66144
 21
-84.4272
  0
LINE
  8
DETAIL
  6
CONTINOUS
 62
     5
 10
-84.4272
 20
-84.4272
 11
-84.4272
 21
-78.66144
  0
LINE
  8
DETAIL
  6
CONTINOUS
 62
     5
 10
-84.4272
 20
-86.07456
 11
-78.66144
 21
-86.07456
  0
LINE
  8
DETAIL
  6
CONTINOUS
 62
     5
 10
-78.66144
 20
-91.84032
 11
-78.66144
 21
-86.07456
  0
LINE
  8
DETAIL
  6
CONTINOUS
 62
     5
 10
-84.4272
 20
-91.84032
 11
-78.66144
 21
-91.84032
  0
LINE
  8
DETAIL
  6
CONTINOUS
 62
     5
 10
-84.4272
 20
-91.84032
 11
-84.4272
 21
-86.07456
  0
LINE
  8
DETAIL
  6
CONTINOUS
 62
     5
 10
-84.4272
 20
-93.48768
 11
-78.66144
 21
-93.48768
  0
LINE
  8
DETAIL
  6
CONTINOUS
 62
     5
 10
-78.66144
 20
-99.25344
 11
-78.66144
 21
-93.48768
  0
LINE
  8
DETAIL
  6
CONTINOUS
 62
     5
 10
-84.4272
 20
-99.25344
 11
-78.66144
 21
-99.25344
  0
LINE
  8
DETAIL
  6
CONTINOUS
 62
     5
 10
-84.4272
 20
-99.25344
 11
-84.4272
 21
-93.48768
  0
LINE
  8
DETAIL
  6
CONTINOUS
 62
     5
 10
-91.84032
 20
99.25344
 11
-86.07456
 21
99.25344
  0
LINE
  8
DETAIL
  6
CONTINOUS
 62
     5
 10
-86.07456
 20
93.48768
 11
-86.07456
 21
99.25344
  0
LINE
  8
DETAIL
  6
CONTINOUS
 62
     5
 10
-91.84032
 20
93.48768
 11
-86.07456
 21
93.48768
  0
LINE
  8
DETAIL
  6
CONTINOUS
 62
     5
 10
-91.84032
 20
93.48768
 11
-91.84032
 21
99.25344
  0
LINE
  8
DETAIL
  6
CONTINOUS
 62
     5
 10
-91.84032
 20
91.84032
 11
-86.07456
 21
91.84032
  0
LINE
  8
DETAIL
  6
CONTINOUS
 62
     5
 10
-86.07456
 20
86.07456
 11
-86.07456
 21
91.84032
  0
LINE
  8
DETAIL
  6
CONTINOUS
 62
     5
 10
-91.84032
 20
86.07456
 11
-86.07456
 21
86.07456
  0
LINE
  8
DETAIL
  6
CONTINOUS
 62
     5
 10
-91.84032
 20
86.07456
 11
-91.84032
 21
91.84032
  0
LINE
  8
DETAIL
  6
CONTINOUS
 62
     5
 10
-91.84032
 20
84.4272
 11
-86.07456
 21
84.4272
  0
LINE
  8
DETAIL
  6
CONTINOUS
 62
     5
 10
-86.07456
 20
78.66144
 11
-86.07456
 21
84.4272
  0
LINE
  8
DETAIL
  6
CONTINOUS
 62
     5
 10
-91.84032
 20
78.66144
 11
-86.07456
 21
78.66144
  0
LINE
  8
DETAIL
  6
CONTINOUS
 62
     5
 10
-91.84032
 20
78.66144
 11
-91.84032
 21
84.4272
  0
LINE
  8
DETAIL
  6
CONTINOUS
 62
     5
 10
-91.84032
 20
77.01408
 11
-86.07456
 21
77.01408
  0
LINE
  8
DETAIL
  6
CONTINOUS
 62
     5
 10
-86.07456
 20
71.24832
 11
-86.07456
 21
77.01408
  0
LINE
  8
DETAIL
  6
CONTINOUS
 62
     5
 10
-91.84032
 20
71.24832
 11
-86.07456
 21
71.24832
  0
LINE
  8
DETAIL
  6
CONTINOUS
 62
     5
 10
-91.84032
 20
71.24832
 11
-91.84032
 21
77.01408
  0
LINE
  8
DETAIL
  6
CONTINOUS
 62
     5
 10
-91.84032
 20
69.60096
 11
-86.07456
 21
69.60096
  0
LINE
  8
DETAIL
  6
CONTINOUS
 62
     5
 10
-86.07456
 20
63.8352
 11
-86.07456
 21
69.60096
  0
LINE
  8
DETAIL
  6
CONTINOUS
 62
     5
 10
-91.84032
 20
63.8352
 11
-86.07456
 21
63.8352
  0
LINE
  8
DETAIL
  6
CONTINOUS
 62
     5
 10
-91.84032
 20
63.8352
 11
-91.84032
 21
69.60096
  0
LINE
  8
DETAIL
  6
CONTINOUS
 62
     5
 10
-91.84032
 20
62.18784
 11
-86.07456
 21
62.18784
  0
LINE
  8
DETAIL
  6
CONTINOUS
 62
     5
 10
-86.07456
 20
56.42208
 11
-86.07456
 21
62.18784
  0
LINE
  8
DETAIL
  6
CONTINOUS
 62
     5
 10
-91.84032
 20
56.42208
 11
-86.07456
 21
56.42208
  0
LINE
  8
DETAIL
  6
CONTINOUS
 62
     5
 10
-91.84032
 20
56.42208
 11
-91.84032
 21
62.18784
  0
LINE
  8
DETAIL
  6
CONTINOUS
 62
     5
 10
-91.84032
 20
54.77472
 11
-86.07456
 21
54.77472
  0
LINE
  8
DETAIL
  6
CONTINOUS
 62
     5
 10
-86.07456
 20
49.00896
 11
-86.07456
 21
54.77472
  0
LINE
  8
DETAIL
  6
CONTINOUS
 62
     5
 10
-91.84032
 20
49.00896
 11
-86.07456
 21
49.00896
  0
LINE
  8
DETAIL
  6
CONTINOUS
 62
     5
 10
-91.84032
 20
49.00896
 11
-91.84032
 21
54.77472
  0
LINE
  8
DETAIL
  6
CONTINOUS
 62
     5
 10
-91.84032
 20
47.3616
 11
-86.07456
 21
47.3616
  0
LINE
  8
DETAIL
  6
CONTINOUS
 62
     5
 10
-86.07456
 20
41.59584
 11
-86.07456
 21
47.3616
  0
LINE
  8
DETAIL
  6
CONTINOUS
 62
     5
 10
-91.84032
 20
41.59584
 11
-86.07456
 21
41.59584
  0
LINE
  8
DETAIL
  6
CONTINOUS
 62
     5
 10
-91.84032
 20
41.59584
 11
-91.84032
 21
47.3616
  0
LINE
  8
DETAIL
  6
CONTINOUS
 62
     5
 10
-91.84032
 20
39.94848
 11
-86.07456
 21
39.94848
  0
LINE
  8
DETAIL
  6
CONTINOUS
 62
     5
 10
-86.07456
 20
34.18272
 11
-86.07456
 21
39.94848
  0
LINE
  8
DETAIL
  6
CONTINOUS
 62
     5
 10
-91.84032
 20
34.18272
 11
-86.07456
 21
34.18272
  0
LINE
  8
DETAIL
  6
CONTINOUS
 62
     5
 10
-91.84032
 20
34.18272
 11
-91.84032
 21
39.94848
  0
LINE
  8
DETAIL
  6
CONTINOUS
 62
     5
 10
-91.84032
 20
32.53536
 11
-86.07456
 21
32.53536
  0
LINE
  8
DETAIL
  6
CONTINOUS
 62
     5
 10
-86.07456
 20
26.7696
 11
-86.07456
 21
32.53536
  0
LINE
  8
DETAIL
  6
CONTINOUS
 62
     5
 10
-91.84032
 20
26.7696
 11
-86.07456
 21
26.7696
  0
LINE
  8
DETAIL
  6
CONTINOUS
 62
     5
 10
-91.84032
 20
26.7696
 11
-91.84032
 21
32.53536
  0
LINE
  8
DETAIL
  6
CONTINOUS
 62
     5
 10
-91.84032
 20
25.12224
 11
-86.07456
 21
25.12224
  0
LINE
  8
DETAIL
  6
CONTINOUS
 62
     5
 10
-86.07456
 20
19.35648
 11
-86.07456
 21
25.12224
  0
LINE
  8
DETAIL
  6
CONTINOUS
 62
     5
 10
-91.84032
 20
19.35648
 11
-86.07456
 21
19.35648
  0
LINE
  8
DETAIL
  6
CONTINOUS
 62
     5
 10
-91.84032
 20
19.35648
 11
-91.84032
 21
25.12224
  0
LINE
  8
DETAIL
  6
CONTINOUS
 62
     5
 10
-91.84032
 20
17.70912
 11
-86.07456
 21
17.70912
  0
LINE
  8
DETAIL
  6
CONTINOUS
 62
     5
 10
-86.07456
 20
11.94336
 11
-86.07456
 21
17.70912
  0
LINE
  8
DETAIL
  6
CONTINOUS
 62
     5
 10
-91.84032
 20
11.94336
 11
-86.07456
 21
11.94336
  0
LINE
  8
DETAIL
  6
CONTINOUS
 62
     5
 10
-91.84032
 20
11.94336
 11
-91.84032
 21
17.70912
  0
LINE
  8
DETAIL
  6
CONTINOUS
 62
     5
 10
-91.84032
 20
10.296
 11
-86.07456
 21
10.296
  0
LINE
  8
DETAIL
  6
CONTINOUS
 62
     5
 10
-86.07456
 20
4.53024
 11
-86.07456
 21
10.296
  0
LINE
  8
DETAIL
  6
CONTINOUS
 62
     5
 10
-91.84032
 20
4.53024
 11
-86.07456
 21
4.53024
  0
LINE
  8
DETAIL
  6
CONTINOUS
 62
     5
 10
-91.84032
 20
4.53024
 11
-91.84032
 21
10.296
  0
LINE
  8
DETAIL
  6
CONTINOUS
 62
     5
 10
-91.84032
 20
2.88288
 11
-86.07456
 21
2.88288
  0
LINE
  8
DETAIL
  6
CONTINOUS
 62
     5
 10
-86.07456
 20
-2.88288
 11
-86.07456
 21
2.88288
  0
LINE
  8
DETAIL
  6
CONTINOUS
 62
     5
 10
-91.84032
 20
-2.88288
 11
-86.07456
 21
-2.88288
  0
LINE
  8
DETAIL
  6
CONTINOUS
 62
     5
 10
-91.84032
 20
-2.88288
 11
-91.84032
 21
2.88288
  0
LINE
  8
DETAIL
  6
CONTINOUS
 62
     5
 10
-91.84032
 20
-4.53024
 11
-86.07456
 21
-4.53024
  0
LINE
  8
DETAIL
  6
CONTINOUS
 62
     5
 10
-86.07456
 20
-10.296
 11
-86.07456
 21
-4.53024
  0
LINE
  8
DETAIL
  6
CONTINOUS
 62
     5
 10
-91.84032
 20
-10.296
 11
-86.07456
 21
-10.296
  0
LINE
  8
DETAIL
  6
CONTINOUS
 62
     5
 10
-91.84032
 20
-10.296
 11
-91.84032
 21
-4.53024
  0
LINE
  8
DETAIL
  6
CONTINOUS
 62
     5
 10
-91.84032
 20
-11.94336
 11
-86.07456
 21
-11.94336
  0
LINE
  8
DETAIL
  6
CONTINOUS
 62
     5
 10
-86.07456
 20
-17.70912
 11
-86.07456
 21
-11.94336
  0
LINE
  8
DETAIL
  6
CONTINOUS
 62
     5
 10
-91.84032
 20
-17.70912
 11
-86.07456
 21
-17.70912
  0
LINE
  8
DETAIL
  6
CONTINOUS
 62
     5
 10
-91.84032
 20
-17.70912
 11
-91.84032
 21
-11.94336
  0
LINE
  8
DETAIL
  6
CONTINOUS
 62
     5
 10
-91.84032
 20
-19.35648
 11
-86.07456
 21
-19.35648
  0
LINE
  8
DETAIL
  6
CONTINOUS
 62
     5
 10
-86.07456
 20
-25.12224
 11
-86.07456
 21
-19.35648
  0
LINE
  8
DETAIL
  6
CONTINOUS
 62
     5
 10
-91.84032
 20
-25.12224
 11
-86.07456
 21
-25.12224
  0
LINE
  8
DETAIL
  6
CONTINOUS
 62
     5
 10
-91.84032
 20
-25.12224
 11
-91.84032
 21
-19.35648
  0
LINE
  8
DETAIL
  6
CONTINOUS
 62
     5
 10
-91.84032
 20
-26.7696
 11
-86.07456
 21
-26.7696
  0
LINE
  8
DETAIL
  6
CONTINOUS
 62
     5
 10
-86.07456
 20
-32.53536
 11
-86.07456
 21
-26.7696
  0
LINE
  8
DETAIL
  6
CONTINOUS
 62
     5
 10
-91.84032
 20
-32.53536
 11
-86.07456
 21
-32.53536
  0
LINE
  8
DETAIL
  6
CONTINOUS
 62
     5
 10
-91.84032
 20
-32.53536
 11
-91.84032
 21
-26.7696
  0
LINE
  8
DETAIL
  6
CONTINOUS
 62
     5
 10
-91.84032
 20
-34.18272
 11
-86.07456
 21
-34.18272
  0
LINE
  8
DETAIL
  6
CONTINOUS
 62
     5
 10
-86.07456
 20
-39.94848
 11
-86.07456
 21
-34.18272
  0
LINE
  8
DETAIL
  6
CONTINOUS
 62
     5
 10
-91.84032
 20
-39.94848
 11
-86.07456
 21
-39.94848
  0
LINE
  8
DETAIL
  6
CONTINOUS
 62
     5
 10
-91.84032
 20
-39.94848
 11
-91.84032
 21
-34.18272
  0
LINE
  8
DETAIL
  6
CONTINOUS
 62
     5
 10
-91.84032
 20
-41.59584
 11
-86.07456
 21
-41.59584
  0
LINE
  8
DETAIL
  6
CONTINOUS
 62
     5
 10
-86.07456
 20
-47.3616
 11
-86.07456
 21
-41.59584
  0
LINE
  8
DETAIL
  6
CONTINOUS
 62
     5
 10
-91.84032
 20
-47.3616
 11
-86.07456
 21
-47.3616
  0
LINE
  8
DETAIL
  6
CONTINOUS
 62
     5
 10
-91.84032
 20
-47.3616
 11
-91.84032
 21
-41.59584
  0
LINE
  8
DETAIL
  6
CONTINOUS
 62
     5
 10
-91.84032
 20
-49.00896
 11
-86.07456
 21
-49.00896
  0
LINE
  8
DETAIL
  6
CONTINOUS
 62
     5
 10
-86.07456
 20
-54.77472
 11
-86.07456
 21
-49.00896
  0
LINE
  8
DETAIL
  6
CONTINOUS
 62
     5
 10
-91.84032
 20
-54.77472
 11
-86.07456
 21
-54.77472
  0
LINE
  8
DETAIL
  6
CONTINOUS
 62
     5
 10
-91.84032
 20
-54.77472
 11
-91.84032
 21
-49.00896
  0
LINE
  8
DETAIL
  6
CONTINOUS
 62
     5
 10
-91.84032
 20
-56.42208
 11
-86.07456
 21
-56.42208
  0
LINE
  8
DETAIL
  6
CONTINOUS
 62
     5
 10
-86.07456
 20
-62.18784
 11
-86.07456
 21
-56.42208
  0
LINE
  8
DETAIL
  6
CONTINOUS
 62
     5
 10
-91.84032
 20
-62.18784
 11
-86.07456
 21
-62.18784
  0
LINE
  8
DETAIL
  6
CONTINOUS
 62
     5
 10
-91.84032
 20
-62.18784
 11
-91.84032
 21
-56.42208
  0
LINE
  8
DETAIL
  6
CONTINOUS
 62
     5
 10
-91.84032
 20
-63.8352
 11
-86.07456
 21
-63.8352
  0
LINE
  8
DETAIL
  6
CONTINOUS
 62
     5
 10
-86.07456
 20
-69.60096
 11
-86.07456
 21
-63.8352
  0
LINE
  8
DETAIL
  6
CONTINOUS
 62
     5
 10
-91.84032
 20
-69.60096
 11
-86.07456
 21
-69.60096
  0
LINE
  8
DETAIL
  6
CONTINOUS
 62
     5
 10
-91.84032
 20
-69.60096
 11
-91.84032
 21
-63.8352
  0
LINE
  8
DETAIL
  6
CONTINOUS
 62
     5
 10
-91.84032
 20
-71.24832
 11
-86.07456
 21
-71.24832
  0
LINE
  8
DETAIL
  6
CONTINOUS
 62
     5
 10
-86.07456
 20
-77.01408
 11
-86.07456
 21
-71.24832
  0
LINE
  8
DETAIL
  6
CONTINOUS
 62
     5
 10
-91.84032
 20
-77.01408
 11
-86.07456
 21
-77.01408
  0
LINE
  8
DETAIL
  6
CONTINOUS
 62
     5
 10
-91.84032
 20
-77.01408
 11
-91.84032
 21
-71.24832
  0
LINE
  8
DETAIL
  6
CONTINOUS
 62
     5
 10
-91.84032
 20
-78.66144
 11
-86.07456
 21
-78.66144
  0
LINE
  8
DETAIL
  6
CONTINOUS
 62
     5
 10
-86.07456
 20
-84.4272
 11
-86.07456
 21
-78.66144
  0
LINE
  8
DETAIL
  6
CONTINOUS
 62
     5
 10
-91.84032
 20
-84.4272
 11
-86.07456
 21
-84.4272
  0
LINE
  8
DETAIL
  6
CONTINOUS
 62
     5
 10
-91.84032
 20
-84.4272
 11
-91.84032
 21
-78.66144
  0
LINE
  8
DETAIL
  6
CONTINOUS
 62
     5
 10
-91.84032
 20
-86.07456
 11
-86.07456
 21
-86.07456
  0
LINE
  8
DETAIL
  6
CONTINOUS
 62
     5
 10
-86.07456
 20
-91.84032
 11
-86.07456
 21
-86.07456
  0
LINE
  8
DETAIL
  6
CONTINOUS
 62
     5
 10
-91.84032
 20
-91.84032
 11
-86.07456
 21
-91.84032
  0
LINE
  8
DETAIL
  6
CONTINOUS
 62
     5
 10
-91.84032
 20
-91.84032
 11
-91.84032
 21
-86.07456
  0
LINE
  8
DETAIL
  6
CONTINOUS
 62
     5
 10
-91.84032
 20
-93.48768
 11
-86.07456
 21
-93.48768
  0
LINE
  8
DETAIL
  6
CONTINOUS
 62
     5
 10
-86.07456
 20
-99.25344
 11
-86.07456
 21
-93.48768
  0
LINE
  8
DETAIL
  6
CONTINOUS
 62
     5
 10
-91.84032
 20
-99.25344
 11
-86.07456
 21
-99.25344
  0
LINE
  8
DETAIL
  6
CONTINOUS
 62
     5
 10
-91.84032
 20
-99.25344
 11
-91.84032
 21
-93.48768
  0
LINE
  8
DETAIL
  6
CONTINOUS
 62
     5
 10
-99.25344
 20
93.48768
 11
-99.25344
 21
99.25344
  0
LINE
  8
DETAIL
  6
CONTINOUS
 62
     5
 10
-93.48768
 20
93.48768
 11
-93.48768
 21
99.25344
  0
LINE
  8
DETAIL
  6
CONTINOUS
 62
     5
 10
-99.25344
 20
99.25344
 11
-93.48768
 21
99.25344
  0
LINE
  8
DETAIL
  6
CONTINOUS
 62
     5
 10
-99.25344
 20
86.07456
 11
-99.25344
 21
91.84032
  0
LINE
  8
DETAIL
  6
CONTINOUS
 62
     5
 10
-93.48768
 20
86.07456
 11
-93.48768
 21
91.84032
  0
LINE
  8
DETAIL
  6
CONTINOUS
 62
     5
 10
-99.25344
 20
78.66144
 11
-99.25344
 21
84.4272
  0
LINE
  8
DETAIL
  6
CONTINOUS
 62
     5
 10
-93.48768
 20
78.66144
 11
-93.48768
 21
84.4272
  0
LINE
  8
DETAIL
  6
CONTINOUS
 62
     5
 10
-99.25344
 20
71.24832
 11
-99.25344
 21
77.01408
  0
LINE
  8
DETAIL
  6
CONTINOUS
 62
     5
 10
-93.48768
 20
71.24832
 11
-93.48768
 21
77.01408
  0
LINE
  8
DETAIL
  6
CONTINOUS
 62
     5
 10
-99.25344
 20
63.8352
 11
-99.25344
 21
69.60096
  0
LINE
  8
DETAIL
  6
CONTINOUS
 62
     5
 10
-93.48768
 20
63.8352
 11
-93.48768
 21
69.60096
  0
LINE
  8
DETAIL
  6
CONTINOUS
 62
     5
 10
-99.25344
 20
56.42208
 11
-99.25344
 21
62.18784
  0
LINE
  8
DETAIL
  6
CONTINOUS
 62
     5
 10
-93.48768
 20
56.42208
 11
-93.48768
 21
62.18784
  0
LINE
  8
DETAIL
  6
CONTINOUS
 62
     5
 10
-99.25344
 20
49.00896
 11
-99.25344
 21
54.77472
  0
LINE
  8
DETAIL
  6
CONTINOUS
 62
     5
 10
-93.48768
 20
49.00896
 11
-93.48768
 21
54.77472
  0
LINE
  8
DETAIL
  6
CONTINOUS
 62
     5
 10
-99.25344
 20
41.59584
 11
-99.25344
 21
47.3616
  0
LINE
  8
DETAIL
  6
CONTINOUS
 62
     5
 10
-93.48768
 20
41.59584
 11
-93.48768
 21
47.3616
  0
LINE
  8
DETAIL
  6
CONTINOUS
 62
     5
 10
-99.25344
 20
34.18272
 11
-99.25344
 21
39.94848
  0
LINE
  8
DETAIL
  6
CONTINOUS
 62
     5
 10
-93.48768
 20
34.18272
 11
-93.48768
 21
39.94848
  0
LINE
  8
DETAIL
  6
CONTINOUS
 62
     5
 10
-99.25344
 20
26.7696
 11
-99.25344
 21
32.53536
  0
LINE
  8
DETAIL
  6
CONTINOUS
 62
     5
 10
-93.48768
 20
26.7696
 11
-93.48768
 21
32.53536
  0
LINE
  8
DETAIL
  6
CONTINOUS
 62
     5
 10
-99.25344
 20
19.35648
 11
-99.25344
 21
25.12224
  0
LINE
  8
DETAIL
  6
CONTINOUS
 62
     5
 10
-93.48768
 20
19.35648
 11
-93.48768
 21
25.12224
  0
LINE
  8
DETAIL
  6
CONTINOUS
 62
     5
 10
-99.25344
 20
11.94336
 11
-99.25344
 21
17.70912
  0
LINE
  8
DETAIL
  6
CONTINOUS
 62
     5
 10
-93.48768
 20
11.94336
 11
-93.48768
 21
17.70912
  0
LINE
  8
DETAIL
  6
CONTINOUS
 62
     5
 10
-99.25344
 20
4.53024
 11
-99.25344
 21
10.296
  0
LINE
  8
DETAIL
  6
CONTINOUS
 62
     5
 10
-93.48768
 20
4.53024
 11
-93.48768
 21
10.296
  0
LINE
  8
DETAIL
  6
CONTINOUS
 62
     5
 10
-99.25344
 20
-2.88288
 11
-99.25344
 21
2.88288
  0
LINE
  8
DETAIL
  6
CONTINOUS
 62
     5
 10
-99.25344
 20
-2.88288
 11
-93.48768
 21
-2.88288
  0
LINE
  8
DETAIL
  6
CONTINOUS
 62
     5
 10
-93.48768
 20
-2.88288
 11
-93.48768
 21
2.88288
  0
LINE
  8
DETAIL
  6
CONTINOUS
 62
     5
 10
-99.25344
 20
-10.296
 11
-99.25344
 21
-4.53024
  0
LINE
  8
DETAIL
  6
CONTINOUS
 62
     5
 10
-99.25344
 20
-10.296
 11
-93.48768
 21
-10.296
  0
LINE
  8
DETAIL
  6
CONTINOUS
 62
     5
 10
-93.48768
 20
-10.296
 11
-93.48768
 21
-4.53024
  0
LINE
  8
DETAIL
  6
CONTINOUS
 62
     5
 10
-99.25344
 20
-4.53024
 11
-93.48768
 21
-4.53024
  0
LINE
  8
DETAIL
  6
CONTINOUS
 62
     5
 10
-99.25344
 20
-17.70912
 11
-99.25344
 21
-11.94336
  0
LINE
  8
DETAIL
  6
CONTINOUS
 62
     5
 10
-99.25344
 20
-17.70912
 11
-93.48768
 21
-17.70912
  0
LINE
  8
DETAIL
  6
CONTINOUS
 62
     5
 10
-93.48768
 20
-17.70912
 11
-93.48768
 21
-11.94336
  0
LINE
  8
DETAIL
  6
CONTINOUS
 62
     5
 10
-99.25344
 20
-11.94336
 11
-93.48768
 21
-11.94336
  0
LINE
  8
DETAIL
  6
CONTINOUS
 62
     5
 10
-99.25344
 20
-25.12224
 11
-99.25344
 21
-19.35648
  0
LINE
  8
DETAIL
  6
CONTINOUS
 62
     5
 10
-99.25344
 20
-25.12224
 11
-93.48768
 21
-25.12224
  0
LINE
  8
DETAIL
  6
CONTINOUS
 62
     5
 10
-93.48768
 20
-25.12224
 11
-93.48768
 21
-19.35648
  0
LINE
  8
DETAIL
  6
CONTINOUS
 62
     5
 10
-99.25344
 20
-19.35648
 11
-93.48768
 21
-19.35648
  0
LINE
  8
DETAIL
  6
CONTINOUS
 62
     5
 10
-99.25344
 20
-32.53536
 11
-99.25344
 21
-26.7696
  0
LINE
  8
DETAIL
  6
CONTINOUS
 62
     5
 10
-99.25344
 20
-32.53536
 11
-93.48768
 21
-32.53536
  0
LINE
  8
DETAIL
  6
CONTINOUS
 62
     5
 10
-93.48768
 20
-32.53536
 11
-93.48768
 21
-26.7696
  0
LINE
  8
DETAIL
  6
CONTINOUS
 62
     5
 10
-99.25344
 20
-26.7696
 11
-93.48768
 21
-26.7696
  0
LINE
  8
DETAIL
  6
CONTINOUS
 62
     5
 10
-99.25344
 20
-39.94848
 11
-99.25344
 21
-34.18272
  0
LINE
  8
DETAIL
  6
CONTINOUS
 62
     5
 10
-99.25344
 20
-39.94848
 11
-93.48768
 21
-39.94848
  0
LINE
  8
DETAIL
  6
CONTINOUS
 62
     5
 10
-93.48768
 20
-39.94848
 11
-93.48768
 21
-34.18272
  0
LINE
  8
DETAIL
  6
CONTINOUS
 62
     5
 10
-99.25344
 20
-34.18272
 11
-93.48768
 21
-34.18272
  0
LINE
  8
DETAIL
  6
CONTINOUS
 62
     5
 10
-99.25344
 20
-47.3616
 11
-99.25344
 21
-41.59584
  0
LINE
  8
DETAIL
  6
CONTINOUS
 62
     5
 10
-99.25344
 20
-47.3616
 11
-93.48768
 21
-47.3616
  0
LINE
  8
DETAIL
  6
CONTINOUS
 62
     5
 10
-93.48768
 20
-47.3616
 11
-93.48768
 21
-41.59584
  0
LINE
  8
DETAIL
  6
CONTINOUS
 62
     5
 10
-99.25344
 20
-41.59584
 11
-93.48768
 21
-41.59584
  0
LINE
  8
DETAIL
  6
CONTINOUS
 62
     5
 10
-99.25344
 20
-54.77472
 11
-99.25344
 21
-49.00896
  0
LINE
  8
DETAIL
  6
CONTINOUS
 62
     5
 10
-99.25344
 20
-54.77472
 11
-93.48768
 21
-54.77472
  0
LINE
  8
DETAIL
  6
CONTINOUS
 62
     5
 10
-93.48768
 20
-54.77472
 11
-93.48768
 21
-49.00896
  0
LINE
  8
DETAIL
  6
CONTINOUS
 62
     5
 10
-99.25344
 20
-49.00896
 11
-93.48768
 21
-49.00896
  0
LINE
  8
DETAIL
  6
CONTINOUS
 62
     5
 10
-99.25344
 20
-62.18784
 11
-99.25344
 21
-56.42208
  0
LINE
  8
DETAIL
  6
CONTINOUS
 62
     5
 10
-99.25344
 20
-62.18784
 11
-93.48768
 21
-62.18784
  0
LINE
  8
DETAIL
  6
CONTINOUS
 62
     5
 10
-93.48768
 20
-62.18784
 11
-93.48768
 21
-56.42208
  0
LINE
  8
DETAIL
  6
CONTINOUS
 62
     5
 10
-99.25344
 20
-56.42208
 11
-93.48768
 21
-56.42208
  0
LINE
  8
DETAIL
  6
CONTINOUS
 62
     5
 10
-99.25344
 20
-69.60096
 11
-99.25344
 21
-63.8352
  0
LINE
  8
DETAIL
  6
CONTINOUS
 62
     5
 10
-99.25344
 20
-69.60096
 11
-93.48768
 21
-69.60096
  0
LINE
  8
DETAIL
  6
CONTINOUS
 62
     5
 10
-93.48768
 20
-69.60096
 11
-93.48768
 21
-63.8352
  0
LINE
  8
DETAIL
  6
CONTINOUS
 62
     5
 10
-99.25344
 20
-63.8352
 11
-93.48768
 21
-63.8352
  0
LINE
  8
DETAIL
  6
CONTINOUS
 62
     5
 10
-99.25344
 20
-77.01408
 11
-99.25344
 21
-71.24832
  0
LINE
  8
DETAIL
  6
CONTINOUS
 62
     5
 10
-99.25344
 20
-77.01408
 11
-93.48768
 21
-77.01408
  0
LINE
  8
DETAIL
  6
CONTINOUS
 62
     5
 10
-93.48768
 20
-77.01408
 11
-93.48768
 21
-71.24832
  0
LINE
  8
DETAIL
  6
CONTINOUS
 62
     5
 10
-99.25344
 20
-71.24832
 11
-93.48768
 21
-71.24832
  0
LINE
  8
DETAIL
  6
CONTINOUS
 62
     5
 10
-99.25344
 20
-84.4272
 11
-99.25344
 21
-78.66144
  0
LINE
  8
DETAIL
  6
CONTINOUS
 62
     5
 10
-99.25344
 20
-84.4272
 11
-93.48768
 21
-84.4272
  0
LINE
  8
DETAIL
  6
CONTINOUS
 62
     5
 10
-93.48768
 20
-84.4272
 11
-93.48768
 21
-78.66144
  0
LINE
  8
DETAIL
  6
CONTINOUS
 62
     5
 10
-99.25344
 20
-78.66144
 11
-93.48768
 21
-78.66144
  0
LINE
  8
DETAIL
  6
CONTINOUS
 62
     5
 10
-99.25344
 20
-91.84032
 11
-99.25344
 21
-86.07456
  0
LINE
  8
DETAIL
  6
CONTINOUS
 62
     5
 10
-99.25344
 20
-91.84032
 11
-93.48768
 21
-91.84032
  0
LINE
  8
DETAIL
  6
CONTINOUS
 62
     5
 10
-93.48768
 20
-91.84032
 11
-93.48768
 21
-86.07456
  0
LINE
  8
DETAIL
  6
CONTINOUS
 62
     5
 10
-99.25344
 20
-86.07456
 11
-93.48768
 21
-86.07456
  0
LINE
  8
DETAIL
  6
CONTINOUS
 62
     5
 10
-143.0
 20
-129.272
 11
-143.0
 21
129.272
  0
LINE
  8
DETAIL
  6
CONTINOUS
 62
     5
 10
-102.13632
 20
-102.13632
 11
-102.13632
 21
102.13632
  0
LINE
  8
DETAIL
  6
CONTINOUS
 62
     5
 10
-100.9008
 20
-102.13632
 11
-100.9008
 21
102.13632
  0
LINE
  8
DETAIL
  6
CONTINOUS
 62
     5
 10
-100.9008
 20
-143.0
 11
-100.9008
 21
-102.13632
  0
LINE
  8
DETAIL
  6
CONTINOUS
 62
     5
 10
-102.13632
 20
-143.0
 11
-102.13632
 21
-102.13632
  0
LINE
  8
DETAIL
  6
CONTINOUS
 62
     5
 10
-143.0
 20
-100.9008
 11
-102.13632
 21
-100.9008
  0
LINE
  8
DETAIL
  6
CONTINOUS
 62
     5
 10
-143.0
 20
-102.13632
 11
-102.13632
 21
-102.13632
  0
LINE
  8
DETAIL
  6
CONTINOUS
 62
     5
 10
-99.25344
 20
-99.25344
 11
-99.25344
 21
-93.48768
  0
LINE
  8
DETAIL
  6
CONTINOUS
 62
     5
 10
-99.25344
 20
-99.25344
 11
-93.48768
 21
-99.25344
  0
LINE
  8
DETAIL
  6
CONTINOUS
 62
     5
 10
-99.25344
 20
-93.48768
 11
-93.48768
 21
-93.48768
  0
LINE
  8
DETAIL
  6
CONTINOUS
 62
     5
 10
-93.48768
 20
-99.25344
 11
-93.48768
 21
-93.48768
  0
LINE
  8
DETAIL
  6
CONTINOUS
 62
     5
 10
-102.13632
 20
102.13632
 11
-143.0
 21
102.13632
  0
LINE
  8
DETAIL
  6
CONTINOUS
 62
     5
 10
-102.13632
 20
100.9008
 11
-143.0
 21
100.9008
  0
LINE
  8
DETAIL
  6
CONTINOUS
 62
     5
 10
-100.9008
 20
102.13632
 11
-100.9008
 21
143.0
  0
LINE
  8
DETAIL
  6
CONTINOUS
 62
     5
 10
-102.13632
 20
102.13632
 11
-102.13632
 21
143.0
  0
LINE
  8
DETAIL
  6
CONTINOUS
 62
     5
 10
-100.9008
 20
100.9008
 11
-0.0
 21
100.9008
  0
LINE
  8
DETAIL
  6
CONTINOUS
 62
     5
 10
-102.13632
 20
102.13632
 11
-0.0
 21
102.13632
  0
LINE
  8
DETAIL
  6
CONTINOUS
 62
     5
 10
-130.416
 20
143.0
 11
129.272
 21
143.0
  0
LINE
  8
DETAIL
  6
CONTINOUS
 62
     5
 10
-102.13632
 20
-100.9008
 11
-0.0
 21
-100.9008
  0
LINE
  8
DETAIL
  6
CONTINOUS
 62
     5
 10
-100.9008
 20
-102.13632
 11
-0.0
 21
-102.13632
  0
LINE
  8
DETAIL
  6
CONTINOUS
 62
     5
 10
-2.88288
 20
-99.25344
 11
-0.0
 21
-99.25344
  0
LINE
  8
DETAIL
  6
CONTINOUS
 62
     5
 10
-2.88288
 20
-93.48768
 11
-0.0
 21
-93.48768
  0
LINE
  8
DETAIL
  6
CONTINOUS
 62
     5
 10
-2.88288
 20
-91.84032
 11
-0.0
 21
-91.84032
  0
LINE
  8
DETAIL
  6
CONTINOUS
 62
     5
 10
-2.88288
 20
-86.07456
 11
-0.0
 21
-86.07456
  0
LINE
  8
DETAIL
  6
CONTINOUS
 62
     5
 10
-2.88288
 20
-84.4272
 11
-0.0
 21
-84.4272
  0
LINE
  8
DETAIL
  6
CONTINOUS
 62
     5
 10
-2.88288
 20
-78.66144
 11
-0.0
 21
-78.66144
  0
LINE
  8
DETAIL
  6
CONTINOUS
 62
     5
 10
-2.88288
 20
-77.01408
 11
-0.0
 21
-77.01408
  0
LINE
  8
DETAIL
  6
CONTINOUS
 62
     5
 10
-2.88288
 20
-71.24832
 11
-0.0
 21
-71.24832
  0
LINE
  8
DETAIL
  6
CONTINOUS
 62
     5
 10
-2.88288
 20
-69.60096
 11
-0.0
 21
-69.60096
  0
LINE
  8
DETAIL
  6
CONTINOUS
 62
     5
 10
-2.88288
 20
-63.8352
 11
-0.0
 21
-63.8352
  0
LINE
  8
DETAIL
  6
CONTINOUS
 62
     5
 10
-2.88288
 20
-62.18784
 11
-0.0
 21
-62.18784
  0
LINE
  8
DETAIL
  6
CONTINOUS
 62
     5
 10
-2.88288
 20
-56.42208
 11
-0.0
 21
-56.42208
  0
LINE
  8
DETAIL
  6
CONTINOUS
 62
     5
 10
-2.88288
 20
-54.77472
 11
-0.0
 21
-54.77472
  0
LINE
  8
DETAIL
  6
CONTINOUS
 62
     5
 10
-2.88288
 20
-49.00896
 11
-0.0
 21
-49.00896
  0
LINE
  8
DETAIL
  6
CONTINOUS
 62
     5
 10
-2.88288
 20
-47.3616
 11
-0.0
 21
-47.3616
  0
LINE
  8
DETAIL
  6
CONTINOUS
 62
     5
 10
-2.88288
 20
-41.59584
 11
-0.0
 21
-41.59584
  0
LINE
  8
DETAIL
  6
CONTINOUS
 62
     5
 10
-2.88288
 20
-39.94848
 11
-0.0
 21
-39.94848
  0
LINE
  8
DETAIL
  6
CONTINOUS
 62
     5
 10
-2.88288
 20
-34.18272
 11
-0.0
 21
-34.18272
  0
LINE
  8
DETAIL
  6
CONTINOUS
 62
     5
 10
-2.88288
 20
-32.53536
 11
-0.0
 21
-32.53536
  0
LINE
  8
DETAIL
  6
CONTINOUS
 62
     5
 10
-2.88288
 20
-26.7696
 11
-0.0
 21
-26.7696
  0
LINE
  8
DETAIL
  6
CONTINOUS
 62
     5
 10
-2.88288
 20
-25.12224
 11
-0.0
 21
-25.12224
  0
LINE
  8
DETAIL
  6
CONTINOUS
 62
     5
 10
-2.88288
 20
-19.35648
 11
-0.0
 21
-19.35648
  0
LINE
  8
DETAIL
  6
CONTINOUS
 62
     5
 10
-2.88288
 20
-17.70912
 11
-0.0
 21
-17.70912
  0
LINE
  8
DETAIL
  6
CONTINOUS
 62
     5
 10
-2.88288
 20
-11.94336
 11
-0.0
 21
-11.94336
  0
LINE
  8
DETAIL
  6
CONTINOUS
 62
     5
 10
-2.88288
 20
-10.296
 11
-0.0
 21
-10.296
  0
LINE
  8
DETAIL
  6
CONTINOUS
 62
     5
 10
-2.88288
 20
-4.53024
 11
-0.0
 21
-4.53024
  0
LINE
  8
DETAIL
  6
CONTINOUS
 62
     5
 10
-2.88288
 20
-2.88288
 11
-0.0
 21
-2.88288
  0
LINE
  8
DETAIL
  6
CONTINOUS
 62
     5
 10
-2.88288
 20
2.88288
 11
-0.0
 21
2.88288
  0
LINE
  8
DETAIL
  6
CONTINOUS
 62
     5
 10
-2.88288
 20
4.53024
 11
-0.0
 21
4.53024
  0
LINE
  8
DETAIL
  6
CONTINOUS
 62
     5
 10
-2.88288
 20
10.296
 11
-0.0
 21
10.296
  0
LINE
  8
DETAIL
  6
CONTINOUS
 62
     5
 10
-2.88288
 20
11.94336
 11
-0.0
 21
11.94336
  0
LINE
  8
DETAIL
  6
CONTINOUS
 62
     5
 10
-2.88288
 20
17.70912
 11
-0.0
 21
17.70912
  0
LINE
  8
DETAIL
  6
CONTINOUS
 62
     5
 10
-2.88288
 20
19.35648
 11
-0.0
 21
19.35648
  0
LINE
  8
DETAIL
  6
CONTINOUS
 62
     5
 10
-2.88288
 20
25.12224
 11
-0.0
 21
25.12224
  0
LINE
  8
DETAIL
  6
CONTINOUS
 62
     5
 10
-2.88288
 20
26.7696
 11
-0.0
 21
26.7696
  0
LINE
  8
DETAIL
  6
CONTINOUS
 62
     5
 10
-2.88288
 20
32.53536
 11
-0.0
 21
32.53536
  0
LINE
  8
DETAIL
  6
CONTINOUS
 62
     5
 10
-2.88288
 20
34.18272
 11
-0.0
 21
34.18272
  0
LINE
  8
DETAIL
  6
CONTINOUS
 62
     5
 10
-2.88288
 20
39.94848
 11
-0.0
 21
39.94848
  0
LINE
  8
DETAIL
  6
CONTINOUS
 62
     5
 10
-2.88288
 20
41.59584
 11
-0.0
 21
41.59584
  0
LINE
  8
DETAIL
  6
CONTINOUS
 62
     5
 10
-2.88288
 20
47.3616
 11
-0.0
 21
47.3616
  0
LINE
  8
DETAIL
  6
CONTINOUS
 62
     5
 10
-2.88288
 20
49.00896
 11
-0.0
 21
49.00896
  0
LINE
  8
DETAIL
  6
CONTINOUS
 62
     5
 10
-2.88288
 20
54.77472
 11
-0.0
 21
54.77472
  0
LINE
  8
DETAIL
  6
CONTINOUS
 62
     5
 10
-2.88288
 20
56.42208
 11
-0.0
 21
56.42208
  0
LINE
  8
DETAIL
  6
CONTINOUS
 62
     5
 10
-2.88288
 20
62.18784
 11
-0.0
 21
62.18784
  0
LINE
  8
DETAIL
  6
CONTINOUS
 62
     5
 10
-2.88288
 20
63.8352
 11
-0.0
 21
63.8352
  0
LINE
  8
DETAIL
  6
CONTINOUS
 62
     5
 10
-2.88288
 20
69.60096
 11
-0.0
 21
69.60096
  0
LINE
  8
DETAIL
  6
CONTINOUS
 62
     5
 10
-2.88288
 20
71.24832
 11
-0.0
 21
71.24832
  0
LINE
  8
DETAIL
  6
CONTINOUS
 62
     5
 10
-2.88288
 20
77.01408
 11
-0.0
 21
77.01408
  0
LINE
  8
DETAIL
  6
CONTINOUS
 62
     5
 10
-2.88288
 20
78.66144
 11
-0.0
 21
78.66144
  0
LINE
  8
DETAIL
  6
CONTINOUS
 62
     5
 10
-2.88288
 20
84.4272
 11
-0.0
 21
84.4272
  0
LINE
  8
DETAIL
  6
CONTINOUS
 62
     5
 10
-2.88288
 20
86.07456
 11
-0.0
 21
86.07456
  0
LINE
  8
DETAIL
  6
CONTINOUS
 62
     5
 10
-2.88288
 20
91.84032
 11
-0.0
 21
91.84032
  0
LINE
  8
DETAIL
  6
CONTINOUS
 62
     5
 10
-2.88288
 20
93.48768
 11
-0.0
 21
93.48768
  0
LINE
  8
DETAIL
  6
CONTINOUS
 62
     5
 10
-2.88288
 20
99.25344
 11
-0.0
 21
99.25344
  0
LINE
  8
DETAIL
  6
CONTINOUS
 62
     5
 10
100.9008
 20
100.9008
 11
-0.0
 21
100.9008
  0
LINE
  8
DETAIL
  6
CONTINOUS
 62
     5
 10
100.9008
 20
100.9008
 11
143.0
 21
100.9008
  0
LINE
  8
DETAIL
  6
CONTINOUS
 62
     5
 10
102.13632
 20
102.13632
 11
143.0
 21
102.13632
  0
LINE
  8
DETAIL
  6
CONTINOUS
 62
     5
 10
93.48768
 20
-99.25344
 11
93.48768
 21
-93.48768
  0
LINE
  8
DETAIL
  6
CONTINOUS
 62
     5
 10
99.25344
 20
-93.48768
 11
93.48768
 21
-93.48768
  0
LINE
  8
DETAIL
  6
CONTINOUS
 62
     5
 10
99.25344
 20
-99.25344
 11
93.48768
 21
-99.25344
  0
LINE
  8
DETAIL
  6
CONTINOUS
 62
     5
 10
99.25344
 20
-99.25344
 11
99.25344
 21
-93.48768
  0
LINE
  8
DETAIL
  6
CONTINOUS
 62
     5
 10
143.0
 20
-102.13632
 11
102.13632
 21
-102.13632
  0
LINE
  8
DETAIL
  6
CONTINOUS
 62
     5
 10
143.0
 20
-100.9008
 11
100.9008
 21
-100.9008
  0
LINE
  8
DETAIL
  6
CONTINOUS
 62
     5
 10
102.13632
 20
-143.0
 11
102.13632
 21
-102.13632
  0
LINE
  8
DETAIL
  6
CONTINOUS
 62
     5
 10
100.9008
 20
-143.0
 11
100.9008
 21
-102.13632
  0
LINE
  8
DETAIL
  6
CONTINOUS
 62
     5
 10
100.9008
 20
102.13632
 11
-0.0
 21
102.13632
  0
LINE
  8
DETAIL
  6
CONTINOUS
 62
     5
 10
100.9008
 20
-100.9008
 11
-0.0
 21
-100.9008
  0
LINE
  8
DETAIL
  6
CONTINOUS
 62
     5
 10
100.9008
 20
-102.13632
 11
100.9008
 21
143.0
  0
LINE
  8
DETAIL
  6
CONTINOUS
 62
     5
 10
102.13632
 20
-102.13632
 11
102.13632
 21
143.0
  0
LINE
  8
DETAIL
  6
CONTINOUS
 62
     5
 10
100.9008
 20
-102.13632
 11
-0.0
 21
-102.13632
  0
LINE
  8
DETAIL
  6
CONTINOUS
 62
     5
 10
143.0
 20
-129.272
 11
143.0
 21
129.272
  0
LINE
  8
DETAIL
  6
CONTINOUS
 62
     5
 10
130.416
 20
-143.0
 11
-129.272
 21
-143.0
  0
LINE
  8
DETAIL
  6
CONTINOUS
 62
     5
 10
99.25344
 20
-86.07456
 11
93.48768
 21
-86.07456
  0
LINE
  8
DETAIL
  6
CONTINOUS
 62
     5
 10
93.48768
 20
-91.84032
 11
93.48768
 21
-86.07456
  0
LINE
  8
DETAIL
  6
CONTINOUS
 62
     5
 10
99.25344
 20
-91.84032
 11
93.48768
 21
-91.84032
  0
LINE
  8
DETAIL
  6
CONTINOUS
 62
     5
 10
99.25344
 20
-91.84032
 11
99.25344
 21
-86.07456
  0
LINE
  8
DETAIL
  6
CONTINOUS
 62
     5
 10
99.25344
 20
-78.66144
 11
93.48768
 21
-78.66144
  0
LINE
  8
DETAIL
  6
CONTINOUS
 62
     5
 10
93.48768
 20
-84.4272
 11
93.48768
 21
-78.66144
  0
LINE
  8
DETAIL
  6
CONTINOUS
 62
     5
 10
99.25344
 20
-84.4272
 11
93.48768
 21
-84.4272
  0
LINE
  8
DETAIL
  6
CONTINOUS
 62
     5
 10
99.25344
 20
-84.4272
 11
99.25344
 21
-78.66144
  0
LINE
  8
DETAIL
  6
CONTINOUS
 62
     5
 10
99.25344
 20
-71.24832
 11
93.48768
 21
-71.24832
  0
LINE
  8
DETAIL
  6
CONTINOUS
 62
     5
 10
93.48768
 20
-77.01408
 11
93.48768
 21
-71.24832
  0
LINE
  8
DETAIL
  6
CONTINOUS
 62
     5
 10
99.25344
 20
-77.01408
 11
93.48768
 21
-77.01408
  0
LINE
  8
DETAIL
  6
CONTINOUS
 62
     5
 10
99.25344
 20
-77.01408
 11
99.25344
 21
-71.24832
  0
LINE
  8
DETAIL
  6
CONTINOUS
 62
     5
 10
99.25344
 20
-63.8352
 11
93.48768
 21
-63.8352
  0
LINE
  8
DETAIL
  6
CONTINOUS
 62
     5
 10
93.48768
 20
-69.60096
 11
93.48768
 21
-63.8352
  0
LINE
  8
DETAIL
  6
CONTINOUS
 62
     5
 10
99.25344
 20
-69.60096
 11
93.48768
 21
-69.60096
  0
LINE
  8
DETAIL
  6
CONTINOUS
 62
     5
 10
99.25344
 20
-69.60096
 11
99.25344
 21
-63.8352
  0
LINE
  8
DETAIL
  6
CONTINOUS
 62
     5
 10
99.25344
 20
-56.42208
 11
93.48768
 21
-56.42208
  0
LINE
  8
DETAIL
  6
CONTINOUS
 62
     5
 10
93.48768
 20
-62.18784
 11
93.48768
 21
-56.42208
  0
LINE
  8
DETAIL
  6
CONTINOUS
 62
     5
 10
99.25344
 20
-62.18784
 11
93.48768
 21
-62.18784
  0
LINE
  8
DETAIL
  6
CONTINOUS
 62
     5
 10
99.25344
 20
-62.18784
 11
99.25344
 21
-56.42208
  0
LINE
  8
DETAIL
  6
CONTINOUS
 62
     5
 10
99.25344
 20
-49.00896
 11
93.48768
 21
-49.00896
  0
LINE
  8
DETAIL
  6
CONTINOUS
 62
     5
 10
93.48768
 20
-54.77472
 11
93.48768
 21
-49.00896
  0
LINE
  8
DETAIL
  6
CONTINOUS
 62
     5
 10
99.25344
 20
-54.77472
 11
93.48768
 21
-54.77472
  0
LINE
  8
DETAIL
  6
CONTINOUS
 62
     5
 10
99.25344
 20
-54.77472
 11
99.25344
 21
-49.00896
  0
LINE
  8
DETAIL
  6
CONTINOUS
 62
     5
 10
99.25344
 20
-41.59584
 11
93.48768
 21
-41.59584
  0
LINE
  8
DETAIL
  6
CONTINOUS
 62
     5
 10
93.48768
 20
-47.3616
 11
93.48768
 21
-41.59584
  0
LINE
  8
DETAIL
  6
CONTINOUS
 62
     5
 10
99.25344
 20
-47.3616
 11
93.48768
 21
-47.3616
  0
LINE
  8
DETAIL
  6
CONTINOUS
 62
     5
 10
99.25344
 20
-47.3616
 11
99.25344
 21
-41.59584
  0
LINE
  8
DETAIL
  6
CONTINOUS
 62
     5
 10
99.25344
 20
-34.18272
 11
93.48768
 21
-34.18272
  0
LINE
  8
DETAIL
  6
CONTINOUS
 62
     5
 10
93.48768
 20
-39.94848
 11
93.48768
 21
-34.18272
  0
LINE
  8
DETAIL
  6
CONTINOUS
 62
     5
 10
99.25344
 20
-39.94848
 11
93.48768
 21
-39.94848
  0
LINE
  8
DETAIL
  6
CONTINOUS
 62
     5
 10
99.25344
 20
-39.94848
 11
99.25344
 21
-34.18272
  0
LINE
  8
DETAIL
  6
CONTINOUS
 62
     5
 10
99.25344
 20
-26.7696
 11
93.48768
 21
-26.7696
  0
LINE
  8
DETAIL
  6
CONTINOUS
 62
     5
 10
93.48768
 20
-32.53536
 11
93.48768
 21
-26.7696
  0
LINE
  8
DETAIL
  6
CONTINOUS
 62
     5
 10
99.25344
 20
-32.53536
 11
93.48768
 21
-32.53536
  0
LINE
  8
DETAIL
  6
CONTINOUS
 62
     5
 10
99.25344
 20
-32.53536
 11
99.25344
 21
-26.7696
  0
LINE
  8
DETAIL
  6
CONTINOUS
 62
     5
 10
99.25344
 20
-19.35648
 11
93.48768
 21
-19.35648
  0
LINE
  8
DETAIL
  6
CONTINOUS
 62
     5
 10
93.48768
 20
-25.12224
 11
93.48768
 21
-19.35648
  0
LINE
  8
DETAIL
  6
CONTINOUS
 62
     5
 10
99.25344
 20
-25.12224
 11
93.48768
 21
-25.12224
  0
LINE
  8
DETAIL
  6
CONTINOUS
 62
     5
 10
99.25344
 20
-25.12224
 11
99.25344
 21
-19.35648
  0
LINE
  8
DETAIL
  6
CONTINOUS
 62
     5
 10
99.25344
 20
-11.94336
 11
93.48768
 21
-11.94336
  0
LINE
  8
DETAIL
  6
CONTINOUS
 62
     5
 10
93.48768
 20
-17.70912
 11
93.48768
 21
-11.94336
  0
LINE
  8
DETAIL
  6
CONTINOUS
 62
     5
 10
99.25344
 20
-17.70912
 11
93.48768
 21
-17.70912
  0
LINE
  8
DETAIL
  6
CONTINOUS
 62
     5
 10
99.25344
 20
-17.70912
 11
99.25344
 21
-11.94336
  0
LINE
  8
DETAIL
  6
CONTINOUS
 62
     5
 10
99.25344
 20
-4.53024
 11
93.48768
 21
-4.53024
  0
LINE
  8
DETAIL
  6
CONTINOUS
 62
     5
 10
93.48768
 20
-10.296
 11
93.48768
 21
-4.53024
  0
LINE
  8
DETAIL
  6
CONTINOUS
 62
     5
 10
99.25344
 20
-10.296
 11
93.48768
 21
-10.296
  0
LINE
  8
DETAIL
  6
CONTINOUS
 62
     5
 10
99.25344
 20
-10.296
 11
99.25344
 21
-4.53024
  0
LINE
  8
DETAIL
  6
CONTINOUS
 62
     5
 10
93.48768
 20
-2.88288
 11
93.48768
 21
2.88288
  0
LINE
  8
DETAIL
  6
CONTINOUS
 62
     5
 10
99.25344
 20
-2.88288
 11
93.48768
 21
-2.88288
  0
LINE
  8
DETAIL
  6
CONTINOUS
 62
     5
 10
99.25344
 20
-2.88288
 11
99.25344
 21
2.88288
  0
LINE
  8
DETAIL
  6
CONTINOUS
 62
     5
 10
93.48768
 20
4.53024
 11
93.48768
 21
10.296
  0
LINE
  8
DETAIL
  6
CONTINOUS
 62
     5
 10
99.25344
 20
4.53024
 11
99.25344
 21
10.296
  0
LINE
  8
DETAIL
  6
CONTINOUS
 62
     5
 10
93.48768
 20
11.94336
 11
93.48768
 21
17.70912
  0
LINE
  8
DETAIL
  6
CONTINOUS
 62
     5
 10
99.25344
 20
11.94336
 11
99.25344
 21
17.70912
  0
LINE
  8
DETAIL
  6
CONTINOUS
 62
     5
 10
93.48768
 20
19.35648
 11
93.48768
 21
25.12224
  0
LINE
  8
DETAIL
  6
CONTINOUS
 62
     5
 10
99.25344
 20
19.35648
 11
99.25344
 21
25.12224
  0
LINE
  8
DETAIL
  6
CONTINOUS
 62
     5
 10
93.48768
 20
26.7696
 11
93.48768
 21
32.53536
  0
LINE
  8
DETAIL
  6
CONTINOUS
 62
     5
 10
99.25344
 20
26.7696
 11
99.25344
 21
32.53536
  0
LINE
  8
DETAIL
  6
CONTINOUS
 62
     5
 10
93.48768
 20
34.18272
 11
93.48768
 21
39.94848
  0
LINE
  8
DETAIL
  6
CONTINOUS
 62
     5
 10
99.25344
 20
34.18272
 11
99.25344
 21
39.94848
  0
LINE
  8
DETAIL
  6
CONTINOUS
 62
     5
 10
93.48768
 20
41.59584
 11
93.48768
 21
47.3616
  0
LINE
  8
DETAIL
  6
CONTINOUS
 62
     5
 10
99.25344
 20
41.59584
 11
99.25344
 21
47.3616
  0
LINE
  8
DETAIL
  6
CONTINOUS
 62
     5
 10
93.48768
 20
49.00896
 11
93.48768
 21
54.77472
  0
LINE
  8
DETAIL
  6
CONTINOUS
 62
     5
 10
99.25344
 20
49.00896
 11
99.25344
 21
54.77472
  0
LINE
  8
DETAIL
  6
CONTINOUS
 62
     5
 10
93.48768
 20
56.42208
 11
93.48768
 21
62.18784
  0
LINE
  8
DETAIL
  6
CONTINOUS
 62
     5
 10
99.25344
 20
56.42208
 11
99.25344
 21
62.18784
  0
LINE
  8
DETAIL
  6
CONTINOUS
 62
     5
 10
93.48768
 20
63.8352
 11
93.48768
 21
69.60096
  0
LINE
  8
DETAIL
  6
CONTINOUS
 62
     5
 10
99.25344
 20
63.8352
 11
99.25344
 21
69.60096
  0
LINE
  8
DETAIL
  6
CONTINOUS
 62
     5
 10
93.48768
 20
71.24832
 11
93.48768
 21
77.01408
  0
LINE
  8
DETAIL
  6
CONTINOUS
 62
     5
 10
99.25344
 20
71.24832
 11
99.25344
 21
77.01408
  0
LINE
  8
DETAIL
  6
CONTINOUS
 62
     5
 10
93.48768
 20
78.66144
 11
93.48768
 21
84.4272
  0
LINE
  8
DETAIL
  6
CONTINOUS
 62
     5
 10
99.25344
 20
78.66144
 11
99.25344
 21
84.4272
  0
LINE
  8
DETAIL
  6
CONTINOUS
 62
     5
 10
93.48768
 20
86.07456
 11
93.48768
 21
91.84032
  0
LINE
  8
DETAIL
  6
CONTINOUS
 62
     5
 10
99.25344
 20
86.07456
 11
99.25344
 21
91.84032
  0
LINE
  8
DETAIL
  6
CONTINOUS
 62
     5
 10
99.25344
 20
99.25344
 11
93.48768
 21
99.25344
  0
LINE
  8
DETAIL
  6
CONTINOUS
 62
     5
 10
93.48768
 20
93.48768
 11
93.48768
 21
99.25344
  0
LINE
  8
DETAIL
  6
CONTINOUS
 62
     5
 10
99.25344
 20
93.48768
 11
99.25344
 21
99.25344
  0
LINE
  8
DETAIL
  6
CONTINOUS
 62
     5
 10
91.84032
 20
-99.25344
 11
91.84032
 21
-93.48768
  0
LINE
  8
DETAIL
  6
CONTINOUS
 62
     5
 10
91.84032
 20
-99.25344
 11
86.07456
 21
-99.25344
  0
LINE
  8
DETAIL
  6
CONTINOUS
 62
     5
 10
86.07456
 20
-99.25344
 11
86.07456
 21
-93.48768
  0
LINE
  8
DETAIL
  6
CONTINOUS
 62
     5
 10
91.84032
 20
-93.48768
 11
86.07456
 21
-93.48768
  0
LINE
  8
DETAIL
  6
CONTINOUS
 62
     5
 10
91.84032
 20
-91.84032
 11
91.84032
 21
-86.07456
  0
LINE
  8
DETAIL
  6
CONTINOUS
 62
     5
 10
91.84032
 20
-91.84032
 11
86.07456
 21
-91.84032
  0
LINE
  8
DETAIL
  6
CONTINOUS
 62
     5
 10
86.07456
 20
-91.84032
 11
86.07456
 21
-86.07456
  0
LINE
  8
DETAIL
  6
CONTINOUS
 62
     5
 10
91.84032
 20
-86.07456
 11
86.07456
 21
-86.07456
  0
LINE
  8
DETAIL
  6
CONTINOUS
 62
     5
 10
91.84032
 20
-84.4272
 11
91.84032
 21
-78.66144
  0
LINE
  8
DETAIL
  6
CONTINOUS
 62
     5
 10
91.84032
 20
-84.4272
 11
86.07456
 21
-84.4272
  0
LINE
  8
DETAIL
  6
CONTINOUS
 62
     5
 10
86.07456
 20
-84.4272
 11
86.07456
 21
-78.66144
  0
LINE
  8
DETAIL
  6
CONTINOUS
 62
     5
 10
91.84032
 20
-78.66144
 11
86.07456
 21
-78.66144
  0
LINE
  8
DETAIL
  6
CONTINOUS
 62
     5
 10
91.84032
 20
-77.01408
 11
91.84032
 21
-71.24832
  0
LINE
  8
DETAIL
  6
CONTINOUS
 62
     5
 10
91.84032
 20
-77.01408
 11
86.07456
 21
-77.01408
  0
LINE
  8
DETAIL
  6
CONTINOUS
 62
     5
 10
86.07456
 20
-77.01408
 11
86.07456
 21
-71.24832
  0
LINE
  8
DETAIL
  6
CONTINOUS
 62
     5
 10
91.84032
 20
-71.24832
 11
86.07456
 21
-71.24832
  0
LINE
  8
DETAIL
  6
CONTINOUS
 62
     5
 10
91.84032
 20
-69.60096
 11
91.84032
 21
-63.8352
  0
LINE
  8
DETAIL
  6
CONTINOUS
 62
     5
 10
91.84032
 20
-69.60096
 11
86.07456
 21
-69.60096
  0
LINE
  8
DETAIL
  6
CONTINOUS
 62
     5
 10
86.07456
 20
-69.60096
 11
86.07456
 21
-63.8352
  0
LINE
  8
DETAIL
  6
CONTINOUS
 62
     5
 10
91.84032
 20
-63.8352
 11
86.07456
 21
-63.8352
  0
LINE
  8
DETAIL
  6
CONTINOUS
 62
     5
 10
91.84032
 20
-62.18784
 11
91.84032
 21
-56.42208
  0
LINE
  8
DETAIL
  6
CONTINOUS
 62
     5
 10
91.84032
 20
-62.18784
 11
86.07456
 21
-62.18784
  0
LINE
  8
DETAIL
  6
CONTINOUS
 62
     5
 10
86.07456
 20
-62.18784
 11
86.07456
 21
-56.42208
  0
LINE
  8
DETAIL
  6
CONTINOUS
 62
     5
 10
91.84032
 20
-56.42208
 11
86.07456
 21
-56.42208
  0
LINE
  8
DETAIL
  6
CONTINOUS
 62
     5
 10
91.84032
 20
-54.77472
 11
91.84032
 21
-49.00896
  0
LINE
  8
DETAIL
  6
CONTINOUS
 62
     5
 10
91.84032
 20
-54.77472
 11
86.07456
 21
-54.77472
  0
LINE
  8
DETAIL
  6
CONTINOUS
 62
     5
 10
86.07456
 20
-54.77472
 11
86.07456
 21
-49.00896
  0
LINE
  8
DETAIL
  6
CONTINOUS
 62
     5
 10
91.84032
 20
-49.00896
 11
86.07456
 21
-49.00896
  0
LINE
  8
DETAIL
  6
CONTINOUS
 62
     5
 10
91.84032
 20
-47.3616
 11
91.84032
 21
-41.59584
  0
LINE
  8
DETAIL
  6
CONTINOUS
 62
     5
 10
91.84032
 20
-47.3616
 11
86.07456
 21
-47.3616
  0
LINE
  8
DETAIL
  6
CONTINOUS
 62
     5
 10
86.07456
 20
-47.3616
 11
86.07456
 21
-41.59584
  0
LINE
  8
DETAIL
  6
CONTINOUS
 62
     5
 10
91.84032
 20
-41.59584
 11
86.07456
 21
-41.59584
  0
LINE
  8
DETAIL
  6
CONTINOUS
 62
     5
 10
91.84032
 20
-39.94848
 11
91.84032
 21
-34.18272
  0
LINE
  8
DETAIL
  6
CONTINOUS
 62
     5
 10
91.84032
 20
-39.94848
 11
86.07456
 21
-39.94848
  0
LINE
  8
DETAIL
  6
CONTINOUS
 62
     5
 10
86.07456
 20
-39.94848
 11
86.07456
 21
-34.18272
  0
LINE
  8
DETAIL
  6
CONTINOUS
 62
     5
 10
91.84032
 20
-34.18272
 11
86.07456
 21
-34.18272
  0
LINE
  8
DETAIL
  6
CONTINOUS
 62
     5
 10
91.84032
 20
-32.53536
 11
91.84032
 21
-26.7696
  0
LINE
  8
DETAIL
  6
CONTINOUS
 62
     5
 10
91.84032
 20
-32.53536
 11
86.07456
 21
-32.53536
  0
LINE
  8
DETAIL
  6
CONTINOUS
 62
     5
 10
86.07456
 20
-32.53536
 11
86.07456
 21
-26.7696
  0
LINE
  8
DETAIL
  6
CONTINOUS
 62
     5
 10
91.84032
 20
-26.7696
 11
86.07456
 21
-26.7696
  0
LINE
  8
DETAIL
  6
CONTINOUS
 62
     5
 10
91.84032
 20
-25.12224
 11
91.84032
 21
-19.35648
  0
LINE
  8
DETAIL
  6
CONTINOUS
 62
     5
 10
91.84032
 20
-25.12224
 11
86.07456
 21
-25.12224
  0
LINE
  8
DETAIL
  6
CONTINOUS
 62
     5
 10
86.07456
 20
-25.12224
 11
86.07456
 21
-19.35648
  0
LINE
  8
DETAIL
  6
CONTINOUS
 62
     5
 10
91.84032
 20
-19.35648
 11
86.07456
 21
-19.35648
  0
LINE
  8
DETAIL
  6
CONTINOUS
 62
     5
 10
91.84032
 20
-17.70912
 11
91.84032
 21
-11.94336
  0
LINE
  8
DETAIL
  6
CONTINOUS
 62
     5
 10
91.84032
 20
-17.70912
 11
86.07456
 21
-17.70912
  0
LINE
  8
DETAIL
  6
CONTINOUS
 62
     5
 10
86.07456
 20
-17.70912
 11
86.07456
 21
-11.94336
  0
LINE
  8
DETAIL
  6
CONTINOUS
 62
     5
 10
91.84032
 20
-11.94336
 11
86.07456
 21
-11.94336
  0
LINE
  8
DETAIL
  6
CONTINOUS
 62
     5
 10
91.84032
 20
-10.296
 11
91.84032
 21
-4.53024
  0
LINE
  8
DETAIL
  6
CONTINOUS
 62
     5
 10
91.84032
 20
-10.296
 11
86.07456
 21
-10.296
  0
LINE
  8
DETAIL
  6
CONTINOUS
 62
     5
 10
86.07456
 20
-10.296
 11
86.07456
 21
-4.53024
  0
LINE
  8
DETAIL
  6
CONTINOUS
 62
     5
 10
91.84032
 20
-4.53024
 11
86.07456
 21
-4.53024
  0
LINE
  8
DETAIL
  6
CONTINOUS
 62
     5
 10
91.84032
 20
-2.88288
 11
91.84032
 21
2.88288
  0
LINE
  8
DETAIL
  6
CONTINOUS
 62
     5
 10
91.84032
 20
-2.88288
 11
86.07456
 21
-2.88288
  0
LINE
  8
DETAIL
  6
CONTINOUS
 62
     5
 10
86.07456
 20
-2.88288
 11
86.07456
 21
2.88288
  0
LINE
  8
DETAIL
  6
CONTINOUS
 62
     5
 10
91.84032
 20
2.88288
 11
86.07456
 21
2.88288
  0
LINE
  8
DETAIL
  6
CONTINOUS
 62
     5
 10
91.84032
 20
4.53024
 11
91.84032
 21
10.296
  0
LINE
  8
DETAIL
  6
CONTINOUS
 62
     5
 10
91.84032
 20
4.53024
 11
86.07456
 21
4.53024
  0
LINE
  8
DETAIL
  6
CONTINOUS
 62
     5
 10
86.07456
 20
4.53024
 11
86.07456
 21
10.296
  0
LINE
  8
DETAIL
  6
CONTINOUS
 62
     5
 10
91.84032
 20
10.296
 11
86.07456
 21
10.296
  0
LINE
  8
DETAIL
  6
CONTINOUS
 62
     5
 10
91.84032
 20
11.94336
 11
91.84032
 21
17.70912
  0
LINE
  8
DETAIL
  6
CONTINOUS
 62
     5
 10
91.84032
 20
11.94336
 11
86.07456
 21
11.94336
  0
LINE
  8
DETAIL
  6
CONTINOUS
 62
     5
 10
86.07456
 20
11.94336
 11
86.07456
 21
17.70912
  0
LINE
  8
DETAIL
  6
CONTINOUS
 62
     5
 10
91.84032
 20
17.70912
 11
86.07456
 21
17.70912
  0
LINE
  8
DETAIL
  6
CONTINOUS
 62
     5
 10
91.84032
 20
19.35648
 11
91.84032
 21
25.12224
  0
LINE
  8
DETAIL
  6
CONTINOUS
 62
     5
 10
91.84032
 20
19.35648
 11
86.07456
 21
19.35648
  0
LINE
  8
DETAIL
  6
CONTINOUS
 62
     5
 10
86.07456
 20
19.35648
 11
86.07456
 21
25.12224
  0
LINE
  8
DETAIL
  6
CONTINOUS
 62
     5
 10
91.84032
 20
25.12224
 11
86.07456
 21
25.12224
  0
LINE
  8
DETAIL
  6
CONTINOUS
 62
     5
 10
91.84032
 20
26.7696
 11
91.84032
 21
32.53536
  0
LINE
  8
DETAIL
  6
CONTINOUS
 62
     5
 10
91.84032
 20
26.7696
 11
86.07456
 21
26.7696
  0
LINE
  8
DETAIL
  6
CONTINOUS
 62
     5
 10
86.07456
 20
26.7696
 11
86.07456
 21
32.53536
  0
LINE
  8
DETAIL
  6
CONTINOUS
 62
     5
 10
91.84032
 20
32.53536
 11
86.07456
 21
32.53536
  0
LINE
  8
DETAIL
  6
CONTINOUS
 62
     5
 10
91.84032
 20
34.18272
 11
91.84032
 21
39.94848
  0
LINE
  8
DETAIL
  6
CONTINOUS
 62
     5
 10
91.84032
 20
34.18272
 11
86.07456
 21
34.18272
  0
LINE
  8
DETAIL
  6
CONTINOUS
 62
     5
 10
86.07456
 20
34.18272
 11
86.07456
 21
39.94848
  0
LINE
  8
DETAIL
  6
CONTINOUS
 62
     5
 10
91.84032
 20
39.94848
 11
86.07456
 21
39.94848
  0
LINE
  8
DETAIL
  6
CONTINOUS
 62
     5
 10
91.84032
 20
41.59584
 11
91.84032
 21
47.3616
  0
LINE
  8
DETAIL
  6
CONTINOUS
 62
     5
 10
91.84032
 20
41.59584
 11
86.07456
 21
41.59584
  0
LINE
  8
DETAIL
  6
CONTINOUS
 62
     5
 10
86.07456
 20
41.59584
 11
86.07456
 21
47.3616
  0
LINE
  8
DETAIL
  6
CONTINOUS
 62
     5
 10
91.84032
 20
47.3616
 11
86.07456
 21
47.3616
  0
LINE
  8
DETAIL
  6
CONTINOUS
 62
     5
 10
91.84032
 20
49.00896
 11
91.84032
 21
54.77472
  0
LINE
  8
DETAIL
  6
CONTINOUS
 62
     5
 10
91.84032
 20
49.00896
 11
86.07456
 21
49.00896
  0
LINE
  8
DETAIL
  6
CONTINOUS
 62
     5
 10
86.07456
 20
49.00896
 11
86.07456
 21
54.77472
  0
LINE
  8
DETAIL
  6
CONTINOUS
 62
     5
 10
91.84032
 20
54.77472
 11
86.07456
 21
54.77472
  0
LINE
  8
DETAIL
  6
CONTINOUS
 62
     5
 10
91.84032
 20
56.42208
 11
91.84032
 21
62.18784
  0
LINE
  8
DETAIL
  6
CONTINOUS
 62
     5
 10
91.84032
 20
56.42208
 11
86.07456
 21
56.42208
  0
LINE
  8
DETAIL
  6
CONTINOUS
 62
     5
 10
86.07456
 20
56.42208
 11
86.07456
 21
62.18784
  0
LINE
  8
DETAIL
  6
CONTINOUS
 62
     5
 10
91.84032
 20
62.18784
 11
86.07456
 21
62.18784
  0
LINE
  8
DETAIL
  6
CONTINOUS
 62
     5
 10
91.84032
 20
63.8352
 11
91.84032
 21
69.60096
  0
LINE
  8
DETAIL
  6
CONTINOUS
 62
     5
 10
91.84032
 20
63.8352
 11
86.07456
 21
63.8352
  0
LINE
  8
DETAIL
  6
CONTINOUS
 62
     5
 10
86.07456
 20
63.8352
 11
86.07456
 21
69.60096
  0
LINE
  8
DETAIL
  6
CONTINOUS
 62
     5
 10
91.84032
 20
69.60096
 11
86.07456
 21
69.60096
  0
LINE
  8
DETAIL
  6
CONTINOUS
 62
     5
 10
91.84032
 20
71.24832
 11
91.84032
 21
77.01408
  0
LINE
  8
DETAIL
  6
CONTINOUS
 62
     5
 10
91.84032
 20
71.24832
 11
86.07456
 21
71.24832
  0
LINE
  8
DETAIL
  6
CONTINOUS
 62
     5
 10
86.07456
 20
71.24832
 11
86.07456
 21
77.01408
  0
LINE
  8
DETAIL
  6
CONTINOUS
 62
     5
 10
91.84032
 20
77.01408
 11
86.07456
 21
77.01408
  0
LINE
  8
DETAIL
  6
CONTINOUS
 62
     5
 10
91.84032
 20
78.66144
 11
91.84032
 21
84.4272
  0
LINE
  8
DETAIL
  6
CONTINOUS
 62
     5
 10
91.84032
 20
78.66144
 11
86.07456
 21
78.66144
  0
LINE
  8
DETAIL
  6
CONTINOUS
 62
     5
 10
86.07456
 20
78.66144
 11
86.07456
 21
84.4272
  0
LINE
  8
DETAIL
  6
CONTINOUS
 62
     5
 10
91.84032
 20
84.4272
 11
86.07456
 21
84.4272
  0
LINE
  8
DETAIL
  6
CONTINOUS
 62
     5
 10
91.84032
 20
86.07456
 11
91.84032
 21
91.84032
  0
LINE
  8
DETAIL
  6
CONTINOUS
 62
     5
 10
91.84032
 20
86.07456
 11
86.07456
 21
86.07456
  0
LINE
  8
DETAIL
  6
CONTINOUS
 62
     5
 10
86.07456
 20
86.07456
 11
86.07456
 21
91.84032
  0
LINE
  8
DETAIL
  6
CONTINOUS
 62
     5
 10
91.84032
 20
91.84032
 11
86.07456
 21
91.84032
  0
LINE
  8
DETAIL
  6
CONTINOUS
 62
     5
 10
91.84032
 20
93.48768
 11
91.84032
 21
99.25344
  0
LINE
  8
DETAIL
  6
CONTINOUS
 62
     5
 10
91.84032
 20
93.48768
 11
86.07456
 21
93.48768
  0
LINE
  8
DETAIL
  6
CONTINOUS
 62
     5
 10
86.07456
 20
93.48768
 11
86.07456
 21
99.25344
  0
LINE
  8
DETAIL
  6
CONTINOUS
 62
     5
 10
91.84032
 20
99.25344
 11
86.07456
 21
99.25344
  0
LINE
  8
DETAIL
  6
CONTINOUS
 62
     5
 10
84.4272
 20
-99.25344
 11
84.4272
 21
-93.48768
  0
LINE
  8
DETAIL
  6
CONTINOUS
 62
     5
 10
84.4272
 20
-99.25344
 11
78.66144
 21
-99.25344
  0
LINE
  8
DETAIL
  6
CONTINOUS
 62
     5
 10
78.66144
 20
-99.25344
 11
78.66144
 21
-93.48768
  0
LINE
  8
DETAIL
  6
CONTINOUS
 62
     5
 10
84.4272
 20
-93.48768
 11
78.66144
 21
-93.48768
  0
LINE
  8
DETAIL
  6
CONTINOUS
 62
     5
 10
84.4272
 20
-91.84032
 11
84.4272
 21
-86.07456
  0
LINE
  8
DETAIL
  6
CONTINOUS
 62
     5
 10
84.4272
 20
-91.84032
 11
78.66144
 21
-91.84032
  0
LINE
  8
DETAIL
  6
CONTINOUS
 62
     5
 10
78.66144
 20
-91.84032
 11
78.66144
 21
-86.07456
  0
LINE
  8
DETAIL
  6
CONTINOUS
 62
     5
 10
84.4272
 20
-86.07456
 11
78.66144
 21
-86.07456
  0
LINE
  8
DETAIL
  6
CONTINOUS
 62
     5
 10
84.4272
 20
-84.4272
 11
84.4272
 21
-78.66144
  0
LINE
  8
DETAIL
  6
CONTINOUS
 62
     5
 10
84.4272
 20
-84.4272
 11
78.66144
 21
-84.4272
  0
LINE
  8
DETAIL
  6
CONTINOUS
 62
     5
 10
78.66144
 20
-84.4272
 11
78.66144
 21
-78.66144
  0
LINE
  8
DETAIL
  6
CONTINOUS
 62
     5
 10
84.4272
 20
-78.66144
 11
78.66144
 21
-78.66144
  0
LINE
  8
DETAIL
  6
CONTINOUS
 62
     5
 10
84.4272
 20
-77.01408
 11
84.4272
 21
-71.24832
  0
LINE
  8
DETAIL
  6
CONTINOUS
 62
     5
 10
84.4272
 20
-77.01408
 11
78.66144
 21
-77.01408
  0
LINE
  8
DETAIL
  6
CONTINOUS
 62
     5
 10
78.66144
 20
-77.01408
 11
78.66144
 21
-71.24832
  0
LINE
  8
DETAIL
  6
CONTINOUS
 62
     5
 10
84.4272
 20
-71.24832
 11
78.66144
 21
-71.24832
  0
LINE
  8
DETAIL
  6
CONTINOUS
 62
     5
 10
84.4272
 20
-69.60096
 11
84.4272
 21
-63.8352
  0
LINE
  8
DETAIL
  6
CONTINOUS
 62
     5
 10
84.4272
 20
-69.60096
 11
78.66144
 21
-69.60096
  0
LINE
  8
DETAIL
  6
CONTINOUS
 62
     5
 10
78.66144
 20
-69.60096
 11
78.66144
 21
-63.8352
  0
LINE
  8
DETAIL
  6
CONTINOUS
 62
     5
 10
84.4272
 20
-63.8352
 11
78.66144
 21
-63.8352
  0
LINE
  8
DETAIL
  6
CONTINOUS
 62
     5
 10
84.4272
 20
-62.18784
 11
84.4272
 21
-56.42208
  0
LINE
  8
DETAIL
  6
CONTINOUS
 62
     5
 10
84.4272
 20
-62.18784
 11
78.66144
 21
-62.18784
  0
LINE
  8
DETAIL
  6
CONTINOUS
 62
     5
 10
78.66144
 20
-62.18784
 11
78.66144
 21
-56.42208
  0
LINE
  8
DETAIL
  6
CONTINOUS
 62
     5
 10
84.4272
 20
-56.42208
 11
78.66144
 21
-56.42208
  0
LINE
  8
DETAIL
  6
CONTINOUS
 62
     5
 10
84.4272
 20
-54.77472
 11
84.4272
 21
-49.00896
  0
LINE
  8
DETAIL
  6
CONTINOUS
 62
     5
 10
84.4272
 20
-54.77472
 11
78.66144
 21
-54.77472
  0
LINE
  8
DETAIL
  6
CONTINOUS
 62
     5
 10
78.66144
 20
-54.77472
 11
78.66144
 21
-49.00896
  0
LINE
  8
DETAIL
  6
CONTINOUS
 62
     5
 10
84.4272
 20
-49.00896
 11
78.66144
 21
-49.00896
  0
LINE
  8
DETAIL
  6
CONTINOUS
 62
     5
 10
84.4272
 20
-47.3616
 11
84.4272
 21
-41.59584
  0
LINE
  8
DETAIL
  6
CONTINOUS
 62
     5
 10
84.4272
 20
-47.3616
 11
78.66144
 21
-47.3616
  0
LINE
  8
DETAIL
  6
CONTINOUS
 62
     5
 10
78.66144
 20
-47.3616
 11
78.66144
 21
-41.59584
  0
LINE
  8
DETAIL
  6
CONTINOUS
 62
     5
 10
84.4272
 20
-41.59584
 11
78.66144
 21
-41.59584
  0
LINE
  8
DETAIL
  6
CONTINOUS
 62
     5
 10
84.4272
 20
-39.94848
 11
84.4272
 21
-34.18272
  0
LINE
  8
DETAIL
  6
CONTINOUS
 62
     5
 10
84.4272
 20
-39.94848
 11
78.66144
 21
-39.94848
  0
LINE
  8
DETAIL
  6
CONTINOUS
 62
     5
 10
78.66144
 20
-39.94848
 11
78.66144
 21
-34.18272
  0
LINE
  8
DETAIL
  6
CONTINOUS
 62
     5
 10
84.4272
 20
-34.18272
 11
78.66144
 21
-34.18272
  0
LINE
  8
DETAIL
  6
CONTINOUS
 62
     5
 10
84.4272
 20
-32.53536
 11
84.4272
 21
-26.7696
  0
LINE
  8
DETAIL
  6
CONTINOUS
 62
     5
 10
84.4272
 20
-32.53536
 11
78.66144
 21
-32.53536
  0
LINE
  8
DETAIL
  6
CONTINOUS
 62
     5
 10
78.66144
 20
-32.53536
 11
78.66144
 21
-26.7696
  0
LINE
  8
DETAIL
  6
CONTINOUS
 62
     5
 10
84.4272
 20
-26.7696
 11
78.66144
 21
-26.7696
  0
LINE
  8
DETAIL
  6
CONTINOUS
 62
     5
 10
84.4272
 20
-25.12224
 11
84.4272
 21
-19.35648
  0
LINE
  8
DETAIL
  6
CONTINOUS
 62
     5
 10
84.4272
 20
-25.12224
 11
78.66144
 21
-25.12224
  0
LINE
  8
DETAIL
  6
CONTINOUS
 62
     5
 10
78.66144
 20
-25.12224
 11
78.66144
 21
-19.35648
  0
LINE
  8
DETAIL
  6
CONTINOUS
 62
     5
 10
84.4272
 20
-19.35648
 11
78.66144
 21
-19.35648
  0
LINE
  8
DETAIL
  6
CONTINOUS
 62
     5
 10
84.4272
 20
-17.70912
 11
84.4272
 21
-11.94336
  0
LINE
  8
DETAIL
  6
CONTINOUS
 62
     5
 10
84.4272
 20
-17.70912
 11
78.66144
 21
-17.70912
  0
LINE
  8
DETAIL
  6
CONTINOUS
 62
     5
 10
78.66144
 20
-17.70912
 11
78.66144
 21
-11.94336
  0
LINE
  8
DETAIL
  6
CONTINOUS
 62
     5
 10
84.4272
 20
-11.94336
 11
78.66144
 21
-11.94336
  0
LINE
  8
DETAIL
  6
CONTINOUS
 62
     5
 10
84.4272
 20
-10.296
 11
84.4272
 21
-4.53024
  0
LINE
  8
DETAIL
  6
CONTINOUS
 62
     5
 10
84.4272
 20
-10.296
 11
78.66144
 21
-10.296
  0
LINE
  8
DETAIL
  6
CONTINOUS
 62
     5
 10
78.66144
 20
-10.296
 11
78.66144
 21
-4.53024
  0
LINE
  8
DETAIL
  6
CONTINOUS
 62
     5
 10
84.4272
 20
-4.53024
 11
78.66144
 21
-4.53024
  0
LINE
  8
DETAIL
  6
CONTINOUS
 62
     5
 10
84.4272
 20
-2.88288
 11
84.4272
 21
2.88288
  0
LINE
  8
DETAIL
  6
CONTINOUS
 62
     5
 10
84.4272
 20
-2.88288
 11
78.66144
 21
-2.88288
  0
LINE
  8
DETAIL
  6
CONTINOUS
 62
     5
 10
78.66144
 20
-2.88288
 11
78.66144
 21
2.88288
  0
LINE
  8
DETAIL
  6
CONTINOUS
 62
     5
 10
84.4272
 20
2.88288
 11
78.66144
 21
2.88288
  0
LINE
  8
DETAIL
  6
CONTINOUS
 62
     5
 10
84.4272
 20
4.53024
 11
84.4272
 21
10.296
  0
LINE
  8
DETAIL
  6
CONTINOUS
 62
     5
 10
84.4272
 20
4.53024
 11
78.66144
 21
4.53024
  0
LINE
  8
DETAIL
  6
CONTINOUS
 62
     5
 10
78.66144
 20
4.53024
 11
78.66144
 21
10.296
  0
LINE
  8
DETAIL
  6
CONTINOUS
 62
     5
 10
84.4272
 20
10.296
 11
78.66144
 21
10.296
  0
LINE
  8
DETAIL
  6
CONTINOUS
 62
     5
 10
84.4272
 20
11.94336
 11
84.4272
 21
17.70912
  0
LINE
  8
DETAIL
  6
CONTINOUS
 62
     5
 10
84.4272
 20
11.94336
 11
78.66144
 21
11.94336
  0
LINE
  8
DETAIL
  6
CONTINOUS
 62
     5
 10
78.66144
 20
11.94336
 11
78.66144
 21
17.70912
  0
LINE
  8
DETAIL
  6
CONTINOUS
 62
     5
 10
84.4272
 20
17.70912
 11
78.66144
 21
17.70912
  0
LINE
  8
DETAIL
  6
CONTINOUS
 62
     5
 10
84.4272
 20
19.35648
 11
84.4272
 21
25.12224
  0
LINE
  8
DETAIL
  6
CONTINOUS
 62
     5
 10
84.4272
 20
19.35648
 11
78.66144
 21
19.35648
  0
LINE
  8
DETAIL
  6
CONTINOUS
 62
     5
 10
78.66144
 20
19.35648
 11
78.66144
 21
25.12224
  0
LINE
  8
DETAIL
  6
CONTINOUS
 62
     5
 10
84.4272
 20
25.12224
 11
78.66144
 21
25.12224
  0
LINE
  8
DETAIL
  6
CONTINOUS
 62
     5
 10
84.4272
 20
26.7696
 11
84.4272
 21
32.53536
  0
LINE
  8
DETAIL
  6
CONTINOUS
 62
     5
 10
84.4272
 20
26.7696
 11
78.66144
 21
26.7696
  0
LINE
  8
DETAIL
  6
CONTINOUS
 62
     5
 10
78.66144
 20
26.7696
 11
78.66144
 21
32.53536
  0
LINE
  8
DETAIL
  6
CONTINOUS
 62
     5
 10
84.4272
 20
32.53536
 11
78.66144
 21
32.53536
  0
LINE
  8
DETAIL
  6
CONTINOUS
 62
     5
 10
84.4272
 20
34.18272
 11
84.4272
 21
39.94848
  0
LINE
  8
DETAIL
  6
CONTINOUS
 62
     5
 10
84.4272
 20
34.18272
 11
78.66144
 21
34.18272
  0
LINE
  8
DETAIL
  6
CONTINOUS
 62
     5
 10
78.66144
 20
34.18272
 11
78.66144
 21
39.94848
  0
LINE
  8
DETAIL
  6
CONTINOUS
 62
     5
 10
84.4272
 20
39.94848
 11
78.66144
 21
39.94848
  0
LINE
  8
DETAIL
  6
CONTINOUS
 62
     5
 10
84.4272
 20
41.59584
 11
84.4272
 21
47.3616
  0
LINE
  8
DETAIL
  6
CONTINOUS
 62
     5
 10
84.4272
 20
41.59584
 11
78.66144
 21
41.59584
  0
LINE
  8
DETAIL
  6
CONTINOUS
 62
     5
 10
78.66144
 20
41.59584
 11
78.66144
 21
47.3616
  0
LINE
  8
DETAIL
  6
CONTINOUS
 62
     5
 10
84.4272
 20
47.3616
 11
78.66144
 21
47.3616
  0
LINE
  8
DETAIL
  6
CONTINOUS
 62
     5
 10
84.4272
 20
49.00896
 11
84.4272
 21
54.77472
  0
LINE
  8
DETAIL
  6
CONTINOUS
 62
     5
 10
84.4272
 20
49.00896
 11
78.66144
 21
49.00896
  0
LINE
  8
DETAIL
  6
CONTINOUS
 62
     5
 10
78.66144
 20
49.00896
 11
78.66144
 21
54.77472
  0
LINE
  8
DETAIL
  6
CONTINOUS
 62
     5
 10
84.4272
 20
54.77472
 11
78.66144
 21
54.77472
  0
LINE
  8
DETAIL
  6
CONTINOUS
 62
     5
 10
84.4272
 20
56.42208
 11
84.4272
 21
62.18784
  0
LINE
  8
DETAIL
  6
CONTINOUS
 62
     5
 10
84.4272
 20
56.42208
 11
78.66144
 21
56.42208
  0
LINE
  8
DETAIL
  6
CONTINOUS
 62
     5
 10
78.66144
 20
56.42208
 11
78.66144
 21
62.18784
  0
LINE
  8
DETAIL
  6
CONTINOUS
 62
     5
 10
84.4272
 20
62.18784
 11
78.66144
 21
62.18784
  0
LINE
  8
DETAIL
  6
CONTINOUS
 62
     5
 10
84.4272
 20
63.8352
 11
84.4272
 21
69.60096
  0
LINE
  8
DETAIL
  6
CONTINOUS
 62
     5
 10
84.4272
 20
63.8352
 11
78.66144
 21
63.8352
  0
LINE
  8
DETAIL
  6
CONTINOUS
 62
     5
 10
78.66144
 20
63.8352
 11
78.66144
 21
69.60096
  0
LINE
  8
DETAIL
  6
CONTINOUS
 62
     5
 10
84.4272
 20
69.60096
 11
78.66144
 21
69.60096
  0
LINE
  8
DETAIL
  6
CONTINOUS
 62
     5
 10
84.4272
 20
71.24832
 11
84.4272
 21
77.01408
  0
LINE
  8
DETAIL
  6
CONTINOUS
 62
     5
 10
84.4272
 20
71.24832
 11
78.66144
 21
71.24832
  0
LINE
  8
DETAIL
  6
CONTINOUS
 62
     5
 10
78.66144
 20
71.24832
 11
78.66144
 21
77.01408
  0
LINE
  8
DETAIL
  6
CONTINOUS
 62
     5
 10
84.4272
 20
77.01408
 11
78.66144
 21
77.01408
  0
LINE
  8
DETAIL
  6
CONTINOUS
 62
     5
 10
84.4272
 20
78.66144
 11
84.4272
 21
84.4272
  0
LINE
  8
DETAIL
  6
CONTINOUS
 62
     5
 10
84.4272
 20
78.66144
 11
78.66144
 21
78.66144
  0
LINE
  8
DETAIL
  6
CONTINOUS
 62
     5
 10
78.66144
 20
78.66144
 11
78.66144
 21
84.4272
  0
LINE
  8
DETAIL
  6
CONTINOUS
 62
     5
 10
84.4272
 20
84.4272
 11
78.66144
 21
84.4272
  0
LINE
  8
DETAIL
  6
CONTINOUS
 62
     5
 10
84.4272
 20
86.07456
 11
84.4272
 21
91.84032
  0
LINE
  8
DETAIL
  6
CONTINOUS
 62
     5
 10
84.4272
 20
86.07456
 11
78.66144
 21
86.07456
  0
LINE
  8
DETAIL
  6
CONTINOUS
 62
     5
 10
78.66144
 20
86.07456
 11
78.66144
 21
91.84032
  0
LINE
  8
DETAIL
  6
CONTINOUS
 62
     5
 10
84.4272
 20
91.84032
 11
78.66144
 21
91.84032
  0
LINE
  8
DETAIL
  6
CONTINOUS
 62
     5
 10
84.4272
 20
93.48768
 11
84.4272
 21
99.25344
  0
LINE
  8
DETAIL
  6
CONTINOUS
 62
     5
 10
84.4272
 20
93.48768
 11
78.66144
 21
93.48768
  0
LINE
  8
DETAIL
  6
CONTINOUS
 62
     5
 10
78.66144
 20
93.48768
 11
78.66144
 21
99.25344
  0
LINE
  8
DETAIL
  6
CONTINOUS
 62
     5
 10
84.4272
 20
99.25344
 11
78.66144
 21
99.25344
  0
LINE
  8
DETAIL
  6
CONTINOUS
 62
     5
 10
77.01408
 20
-99.25344
 11
77.01408
 21
-93.48768
  0
LINE
  8
DETAIL
  6
CONTINOUS
 62
     5
 10
77.01408
 20
-99.25344
 11
71.24832
 21
-99.25344
  0
LINE
  8
DETAIL
  6
CONTINOUS
 62
     5
 10
71.24832
 20
-99.25344
 11
71.24832
 21
-93.48768
  0
LINE
  8
DETAIL
  6
CONTINOUS
 62
     5
 10
77.01408
 20
-93.48768
 11
71.24832
 21
-93.48768
  0
LINE
  8
DETAIL
  6
CONTINOUS
 62
     5
 10
77.01408
 20
-91.84032
 11
77.01408
 21
-86.07456
  0
LINE
  8
DETAIL
  6
CONTINOUS
 62
     5
 10
77.01408
 20
-91.84032
 11
71.24832
 21
-91.84032
  0
LINE
  8
DETAIL
  6
CONTINOUS
 62
     5
 10
71.24832
 20
-91.84032
 11
71.24832
 21
-86.07456
  0
LINE
  8
DETAIL
  6
CONTINOUS
 62
     5
 10
77.01408
 20
-86.07456
 11
71.24832
 21
-86.07456
  0
LINE
  8
DETAIL
  6
CONTINOUS
 62
     5
 10
77.01408
 20
-84.4272
 11
77.01408
 21
-78.66144
  0
LINE
  8
DETAIL
  6
CONTINOUS
 62
     5
 10
77.01408
 20
-84.4272
 11
71.24832
 21
-84.4272
  0
LINE
  8
DETAIL
  6
CONTINOUS
 62
     5
 10
71.24832
 20
-84.4272
 11
71.24832
 21
-78.66144
  0
LINE
  8
DETAIL
  6
CONTINOUS
 62
     5
 10
77.01408
 20
-78.66144
 11
71.24832
 21
-78.66144
  0
LINE
  8
DETAIL
  6
CONTINOUS
 62
     5
 10
77.01408
 20
-77.01408
 11
77.01408
 21
-71.24832
  0
LINE
  8
DETAIL
  6
CONTINOUS
 62
     5
 10
77.01408
 20
-77.01408
 11
71.24832
 21
-77.01408
  0
LINE
  8
DETAIL
  6
CONTINOUS
 62
     5
 10
71.24832
 20
-77.01408
 11
71.24832
 21
-71.24832
  0
LINE
  8
DETAIL
  6
CONTINOUS
 62
     5
 10
77.01408
 20
-71.24832
 11
71.24832
 21
-71.24832
  0
LINE
  8
DETAIL
  6
CONTINOUS
 62
     5
 10
77.01408
 20
-69.60096
 11
77.01408
 21
-63.8352
  0
LINE
  8
DETAIL
  6
CONTINOUS
 62
     5
 10
77.01408
 20
-69.60096
 11
71.24832
 21
-69.60096
  0
LINE
  8
DETAIL
  6
CONTINOUS
 62
     5
 10
71.24832
 20
-69.60096
 11
71.24832
 21
-63.8352
  0
LINE
  8
DETAIL
  6
CONTINOUS
 62
     5
 10
77.01408
 20
-63.8352
 11
71.24832
 21
-63.8352
  0
LINE
  8
DETAIL
  6
CONTINOUS
 62
     5
 10
77.01408
 20
-62.18784
 11
77.01408
 21
-56.42208
  0
LINE
  8
DETAIL
  6
CONTINOUS
 62
     5
 10
77.01408
 20
-62.18784
 11
71.24832
 21
-62.18784
  0
LINE
  8
DETAIL
  6
CONTINOUS
 62
     5
 10
71.24832
 20
-62.18784
 11
71.24832
 21
-56.42208
  0
LINE
  8
DETAIL
  6
CONTINOUS
 62
     5
 10
77.01408
 20
-56.42208
 11
71.24832
 21
-56.42208
  0
LINE
  8
DETAIL
  6
CONTINOUS
 62
     5
 10
77.01408
 20
-54.77472
 11
77.01408
 21
-49.00896
  0
LINE
  8
DETAIL
  6
CONTINOUS
 62
     5
 10
77.01408
 20
-54.77472
 11
71.24832
 21
-54.77472
  0
LINE
  8
DETAIL
  6
CONTINOUS
 62
     5
 10
71.24832
 20
-54.77472
 11
71.24832
 21
-49.00896
  0
LINE
  8
DETAIL
  6
CONTINOUS
 62
     5
 10
77.01408
 20
-49.00896
 11
71.24832
 21
-49.00896
  0
LINE
  8
DETAIL
  6
CONTINOUS
 62
     5
 10
77.01408
 20
-47.3616
 11
77.01408
 21
-41.59584
  0
LINE
  8
DETAIL
  6
CONTINOUS
 62
     5
 10
77.01408
 20
-47.3616
 11
71.24832
 21
-47.3616
  0
LINE
  8
DETAIL
  6
CONTINOUS
 62
     5
 10
71.24832
 20
-47.3616
 11
71.24832
 21
-41.59584
  0
LINE
  8
DETAIL
  6
CONTINOUS
 62
     5
 10
77.01408
 20
-41.59584
 11
71.24832
 21
-41.59584
  0
LINE
  8
DETAIL
  6
CONTINOUS
 62
     5
 10
77.01408
 20
-39.94848
 11
77.01408
 21
-34.18272
  0
LINE
  8
DETAIL
  6
CONTINOUS
 62
     5
 10
77.01408
 20
-39.94848
 11
71.24832
 21
-39.94848
  0
LINE
  8
DETAIL
  6
CONTINOUS
 62
     5
 10
71.24832
 20
-39.94848
 11
71.24832
 21
-34.18272
  0
LINE
  8
DETAIL
  6
CONTINOUS
 62
     5
 10
77.01408
 20
-34.18272
 11
71.24832
 21
-34.18272
  0
LINE
  8
DETAIL
  6
CONTINOUS
 62
     5
 10
77.01408
 20
-32.53536
 11
77.01408
 21
-26.7696
  0
LINE
  8
DETAIL
  6
CONTINOUS
 62
     5
 10
77.01408
 20
-32.53536
 11
71.24832
 21
-32.53536
  0
LINE
  8
DETAIL
  6
CONTINOUS
 62
     5
 10
71.24832
 20
-32.53536
 11
71.24832
 21
-26.7696
  0
LINE
  8
DETAIL
  6
CONTINOUS
 62
     5
 10
77.01408
 20
-26.7696
 11
71.24832
 21
-26.7696
  0
LINE
  8
DETAIL
  6
CONTINOUS
 62
     5
 10
77.01408
 20
-25.12224
 11
77.01408
 21
-19.35648
  0
LINE
  8
DETAIL
  6
CONTINOUS
 62
     5
 10
77.01408
 20
-25.12224
 11
71.24832
 21
-25.12224
  0
LINE
  8
DETAIL
  6
CONTINOUS
 62
     5
 10
71.24832
 20
-25.12224
 11
71.24832
 21
-19.35648
  0
LINE
  8
DETAIL
  6
CONTINOUS
 62
     5
 10
77.01408
 20
-19.35648
 11
71.24832
 21
-19.35648
  0
LINE
  8
DETAIL
  6
CONTINOUS
 62
     5
 10
77.01408
 20
-17.70912
 11
77.01408
 21
-11.94336
  0
LINE
  8
DETAIL
  6
CONTINOUS
 62
     5
 10
77.01408
 20
-17.70912
 11
71.24832
 21
-17.70912
  0
LINE
  8
DETAIL
  6
CONTINOUS
 62
     5
 10
71.24832
 20
-17.70912
 11
71.24832
 21
-11.94336
  0
LINE
  8
DETAIL
  6
CONTINOUS
 62
     5
 10
77.01408
 20
-11.94336
 11
71.24832
 21
-11.94336
  0
LINE
  8
DETAIL
  6
CONTINOUS
 62
     5
 10
77.01408
 20
-10.296
 11
77.01408
 21
-4.53024
  0
LINE
  8
DETAIL
  6
CONTINOUS
 62
     5
 10
77.01408
 20
-10.296
 11
71.24832
 21
-10.296
  0
LINE
  8
DETAIL
  6
CONTINOUS
 62
     5
 10
71.24832
 20
-10.296
 11
71.24832
 21
-4.53024
  0
LINE
  8
DETAIL
  6
CONTINOUS
 62
     5
 10
77.01408
 20
-4.53024
 11
71.24832
 21
-4.53024
  0
LINE
  8
DETAIL
  6
CONTINOUS
 62
     5
 10
77.01408
 20
-2.88288
 11
77.01408
 21
2.88288
  0
LINE
  8
DETAIL
  6
CONTINOUS
 62
     5
 10
77.01408
 20
-2.88288
 11
71.24832
 21
-2.88288
  0
LINE
  8
DETAIL
  6
CONTINOUS
 62
     5
 10
71.24832
 20
-2.88288
 11
71.24832
 21
2.88288
  0
LINE
  8
DETAIL
  6
CONTINOUS
 62
     5
 10
77.01408
 20
2.88288
 11
71.24832
 21
2.88288
  0
LINE
  8
DETAIL
  6
CONTINOUS
 62
     5
 10
77.01408
 20
4.53024
 11
77.01408
 21
10.296
  0
LINE
  8
DETAIL
  6
CONTINOUS
 62
     5
 10
77.01408
 20
4.53024
 11
71.24832
 21
4.53024
  0
LINE
  8
DETAIL
  6
CONTINOUS
 62
     5
 10
71.24832
 20
4.53024
 11
71.24832
 21
10.296
  0
LINE
  8
DETAIL
  6
CONTINOUS
 62
     5
 10
77.01408
 20
10.296
 11
71.24832
 21
10.296
  0
LINE
  8
DETAIL
  6
CONTINOUS
 62
     5
 10
77.01408
 20
11.94336
 11
77.01408
 21
17.70912
  0
LINE
  8
DETAIL
  6
CONTINOUS
 62
     5
 10
77.01408
 20
11.94336
 11
71.24832
 21
11.94336
  0
LINE
  8
DETAIL
  6
CONTINOUS
 62
     5
 10
71.24832
 20
11.94336
 11
71.24832
 21
17.70912
  0
LINE
  8
DETAIL
  6
CONTINOUS
 62
     5
 10
77.01408
 20
17.70912
 11
71.24832
 21
17.70912
  0
LINE
  8
DETAIL
  6
CONTINOUS
 62
     5
 10
77.01408
 20
19.35648
 11
77.01408
 21
25.12224
  0
LINE
  8
DETAIL
  6
CONTINOUS
 62
     5
 10
77.01408
 20
19.35648
 11
71.24832
 21
19.35648
  0
LINE
  8
DETAIL
  6
CONTINOUS
 62
     5
 10
71.24832
 20
19.35648
 11
71.24832
 21
25.12224
  0
LINE
  8
DETAIL
  6
CONTINOUS
 62
     5
 10
77.01408
 20
25.12224
 11
71.24832
 21
25.12224
  0
LINE
  8
DETAIL
  6
CONTINOUS
 62
     5
 10
77.01408
 20
26.7696
 11
77.01408
 21
32.53536
  0
LINE
  8
DETAIL
  6
CONTINOUS
 62
     5
 10
77.01408
 20
26.7696
 11
71.24832
 21
26.7696
  0
LINE
  8
DETAIL
  6
CONTINOUS
 62
     5
 10
71.24832
 20
26.7696
 11
71.24832
 21
32.53536
  0
LINE
  8
DETAIL
  6
CONTINOUS
 62
     5
 10
77.01408
 20
32.53536
 11
71.24832
 21
32.53536
  0
LINE
  8
DETAIL
  6
CONTINOUS
 62
     5
 10
77.01408
 20
34.18272
 11
77.01408
 21
39.94848
  0
LINE
  8
DETAIL
  6
CONTINOUS
 62
     5
 10
77.01408
 20
34.18272
 11
71.24832
 21
34.18272
  0
LINE
  8
DETAIL
  6
CONTINOUS
 62
     5
 10
71.24832
 20
34.18272
 11
71.24832
 21
39.94848
  0
LINE
  8
DETAIL
  6
CONTINOUS
 62
     5
 10
77.01408
 20
39.94848
 11
71.24832
 21
39.94848
  0
LINE
  8
DETAIL
  6
CONTINOUS
 62
     5
 10
77.01408
 20
41.59584
 11
77.01408
 21
47.3616
  0
LINE
  8
DETAIL
  6
CONTINOUS
 62
     5
 10
77.01408
 20
41.59584
 11
71.24832
 21
41.59584
  0
LINE
  8
DETAIL
  6
CONTINOUS
 62
     5
 10
71.24832
 20
41.59584
 11
71.24832
 21
47.3616
  0
LINE
  8
DETAIL
  6
CONTINOUS
 62
     5
 10
77.01408
 20
47.3616
 11
71.24832
 21
47.3616
  0
LINE
  8
DETAIL
  6
CONTINOUS
 62
     5
 10
77.01408
 20
49.00896
 11
77.01408
 21
54.77472
  0
LINE
  8
DETAIL
  6
CONTINOUS
 62
     5
 10
77.01408
 20
49.00896
 11
71.24832
 21
49.00896
  0
LINE
  8
DETAIL
  6
CONTINOUS
 62
     5
 10
71.24832
 20
49.00896
 11
71.24832
 21
54.77472
  0
LINE
  8
DETAIL
  6
CONTINOUS
 62
     5
 10
77.01408
 20
54.77472
 11
71.24832
 21
54.77472
  0
LINE
  8
DETAIL
  6
CONTINOUS
 62
     5
 10
77.01408
 20
56.42208
 11
77.01408
 21
62.18784
  0
LINE
  8
DETAIL
  6
CONTINOUS
 62
     5
 10
77.01408
 20
56.42208
 11
71.24832
 21
56.42208
  0
LINE
  8
DETAIL
  6
CONTINOUS
 62
     5
 10
71.24832
 20
56.42208
 11
71.24832
 21
62.18784
  0
LINE
  8
DETAIL
  6
CONTINOUS
 62
     5
 10
77.01408
 20
62.18784
 11
71.24832
 21
62.18784
  0
LINE
  8
DETAIL
  6
CONTINOUS
 62
     5
 10
77.01408
 20
63.8352
 11
77.01408
 21
69.60096
  0
LINE
  8
DETAIL
  6
CONTINOUS
 62
     5
 10
77.01408
 20
63.8352
 11
71.24832
 21
63.8352
  0
LINE
  8
DETAIL
  6
CONTINOUS
 62
     5
 10
71.24832
 20
63.8352
 11
71.24832
 21
69.60096
  0
LINE
  8
DETAIL
  6
CONTINOUS
 62
     5
 10
77.01408
 20
69.60096
 11
71.24832
 21
69.60096
  0
LINE
  8
DETAIL
  6
CONTINOUS
 62
     5
 10
77.01408
 20
71.24832
 11
77.01408
 21
77.01408
  0
LINE
  8
DETAIL
  6
CONTINOUS
 62
     5
 10
77.01408
 20
71.24832
 11
71.24832
 21
71.24832
  0
LINE
  8
DETAIL
  6
CONTINOUS
 62
     5
 10
71.24832
 20
71.24832
 11
71.24832
 21
77.01408
  0
LINE
  8
DETAIL
  6
CONTINOUS
 62
     5
 10
77.01408
 20
77.01408
 11
71.24832
 21
77.01408
  0
LINE
  8
DETAIL
  6
CONTINOUS
 62
     5
 10
77.01408
 20
78.66144
 11
77.01408
 21
84.4272
  0
LINE
  8
DETAIL
  6
CONTINOUS
 62
     5
 10
77.01408
 20
78.66144
 11
71.24832
 21
78.66144
  0
LINE
  8
DETAIL
  6
CONTINOUS
 62
     5
 10
71.24832
 20
78.66144
 11
71.24832
 21
84.4272
  0
LINE
  8
DETAIL
  6
CONTINOUS
 62
     5
 10
77.01408
 20
84.4272
 11
71.24832
 21
84.4272
  0
LINE
  8
DETAIL
  6
CONTINOUS
 62
     5
 10
77.01408
 20
86.07456
 11
77.01408
 21
91.84032
  0
LINE
  8
DETAIL
  6
CONTINOUS
 62
     5
 10
77.01408
 20
86.07456
 11
71.24832
 21
86.07456
  0
LINE
  8
DETAIL
  6
CONTINOUS
 62
     5
 10
71.24832
 20
86.07456
 11
71.24832
 21
91.84032
  0
LINE
  8
DETAIL
  6
CONTINOUS
 62
     5
 10
77.01408
 20
91.84032
 11
71.24832
 21
91.84032
  0
LINE
  8
DETAIL
  6
CONTINOUS
 62
     5
 10
77.01408
 20
93.48768
 11
77.01408
 21
99.25344
  0
LINE
  8
DETAIL
  6
CONTINOUS
 62
     5
 10
77.01408
 20
93.48768
 11
71.24832
 21
93.48768
  0
LINE
  8
DETAIL
  6
CONTINOUS
 62
     5
 10
71.24832
 20
93.48768
 11
71.24832
 21
99.25344
  0
LINE
  8
DETAIL
  6
CONTINOUS
 62
     5
 10
77.01408
 20
99.25344
 11
71.24832
 21
99.25344
  0
LINE
  8
DETAIL
  6
CONTINOUS
 62
     5
 10
69.60096
 20
-99.25344
 11
69.60096
 21
-93.48768
  0
LINE
  8
DETAIL
  6
CONTINOUS
 62
     5
 10
69.60096
 20
-99.25344
 11
63.8352
 21
-99.25344
  0
LINE
  8
DETAIL
  6
CONTINOUS
 62
     5
 10
63.8352
 20
-99.25344
 11
63.8352
 21
-93.48768
  0
LINE
  8
DETAIL
  6
CONTINOUS
 62
     5
 10
69.60096
 20
-93.48768
 11
63.8352
 21
-93.48768
  0
LINE
  8
DETAIL
  6
CONTINOUS
 62
     5
 10
69.60096
 20
-91.84032
 11
69.60096
 21
-86.07456
  0
LINE
  8
DETAIL
  6
CONTINOUS
 62
     5
 10
69.60096
 20
-91.84032
 11
63.8352
 21
-91.84032
  0
LINE
  8
DETAIL
  6
CONTINOUS
 62
     5
 10
63.8352
 20
-91.84032
 11
63.8352
 21
-86.07456
  0
LINE
  8
DETAIL
  6
CONTINOUS
 62
     5
 10
69.60096
 20
-86.07456
 11
63.8352
 21
-86.07456
  0
LINE
  8
DETAIL
  6
CONTINOUS
 62
     5
 10
69.60096
 20
-84.4272
 11
69.60096
 21
-78.66144
  0
LINE
  8
DETAIL
  6
CONTINOUS
 62
     5
 10
69.60096
 20
-84.4272
 11
63.8352
 21
-84.4272
  0
LINE
  8
DETAIL
  6
CONTINOUS
 62
     5
 10
63.8352
 20
-84.4272
 11
63.8352
 21
-78.66144
  0
LINE
  8
DETAIL
  6
CONTINOUS
 62
     5
 10
69.60096
 20
-78.66144
 11
63.8352
 21
-78.66144
  0
LINE
  8
DETAIL
  6
CONTINOUS
 62
     5
 10
69.60096
 20
-77.01408
 11
69.60096
 21
-71.24832
  0
LINE
  8
DETAIL
  6
CONTINOUS
 62
     5
 10
69.60096
 20
-77.01408
 11
63.8352
 21
-77.01408
  0
LINE
  8
DETAIL
  6
CONTINOUS
 62
     5
 10
63.8352
 20
-77.01408
 11
63.8352
 21
-71.24832
  0
LINE
  8
DETAIL
  6
CONTINOUS
 62
     5
 10
69.60096
 20
-71.24832
 11
63.8352
 21
-71.24832
  0
LINE
  8
DETAIL
  6
CONTINOUS
 62
     5
 10
69.60096
 20
-69.60096
 11
69.60096
 21
-63.8352
  0
LINE
  8
DETAIL
  6
CONTINOUS
 62
     5
 10
69.60096
 20
-69.60096
 11
63.8352
 21
-69.60096
  0
LINE
  8
DETAIL
  6
CONTINOUS
 62
     5
 10
63.8352
 20
-69.60096
 11
63.8352
 21
-63.8352
  0
LINE
  8
DETAIL
  6
CONTINOUS
 62
     5
 10
69.60096
 20
-63.8352
 11
63.8352
 21
-63.8352
  0
LINE
  8
DETAIL
  6
CONTINOUS
 62
     5
 10
69.60096
 20
-62.18784
 11
69.60096
 21
-56.42208
  0
LINE
  8
DETAIL
  6
CONTINOUS
 62
     5
 10
69.60096
 20
-62.18784
 11
63.8352
 21
-62.18784
  0
LINE
  8
DETAIL
  6
CONTINOUS
 62
     5
 10
63.8352
 20
-62.18784
 11
63.8352
 21
-56.42208
  0
LINE
  8
DETAIL
  6
CONTINOUS
 62
     5
 10
69.60096
 20
-56.42208
 11
63.8352
 21
-56.42208
  0
LINE
  8
DETAIL
  6
CONTINOUS
 62
     5
 10
69.60096
 20
-54.77472
 11
69.60096
 21
-49.00896
  0
LINE
  8
DETAIL
  6
CONTINOUS
 62
     5
 10
69.60096
 20
-54.77472
 11
63.8352
 21
-54.77472
  0
LINE
  8
DETAIL
  6
CONTINOUS
 62
     5
 10
63.8352
 20
-54.77472
 11
63.8352
 21
-49.00896
  0
LINE
  8
DETAIL
  6
CONTINOUS
 62
     5
 10
69.60096
 20
-49.00896
 11
63.8352
 21
-49.00896
  0
LINE
  8
DETAIL
  6
CONTINOUS
 62
     5
 10
69.60096
 20
-47.3616
 11
69.60096
 21
-41.59584
  0
LINE
  8
DETAIL
  6
CONTINOUS
 62
     5
 10
69.60096
 20
-47.3616
 11
63.8352
 21
-47.3616
  0
LINE
  8
DETAIL
  6
CONTINOUS
 62
     5
 10
63.8352
 20
-47.3616
 11
63.8352
 21
-41.59584
  0
LINE
  8
DETAIL
  6
CONTINOUS
 62
     5
 10
69.60096
 20
-41.59584
 11
63.8352
 21
-41.59584
  0
LINE
  8
DETAIL
  6
CONTINOUS
 62
     5
 10
69.60096
 20
-39.94848
 11
69.60096
 21
-34.18272
  0
LINE
  8
DETAIL
  6
CONTINOUS
 62
     5
 10
69.60096
 20
-39.94848
 11
63.8352
 21
-39.94848
  0
LINE
  8
DETAIL
  6
CONTINOUS
 62
     5
 10
63.8352
 20
-39.94848
 11
63.8352
 21
-34.18272
  0
LINE
  8
DETAIL
  6
CONTINOUS
 62
     5
 10
69.60096
 20
-34.18272
 11
63.8352
 21
-34.18272
  0
LINE
  8
DETAIL
  6
CONTINOUS
 62
     5
 10
69.60096
 20
-32.53536
 11
69.60096
 21
-26.7696
  0
LINE
  8
DETAIL
  6
CONTINOUS
 62
     5
 10
69.60096
 20
-32.53536
 11
63.8352
 21
-32.53536
  0
LINE
  8
DETAIL
  6
CONTINOUS
 62
     5
 10
63.8352
 20
-32.53536
 11
63.8352
 21
-26.7696
  0
LINE
  8
DETAIL
  6
CONTINOUS
 62
     5
 10
69.60096
 20
-26.7696
 11
63.8352
 21
-26.7696
  0
LINE
  8
DETAIL
  6
CONTINOUS
 62
     5
 10
69.60096
 20
-25.12224
 11
69.60096
 21
-19.35648
  0
LINE
  8
DETAIL
  6
CONTINOUS
 62
     5
 10
69.60096
 20
-25.12224
 11
63.8352
 21
-25.12224
  0
LINE
  8
DETAIL
  6
CONTINOUS
 62
     5
 10
63.8352
 20
-25.12224
 11
63.8352
 21
-19.35648
  0
LINE
  8
DETAIL
  6
CONTINOUS
 62
     5
 10
69.60096
 20
-19.35648
 11
63.8352
 21
-19.35648
  0
LINE
  8
DETAIL
  6
CONTINOUS
 62
     5
 10
69.60096
 20
-17.70912
 11
69.60096
 21
-11.94336
  0
LINE
  8
DETAIL
  6
CONTINOUS
 62
     5
 10
69.60096
 20
-17.70912
 11
63.8352
 21
-17.70912
  0
LINE
  8
DETAIL
  6
CONTINOUS
 62
     5
 10
63.8352
 20
-17.70912
 11
63.8352
 21
-11.94336
  0
LINE
  8
DETAIL
  6
CONTINOUS
 62
     5
 10
69.60096
 20
-11.94336
 11
63.8352
 21
-11.94336
  0
LINE
  8
DETAIL
  6
CONTINOUS
 62
     5
 10
69.60096
 20
-10.296
 11
69.60096
 21
-4.53024
  0
LINE
  8
DETAIL
  6
CONTINOUS
 62
     5
 10
69.60096
 20
-10.296
 11
63.8352
 21
-10.296
  0
LINE
  8
DETAIL
  6
CONTINOUS
 62
     5
 10
63.8352
 20
-10.296
 11
63.8352
 21
-4.53024
  0
LINE
  8
DETAIL
  6
CONTINOUS
 62
     5
 10
69.60096
 20
-4.53024
 11
63.8352
 21
-4.53024
  0
LINE
  8
DETAIL
  6
CONTINOUS
 62
     5
 10
69.60096
 20
-2.88288
 11
69.60096
 21
2.88288
  0
LINE
  8
DETAIL
  6
CONTINOUS
 62
     5
 10
69.60096
 20
-2.88288
 11
63.8352
 21
-2.88288
  0
LINE
  8
DETAIL
  6
CONTINOUS
 62
     5
 10
63.8352
 20
-2.88288
 11
63.8352
 21
2.88288
  0
LINE
  8
DETAIL
  6
CONTINOUS
 62
     5
 10
69.60096
 20
2.88288
 11
63.8352
 21
2.88288
  0
LINE
  8
DETAIL
  6
CONTINOUS
 62
     5
 10
69.60096
 20
4.53024
 11
69.60096
 21
10.296
  0
LINE
  8
DETAIL
  6
CONTINOUS
 62
     5
 10
69.60096
 20
4.53024
 11
63.8352
 21
4.53024
  0
LINE
  8
DETAIL
  6
CONTINOUS
 62
     5
 10
63.8352
 20
4.53024
 11
63.8352
 21
10.296
  0
LINE
  8
DETAIL
  6
CONTINOUS
 62
     5
 10
69.60096
 20
10.296
 11
63.8352
 21
10.296
  0
LINE
  8
DETAIL
  6
CONTINOUS
 62
     5
 10
69.60096
 20
11.94336
 11
69.60096
 21
17.70912
  0
LINE
  8
DETAIL
  6
CONTINOUS
 62
     5
 10
69.60096
 20
11.94336
 11
63.8352
 21
11.94336
  0
LINE
  8
DETAIL
  6
CONTINOUS
 62
     5
 10
63.8352
 20
11.94336
 11
63.8352
 21
17.70912
  0
LINE
  8
DETAIL
  6
CONTINOUS
 62
     5
 10
69.60096
 20
17.70912
 11
63.8352
 21
17.70912
  0
LINE
  8
DETAIL
  6
CONTINOUS
 62
     5
 10
69.60096
 20
19.35648
 11
69.60096
 21
25.12224
  0
LINE
  8
DETAIL
  6
CONTINOUS
 62
     5
 10
69.60096
 20
19.35648
 11
63.8352
 21
19.35648
  0
LINE
  8
DETAIL
  6
CONTINOUS
 62
     5
 10
63.8352
 20
19.35648
 11
63.8352
 21
25.12224
  0
LINE
  8
DETAIL
  6
CONTINOUS
 62
     5
 10
69.60096
 20
25.12224
 11
63.8352
 21
25.12224
  0
LINE
  8
DETAIL
  6
CONTINOUS
 62
     5
 10
69.60096
 20
26.7696
 11
69.60096
 21
32.53536
  0
LINE
  8
DETAIL
  6
CONTINOUS
 62
     5
 10
69.60096
 20
26.7696
 11
63.8352
 21
26.7696
  0
LINE
  8
DETAIL
  6
CONTINOUS
 62
     5
 10
63.8352
 20
26.7696
 11
63.8352
 21
32.53536
  0
LINE
  8
DETAIL
  6
CONTINOUS
 62
     5
 10
69.60096
 20
32.53536
 11
63.8352
 21
32.53536
  0
LINE
  8
DETAIL
  6
CONTINOUS
 62
     5
 10
69.60096
 20
34.18272
 11
69.60096
 21
39.94848
  0
LINE
  8
DETAIL
  6
CONTINOUS
 62
     5
 10
69.60096
 20
34.18272
 11
63.8352
 21
34.18272
  0
LINE
  8
DETAIL
  6
CONTINOUS
 62
     5
 10
63.8352
 20
34.18272
 11
63.8352
 21
39.94848
  0
LINE
  8
DETAIL
  6
CONTINOUS
 62
     5
 10
69.60096
 20
39.94848
 11
63.8352
 21
39.94848
  0
LINE
  8
DETAIL
  6
CONTINOUS
 62
     5
 10
69.60096
 20
41.59584
 11
69.60096
 21
47.3616
  0
LINE
  8
DETAIL
  6
CONTINOUS
 62
     5
 10
69.60096
 20
41.59584
 11
63.8352
 21
41.59584
  0
LINE
  8
DETAIL
  6
CONTINOUS
 62
     5
 10
63.8352
 20
41.59584
 11
63.8352
 21
47.3616
  0
LINE
  8
DETAIL
  6
CONTINOUS
 62
     5
 10
69.60096
 20
47.3616
 11
63.8352
 21
47.3616
  0
LINE
  8
DETAIL
  6
CONTINOUS
 62
     5
 10
69.60096
 20
49.00896
 11
69.60096
 21
54.77472
  0
LINE
  8
DETAIL
  6
CONTINOUS
 62
     5
 10
69.60096
 20
49.00896
 11
63.8352
 21
49.00896
  0
LINE
  8
DETAIL
  6
CONTINOUS
 62
     5
 10
63.8352
 20
49.00896
 11
63.8352
 21
54.77472
  0
LINE
  8
DETAIL
  6
CONTINOUS
 62
     5
 10
69.60096
 20
54.77472
 11
63.8352
 21
54.77472
  0
LINE
  8
DETAIL
  6
CONTINOUS
 62
     5
 10
69.60096
 20
56.42208
 11
69.60096
 21
62.18784
  0
LINE
  8
DETAIL
  6
CONTINOUS
 62
     5
 10
69.60096
 20
56.42208
 11
63.8352
 21
56.42208
  0
LINE
  8
DETAIL
  6
CONTINOUS
 62
     5
 10
63.8352
 20
56.42208
 11
63.8352
 21
62.18784
  0
LINE
  8
DETAIL
  6
CONTINOUS
 62
     5
 10
69.60096
 20
62.18784
 11
63.8352
 21
62.18784
  0
LINE
  8
DETAIL
  6
CONTINOUS
 62
     5
 10
69.60096
 20
63.8352
 11
69.60096
 21
69.60096
  0
LINE
  8
DETAIL
  6
CONTINOUS
 62
     5
 10
69.60096
 20
63.8352
 11
63.8352
 21
63.8352
  0
LINE
  8
DETAIL
  6
CONTINOUS
 62
     5
 10
63.8352
 20
63.8352
 11
63.8352
 21
69.60096
  0
LINE
  8
DETAIL
  6
CONTINOUS
 62
     5
 10
69.60096
 20
69.60096
 11
63.8352
 21
69.60096
  0
LINE
  8
DETAIL
  6
CONTINOUS
 62
     5
 10
69.60096
 20
71.24832
 11
69.60096
 21
77.01408
  0
LINE
  8
DETAIL
  6
CONTINOUS
 62
     5
 10
69.60096
 20
71.24832
 11
63.8352
 21
71.24832
  0
LINE
  8
DETAIL
  6
CONTINOUS
 62
     5
 10
63.8352
 20
71.24832
 11
63.8352
 21
77.01408
  0
LINE
  8
DETAIL
  6
CONTINOUS
 62
     5
 10
69.60096
 20
77.01408
 11
63.8352
 21
77.01408
  0
LINE
  8
DETAIL
  6
CONTINOUS
 62
     5
 10
69.60096
 20
78.66144
 11
69.60096
 21
84.4272
  0
LINE
  8
DETAIL
  6
CONTINOUS
 62
     5
 10
69.60096
 20
78.66144
 11
63.8352
 21
78.66144
  0
LINE
  8
DETAIL
  6
CONTINOUS
 62
     5
 10
63.8352
 20
78.66144
 11
63.8352
 21
84.4272
  0
LINE
  8
DETAIL
  6
CONTINOUS
 62
     5
 10
69.60096
 20
84.4272
 11
63.8352
 21
84.4272
  0
LINE
  8
DETAIL
  6
CONTINOUS
 62
     5
 10
69.60096
 20
86.07456
 11
69.60096
 21
91.84032
  0
LINE
  8
DETAIL
  6
CONTINOUS
 62
     5
 10
69.60096
 20
86.07456
 11
63.8352
 21
86.07456
  0
LINE
  8
DETAIL
  6
CONTINOUS
 62
     5
 10
63.8352
 20
86.07456
 11
63.8352
 21
91.84032
  0
LINE
  8
DETAIL
  6
CONTINOUS
 62
     5
 10
69.60096
 20
91.84032
 11
63.8352
 21
91.84032
  0
LINE
  8
DETAIL
  6
CONTINOUS
 62
     5
 10
69.60096
 20
93.48768
 11
69.60096
 21
99.25344
  0
LINE
  8
DETAIL
  6
CONTINOUS
 62
     5
 10
69.60096
 20
93.48768
 11
63.8352
 21
93.48768
  0
LINE
  8
DETAIL
  6
CONTINOUS
 62
     5
 10
63.8352
 20
93.48768
 11
63.8352
 21
99.25344
  0
LINE
  8
DETAIL
  6
CONTINOUS
 62
     5
 10
69.60096
 20
99.25344
 11
63.8352
 21
99.25344
  0
LINE
  8
DETAIL
  6
CONTINOUS
 62
     5
 10
62.18784
 20
-99.25344
 11
62.18784
 21
-93.48768
  0
LINE
  8
DETAIL
  6
CONTINOUS
 62
     5
 10
62.18784
 20
-99.25344
 11
56.42208
 21
-99.25344
  0
LINE
  8
DETAIL
  6
CONTINOUS
 62
     5
 10
56.42208
 20
-99.25344
 11
56.42208
 21
-93.48768
  0
LINE
  8
DETAIL
  6
CONTINOUS
 62
     5
 10
62.18784
 20
-93.48768
 11
56.42208
 21
-93.48768
  0
LINE
  8
DETAIL
  6
CONTINOUS
 62
     5
 10
62.18784
 20
-91.84032
 11
62.18784
 21
-86.07456
  0
LINE
  8
DETAIL
  6
CONTINOUS
 62
     5
 10
62.18784
 20
-91.84032
 11
56.42208
 21
-91.84032
  0
LINE
  8
DETAIL
  6
CONTINOUS
 62
     5
 10
56.42208
 20
-91.84032
 11
56.42208
 21
-86.07456
  0
LINE
  8
DETAIL
  6
CONTINOUS
 62
     5
 10
62.18784
 20
-86.07456
 11
56.42208
 21
-86.07456
  0
LINE
  8
DETAIL
  6
CONTINOUS
 62
     5
 10
62.18784
 20
-84.4272
 11
62.18784
 21
-78.66144
  0
LINE
  8
DETAIL
  6
CONTINOUS
 62
     5
 10
62.18784
 20
-84.4272
 11
56.42208
 21
-84.4272
  0
LINE
  8
DETAIL
  6
CONTINOUS
 62
     5
 10
56.42208
 20
-84.4272
 11
56.42208
 21
-78.66144
  0
LINE
  8
DETAIL
  6
CONTINOUS
 62
     5
 10
62.18784
 20
-78.66144
 11
56.42208
 21
-78.66144
  0
LINE
  8
DETAIL
  6
CONTINOUS
 62
     5
 10
62.18784
 20
-77.01408
 11
62.18784
 21
-71.24832
  0
LINE
  8
DETAIL
  6
CONTINOUS
 62
     5
 10
62.18784
 20
-77.01408
 11
56.42208
 21
-77.01408
  0
LINE
  8
DETAIL
  6
CONTINOUS
 62
     5
 10
56.42208
 20
-77.01408
 11
56.42208
 21
-71.24832
  0
LINE
  8
DETAIL
  6
CONTINOUS
 62
     5
 10
62.18784
 20
-71.24832
 11
56.42208
 21
-71.24832
  0
LINE
  8
DETAIL
  6
CONTINOUS
 62
     5
 10
62.18784
 20
-69.60096
 11
62.18784
 21
-63.8352
  0
LINE
  8
DETAIL
  6
CONTINOUS
 62
     5
 10
62.18784
 20
-69.60096
 11
56.42208
 21
-69.60096
  0
LINE
  8
DETAIL
  6
CONTINOUS
 62
     5
 10
56.42208
 20
-69.60096
 11
56.42208
 21
-63.8352
  0
LINE
  8
DETAIL
  6
CONTINOUS
 62
     5
 10
62.18784
 20
-63.8352
 11
56.42208
 21
-63.8352
  0
LINE
  8
DETAIL
  6
CONTINOUS
 62
     5
 10
62.18784
 20
-62.18784
 11
62.18784
 21
-56.42208
  0
LINE
  8
DETAIL
  6
CONTINOUS
 62
     5
 10
62.18784
 20
-62.18784
 11
56.42208
 21
-62.18784
  0
LINE
  8
DETAIL
  6
CONTINOUS
 62
     5
 10
56.42208
 20
-62.18784
 11
56.42208
 21
-56.42208
  0
LINE
  8
DETAIL
  6
CONTINOUS
 62
     5
 10
62.18784
 20
-56.42208
 11
56.42208
 21
-56.42208
  0
LINE
  8
DETAIL
  6
CONTINOUS
 62
     5
 10
62.18784
 20
-54.77472
 11
62.18784
 21
-49.00896
  0
LINE
  8
DETAIL
  6
CONTINOUS
 62
     5
 10
62.18784
 20
-54.77472
 11
56.42208
 21
-54.77472
  0
LINE
  8
DETAIL
  6
CONTINOUS
 62
     5
 10
56.42208
 20
-54.77472
 11
56.42208
 21
-49.00896
  0
LINE
  8
DETAIL
  6
CONTINOUS
 62
     5
 10
62.18784
 20
-49.00896
 11
56.42208
 21
-49.00896
  0
LINE
  8
DETAIL
  6
CONTINOUS
 62
     5
 10
62.18784
 20
-47.3616
 11
62.18784
 21
-41.59584
  0
LINE
  8
DETAIL
  6
CONTINOUS
 62
     5
 10
62.18784
 20
-47.3616
 11
56.42208
 21
-47.3616
  0
LINE
  8
DETAIL
  6
CONTINOUS
 62
     5
 10
56.42208
 20
-47.3616
 11
56.42208
 21
-41.59584
  0
LINE
  8
DETAIL
  6
CONTINOUS
 62
     5
 10
62.18784
 20
-41.59584
 11
56.42208
 21
-41.59584
  0
LINE
  8
DETAIL
  6
CONTINOUS
 62
     5
 10
62.18784
 20
-39.94848
 11
62.18784
 21
-34.18272
  0
LINE
  8
DETAIL
  6
CONTINOUS
 62
     5
 10
62.18784
 20
-39.94848
 11
56.42208
 21
-39.94848
  0
LINE
  8
DETAIL
  6
CONTINOUS
 62
     5
 10
56.42208
 20
-39.94848
 11
56.42208
 21
-34.18272
  0
LINE
  8
DETAIL
  6
CONTINOUS
 62
     5
 10
62.18784
 20
-34.18272
 11
56.42208
 21
-34.18272
  0
LINE
  8
DETAIL
  6
CONTINOUS
 62
     5
 10
62.18784
 20
-32.53536
 11
62.18784
 21
-26.7696
  0
LINE
  8
DETAIL
  6
CONTINOUS
 62
     5
 10
62.18784
 20
-32.53536
 11
56.42208
 21
-32.53536
  0
LINE
  8
DETAIL
  6
CONTINOUS
 62
     5
 10
56.42208
 20
-32.53536
 11
56.42208
 21
-26.7696
  0
LINE
  8
DETAIL
  6
CONTINOUS
 62
     5
 10
62.18784
 20
-26.7696
 11
56.42208
 21
-26.7696
  0
LINE
  8
DETAIL
  6
CONTINOUS
 62
     5
 10
62.18784
 20
-25.12224
 11
62.18784
 21
-19.35648
  0
LINE
  8
DETAIL
  6
CONTINOUS
 62
     5
 10
62.18784
 20
-25.12224
 11
56.42208
 21
-25.12224
  0
LINE
  8
DETAIL
  6
CONTINOUS
 62
     5
 10
56.42208
 20
-25.12224
 11
56.42208
 21
-19.35648
  0
LINE
  8
DETAIL
  6
CONTINOUS
 62
     5
 10
62.18784
 20
-19.35648
 11
56.42208
 21
-19.35648
  0
LINE
  8
DETAIL
  6
CONTINOUS
 62
     5
 10
62.18784
 20
-17.70912
 11
62.18784
 21
-11.94336
  0
LINE
  8
DETAIL
  6
CONTINOUS
 62
     5
 10
62.18784
 20
-17.70912
 11
56.42208
 21
-17.70912
  0
LINE
  8
DETAIL
  6
CONTINOUS
 62
     5
 10
56.42208
 20
-17.70912
 11
56.42208
 21
-11.94336
  0
LINE
  8
DETAIL
  6
CONTINOUS
 62
     5
 10
62.18784
 20
-11.94336
 11
56.42208
 21
-11.94336
  0
LINE
  8
DETAIL
  6
CONTINOUS
 62
     5
 10
62.18784
 20
-10.296
 11
62.18784
 21
-4.53024
  0
LINE
  8
DETAIL
  6
CONTINOUS
 62
     5
 10
62.18784
 20
-10.296
 11
56.42208
 21
-10.296
  0
LINE
  8
DETAIL
  6
CONTINOUS
 62
     5
 10
56.42208
 20
-10.296
 11
56.42208
 21
-4.53024
  0
LINE
  8
DETAIL
  6
CONTINOUS
 62
     5
 10
62.18784
 20
-4.53024
 11
56.42208
 21
-4.53024
  0
LINE
  8
DETAIL
  6
CONTINOUS
 62
     5
 10
62.18784
 20
-2.88288
 11
62.18784
 21
2.88288
  0
LINE
  8
DETAIL
  6
CONTINOUS
 62
     5
 10
62.18784
 20
-2.88288
 11
56.42208
 21
-2.88288
  0
LINE
  8
DETAIL
  6
CONTINOUS
 62
     5
 10
56.42208
 20
-2.88288
 11
56.42208
 21
2.88288
  0
LINE
  8
DETAIL
  6
CONTINOUS
 62
     5
 10
62.18784
 20
2.88288
 11
56.42208
 21
2.88288
  0
LINE
  8
DETAIL
  6
CONTINOUS
 62
     5
 10
62.18784
 20
4.53024
 11
62.18784
 21
10.296
  0
LINE
  8
DETAIL
  6
CONTINOUS
 62
     5
 10
62.18784
 20
4.53024
 11
56.42208
 21
4.53024
  0
LINE
  8
DETAIL
  6
CONTINOUS
 62
     5
 10
56.42208
 20
4.53024
 11
56.42208
 21
10.296
  0
LINE
  8
DETAIL
  6
CONTINOUS
 62
     5
 10
62.18784
 20
10.296
 11
56.42208
 21
10.296
  0
LINE
  8
DETAIL
  6
CONTINOUS
 62
     5
 10
62.18784
 20
11.94336
 11
62.18784
 21
17.70912
  0
LINE
  8
DETAIL
  6
CONTINOUS
 62
     5
 10
62.18784
 20
11.94336
 11
56.42208
 21
11.94336
  0
LINE
  8
DETAIL
  6
CONTINOUS
 62
     5
 10
56.42208
 20
11.94336
 11
56.42208
 21
17.70912
  0
LINE
  8
DETAIL
  6
CONTINOUS
 62
     5
 10
62.18784
 20
17.70912
 11
56.42208
 21
17.70912
  0
LINE
  8
DETAIL
  6
CONTINOUS
 62
     5
 10
62.18784
 20
19.35648
 11
62.18784
 21
25.12224
  0
LINE
  8
DETAIL
  6
CONTINOUS
 62
     5
 10
62.18784
 20
19.35648
 11
56.42208
 21
19.35648
  0
LINE
  8
DETAIL
  6
CONTINOUS
 62
     5
 10
56.42208
 20
19.35648
 11
56.42208
 21
25.12224
  0
LINE
  8
DETAIL
  6
CONTINOUS
 62
     5
 10
62.18784
 20
25.12224
 11
56.42208
 21
25.12224
  0
LINE
  8
DETAIL
  6
CONTINOUS
 62
     5
 10
62.18784
 20
26.7696
 11
62.18784
 21
32.53536
  0
LINE
  8
DETAIL
  6
CONTINOUS
 62
     5
 10
62.18784
 20
26.7696
 11
56.42208
 21
26.7696
  0
LINE
  8
DETAIL
  6
CONTINOUS
 62
     5
 10
56.42208
 20
26.7696
 11
56.42208
 21
32.53536
  0
LINE
  8
DETAIL
  6
CONTINOUS
 62
     5
 10
62.18784
 20
32.53536
 11
56.42208
 21
32.53536
  0
LINE
  8
DETAIL
  6
CONTINOUS
 62
     5
 10
62.18784
 20
34.18272
 11
62.18784
 21
39.94848
  0
LINE
  8
DETAIL
  6
CONTINOUS
 62
     5
 10
62.18784
 20
34.18272
 11
56.42208
 21
34.18272
  0
LINE
  8
DETAIL
  6
CONTINOUS
 62
     5
 10
56.42208
 20
34.18272
 11
56.42208
 21
39.94848
  0
LINE
  8
DETAIL
  6
CONTINOUS
 62
     5
 10
62.18784
 20
39.94848
 11
56.42208
 21
39.94848
  0
LINE
  8
DETAIL
  6
CONTINOUS
 62
     5
 10
62.18784
 20
41.59584
 11
62.18784
 21
47.3616
  0
LINE
  8
DETAIL
  6
CONTINOUS
 62
     5
 10
62.18784
 20
41.59584
 11
56.42208
 21
41.59584
  0
LINE
  8
DETAIL
  6
CONTINOUS
 62
     5
 10
56.42208
 20
41.59584
 11
56.42208
 21
47.3616
  0
LINE
  8
DETAIL
  6
CONTINOUS
 62
     5
 10
62.18784
 20
47.3616
 11
56.42208
 21
47.3616
  0
LINE
  8
DETAIL
  6
CONTINOUS
 62
     5
 10
62.18784
 20
49.00896
 11
62.18784
 21
54.77472
  0
LINE
  8
DETAIL
  6
CONTINOUS
 62
     5
 10
62.18784
 20
49.00896
 11
56.42208
 21
49.00896
  0
LINE
  8
DETAIL
  6
CONTINOUS
 62
     5
 10
56.42208
 20
49.00896
 11
56.42208
 21
54.77472
  0
LINE
  8
DETAIL
  6
CONTINOUS
 62
     5
 10
62.18784
 20
54.77472
 11
56.42208
 21
54.77472
  0
LINE
  8
DETAIL
  6
CONTINOUS
 62
     5
 10
62.18784
 20
56.42208
 11
62.18784
 21
62.18784
  0
LINE
  8
DETAIL
  6
CONTINOUS
 62
     5
 10
62.18784
 20
56.42208
 11
56.42208
 21
56.42208
  0
LINE
  8
DETAIL
  6
CONTINOUS
 62
     5
 10
56.42208
 20
56.42208
 11
56.42208
 21
62.18784
  0
LINE
  8
DETAIL
  6
CONTINOUS
 62
     5
 10
62.18784
 20
62.18784
 11
56.42208
 21
62.18784
  0
LINE
  8
DETAIL
  6
CONTINOUS
 62
     5
 10
62.18784
 20
63.8352
 11
62.18784
 21
69.60096
  0
LINE
  8
DETAIL
  6
CONTINOUS
 62
     5
 10
62.18784
 20
63.8352
 11
56.42208
 21
63.8352
  0
LINE
  8
DETAIL
  6
CONTINOUS
 62
     5
 10
56.42208
 20
63.8352
 11
56.42208
 21
69.60096
  0
LINE
  8
DETAIL
  6
CONTINOUS
 62
     5
 10
62.18784
 20
69.60096
 11
56.42208
 21
69.60096
  0
LINE
  8
DETAIL
  6
CONTINOUS
 62
     5
 10
62.18784
 20
71.24832
 11
62.18784
 21
77.01408
  0
LINE
  8
DETAIL
  6
CONTINOUS
 62
     5
 10
62.18784
 20
71.24832
 11
56.42208
 21
71.24832
  0
LINE
  8
DETAIL
  6
CONTINOUS
 62
     5
 10
56.42208
 20
71.24832
 11
56.42208
 21
77.01408
  0
LINE
  8
DETAIL
  6
CONTINOUS
 62
     5
 10
62.18784
 20
77.01408
 11
56.42208
 21
77.01408
  0
LINE
  8
DETAIL
  6
CONTINOUS
 62
     5
 10
62.18784
 20
78.66144
 11
62.18784
 21
84.4272
  0
LINE
  8
DETAIL
  6
CONTINOUS
 62
     5
 10
62.18784
 20
78.66144
 11
56.42208
 21
78.66144
  0
LINE
  8
DETAIL
  6
CONTINOUS
 62
     5
 10
56.42208
 20
78.66144
 11
56.42208
 21
84.4272
  0
LINE
  8
DETAIL
  6
CONTINOUS
 62
     5
 10
62.18784
 20
84.4272
 11
56.42208
 21
84.4272
  0
LINE
  8
DETAIL
  6
CONTINOUS
 62
     5
 10
62.18784
 20
86.07456
 11
62.18784
 21
91.84032
  0
LINE
  8
DETAIL
  6
CONTINOUS
 62
     5
 10
62.18784
 20
86.07456
 11
56.42208
 21
86.07456
  0
LINE
  8
DETAIL
  6
CONTINOUS
 62
     5
 10
56.42208
 20
86.07456
 11
56.42208
 21
91.84032
  0
LINE
  8
DETAIL
  6
CONTINOUS
 62
     5
 10
62.18784
 20
91.84032
 11
56.42208
 21
91.84032
  0
LINE
  8
DETAIL
  6
CONTINOUS
 62
     5
 10
62.18784
 20
93.48768
 11
62.18784
 21
99.25344
  0
LINE
  8
DETAIL
  6
CONTINOUS
 62
     5
 10
62.18784
 20
93.48768
 11
56.42208
 21
93.48768
  0
LINE
  8
DETAIL
  6
CONTINOUS
 62
     5
 10
56.42208
 20
93.48768
 11
56.42208
 21
99.25344
  0
LINE
  8
DETAIL
  6
CONTINOUS
 62
     5
 10
62.18784
 20
99.25344
 11
56.42208
 21
99.25344
  0
LINE
  8
DETAIL
  6
CONTINOUS
 62
     5
 10
54.77472
 20
-99.25344
 11
54.77472
 21
-93.48768
  0
LINE
  8
DETAIL
  6
CONTINOUS
 62
     5
 10
54.77472
 20
-99.25344
 11
49.00896
 21
-99.25344
  0
LINE
  8
DETAIL
  6
CONTINOUS
 62
     5
 10
49.00896
 20
-99.25344
 11
49.00896
 21
-93.48768
  0
LINE
  8
DETAIL
  6
CONTINOUS
 62
     5
 10
54.77472
 20
-93.48768
 11
49.00896
 21
-93.48768
  0
LINE
  8
DETAIL
  6
CONTINOUS
 62
     5
 10
54.77472
 20
-91.84032
 11
54.77472
 21
-86.07456
  0
LINE
  8
DETAIL
  6
CONTINOUS
 62
     5
 10
54.77472
 20
-91.84032
 11
49.00896
 21
-91.84032
  0
LINE
  8
DETAIL
  6
CONTINOUS
 62
     5
 10
49.00896
 20
-91.84032
 11
49.00896
 21
-86.07456
  0
LINE
  8
DETAIL
  6
CONTINOUS
 62
     5
 10
54.77472
 20
-86.07456
 11
49.00896
 21
-86.07456
  0
LINE
  8
DETAIL
  6
CONTINOUS
 62
     5
 10
54.77472
 20
-84.4272
 11
54.77472
 21
-78.66144
  0
LINE
  8
DETAIL
  6
CONTINOUS
 62
     5
 10
54.77472
 20
-84.4272
 11
49.00896
 21
-84.4272
  0
LINE
  8
DETAIL
  6
CONTINOUS
 62
     5
 10
49.00896
 20
-84.4272
 11
49.00896
 21
-78.66144
  0
LINE
  8
DETAIL
  6
CONTINOUS
 62
     5
 10
54.77472
 20
-78.66144
 11
49.00896
 21
-78.66144
  0
LINE
  8
DETAIL
  6
CONTINOUS
 62
     5
 10
54.77472
 20
-77.01408
 11
54.77472
 21
-71.24832
  0
LINE
  8
DETAIL
  6
CONTINOUS
 62
     5
 10
54.77472
 20
-77.01408
 11
49.00896
 21
-77.01408
  0
LINE
  8
DETAIL
  6
CONTINOUS
 62
     5
 10
49.00896
 20
-77.01408
 11
49.00896
 21
-71.24832
  0
LINE
  8
DETAIL
  6
CONTINOUS
 62
     5
 10
54.77472
 20
-71.24832
 11
49.00896
 21
-71.24832
  0
LINE
  8
DETAIL
  6
CONTINOUS
 62
     5
 10
54.77472
 20
-69.60096
 11
54.77472
 21
-63.8352
  0
LINE
  8
DETAIL
  6
CONTINOUS
 62
     5
 10
54.77472
 20
-69.60096
 11
49.00896
 21
-69.60096
  0
LINE
  8
DETAIL
  6
CONTINOUS
 62
     5
 10
49.00896
 20
-69.60096
 11
49.00896
 21
-63.8352
  0
LINE
  8
DETAIL
  6
CONTINOUS
 62
     5
 10
54.77472
 20
-63.8352
 11
49.00896
 21
-63.8352
  0
LINE
  8
DETAIL
  6
CONTINOUS
 62
     5
 10
54.77472
 20
-62.18784
 11
54.77472
 21
-56.42208
  0
LINE
  8
DETAIL
  6
CONTINOUS
 62
     5
 10
54.77472
 20
-62.18784
 11
49.00896
 21
-62.18784
  0
LINE
  8
DETAIL
  6
CONTINOUS
 62
     5
 10
49.00896
 20
-62.18784
 11
49.00896
 21
-56.42208
  0
LINE
  8
DETAIL
  6
CONTINOUS
 62
     5
 10
54.77472
 20
-56.42208
 11
49.00896
 21
-56.42208
  0
LINE
  8
DETAIL
  6
CONTINOUS
 62
     5
 10
54.77472
 20
-54.77472
 11
54.77472
 21
-49.00896
  0
LINE
  8
DETAIL
  6
CONTINOUS
 62
     5
 10
54.77472
 20
-54.77472
 11
49.00896
 21
-54.77472
  0
LINE
  8
DETAIL
  6
CONTINOUS
 62
     5
 10
49.00896
 20
-54.77472
 11
49.00896
 21
-49.00896
  0
LINE
  8
DETAIL
  6
CONTINOUS
 62
     5
 10
54.77472
 20
-49.00896
 11
49.00896
 21
-49.00896
  0
LINE
  8
DETAIL
  6
CONTINOUS
 62
     5
 10
54.77472
 20
-47.3616
 11
54.77472
 21
-41.59584
  0
LINE
  8
DETAIL
  6
CONTINOUS
 62
     5
 10
54.77472
 20
-47.3616
 11
49.00896
 21
-47.3616
  0
LINE
  8
DETAIL
  6
CONTINOUS
 62
     5
 10
49.00896
 20
-47.3616
 11
49.00896
 21
-41.59584
  0
LINE
  8
DETAIL
  6
CONTINOUS
 62
     5
 10
54.77472
 20
-41.59584
 11
49.00896
 21
-41.59584
  0
LINE
  8
DETAIL
  6
CONTINOUS
 62
     5
 10
54.77472
 20
-39.94848
 11
54.77472
 21
-34.18272
  0
LINE
  8
DETAIL
  6
CONTINOUS
 62
     5
 10
54.77472
 20
-39.94848
 11
49.00896
 21
-39.94848
  0
LINE
  8
DETAIL
  6
CONTINOUS
 62
     5
 10
49.00896
 20
-39.94848
 11
49.00896
 21
-34.18272
  0
LINE
  8
DETAIL
  6
CONTINOUS
 62
     5
 10
54.77472
 20
-34.18272
 11
49.00896
 21
-34.18272
  0
LINE
  8
DETAIL
  6
CONTINOUS
 62
     5
 10
54.77472
 20
-32.53536
 11
54.77472
 21
-26.7696
  0
LINE
  8
DETAIL
  6
CONTINOUS
 62
     5
 10
54.77472
 20
-32.53536
 11
49.00896
 21
-32.53536
  0
LINE
  8
DETAIL
  6
CONTINOUS
 62
     5
 10
49.00896
 20
-32.53536
 11
49.00896
 21
-26.7696
  0
LINE
  8
DETAIL
  6
CONTINOUS
 62
     5
 10
54.77472
 20
-26.7696
 11
49.00896
 21
-26.7696
  0
LINE
  8
DETAIL
  6
CONTINOUS
 62
     5
 10
54.77472
 20
-25.12224
 11
54.77472
 21
-19.35648
  0
LINE
  8
DETAIL
  6
CONTINOUS
 62
     5
 10
54.77472
 20
-25.12224
 11
49.00896
 21
-25.12224
  0
LINE
  8
DETAIL
  6
CONTINOUS
 62
     5
 10
49.00896
 20
-25.12224
 11
49.00896
 21
-19.35648
  0
LINE
  8
DETAIL
  6
CONTINOUS
 62
     5
 10
54.77472
 20
-19.35648
 11
49.00896
 21
-19.35648
  0
LINE
  8
DETAIL
  6
CONTINOUS
 62
     5
 10
54.77472
 20
-17.70912
 11
54.77472
 21
-11.94336
  0
LINE
  8
DETAIL
  6
CONTINOUS
 62
     5
 10
54.77472
 20
-17.70912
 11
49.00896
 21
-17.70912
  0
LINE
  8
DETAIL
  6
CONTINOUS
 62
     5
 10
49.00896
 20
-17.70912
 11
49.00896
 21
-11.94336
  0
LINE
  8
DETAIL
  6
CONTINOUS
 62
     5
 10
54.77472
 20
-11.94336
 11
49.00896
 21
-11.94336
  0
LINE
  8
DETAIL
  6
CONTINOUS
 62
     5
 10
54.77472
 20
-10.296
 11
54.77472
 21
-4.53024
  0
LINE
  8
DETAIL
  6
CONTINOUS
 62
     5
 10
54.77472
 20
-10.296
 11
49.00896
 21
-10.296
  0
LINE
  8
DETAIL
  6
CONTINOUS
 62
     5
 10
49.00896
 20
-10.296
 11
49.00896
 21
-4.53024
  0
LINE
  8
DETAIL
  6
CONTINOUS
 62
     5
 10
54.77472
 20
-4.53024
 11
49.00896
 21
-4.53024
  0
LINE
  8
DETAIL
  6
CONTINOUS
 62
     5
 10
54.77472
 20
-2.88288
 11
54.77472
 21
2.88288
  0
LINE
  8
DETAIL
  6
CONTINOUS
 62
     5
 10
54.77472
 20
-2.88288
 11
49.00896
 21
-2.88288
  0
LINE
  8
DETAIL
  6
CONTINOUS
 62
     5
 10
49.00896
 20
-2.88288
 11
49.00896
 21
2.88288
  0
LINE
  8
DETAIL
  6
CONTINOUS
 62
     5
 10
54.77472
 20
2.88288
 11
49.00896
 21
2.88288
  0
LINE
  8
DETAIL
  6
CONTINOUS
 62
     5
 10
54.77472
 20
4.53024
 11
54.77472
 21
10.296
  0
LINE
  8
DETAIL
  6
CONTINOUS
 62
     5
 10
54.77472
 20
4.53024
 11
49.00896
 21
4.53024
  0
LINE
  8
DETAIL
  6
CONTINOUS
 62
     5
 10
49.00896
 20
4.53024
 11
49.00896
 21
10.296
  0
LINE
  8
DETAIL
  6
CONTINOUS
 62
     5
 10
54.77472
 20
10.296
 11
49.00896
 21
10.296
  0
LINE
  8
DETAIL
  6
CONTINOUS
 62
     5
 10
54.77472
 20
11.94336
 11
54.77472
 21
17.70912
  0
LINE
  8
DETAIL
  6
CONTINOUS
 62
     5
 10
54.77472
 20
11.94336
 11
49.00896
 21
11.94336
  0
LINE
  8
DETAIL
  6
CONTINOUS
 62
     5
 10
49.00896
 20
11.94336
 11
49.00896
 21
17.70912
  0
LINE
  8
DETAIL
  6
CONTINOUS
 62
     5
 10
54.77472
 20
17.70912
 11
49.00896
 21
17.70912
  0
LINE
  8
DETAIL
  6
CONTINOUS
 62
     5
 10
54.77472
 20
19.35648
 11
54.77472
 21
25.12224
  0
LINE
  8
DETAIL
  6
CONTINOUS
 62
     5
 10
54.77472
 20
19.35648
 11
49.00896
 21
19.35648
  0
LINE
  8
DETAIL
  6
CONTINOUS
 62
     5
 10
49.00896
 20
19.35648
 11
49.00896
 21
25.12224
  0
LINE
  8
DETAIL
  6
CONTINOUS
 62
     5
 10
54.77472
 20
25.12224
 11
49.00896
 21
25.12224
  0
LINE
  8
DETAIL
  6
CONTINOUS
 62
     5
 10
54.77472
 20
26.7696
 11
54.77472
 21
32.53536
  0
LINE
  8
DETAIL
  6
CONTINOUS
 62
     5
 10
54.77472
 20
26.7696
 11
49.00896
 21
26.7696
  0
LINE
  8
DETAIL
  6
CONTINOUS
 62
     5
 10
49.00896
 20
26.7696
 11
49.00896
 21
32.53536
  0
LINE
  8
DETAIL
  6
CONTINOUS
 62
     5
 10
54.77472
 20
32.53536
 11
49.00896
 21
32.53536
  0
LINE
  8
DETAIL
  6
CONTINOUS
 62
     5
 10
54.77472
 20
34.18272
 11
54.77472
 21
39.94848
  0
LINE
  8
DETAIL
  6
CONTINOUS
 62
     5
 10
54.77472
 20
34.18272
 11
49.00896
 21
34.18272
  0
LINE
  8
DETAIL
  6
CONTINOUS
 62
     5
 10
49.00896
 20
34.18272
 11
49.00896
 21
39.94848
  0
LINE
  8
DETAIL
  6
CONTINOUS
 62
     5
 10
54.77472
 20
39.94848
 11
49.00896
 21
39.94848
  0
LINE
  8
DETAIL
  6
CONTINOUS
 62
     5
 10
54.77472
 20
41.59584
 11
54.77472
 21
47.3616
  0
LINE
  8
DETAIL
  6
CONTINOUS
 62
     5
 10
54.77472
 20
41.59584
 11
49.00896
 21
41.59584
  0
LINE
  8
DETAIL
  6
CONTINOUS
 62
     5
 10
49.00896
 20
41.59584
 11
49.00896
 21
47.3616
  0
LINE
  8
DETAIL
  6
CONTINOUS
 62
     5
 10
54.77472
 20
47.3616
 11
49.00896
 21
47.3616
  0
LINE
  8
DETAIL
  6
CONTINOUS
 62
     5
 10
54.77472
 20
49.00896
 11
54.77472
 21
54.77472
  0
LINE
  8
DETAIL
  6
CONTINOUS
 62
     5
 10
54.77472
 20
49.00896
 11
49.00896
 21
49.00896
  0
LINE
  8
DETAIL
  6
CONTINOUS
 62
     5
 10
49.00896
 20
49.00896
 11
49.00896
 21
54.77472
  0
LINE
  8
DETAIL
  6
CONTINOUS
 62
     5
 10
54.77472
 20
54.77472
 11
49.00896
 21
54.77472
  0
LINE
  8
DETAIL
  6
CONTINOUS
 62
     5
 10
54.77472
 20
56.42208
 11
54.77472
 21
62.18784
  0
LINE
  8
DETAIL
  6
CONTINOUS
 62
     5
 10
54.77472
 20
56.42208
 11
49.00896
 21
56.42208
  0
LINE
  8
DETAIL
  6
CONTINOUS
 62
     5
 10
49.00896
 20
56.42208
 11
49.00896
 21
62.18784
  0
LINE
  8
DETAIL
  6
CONTINOUS
 62
     5
 10
54.77472
 20
62.18784
 11
49.00896
 21
62.18784
  0
LINE
  8
DETAIL
  6
CONTINOUS
 62
     5
 10
54.77472
 20
63.8352
 11
54.77472
 21
69.60096
  0
LINE
  8
DETAIL
  6
CONTINOUS
 62
     5
 10
54.77472
 20
63.8352
 11
49.00896
 21
63.8352
  0
LINE
  8
DETAIL
  6
CONTINOUS
 62
     5
 10
49.00896
 20
63.8352
 11
49.00896
 21
69.60096
  0
LINE
  8
DETAIL
  6
CONTINOUS
 62
     5
 10
54.77472
 20
69.60096
 11
49.00896
 21
69.60096
  0
LINE
  8
DETAIL
  6
CONTINOUS
 62
     5
 10
54.77472
 20
71.24832
 11
54.77472
 21
77.01408
  0
LINE
  8
DETAIL
  6
CONTINOUS
 62
     5
 10
54.77472
 20
71.24832
 11
49.00896
 21
71.24832
  0
LINE
  8
DETAIL
  6
CONTINOUS
 62
     5
 10
49.00896
 20
71.24832
 11
49.00896
 21
77.01408
  0
LINE
  8
DETAIL
  6
CONTINOUS
 62
     5
 10
54.77472
 20
77.01408
 11
49.00896
 21
77.01408
  0
LINE
  8
DETAIL
  6
CONTINOUS
 62
     5
 10
54.77472
 20
78.66144
 11
54.77472
 21
84.4272
  0
LINE
  8
DETAIL
  6
CONTINOUS
 62
     5
 10
54.77472
 20
78.66144
 11
49.00896
 21
78.66144
  0
LINE
  8
DETAIL
  6
CONTINOUS
 62
     5
 10
49.00896
 20
78.66144
 11
49.00896
 21
84.4272
  0
LINE
  8
DETAIL
  6
CONTINOUS
 62
     5
 10
54.77472
 20
84.4272
 11
49.00896
 21
84.4272
  0
LINE
  8
DETAIL
  6
CONTINOUS
 62
     5
 10
54.77472
 20
86.07456
 11
54.77472
 21
91.84032
  0
LINE
  8
DETAIL
  6
CONTINOUS
 62
     5
 10
54.77472
 20
86.07456
 11
49.00896
 21
86.07456
  0
LINE
  8
DETAIL
  6
CONTINOUS
 62
     5
 10
49.00896
 20
86.07456
 11
49.00896
 21
91.84032
  0
LINE
  8
DETAIL
  6
CONTINOUS
 62
     5
 10
54.77472
 20
91.84032
 11
49.00896
 21
91.84032
  0
LINE
  8
DETAIL
  6
CONTINOUS
 62
     5
 10
54.77472
 20
93.48768
 11
54.77472
 21
99.25344
  0
LINE
  8
DETAIL
  6
CONTINOUS
 62
     5
 10
54.77472
 20
93.48768
 11
49.00896
 21
93.48768
  0
LINE
  8
DETAIL
  6
CONTINOUS
 62
     5
 10
49.00896
 20
93.48768
 11
49.00896
 21
99.25344
  0
LINE
  8
DETAIL
  6
CONTINOUS
 62
     5
 10
54.77472
 20
99.25344
 11
49.00896
 21
99.25344
  0
LINE
  8
DETAIL
  6
CONTINOUS
 62
     5
 10
47.3616
 20
-99.25344
 11
47.3616
 21
-93.48768
  0
LINE
  8
DETAIL
  6
CONTINOUS
 62
     5
 10
47.3616
 20
-99.25344
 11
41.59584
 21
-99.25344
  0
LINE
  8
DETAIL
  6
CONTINOUS
 62
     5
 10
41.59584
 20
-99.25344
 11
41.59584
 21
-93.48768
  0
LINE
  8
DETAIL
  6
CONTINOUS
 62
     5
 10
47.3616
 20
-93.48768
 11
41.59584
 21
-93.48768
  0
LINE
  8
DETAIL
  6
CONTINOUS
 62
     5
 10
47.3616
 20
-91.84032
 11
47.3616
 21
-86.07456
  0
LINE
  8
DETAIL
  6
CONTINOUS
 62
     5
 10
47.3616
 20
-91.84032
 11
41.59584
 21
-91.84032
  0
LINE
  8
DETAIL
  6
CONTINOUS
 62
     5
 10
41.59584
 20
-91.84032
 11
41.59584
 21
-86.07456
  0
LINE
  8
DETAIL
  6
CONTINOUS
 62
     5
 10
47.3616
 20
-86.07456
 11
41.59584
 21
-86.07456
  0
LINE
  8
DETAIL
  6
CONTINOUS
 62
     5
 10
47.3616
 20
-84.4272
 11
47.3616
 21
-78.66144
  0
LINE
  8
DETAIL
  6
CONTINOUS
 62
     5
 10
47.3616
 20
-84.4272
 11
41.59584
 21
-84.4272
  0
LINE
  8
DETAIL
  6
CONTINOUS
 62
     5
 10
41.59584
 20
-84.4272
 11
41.59584
 21
-78.66144
  0
LINE
  8
DETAIL
  6
CONTINOUS
 62
     5
 10
47.3616
 20
-78.66144
 11
41.59584
 21
-78.66144
  0
LINE
  8
DETAIL
  6
CONTINOUS
 62
     5
 10
47.3616
 20
-77.01408
 11
47.3616
 21
-71.24832
  0
LINE
  8
DETAIL
  6
CONTINOUS
 62
     5
 10
47.3616
 20
-77.01408
 11
41.59584
 21
-77.01408
  0
LINE
  8
DETAIL
  6
CONTINOUS
 62
     5
 10
41.59584
 20
-77.01408
 11
41.59584
 21
-71.24832
  0
LINE
  8
DETAIL
  6
CONTINOUS
 62
     5
 10
47.3616
 20
-71.24832
 11
41.59584
 21
-71.24832
  0
LINE
  8
DETAIL
  6
CONTINOUS
 62
     5
 10
47.3616
 20
-69.60096
 11
47.3616
 21
-63.8352
  0
LINE
  8
DETAIL
  6
CONTINOUS
 62
     5
 10
47.3616
 20
-69.60096
 11
41.59584
 21
-69.60096
  0
LINE
  8
DETAIL
  6
CONTINOUS
 62
     5
 10
41.59584
 20
-69.60096
 11
41.59584
 21
-63.8352
  0
LINE
  8
DETAIL
  6
CONTINOUS
 62
     5
 10
47.3616
 20
-63.8352
 11
41.59584
 21
-63.8352
  0
LINE
  8
DETAIL
  6
CONTINOUS
 62
     5
 10
47.3616
 20
-62.18784
 11
47.3616
 21
-56.42208
  0
LINE
  8
DETAIL
  6
CONTINOUS
 62
     5
 10
47.3616
 20
-62.18784
 11
41.59584
 21
-62.18784
  0
LINE
  8
DETAIL
  6
CONTINOUS
 62
     5
 10
41.59584
 20
-62.18784
 11
41.59584
 21
-56.42208
  0
LINE
  8
DETAIL
  6
CONTINOUS
 62
     5
 10
47.3616
 20
-56.42208
 11
41.59584
 21
-56.42208
  0
LINE
  8
DETAIL
  6
CONTINOUS
 62
     5
 10
47.3616
 20
-54.77472
 11
47.3616
 21
-49.00896
  0
LINE
  8
DETAIL
  6
CONTINOUS
 62
     5
 10
47.3616
 20
-54.77472
 11
41.59584
 21
-54.77472
  0
LINE
  8
DETAIL
  6
CONTINOUS
 62
     5
 10
41.59584
 20
-54.77472
 11
41.59584
 21
-49.00896
  0
LINE
  8
DETAIL
  6
CONTINOUS
 62
     5
 10
47.3616
 20
-49.00896
 11
41.59584
 21
-49.00896
  0
LINE
  8
DETAIL
  6
CONTINOUS
 62
     5
 10
47.3616
 20
-47.3616
 11
47.3616
 21
-41.59584
  0
LINE
  8
DETAIL
  6
CONTINOUS
 62
     5
 10
47.3616
 20
-47.3616
 11
41.59584
 21
-47.3616
  0
LINE
  8
DETAIL
  6
CONTINOUS
 62
     5
 10
41.59584
 20
-47.3616
 11
41.59584
 21
-41.59584
  0
LINE
  8
DETAIL
  6
CONTINOUS
 62
     5
 10
47.3616
 20
-41.59584
 11
41.59584
 21
-41.59584
  0
LINE
  8
DETAIL
  6
CONTINOUS
 62
     5
 10
47.3616
 20
-39.94848
 11
47.3616
 21
-34.18272
  0
LINE
  8
DETAIL
  6
CONTINOUS
 62
     5
 10
47.3616
 20
-39.94848
 11
41.59584
 21
-39.94848
  0
LINE
  8
DETAIL
  6
CONTINOUS
 62
     5
 10
41.59584
 20
-39.94848
 11
41.59584
 21
-34.18272
  0
LINE
  8
DETAIL
  6
CONTINOUS
 62
     5
 10
47.3616
 20
-34.18272
 11
41.59584
 21
-34.18272
  0
LINE
  8
DETAIL
  6
CONTINOUS
 62
     5
 10
47.3616
 20
-32.53536
 11
47.3616
 21
-26.7696
  0
LINE
  8
DETAIL
  6
CONTINOUS
 62
     5
 10
47.3616
 20
-32.53536
 11
41.59584
 21
-32.53536
  0
LINE
  8
DETAIL
  6
CONTINOUS
 62
     5
 10
41.59584
 20
-32.53536
 11
41.59584
 21
-26.7696
  0
LINE
  8
DETAIL
  6
CONTINOUS
 62
     5
 10
47.3616
 20
-26.7696
 11
41.59584
 21
-26.7696
  0
LINE
  8
DETAIL
  6
CONTINOUS
 62
     5
 10
47.3616
 20
-25.12224
 11
47.3616
 21
-19.35648
  0
LINE
  8
DETAIL
  6
CONTINOUS
 62
     5
 10
47.3616
 20
-25.12224
 11
41.59584
 21
-25.12224
  0
LINE
  8
DETAIL
  6
CONTINOUS
 62
     5
 10
41.59584
 20
-25.12224
 11
41.59584
 21
-19.35648
  0
LINE
  8
DETAIL
  6
CONTINOUS
 62
     5
 10
47.3616
 20
-19.35648
 11
41.59584
 21
-19.35648
  0
LINE
  8
DETAIL
  6
CONTINOUS
 62
     5
 10
47.3616
 20
-17.70912
 11
47.3616
 21
-11.94336
  0
LINE
  8
DETAIL
  6
CONTINOUS
 62
     5
 10
47.3616
 20
-17.70912
 11
41.59584
 21
-17.70912
  0
LINE
  8
DETAIL
  6
CONTINOUS
 62
     5
 10
41.59584
 20
-17.70912
 11
41.59584
 21
-11.94336
  0
LINE
  8
DETAIL
  6
CONTINOUS
 62
     5
 10
47.3616
 20
-11.94336
 11
41.59584
 21
-11.94336
  0
LINE
  8
DETAIL
  6
CONTINOUS
 62
     5
 10
47.3616
 20
-10.296
 11
47.3616
 21
-4.53024
  0
LINE
  8
DETAIL
  6
CONTINOUS
 62
     5
 10
47.3616
 20
-10.296
 11
41.59584
 21
-10.296
  0
LINE
  8
DETAIL
  6
CONTINOUS
 62
     5
 10
41.59584
 20
-10.296
 11
41.59584
 21
-4.53024
  0
LINE
  8
DETAIL
  6
CONTINOUS
 62
     5
 10
47.3616
 20
-4.53024
 11
41.59584
 21
-4.53024
  0
LINE
  8
DETAIL
  6
CONTINOUS
 62
     5
 10
47.3616
 20
-2.88288
 11
47.3616
 21
2.88288
  0
LINE
  8
DETAIL
  6
CONTINOUS
 62
     5
 10
47.3616
 20
-2.88288
 11
41.59584
 21
-2.88288
  0
LINE
  8
DETAIL
  6
CONTINOUS
 62
     5
 10
41.59584
 20
-2.88288
 11
41.59584
 21
2.88288
  0
LINE
  8
DETAIL
  6
CONTINOUS
 62
     5
 10
47.3616
 20
2.88288
 11
41.59584
 21
2.88288
  0
LINE
  8
DETAIL
  6
CONTINOUS
 62
     5
 10
47.3616
 20
4.53024
 11
47.3616
 21
10.296
  0
LINE
  8
DETAIL
  6
CONTINOUS
 62
     5
 10
47.3616
 20
4.53024
 11
41.59584
 21
4.53024
  0
LINE
  8
DETAIL
  6
CONTINOUS
 62
     5
 10
41.59584
 20
4.53024
 11
41.59584
 21
10.296
  0
LINE
  8
DETAIL
  6
CONTINOUS
 62
     5
 10
47.3616
 20
10.296
 11
41.59584
 21
10.296
  0
LINE
  8
DETAIL
  6
CONTINOUS
 62
     5
 10
47.3616
 20
11.94336
 11
47.3616
 21
17.70912
  0
LINE
  8
DETAIL
  6
CONTINOUS
 62
     5
 10
47.3616
 20
11.94336
 11
41.59584
 21
11.94336
  0
LINE
  8
DETAIL
  6
CONTINOUS
 62
     5
 10
41.59584
 20
11.94336
 11
41.59584
 21
17.70912
  0
LINE
  8
DETAIL
  6
CONTINOUS
 62
     5
 10
47.3616
 20
17.70912
 11
41.59584
 21
17.70912
  0
LINE
  8
DETAIL
  6
CONTINOUS
 62
     5
 10
47.3616
 20
19.35648
 11
47.3616
 21
25.12224
  0
LINE
  8
DETAIL
  6
CONTINOUS
 62
     5
 10
47.3616
 20
19.35648
 11
41.59584
 21
19.35648
  0
LINE
  8
DETAIL
  6
CONTINOUS
 62
     5
 10
41.59584
 20
19.35648
 11
41.59584
 21
25.12224
  0
LINE
  8
DETAIL
  6
CONTINOUS
 62
     5
 10
47.3616
 20
25.12224
 11
41.59584
 21
25.12224
  0
LINE
  8
DETAIL
  6
CONTINOUS
 62
     5
 10
47.3616
 20
26.7696
 11
47.3616
 21
32.53536
  0
LINE
  8
DETAIL
  6
CONTINOUS
 62
     5
 10
47.3616
 20
26.7696
 11
41.59584
 21
26.7696
  0
LINE
  8
DETAIL
  6
CONTINOUS
 62
     5
 10
41.59584
 20
26.7696
 11
41.59584
 21
32.53536
  0
LINE
  8
DETAIL
  6
CONTINOUS
 62
     5
 10
47.3616
 20
32.53536
 11
41.59584
 21
32.53536
  0
LINE
  8
DETAIL
  6
CONTINOUS
 62
     5
 10
47.3616
 20
34.18272
 11
47.3616
 21
39.94848
  0
LINE
  8
DETAIL
  6
CONTINOUS
 62
     5
 10
47.3616
 20
34.18272
 11
41.59584
 21
34.18272
  0
LINE
  8
DETAIL
  6
CONTINOUS
 62
     5
 10
41.59584
 20
34.18272
 11
41.59584
 21
39.94848
  0
LINE
  8
DETAIL
  6
CONTINOUS
 62
     5
 10
47.3616
 20
39.94848
 11
41.59584
 21
39.94848
  0
LINE
  8
DETAIL
  6
CONTINOUS
 62
     5
 10
47.3616
 20
41.59584
 11
47.3616
 21
47.3616
  0
LINE
  8
DETAIL
  6
CONTINOUS
 62
     5
 10
47.3616
 20
41.59584
 11
41.59584
 21
41.59584
  0
LINE
  8
DETAIL
  6
CONTINOUS
 62
     5
 10
41.59584
 20
41.59584
 11
41.59584
 21
47.3616
  0
LINE
  8
DETAIL
  6
CONTINOUS
 62
     5
 10
47.3616
 20
47.3616
 11
41.59584
 21
47.3616
  0
LINE
  8
DETAIL
  6
CONTINOUS
 62
     5
 10
47.3616
 20
49.00896
 11
47.3616
 21
54.77472
  0
LINE
  8
DETAIL
  6
CONTINOUS
 62
     5
 10
47.3616
 20
49.00896
 11
41.59584
 21
49.00896
  0
LINE
  8
DETAIL
  6
CONTINOUS
 62
     5
 10
41.59584
 20
49.00896
 11
41.59584
 21
54.77472
  0
LINE
  8
DETAIL
  6
CONTINOUS
 62
     5
 10
47.3616
 20
54.77472
 11
41.59584
 21
54.77472
  0
LINE
  8
DETAIL
  6
CONTINOUS
 62
     5
 10
47.3616
 20
56.42208
 11
47.3616
 21
62.18784
  0
LINE
  8
DETAIL
  6
CONTINOUS
 62
     5
 10
47.3616
 20
56.42208
 11
41.59584
 21
56.42208
  0
LINE
  8
DETAIL
  6
CONTINOUS
 62
     5
 10
41.59584
 20
56.42208
 11
41.59584
 21
62.18784
  0
LINE
  8
DETAIL
  6
CONTINOUS
 62
     5
 10
47.3616
 20
62.18784
 11
41.59584
 21
62.18784
  0
LINE
  8
DETAIL
  6
CONTINOUS
 62
     5
 10
47.3616
 20
63.8352
 11
47.3616
 21
69.60096
  0
LINE
  8
DETAIL
  6
CONTINOUS
 62
     5
 10
47.3616
 20
63.8352
 11
41.59584
 21
63.8352
  0
LINE
  8
DETAIL
  6
CONTINOUS
 62
     5
 10
41.59584
 20
63.8352
 11
41.59584
 21
69.60096
  0
LINE
  8
DETAIL
  6
CONTINOUS
 62
     5
 10
47.3616
 20
69.60096
 11
41.59584
 21
69.60096
  0
LINE
  8
DETAIL
  6
CONTINOUS
 62
     5
 10
47.3616
 20
71.24832
 11
47.3616
 21
77.01408
  0
LINE
  8
DETAIL
  6
CONTINOUS
 62
     5
 10
47.3616
 20
71.24832
 11
41.59584
 21
71.24832
  0
LINE
  8
DETAIL
  6
CONTINOUS
 62
     5
 10
41.59584
 20
71.24832
 11
41.59584
 21
77.01408
  0
LINE
  8
DETAIL
  6
CONTINOUS
 62
     5
 10
47.3616
 20
77.01408
 11
41.59584
 21
77.01408
  0
LINE
  8
DETAIL
  6
CONTINOUS
 62
     5
 10
47.3616
 20
78.66144
 11
47.3616
 21
84.4272
  0
LINE
  8
DETAIL
  6
CONTINOUS
 62
     5
 10
47.3616
 20
78.66144
 11
41.59584
 21
78.66144
  0
LINE
  8
DETAIL
  6
CONTINOUS
 62
     5
 10
41.59584
 20
78.66144
 11
41.59584
 21
84.4272
  0
LINE
  8
DETAIL
  6
CONTINOUS
 62
     5
 10
47.3616
 20
84.4272
 11
41.59584
 21
84.4272
  0
LINE
  8
DETAIL
  6
CONTINOUS
 62
     5
 10
47.3616
 20
86.07456
 11
47.3616
 21
91.84032
  0
LINE
  8
DETAIL
  6
CONTINOUS
 62
     5
 10
47.3616
 20
86.07456
 11
41.59584
 21
86.07456
  0
LINE
  8
DETAIL
  6
CONTINOUS
 62
     5
 10
41.59584
 20
86.07456
 11
41.59584
 21
91.84032
  0
LINE
  8
DETAIL
  6
CONTINOUS
 62
     5
 10
47.3616
 20
91.84032
 11
41.59584
 21
91.84032
  0
LINE
  8
DETAIL
  6
CONTINOUS
 62
     5
 10
47.3616
 20
93.48768
 11
47.3616
 21
99.25344
  0
LINE
  8
DETAIL
  6
CONTINOUS
 62
     5
 10
47.3616
 20
93.48768
 11
41.59584
 21
93.48768
  0
LINE
  8
DETAIL
  6
CONTINOUS
 62
     5
 10
41.59584
 20
93.48768
 11
41.59584
 21
99.25344
  0
LINE
  8
DETAIL
  6
CONTINOUS
 62
     5
 10
47.3616
 20
99.25344
 11
41.59584
 21
99.25344
  0
LINE
  8
DETAIL
  6
CONTINOUS
 62
     5
 10
39.94848
 20
-99.25344
 11
39.94848
 21
-93.48768
  0
LINE
  8
DETAIL
  6
CONTINOUS
 62
     5
 10
39.94848
 20
-99.25344
 11
34.18272
 21
-99.25344
  0
LINE
  8
DETAIL
  6
CONTINOUS
 62
     5
 10
34.18272
 20
-99.25344
 11
34.18272
 21
-93.48768
  0
LINE
  8
DETAIL
  6
CONTINOUS
 62
     5
 10
39.94848
 20
-93.48768
 11
34.18272
 21
-93.48768
  0
LINE
  8
DETAIL
  6
CONTINOUS
 62
     5
 10
39.94848
 20
-91.84032
 11
39.94848
 21
-86.07456
  0
LINE
  8
DETAIL
  6
CONTINOUS
 62
     5
 10
39.94848
 20
-91.84032
 11
34.18272
 21
-91.84032
  0
LINE
  8
DETAIL
  6
CONTINOUS
 62
     5
 10
34.18272
 20
-91.84032
 11
34.18272
 21
-86.07456
  0
LINE
  8
DETAIL
  6
CONTINOUS
 62
     5
 10
39.94848
 20
-86.07456
 11
34.18272
 21
-86.07456
  0
LINE
  8
DETAIL
  6
CONTINOUS
 62
     5
 10
39.94848
 20
-84.4272
 11
39.94848
 21
-78.66144
  0
LINE
  8
DETAIL
  6
CONTINOUS
 62
     5
 10
39.94848
 20
-84.4272
 11
34.18272
 21
-84.4272
  0
LINE
  8
DETAIL
  6
CONTINOUS
 62
     5
 10
34.18272
 20
-84.4272
 11
34.18272
 21
-78.66144
  0
LINE
  8
DETAIL
  6
CONTINOUS
 62
     5
 10
39.94848
 20
-78.66144
 11
34.18272
 21
-78.66144
  0
LINE
  8
DETAIL
  6
CONTINOUS
 62
     5
 10
39.94848
 20
-77.01408
 11
39.94848
 21
-71.24832
  0
LINE
  8
DETAIL
  6
CONTINOUS
 62
     5
 10
39.94848
 20
-77.01408
 11
34.18272
 21
-77.01408
  0
LINE
  8
DETAIL
  6
CONTINOUS
 62
     5
 10
34.18272
 20
-77.01408
 11
34.18272
 21
-71.24832
  0
LINE
  8
DETAIL
  6
CONTINOUS
 62
     5
 10
39.94848
 20
-71.24832
 11
34.18272
 21
-71.24832
  0
LINE
  8
DETAIL
  6
CONTINOUS
 62
     5
 10
39.94848
 20
-69.60096
 11
39.94848
 21
-63.8352
  0
LINE
  8
DETAIL
  6
CONTINOUS
 62
     5
 10
39.94848
 20
-69.60096
 11
34.18272
 21
-69.60096
  0
LINE
  8
DETAIL
  6
CONTINOUS
 62
     5
 10
34.18272
 20
-69.60096
 11
34.18272
 21
-63.8352
  0
LINE
  8
DETAIL
  6
CONTINOUS
 62
     5
 10
39.94848
 20
-63.8352
 11
34.18272
 21
-63.8352
  0
LINE
  8
DETAIL
  6
CONTINOUS
 62
     5
 10
39.94848
 20
-62.18784
 11
39.94848
 21
-56.42208
  0
LINE
  8
DETAIL
  6
CONTINOUS
 62
     5
 10
39.94848
 20
-62.18784
 11
34.18272
 21
-62.18784
  0
LINE
  8
DETAIL
  6
CONTINOUS
 62
     5
 10
34.18272
 20
-62.18784
 11
34.18272
 21
-56.42208
  0
LINE
  8
DETAIL
  6
CONTINOUS
 62
     5
 10
39.94848
 20
-56.42208
 11
34.18272
 21
-56.42208
  0
LINE
  8
DETAIL
  6
CONTINOUS
 62
     5
 10
39.94848
 20
-54.77472
 11
39.94848
 21
-49.00896
  0
LINE
  8
DETAIL
  6
CONTINOUS
 62
     5
 10
39.94848
 20
-54.77472
 11
34.18272
 21
-54.77472
  0
LINE
  8
DETAIL
  6
CONTINOUS
 62
     5
 10
34.18272
 20
-54.77472
 11
34.18272
 21
-49.00896
  0
LINE
  8
DETAIL
  6
CONTINOUS
 62
     5
 10
39.94848
 20
-49.00896
 11
34.18272
 21
-49.00896
  0
LINE
  8
DETAIL
  6
CONTINOUS
 62
     5
 10
39.94848
 20
-47.3616
 11
39.94848
 21
-41.59584
  0
LINE
  8
DETAIL
  6
CONTINOUS
 62
     5
 10
39.94848
 20
-47.3616
 11
34.18272
 21
-47.3616
  0
LINE
  8
DETAIL
  6
CONTINOUS
 62
     5
 10
34.18272
 20
-47.3616
 11
34.18272
 21
-41.59584
  0
LINE
  8
DETAIL
  6
CONTINOUS
 62
     5
 10
39.94848
 20
-41.59584
 11
34.18272
 21
-41.59584
  0
LINE
  8
DETAIL
  6
CONTINOUS
 62
     5
 10
39.94848
 20
-39.94848
 11
39.94848
 21
-34.18272
  0
LINE
  8
DETAIL
  6
CONTINOUS
 62
     5
 10
39.94848
 20
-39.94848
 11
34.18272
 21
-39.94848
  0
LINE
  8
DETAIL
  6
CONTINOUS
 62
     5
 10
34.18272
 20
-39.94848
 11
34.18272
 21
-34.18272
  0
LINE
  8
DETAIL
  6
CONTINOUS
 62
     5
 10
39.94848
 20
-34.18272
 11
34.18272
 21
-34.18272
  0
LINE
  8
DETAIL
  6
CONTINOUS
 62
     5
 10
39.94848
 20
-32.53536
 11
39.94848
 21
-26.7696
  0
LINE
  8
DETAIL
  6
CONTINOUS
 62
     5
 10
39.94848
 20
-32.53536
 11
34.18272
 21
-32.53536
  0
LINE
  8
DETAIL
  6
CONTINOUS
 62
     5
 10
34.18272
 20
-32.53536
 11
34.18272
 21
-26.7696
  0
LINE
  8
DETAIL
  6
CONTINOUS
 62
     5
 10
39.94848
 20
-26.7696
 11
34.18272
 21
-26.7696
  0
LINE
  8
DETAIL
  6
CONTINOUS
 62
     5
 10
39.94848
 20
-25.12224
 11
39.94848
 21
-19.35648
  0
LINE
  8
DETAIL
  6
CONTINOUS
 62
     5
 10
39.94848
 20
-25.12224
 11
34.18272
 21
-25.12224
  0
LINE
  8
DETAIL
  6
CONTINOUS
 62
     5
 10
34.18272
 20
-25.12224
 11
34.18272
 21
-19.35648
  0
LINE
  8
DETAIL
  6
CONTINOUS
 62
     5
 10
39.94848
 20
-19.35648
 11
34.18272
 21
-19.35648
  0
LINE
  8
DETAIL
  6
CONTINOUS
 62
     5
 10
39.94848
 20
-17.70912
 11
39.94848
 21
-11.94336
  0
LINE
  8
DETAIL
  6
CONTINOUS
 62
     5
 10
39.94848
 20
-17.70912
 11
34.18272
 21
-17.70912
  0
LINE
  8
DETAIL
  6
CONTINOUS
 62
     5
 10
34.18272
 20
-17.70912
 11
34.18272
 21
-11.94336
  0
LINE
  8
DETAIL
  6
CONTINOUS
 62
     5
 10
39.94848
 20
-11.94336
 11
34.18272
 21
-11.94336
  0
LINE
  8
DETAIL
  6
CONTINOUS
 62
     5
 10
39.94848
 20
-10.296
 11
39.94848
 21
-4.53024
  0
LINE
  8
DETAIL
  6
CONTINOUS
 62
     5
 10
39.94848
 20
-10.296
 11
34.18272
 21
-10.296
  0
LINE
  8
DETAIL
  6
CONTINOUS
 62
     5
 10
34.18272
 20
-10.296
 11
34.18272
 21
-4.53024
  0
LINE
  8
DETAIL
  6
CONTINOUS
 62
     5
 10
39.94848
 20
-4.53024
 11
34.18272
 21
-4.53024
  0
LINE
  8
DETAIL
  6
CONTINOUS
 62
     5
 10
39.94848
 20
-2.88288
 11
39.94848
 21
2.88288
  0
LINE
  8
DETAIL
  6
CONTINOUS
 62
     5
 10
39.94848
 20
-2.88288
 11
34.18272
 21
-2.88288
  0
LINE
  8
DETAIL
  6
CONTINOUS
 62
     5
 10
34.18272
 20
-2.88288
 11
34.18272
 21
2.88288
  0
LINE
  8
DETAIL
  6
CONTINOUS
 62
     5
 10
39.94848
 20
2.88288
 11
34.18272
 21
2.88288
  0
LINE
  8
DETAIL
  6
CONTINOUS
 62
     5
 10
39.94848
 20
4.53024
 11
39.94848
 21
10.296
  0
LINE
  8
DETAIL
  6
CONTINOUS
 62
     5
 10
39.94848
 20
4.53024
 11
34.18272
 21
4.53024
  0
LINE
  8
DETAIL
  6
CONTINOUS
 62
     5
 10
34.18272
 20
4.53024
 11
34.18272
 21
10.296
  0
LINE
  8
DETAIL
  6
CONTINOUS
 62
     5
 10
39.94848
 20
10.296
 11
34.18272
 21
10.296
  0
LINE
  8
DETAIL
  6
CONTINOUS
 62
     5
 10
39.94848
 20
11.94336
 11
39.94848
 21
17.70912
  0
LINE
  8
DETAIL
  6
CONTINOUS
 62
     5
 10
39.94848
 20
11.94336
 11
34.18272
 21
11.94336
  0
LINE
  8
DETAIL
  6
CONTINOUS
 62
     5
 10
34.18272
 20
11.94336
 11
34.18272
 21
17.70912
  0
LINE
  8
DETAIL
  6
CONTINOUS
 62
     5
 10
39.94848
 20
17.70912
 11
34.18272
 21
17.70912
  0
LINE
  8
DETAIL
  6
CONTINOUS
 62
     5
 10
39.94848
 20
19.35648
 11
39.94848
 21
25.12224
  0
LINE
  8
DETAIL
  6
CONTINOUS
 62
     5
 10
39.94848
 20
19.35648
 11
34.18272
 21
19.35648
  0
LINE
  8
DETAIL
  6
CONTINOUS
 62
     5
 10
34.18272
 20
19.35648
 11
34.18272
 21
25.12224
  0
LINE
  8
DETAIL
  6
CONTINOUS
 62
     5
 10
39.94848
 20
25.12224
 11
34.18272
 21
25.12224
  0
LINE
  8
DETAIL
  6
CONTINOUS
 62
     5
 10
39.94848
 20
26.7696
 11
39.94848
 21
32.53536
  0
LINE
  8
DETAIL
  6
CONTINOUS
 62
     5
 10
39.94848
 20
26.7696
 11
34.18272
 21
26.7696
  0
LINE
  8
DETAIL
  6
CONTINOUS
 62
     5
 10
34.18272
 20
26.7696
 11
34.18272
 21
32.53536
  0
LINE
  8
DETAIL
  6
CONTINOUS
 62
     5
 10
39.94848
 20
32.53536
 11
34.18272
 21
32.53536
  0
LINE
  8
DETAIL
  6
CONTINOUS
 62
     5
 10
39.94848
 20
34.18272
 11
39.94848
 21
39.94848
  0
LINE
  8
DETAIL
  6
CONTINOUS
 62
     5
 10
39.94848
 20
34.18272
 11
34.18272
 21
34.18272
  0
LINE
  8
DETAIL
  6
CONTINOUS
 62
     5
 10
34.18272
 20
34.18272
 11
34.18272
 21
39.94848
  0
LINE
  8
DETAIL
  6
CONTINOUS
 62
     5
 10
39.94848
 20
39.94848
 11
34.18272
 21
39.94848
  0
LINE
  8
DETAIL
  6
CONTINOUS
 62
     5
 10
39.94848
 20
41.59584
 11
39.94848
 21
47.3616
  0
LINE
  8
DETAIL
  6
CONTINOUS
 62
     5
 10
39.94848
 20
41.59584
 11
34.18272
 21
41.59584
  0
LINE
  8
DETAIL
  6
CONTINOUS
 62
     5
 10
34.18272
 20
41.59584
 11
34.18272
 21
47.3616
  0
LINE
  8
DETAIL
  6
CONTINOUS
 62
     5
 10
39.94848
 20
47.3616
 11
34.18272
 21
47.3616
  0
LINE
  8
DETAIL
  6
CONTINOUS
 62
     5
 10
39.94848
 20
49.00896
 11
39.94848
 21
54.77472
  0
LINE
  8
DETAIL
  6
CONTINOUS
 62
     5
 10
39.94848
 20
49.00896
 11
34.18272
 21
49.00896
  0
LINE
  8
DETAIL
  6
CONTINOUS
 62
     5
 10
34.18272
 20
49.00896
 11
34.18272
 21
54.77472
  0
LINE
  8
DETAIL
  6
CONTINOUS
 62
     5
 10
39.94848
 20
54.77472
 11
34.18272
 21
54.77472
  0
LINE
  8
DETAIL
  6
CONTINOUS
 62
     5
 10
39.94848
 20
56.42208
 11
39.94848
 21
62.18784
  0
LINE
  8
DETAIL
  6
CONTINOUS
 62
     5
 10
39.94848
 20
56.42208
 11
34.18272
 21
56.42208
  0
LINE
  8
DETAIL
  6
CONTINOUS
 62
     5
 10
34.18272
 20
56.42208
 11
34.18272
 21
62.18784
  0
LINE
  8
DETAIL
  6
CONTINOUS
 62
     5
 10
39.94848
 20
62.18784
 11
34.18272
 21
62.18784
  0
LINE
  8
DETAIL
  6
CONTINOUS
 62
     5
 10
39.94848
 20
63.8352
 11
39.94848
 21
69.60096
  0
LINE
  8
DETAIL
  6
CONTINOUS
 62
     5
 10
39.94848
 20
63.8352
 11
34.18272
 21
63.8352
  0
LINE
  8
DETAIL
  6
CONTINOUS
 62
     5
 10
34.18272
 20
63.8352
 11
34.18272
 21
69.60096
  0
LINE
  8
DETAIL
  6
CONTINOUS
 62
     5
 10
39.94848
 20
69.60096
 11
34.18272
 21
69.60096
  0
LINE
  8
DETAIL
  6
CONTINOUS
 62
     5
 10
39.94848
 20
71.24832
 11
39.94848
 21
77.01408
  0
LINE
  8
DETAIL
  6
CONTINOUS
 62
     5
 10
39.94848
 20
71.24832
 11
34.18272
 21
71.24832
  0
LINE
  8
DETAIL
  6
CONTINOUS
 62
     5
 10
34.18272
 20
71.24832
 11
34.18272
 21
77.01408
  0
LINE
  8
DETAIL
  6
CONTINOUS
 62
     5
 10
39.94848
 20
77.01408
 11
34.18272
 21
77.01408
  0
LINE
  8
DETAIL
  6
CONTINOUS
 62
     5
 10
39.94848
 20
78.66144
 11
39.94848
 21
84.4272
  0
LINE
  8
DETAIL
  6
CONTINOUS
 62
     5
 10
39.94848
 20
78.66144
 11
34.18272
 21
78.66144
  0
LINE
  8
DETAIL
  6
CONTINOUS
 62
     5
 10
34.18272
 20
78.66144
 11
34.18272
 21
84.4272
  0
LINE
  8
DETAIL
  6
CONTINOUS
 62
     5
 10
39.94848
 20
84.4272
 11
34.18272
 21
84.4272
  0
LINE
  8
DETAIL
  6
CONTINOUS
 62
     5
 10
39.94848
 20
86.07456
 11
39.94848
 21
91.84032
  0
LINE
  8
DETAIL
  6
CONTINOUS
 62
     5
 10
39.94848
 20
86.07456
 11
34.18272
 21
86.07456
  0
LINE
  8
DETAIL
  6
CONTINOUS
 62
     5
 10
34.18272
 20
86.07456
 11
34.18272
 21
91.84032
  0
LINE
  8
DETAIL
  6
CONTINOUS
 62
     5
 10
39.94848
 20
91.84032
 11
34.18272
 21
91.84032
  0
LINE
  8
DETAIL
  6
CONTINOUS
 62
     5
 10
39.94848
 20
93.48768
 11
39.94848
 21
99.25344
  0
LINE
  8
DETAIL
  6
CONTINOUS
 62
     5
 10
39.94848
 20
93.48768
 11
34.18272
 21
93.48768
  0
LINE
  8
DETAIL
  6
CONTINOUS
 62
     5
 10
34.18272
 20
93.48768
 11
34.18272
 21
99.25344
  0
LINE
  8
DETAIL
  6
CONTINOUS
 62
     5
 10
39.94848
 20
99.25344
 11
34.18272
 21
99.25344
  0
LINE
  8
DETAIL
  6
CONTINOUS
 62
     5
 10
32.53536
 20
-99.25344
 11
32.53536
 21
-93.48768
  0
LINE
  8
DETAIL
  6
CONTINOUS
 62
     5
 10
32.53536
 20
-99.25344
 11
26.7696
 21
-99.25344
  0
LINE
  8
DETAIL
  6
CONTINOUS
 62
     5
 10
26.7696
 20
-99.25344
 11
26.7696
 21
-93.48768
  0
LINE
  8
DETAIL
  6
CONTINOUS
 62
     5
 10
32.53536
 20
-93.48768
 11
26.7696
 21
-93.48768
  0
LINE
  8
DETAIL
  6
CONTINOUS
 62
     5
 10
32.53536
 20
-91.84032
 11
32.53536
 21
-86.07456
  0
LINE
  8
DETAIL
  6
CONTINOUS
 62
     5
 10
32.53536
 20
-91.84032
 11
26.7696
 21
-91.84032
  0
LINE
  8
DETAIL
  6
CONTINOUS
 62
     5
 10
26.7696
 20
-91.84032
 11
26.7696
 21
-86.07456
  0
LINE
  8
DETAIL
  6
CONTINOUS
 62
     5
 10
32.53536
 20
-86.07456
 11
26.7696
 21
-86.07456
  0
LINE
  8
DETAIL
  6
CONTINOUS
 62
     5
 10
32.53536
 20
-84.4272
 11
32.53536
 21
-78.66144
  0
LINE
  8
DETAIL
  6
CONTINOUS
 62
     5
 10
32.53536
 20
-84.4272
 11
26.7696
 21
-84.4272
  0
LINE
  8
DETAIL
  6
CONTINOUS
 62
     5
 10
26.7696
 20
-84.4272
 11
26.7696
 21
-78.66144
  0
LINE
  8
DETAIL
  6
CONTINOUS
 62
     5
 10
32.53536
 20
-78.66144
 11
26.7696
 21
-78.66144
  0
LINE
  8
DETAIL
  6
CONTINOUS
 62
     5
 10
32.53536
 20
-77.01408
 11
32.53536
 21
-71.24832
  0
LINE
  8
DETAIL
  6
CONTINOUS
 62
     5
 10
32.53536
 20
-77.01408
 11
26.7696
 21
-77.01408
  0
LINE
  8
DETAIL
  6
CONTINOUS
 62
     5
 10
26.7696
 20
-77.01408
 11
26.7696
 21
-71.24832
  0
LINE
  8
DETAIL
  6
CONTINOUS
 62
     5
 10
32.53536
 20
-71.24832
 11
26.7696
 21
-71.24832
  0
LINE
  8
DETAIL
  6
CONTINOUS
 62
     5
 10
32.53536
 20
-69.60096
 11
32.53536
 21
-63.8352
  0
LINE
  8
DETAIL
  6
CONTINOUS
 62
     5
 10
32.53536
 20
-69.60096
 11
26.7696
 21
-69.60096
  0
LINE
  8
DETAIL
  6
CONTINOUS
 62
     5
 10
26.7696
 20
-69.60096
 11
26.7696
 21
-63.8352
  0
LINE
  8
DETAIL
  6
CONTINOUS
 62
     5
 10
32.53536
 20
-63.8352
 11
26.7696
 21
-63.8352
  0
LINE
  8
DETAIL
  6
CONTINOUS
 62
     5
 10
32.53536
 20
-62.18784
 11
32.53536
 21
-56.42208
  0
LINE
  8
DETAIL
  6
CONTINOUS
 62
     5
 10
32.53536
 20
-62.18784
 11
26.7696
 21
-62.18784
  0
LINE
  8
DETAIL
  6
CONTINOUS
 62
     5
 10
26.7696
 20
-62.18784
 11
26.7696
 21
-56.42208
  0
LINE
  8
DETAIL
  6
CONTINOUS
 62
     5
 10
32.53536
 20
-56.42208
 11
26.7696
 21
-56.42208
  0
LINE
  8
DETAIL
  6
CONTINOUS
 62
     5
 10
32.53536
 20
-54.77472
 11
32.53536
 21
-49.00896
  0
LINE
  8
DETAIL
  6
CONTINOUS
 62
     5
 10
32.53536
 20
-54.77472
 11
26.7696
 21
-54.77472
  0
LINE
  8
DETAIL
  6
CONTINOUS
 62
     5
 10
26.7696
 20
-54.77472
 11
26.7696
 21
-49.00896
  0
LINE
  8
DETAIL
  6
CONTINOUS
 62
     5
 10
32.53536
 20
-49.00896
 11
26.7696
 21
-49.00896
  0
LINE
  8
DETAIL
  6
CONTINOUS
 62
     5
 10
32.53536
 20
-47.3616
 11
32.53536
 21
-41.59584
  0
LINE
  8
DETAIL
  6
CONTINOUS
 62
     5
 10
32.53536
 20
-47.3616
 11
26.7696
 21
-47.3616
  0
LINE
  8
DETAIL
  6
CONTINOUS
 62
     5
 10
26.7696
 20
-47.3616
 11
26.7696
 21
-41.59584
  0
LINE
  8
DETAIL
  6
CONTINOUS
 62
     5
 10
32.53536
 20
-41.59584
 11
26.7696
 21
-41.59584
  0
LINE
  8
DETAIL
  6
CONTINOUS
 62
     5
 10
32.53536
 20
-39.94848
 11
32.53536
 21
-34.18272
  0
LINE
  8
DETAIL
  6
CONTINOUS
 62
     5
 10
32.53536
 20
-39.94848
 11
26.7696
 21
-39.94848
  0
LINE
  8
DETAIL
  6
CONTINOUS
 62
     5
 10
26.7696
 20
-39.94848
 11
26.7696
 21
-34.18272
  0
LINE
  8
DETAIL
  6
CONTINOUS
 62
     5
 10
32.53536
 20
-34.18272
 11
26.7696
 21
-34.18272
  0
LINE
  8
DETAIL
  6
CONTINOUS
 62
     5
 10
32.53536
 20
-32.53536
 11
32.53536
 21
-26.7696
  0
LINE
  8
DETAIL
  6
CONTINOUS
 62
     5
 10
32.53536
 20
-32.53536
 11
26.7696
 21
-32.53536
  0
LINE
  8
DETAIL
  6
CONTINOUS
 62
     5
 10
26.7696
 20
-32.53536
 11
26.7696
 21
-26.7696
  0
LINE
  8
DETAIL
  6
CONTINOUS
 62
     5
 10
32.53536
 20
-26.7696
 11
26.7696
 21
-26.7696
  0
LINE
  8
DETAIL
  6
CONTINOUS
 62
     5
 10
32.53536
 20
-25.12224
 11
32.53536
 21
-19.35648
  0
LINE
  8
DETAIL
  6
CONTINOUS
 62
     5
 10
32.53536
 20
-25.12224
 11
26.7696
 21
-25.12224
  0
LINE
  8
DETAIL
  6
CONTINOUS
 62
     5
 10
26.7696
 20
-25.12224
 11
26.7696
 21
-19.35648
  0
LINE
  8
DETAIL
  6
CONTINOUS
 62
     5
 10
32.53536
 20
-19.35648
 11
26.7696
 21
-19.35648
  0
LINE
  8
DETAIL
  6
CONTINOUS
 62
     5
 10
32.53536
 20
-17.70912
 11
32.53536
 21
-11.94336
  0
LINE
  8
DETAIL
  6
CONTINOUS
 62
     5
 10
32.53536
 20
-17.70912
 11
26.7696
 21
-17.70912
  0
LINE
  8
DETAIL
  6
CONTINOUS
 62
     5
 10
26.7696
 20
-17.70912
 11
26.7696
 21
-11.94336
  0
LINE
  8
DETAIL
  6
CONTINOUS
 62
     5
 10
32.53536
 20
-11.94336
 11
26.7696
 21
-11.94336
  0
LINE
  8
DETAIL
  6
CONTINOUS
 62
     5
 10
32.53536
 20
-10.296
 11
32.53536
 21
-4.53024
  0
LINE
  8
DETAIL
  6
CONTINOUS
 62
     5
 10
32.53536
 20
-10.296
 11
26.7696
 21
-10.296
  0
LINE
  8
DETAIL
  6
CONTINOUS
 62
     5
 10
26.7696
 20
-10.296
 11
26.7696
 21
-4.53024
  0
LINE
  8
DETAIL
  6
CONTINOUS
 62
     5
 10
32.53536
 20
-4.53024
 11
26.7696
 21
-4.53024
  0
LINE
  8
DETAIL
  6
CONTINOUS
 62
     5
 10
32.53536
 20
-2.88288
 11
32.53536
 21
2.88288
  0
LINE
  8
DETAIL
  6
CONTINOUS
 62
     5
 10
32.53536
 20
-2.88288
 11
26.7696
 21
-2.88288
  0
LINE
  8
DETAIL
  6
CONTINOUS
 62
     5
 10
26.7696
 20
-2.88288
 11
26.7696
 21
2.88288
  0
LINE
  8
DETAIL
  6
CONTINOUS
 62
     5
 10
32.53536
 20
2.88288
 11
26.7696
 21
2.88288
  0
LINE
  8
DETAIL
  6
CONTINOUS
 62
     5
 10
32.53536
 20
4.53024
 11
32.53536
 21
10.296
  0
LINE
  8
DETAIL
  6
CONTINOUS
 62
     5
 10
32.53536
 20
4.53024
 11
26.7696
 21
4.53024
  0
LINE
  8
DETAIL
  6
CONTINOUS
 62
     5
 10
26.7696
 20
4.53024
 11
26.7696
 21
10.296
  0
LINE
  8
DETAIL
  6
CONTINOUS
 62
     5
 10
32.53536
 20
10.296
 11
26.7696
 21
10.296
  0
LINE
  8
DETAIL
  6
CONTINOUS
 62
     5
 10
32.53536
 20
11.94336
 11
32.53536
 21
17.70912
  0
LINE
  8
DETAIL
  6
CONTINOUS
 62
     5
 10
32.53536
 20
11.94336
 11
26.7696
 21
11.94336
  0
LINE
  8
DETAIL
  6
CONTINOUS
 62
     5
 10
26.7696
 20
11.94336
 11
26.7696
 21
17.70912
  0
LINE
  8
DETAIL
  6
CONTINOUS
 62
     5
 10
32.53536
 20
17.70912
 11
26.7696
 21
17.70912
  0
LINE
  8
DETAIL
  6
CONTINOUS
 62
     5
 10
32.53536
 20
19.35648
 11
32.53536
 21
25.12224
  0
LINE
  8
DETAIL
  6
CONTINOUS
 62
     5
 10
32.53536
 20
19.35648
 11
26.7696
 21
19.35648
  0
LINE
  8
DETAIL
  6
CONTINOUS
 62
     5
 10
26.7696
 20
19.35648
 11
26.7696
 21
25.12224
  0
LINE
  8
DETAIL
  6
CONTINOUS
 62
     5
 10
32.53536
 20
25.12224
 11
26.7696
 21
25.12224
  0
LINE
  8
DETAIL
  6
CONTINOUS
 62
     5
 10
32.53536
 20
26.7696
 11
32.53536
 21
32.53536
  0
LINE
  8
DETAIL
  6
CONTINOUS
 62
     5
 10
32.53536
 20
26.7696
 11
26.7696
 21
26.7696
  0
LINE
  8
DETAIL
  6
CONTINOUS
 62
     5
 10
26.7696
 20
26.7696
 11
26.7696
 21
32.53536
  0
LINE
  8
DETAIL
  6
CONTINOUS
 62
     5
 10
32.53536
 20
32.53536
 11
26.7696
 21
32.53536
  0
LINE
  8
DETAIL
  6
CONTINOUS
 62
     5
 10
32.53536
 20
34.18272
 11
32.53536
 21
39.94848
  0
LINE
  8
DETAIL
  6
CONTINOUS
 62
     5
 10
32.53536
 20
34.18272
 11
26.7696
 21
34.18272
  0
LINE
  8
DETAIL
  6
CONTINOUS
 62
     5
 10
26.7696
 20
34.18272
 11
26.7696
 21
39.94848
  0
LINE
  8
DETAIL
  6
CONTINOUS
 62
     5
 10
32.53536
 20
39.94848
 11
26.7696
 21
39.94848
  0
LINE
  8
DETAIL
  6
CONTINOUS
 62
     5
 10
32.53536
 20
41.59584
 11
32.53536
 21
47.3616
  0
LINE
  8
DETAIL
  6
CONTINOUS
 62
     5
 10
32.53536
 20
41.59584
 11
26.7696
 21
41.59584
  0
LINE
  8
DETAIL
  6
CONTINOUS
 62
     5
 10
26.7696
 20
41.59584
 11
26.7696
 21
47.3616
  0
LINE
  8
DETAIL
  6
CONTINOUS
 62
     5
 10
32.53536
 20
47.3616
 11
26.7696
 21
47.3616
  0
LINE
  8
DETAIL
  6
CONTINOUS
 62
     5
 10
32.53536
 20
49.00896
 11
32.53536
 21
54.77472
  0
LINE
  8
DETAIL
  6
CONTINOUS
 62
     5
 10
32.53536
 20
49.00896
 11
26.7696
 21
49.00896
  0
LINE
  8
DETAIL
  6
CONTINOUS
 62
     5
 10
26.7696
 20
49.00896
 11
26.7696
 21
54.77472
  0
LINE
  8
DETAIL
  6
CONTINOUS
 62
     5
 10
32.53536
 20
54.77472
 11
26.7696
 21
54.77472
  0
LINE
  8
DETAIL
  6
CONTINOUS
 62
     5
 10
32.53536
 20
56.42208
 11
32.53536
 21
62.18784
  0
LINE
  8
DETAIL
  6
CONTINOUS
 62
     5
 10
32.53536
 20
56.42208
 11
26.7696
 21
56.42208
  0
LINE
  8
DETAIL
  6
CONTINOUS
 62
     5
 10
26.7696
 20
56.42208
 11
26.7696
 21
62.18784
  0
LINE
  8
DETAIL
  6
CONTINOUS
 62
     5
 10
32.53536
 20
62.18784
 11
26.7696
 21
62.18784
  0
LINE
  8
DETAIL
  6
CONTINOUS
 62
     5
 10
32.53536
 20
63.8352
 11
32.53536
 21
69.60096
  0
LINE
  8
DETAIL
  6
CONTINOUS
 62
     5
 10
32.53536
 20
63.8352
 11
26.7696
 21
63.8352
  0
LINE
  8
DETAIL
  6
CONTINOUS
 62
     5
 10
26.7696
 20
63.8352
 11
26.7696
 21
69.60096
  0
LINE
  8
DETAIL
  6
CONTINOUS
 62
     5
 10
32.53536
 20
69.60096
 11
26.7696
 21
69.60096
  0
LINE
  8
DETAIL
  6
CONTINOUS
 62
     5
 10
32.53536
 20
71.24832
 11
32.53536
 21
77.01408
  0
LINE
  8
DETAIL
  6
CONTINOUS
 62
     5
 10
32.53536
 20
71.24832
 11
26.7696
 21
71.24832
  0
LINE
  8
DETAIL
  6
CONTINOUS
 62
     5
 10
26.7696
 20
71.24832
 11
26.7696
 21
77.01408
  0
LINE
  8
DETAIL
  6
CONTINOUS
 62
     5
 10
32.53536
 20
77.01408
 11
26.7696
 21
77.01408
  0
LINE
  8
DETAIL
  6
CONTINOUS
 62
     5
 10
32.53536
 20
78.66144
 11
32.53536
 21
84.4272
  0
LINE
  8
DETAIL
  6
CONTINOUS
 62
     5
 10
32.53536
 20
78.66144
 11
26.7696
 21
78.66144
  0
LINE
  8
DETAIL
  6
CONTINOUS
 62
     5
 10
26.7696
 20
78.66144
 11
26.7696
 21
84.4272
  0
LINE
  8
DETAIL
  6
CONTINOUS
 62
     5
 10
32.53536
 20
84.4272
 11
26.7696
 21
84.4272
  0
LINE
  8
DETAIL
  6
CONTINOUS
 62
     5
 10
32.53536
 20
86.07456
 11
32.53536
 21
91.84032
  0
LINE
  8
DETAIL
  6
CONTINOUS
 62
     5
 10
32.53536
 20
86.07456
 11
26.7696
 21
86.07456
  0
LINE
  8
DETAIL
  6
CONTINOUS
 62
     5
 10
26.7696
 20
86.07456
 11
26.7696
 21
91.84032
  0
LINE
  8
DETAIL
  6
CONTINOUS
 62
     5
 10
32.53536
 20
91.84032
 11
26.7696
 21
91.84032
  0
LINE
  8
DETAIL
  6
CONTINOUS
 62
     5
 10
32.53536
 20
93.48768
 11
32.53536
 21
99.25344
  0
LINE
  8
DETAIL
  6
CONTINOUS
 62
     5
 10
32.53536
 20
93.48768
 11
26.7696
 21
93.48768
  0
LINE
  8
DETAIL
  6
CONTINOUS
 62
     5
 10
26.7696
 20
93.48768
 11
26.7696
 21
99.25344
  0
LINE
  8
DETAIL
  6
CONTINOUS
 62
     5
 10
32.53536
 20
99.25344
 11
26.7696
 21
99.25344
  0
LINE
  8
DETAIL
  6
CONTINOUS
 62
     5
 10
25.12224
 20
-99.25344
 11
25.12224
 21
-93.48768
  0
LINE
  8
DETAIL
  6
CONTINOUS
 62
     5
 10
25.12224
 20
-99.25344
 11
19.35648
 21
-99.25344
  0
LINE
  8
DETAIL
  6
CONTINOUS
 62
     5
 10
19.35648
 20
-99.25344
 11
19.35648
 21
-93.48768
  0
LINE
  8
DETAIL
  6
CONTINOUS
 62
     5
 10
25.12224
 20
-93.48768
 11
19.35648
 21
-93.48768
  0
LINE
  8
DETAIL
  6
CONTINOUS
 62
     5
 10
25.12224
 20
-91.84032
 11
25.12224
 21
-86.07456
  0
LINE
  8
DETAIL
  6
CONTINOUS
 62
     5
 10
25.12224
 20
-91.84032
 11
19.35648
 21
-91.84032
  0
LINE
  8
DETAIL
  6
CONTINOUS
 62
     5
 10
19.35648
 20
-91.84032
 11
19.35648
 21
-86.07456
  0
LINE
  8
DETAIL
  6
CONTINOUS
 62
     5
 10
25.12224
 20
-86.07456
 11
19.35648
 21
-86.07456
  0
LINE
  8
DETAIL
  6
CONTINOUS
 62
     5
 10
25.12224
 20
-84.4272
 11
25.12224
 21
-78.66144
  0
LINE
  8
DETAIL
  6
CONTINOUS
 62
     5
 10
25.12224
 20
-84.4272
 11
19.35648
 21
-84.4272
  0
LINE
  8
DETAIL
  6
CONTINOUS
 62
     5
 10
19.35648
 20
-84.4272
 11
19.35648
 21
-78.66144
  0
LINE
  8
DETAIL
  6
CONTINOUS
 62
     5
 10
25.12224
 20
-78.66144
 11
19.35648
 21
-78.66144
  0
LINE
  8
DETAIL
  6
CONTINOUS
 62
     5
 10
25.12224
 20
-77.01408
 11
25.12224
 21
-71.24832
  0
LINE
  8
DETAIL
  6
CONTINOUS
 62
     5
 10
25.12224
 20
-77.01408
 11
19.35648
 21
-77.01408
  0
LINE
  8
DETAIL
  6
CONTINOUS
 62
     5
 10
19.35648
 20
-77.01408
 11
19.35648
 21
-71.24832
  0
LINE
  8
DETAIL
  6
CONTINOUS
 62
     5
 10
25.12224
 20
-71.24832
 11
19.35648
 21
-71.24832
  0
LINE
  8
DETAIL
  6
CONTINOUS
 62
     5
 10
25.12224
 20
-69.60096
 11
25.12224
 21
-63.8352
  0
LINE
  8
DETAIL
  6
CONTINOUS
 62
     5
 10
25.12224
 20
-69.60096
 11
19.35648
 21
-69.60096
  0
LINE
  8
DETAIL
  6
CONTINOUS
 62
     5
 10
19.35648
 20
-69.60096
 11
19.35648
 21
-63.8352
  0
LINE
  8
DETAIL
  6
CONTINOUS
 62
     5
 10
25.12224
 20
-63.8352
 11
19.35648
 21
-63.8352
  0
LINE
  8
DETAIL
  6
CONTINOUS
 62
     5
 10
25.12224
 20
-62.18784
 11
25.12224
 21
-56.42208
  0
LINE
  8
DETAIL
  6
CONTINOUS
 62
     5
 10
25.12224
 20
-62.18784
 11
19.35648
 21
-62.18784
  0
LINE
  8
DETAIL
  6
CONTINOUS
 62
     5
 10
19.35648
 20
-62.18784
 11
19.35648
 21
-56.42208
  0
LINE
  8
DETAIL
  6
CONTINOUS
 62
     5
 10
25.12224
 20
-56.42208
 11
19.35648
 21
-56.42208
  0
LINE
  8
DETAIL
  6
CONTINOUS
 62
     5
 10
25.12224
 20
-54.77472
 11
25.12224
 21
-49.00896
  0
LINE
  8
DETAIL
  6
CONTINOUS
 62
     5
 10
25.12224
 20
-54.77472
 11
19.35648
 21
-54.77472
  0
LINE
  8
DETAIL
  6
CONTINOUS
 62
     5
 10
19.35648
 20
-54.77472
 11
19.35648
 21
-49.00896
  0
LINE
  8
DETAIL
  6
CONTINOUS
 62
     5
 10
25.12224
 20
-49.00896
 11
19.35648
 21
-49.00896
  0
LINE
  8
DETAIL
  6
CONTINOUS
 62
     5
 10
25.12224
 20
-47.3616
 11
25.12224
 21
-41.59584
  0
LINE
  8
DETAIL
  6
CONTINOUS
 62
     5
 10
25.12224
 20
-47.3616
 11
19.35648
 21
-47.3616
  0
LINE
  8
DETAIL
  6
CONTINOUS
 62
     5
 10
19.35648
 20
-47.3616
 11
19.35648
 21
-41.59584
  0
LINE
  8
DETAIL
  6
CONTINOUS
 62
     5
 10
25.12224
 20
-41.59584
 11
19.35648
 21
-41.59584
  0
LINE
  8
DETAIL
  6
CONTINOUS
 62
     5
 10
25.12224
 20
-39.94848
 11
25.12224
 21
-34.18272
  0
LINE
  8
DETAIL
  6
CONTINOUS
 62
     5
 10
25.12224
 20
-39.94848
 11
19.35648
 21
-39.94848
  0
LINE
  8
DETAIL
  6
CONTINOUS
 62
     5
 10
19.35648
 20
-39.94848
 11
19.35648
 21
-34.18272
  0
LINE
  8
DETAIL
  6
CONTINOUS
 62
     5
 10
25.12224
 20
-34.18272
 11
19.35648
 21
-34.18272
  0
LINE
  8
DETAIL
  6
CONTINOUS
 62
     5
 10
25.12224
 20
-32.53536
 11
25.12224
 21
-26.7696
  0
LINE
  8
DETAIL
  6
CONTINOUS
 62
     5
 10
25.12224
 20
-32.53536
 11
19.35648
 21
-32.53536
  0
LINE
  8
DETAIL
  6
CONTINOUS
 62
     5
 10
19.35648
 20
-32.53536
 11
19.35648
 21
-26.7696
  0
LINE
  8
DETAIL
  6
CONTINOUS
 62
     5
 10
25.12224
 20
-26.7696
 11
19.35648
 21
-26.7696
  0
LINE
  8
DETAIL
  6
CONTINOUS
 62
     5
 10
25.12224
 20
-25.12224
 11
25.12224
 21
-19.35648
  0
LINE
  8
DETAIL
  6
CONTINOUS
 62
     5
 10
25.12224
 20
-25.12224
 11
19.35648
 21
-25.12224
  0
LINE
  8
DETAIL
  6
CONTINOUS
 62
     5
 10
19.35648
 20
-25.12224
 11
19.35648
 21
-19.35648
  0
LINE
  8
DETAIL
  6
CONTINOUS
 62
     5
 10
25.12224
 20
-19.35648
 11
19.35648
 21
-19.35648
  0
LINE
  8
DETAIL
  6
CONTINOUS
 62
     5
 10
25.12224
 20
-17.70912
 11
25.12224
 21
-11.94336
  0
LINE
  8
DETAIL
  6
CONTINOUS
 62
     5
 10
25.12224
 20
-17.70912
 11
19.35648
 21
-17.70912
  0
LINE
  8
DETAIL
  6
CONTINOUS
 62
     5
 10
19.35648
 20
-17.70912
 11
19.35648
 21
-11.94336
  0
LINE
  8
DETAIL
  6
CONTINOUS
 62
     5
 10
25.12224
 20
-11.94336
 11
19.35648
 21
-11.94336
  0
LINE
  8
DETAIL
  6
CONTINOUS
 62
     5
 10
25.12224
 20
-10.296
 11
25.12224
 21
-4.53024
  0
LINE
  8
DETAIL
  6
CONTINOUS
 62
     5
 10
25.12224
 20
-10.296
 11
19.35648
 21
-10.296
  0
LINE
  8
DETAIL
  6
CONTINOUS
 62
     5
 10
19.35648
 20
-10.296
 11
19.35648
 21
-4.53024
  0
LINE
  8
DETAIL
  6
CONTINOUS
 62
     5
 10
25.12224
 20
-4.53024
 11
19.35648
 21
-4.53024
  0
LINE
  8
DETAIL
  6
CONTINOUS
 62
     5
 10
25.12224
 20
-2.88288
 11
25.12224
 21
2.88288
  0
LINE
  8
DETAIL
  6
CONTINOUS
 62
     5
 10
25.12224
 20
-2.88288
 11
19.35648
 21
-2.88288
  0
LINE
  8
DETAIL
  6
CONTINOUS
 62
     5
 10
19.35648
 20
-2.88288
 11
19.35648
 21
2.88288
  0
LINE
  8
DETAIL
  6
CONTINOUS
 62
     5
 10
25.12224
 20
2.88288
 11
19.35648
 21
2.88288
  0
LINE
  8
DETAIL
  6
CONTINOUS
 62
     5
 10
25.12224
 20
4.53024
 11
25.12224
 21
10.296
  0
LINE
  8
DETAIL
  6
CONTINOUS
 62
     5
 10
25.12224
 20
4.53024
 11
19.35648
 21
4.53024
  0
LINE
  8
DETAIL
  6
CONTINOUS
 62
     5
 10
19.35648
 20
4.53024
 11
19.35648
 21
10.296
  0
LINE
  8
DETAIL
  6
CONTINOUS
 62
     5
 10
25.12224
 20
10.296
 11
19.35648
 21
10.296
  0
LINE
  8
DETAIL
  6
CONTINOUS
 62
     5
 10
25.12224
 20
11.94336
 11
25.12224
 21
17.70912
  0
LINE
  8
DETAIL
  6
CONTINOUS
 62
     5
 10
25.12224
 20
11.94336
 11
19.35648
 21
11.94336
  0
LINE
  8
DETAIL
  6
CONTINOUS
 62
     5
 10
19.35648
 20
11.94336
 11
19.35648
 21
17.70912
  0
LINE
  8
DETAIL
  6
CONTINOUS
 62
     5
 10
25.12224
 20
17.70912
 11
19.35648
 21
17.70912
  0
LINE
  8
DETAIL
  6
CONTINOUS
 62
     5
 10
25.12224
 20
19.35648
 11
25.12224
 21
25.12224
  0
LINE
  8
DETAIL
  6
CONTINOUS
 62
     5
 10
25.12224
 20
19.35648
 11
19.35648
 21
19.35648
  0
LINE
  8
DETAIL
  6
CONTINOUS
 62
     5
 10
19.35648
 20
19.35648
 11
19.35648
 21
25.12224
  0
LINE
  8
DETAIL
  6
CONTINOUS
 62
     5
 10
25.12224
 20
25.12224
 11
19.35648
 21
25.12224
  0
LINE
  8
DETAIL
  6
CONTINOUS
 62
     5
 10
25.12224
 20
26.7696
 11
25.12224
 21
32.53536
  0
LINE
  8
DETAIL
  6
CONTINOUS
 62
     5
 10
25.12224
 20
26.7696
 11
19.35648
 21
26.7696
  0
LINE
  8
DETAIL
  6
CONTINOUS
 62
     5
 10
19.35648
 20
26.7696
 11
19.35648
 21
32.53536
  0
LINE
  8
DETAIL
  6
CONTINOUS
 62
     5
 10
25.12224
 20
32.53536
 11
19.35648
 21
32.53536
  0
LINE
  8
DETAIL
  6
CONTINOUS
 62
     5
 10
25.12224
 20
34.18272
 11
25.12224
 21
39.94848
  0
LINE
  8
DETAIL
  6
CONTINOUS
 62
     5
 10
25.12224
 20
34.18272
 11
19.35648
 21
34.18272
  0
LINE
  8
DETAIL
  6
CONTINOUS
 62
     5
 10
19.35648
 20
34.18272
 11
19.35648
 21
39.94848
  0
LINE
  8
DETAIL
  6
CONTINOUS
 62
     5
 10
25.12224
 20
39.94848
 11
19.35648
 21
39.94848
  0
LINE
  8
DETAIL
  6
CONTINOUS
 62
     5
 10
25.12224
 20
41.59584
 11
25.12224
 21
47.3616
  0
LINE
  8
DETAIL
  6
CONTINOUS
 62
     5
 10
25.12224
 20
41.59584
 11
19.35648
 21
41.59584
  0
LINE
  8
DETAIL
  6
CONTINOUS
 62
     5
 10
19.35648
 20
41.59584
 11
19.35648
 21
47.3616
  0
LINE
  8
DETAIL
  6
CONTINOUS
 62
     5
 10
25.12224
 20
47.3616
 11
19.35648
 21
47.3616
  0
LINE
  8
DETAIL
  6
CONTINOUS
 62
     5
 10
25.12224
 20
49.00896
 11
25.12224
 21
54.77472
  0
LINE
  8
DETAIL
  6
CONTINOUS
 62
     5
 10
25.12224
 20
49.00896
 11
19.35648
 21
49.00896
  0
LINE
  8
DETAIL
  6
CONTINOUS
 62
     5
 10
19.35648
 20
49.00896
 11
19.35648
 21
54.77472
  0
LINE
  8
DETAIL
  6
CONTINOUS
 62
     5
 10
25.12224
 20
54.77472
 11
19.35648
 21
54.77472
  0
LINE
  8
DETAIL
  6
CONTINOUS
 62
     5
 10
25.12224
 20
56.42208
 11
25.12224
 21
62.18784
  0
LINE
  8
DETAIL
  6
CONTINOUS
 62
     5
 10
25.12224
 20
56.42208
 11
19.35648
 21
56.42208
  0
LINE
  8
DETAIL
  6
CONTINOUS
 62
     5
 10
19.35648
 20
56.42208
 11
19.35648
 21
62.18784
  0
LINE
  8
DETAIL
  6
CONTINOUS
 62
     5
 10
25.12224
 20
62.18784
 11
19.35648
 21
62.18784
  0
LINE
  8
DETAIL
  6
CONTINOUS
 62
     5
 10
25.12224
 20
63.8352
 11
25.12224
 21
69.60096
  0
LINE
  8
DETAIL
  6
CONTINOUS
 62
     5
 10
25.12224
 20
63.8352
 11
19.35648
 21
63.8352
  0
LINE
  8
DETAIL
  6
CONTINOUS
 62
     5
 10
19.35648
 20
63.8352
 11
19.35648
 21
69.60096
  0
LINE
  8
DETAIL
  6
CONTINOUS
 62
     5
 10
25.12224
 20
69.60096
 11
19.35648
 21
69.60096
  0
LINE
  8
DETAIL
  6
CONTINOUS
 62
     5
 10
25.12224
 20
71.24832
 11
25.12224
 21
77.01408
  0
LINE
  8
DETAIL
  6
CONTINOUS
 62
     5
 10
25.12224
 20
71.24832
 11
19.35648
 21
71.24832
  0
LINE
  8
DETAIL
  6
CONTINOUS
 62
     5
 10
19.35648
 20
71.24832
 11
19.35648
 21
77.01408
  0
LINE
  8
DETAIL
  6
CONTINOUS
 62
     5
 10
25.12224
 20
77.01408
 11
19.35648
 21
77.01408
  0
LINE
  8
DETAIL
  6
CONTINOUS
 62
     5
 10
25.12224
 20
78.66144
 11
25.12224
 21
84.4272
  0
LINE
  8
DETAIL
  6
CONTINOUS
 62
     5
 10
25.12224
 20
78.66144
 11
19.35648
 21
78.66144
  0
LINE
  8
DETAIL
  6
CONTINOUS
 62
     5
 10
19.35648
 20
78.66144
 11
19.35648
 21
84.4272
  0
LINE
  8
DETAIL
  6
CONTINOUS
 62
     5
 10
25.12224
 20
84.4272
 11
19.35648
 21
84.4272
  0
LINE
  8
DETAIL
  6
CONTINOUS
 62
     5
 10
25.12224
 20
86.07456
 11
25.12224
 21
91.84032
  0
LINE
  8
DETAIL
  6
CONTINOUS
 62
     5
 10
25.12224
 20
86.07456
 11
19.35648
 21
86.07456
  0
LINE
  8
DETAIL
  6
CONTINOUS
 62
     5
 10
19.35648
 20
86.07456
 11
19.35648
 21
91.84032
  0
LINE
  8
DETAIL
  6
CONTINOUS
 62
     5
 10
25.12224
 20
91.84032
 11
19.35648
 21
91.84032
  0
LINE
  8
DETAIL
  6
CONTINOUS
 62
     5
 10
25.12224
 20
93.48768
 11
25.12224
 21
99.25344
  0
LINE
  8
DETAIL
  6
CONTINOUS
 62
     5
 10
25.12224
 20
93.48768
 11
19.35648
 21
93.48768
  0
LINE
  8
DETAIL
  6
CONTINOUS
 62
     5
 10
19.35648
 20
93.48768
 11
19.35648
 21
99.25344
  0
LINE
  8
DETAIL
  6
CONTINOUS
 62
     5
 10
25.12224
 20
99.25344
 11
19.35648
 21
99.25344
  0
LINE
  8
DETAIL
  6
CONTINOUS
 62
     5
 10
17.70912
 20
-99.25344
 11
17.70912
 21
-93.48768
  0
LINE
  8
DETAIL
  6
CONTINOUS
 62
     5
 10
17.70912
 20
-99.25344
 11
11.94336
 21
-99.25344
  0
LINE
  8
DETAIL
  6
CONTINOUS
 62
     5
 10
11.94336
 20
-99.25344
 11
11.94336
 21
-93.48768
  0
LINE
  8
DETAIL
  6
CONTINOUS
 62
     5
 10
17.70912
 20
-93.48768
 11
11.94336
 21
-93.48768
  0
LINE
  8
DETAIL
  6
CONTINOUS
 62
     5
 10
17.70912
 20
-91.84032
 11
17.70912
 21
-86.07456
  0
LINE
  8
DETAIL
  6
CONTINOUS
 62
     5
 10
17.70912
 20
-91.84032
 11
11.94336
 21
-91.84032
  0
LINE
  8
DETAIL
  6
CONTINOUS
 62
     5
 10
11.94336
 20
-91.84032
 11
11.94336
 21
-86.07456
  0
LINE
  8
DETAIL
  6
CONTINOUS
 62
     5
 10
17.70912
 20
-86.07456
 11
11.94336
 21
-86.07456
  0
LINE
  8
DETAIL
  6
CONTINOUS
 62
     5
 10
17.70912
 20
-84.4272
 11
17.70912
 21
-78.66144
  0
LINE
  8
DETAIL
  6
CONTINOUS
 62
     5
 10
17.70912
 20
-84.4272
 11
11.94336
 21
-84.4272
  0
LINE
  8
DETAIL
  6
CONTINOUS
 62
     5
 10
11.94336
 20
-84.4272
 11
11.94336
 21
-78.66144
  0
LINE
  8
DETAIL
  6
CONTINOUS
 62
     5
 10
17.70912
 20
-78.66144
 11
11.94336
 21
-78.66144
  0
LINE
  8
DETAIL
  6
CONTINOUS
 62
     5
 10
17.70912
 20
-77.01408
 11
17.70912
 21
-71.24832
  0
LINE
  8
DETAIL
  6
CONTINOUS
 62
     5
 10
17.70912
 20
-77.01408
 11
11.94336
 21
-77.01408
  0
LINE
  8
DETAIL
  6
CONTINOUS
 62
     5
 10
11.94336
 20
-77.01408
 11
11.94336
 21
-71.24832
  0
LINE
  8
DETAIL
  6
CONTINOUS
 62
     5
 10
17.70912
 20
-71.24832
 11
11.94336
 21
-71.24832
  0
LINE
  8
DETAIL
  6
CONTINOUS
 62
     5
 10
17.70912
 20
-69.60096
 11
17.70912
 21
-63.8352
  0
LINE
  8
DETAIL
  6
CONTINOUS
 62
     5
 10
17.70912
 20
-69.60096
 11
11.94336
 21
-69.60096
  0
LINE
  8
DETAIL
  6
CONTINOUS
 62
     5
 10
11.94336
 20
-69.60096
 11
11.94336
 21
-63.8352
  0
LINE
  8
DETAIL
  6
CONTINOUS
 62
     5
 10
17.70912
 20
-63.8352
 11
11.94336
 21
-63.8352
  0
LINE
  8
DETAIL
  6
CONTINOUS
 62
     5
 10
17.70912
 20
-62.18784
 11
17.70912
 21
-56.42208
  0
LINE
  8
DETAIL
  6
CONTINOUS
 62
     5
 10
17.70912
 20
-62.18784
 11
11.94336
 21
-62.18784
  0
LINE
  8
DETAIL
  6
CONTINOUS
 62
     5
 10
11.94336
 20
-62.18784
 11
11.94336
 21
-56.42208
  0
LINE
  8
DETAIL
  6
CONTINOUS
 62
     5
 10
17.70912
 20
-56.42208
 11
11.94336
 21
-56.42208
  0
LINE
  8
DETAIL
  6
CONTINOUS
 62
     5
 10
17.70912
 20
-54.77472
 11
17.70912
 21
-49.00896
  0
LINE
  8
DETAIL
  6
CONTINOUS
 62
     5
 10
17.70912
 20
-54.77472
 11
11.94336
 21
-54.77472
  0
LINE
  8
DETAIL
  6
CONTINOUS
 62
     5
 10
11.94336
 20
-54.77472
 11
11.94336
 21
-49.00896
  0
LINE
  8
DETAIL
  6
CONTINOUS
 62
     5
 10
17.70912
 20
-49.00896
 11
11.94336
 21
-49.00896
  0
LINE
  8
DETAIL
  6
CONTINOUS
 62
     5
 10
17.70912
 20
-47.3616
 11
17.70912
 21
-41.59584
  0
LINE
  8
DETAIL
  6
CONTINOUS
 62
     5
 10
17.70912
 20
-47.3616
 11
11.94336
 21
-47.3616
  0
LINE
  8
DETAIL
  6
CONTINOUS
 62
     5
 10
11.94336
 20
-47.3616
 11
11.94336
 21
-41.59584
  0
LINE
  8
DETAIL
  6
CONTINOUS
 62
     5
 10
17.70912
 20
-41.59584
 11
11.94336
 21
-41.59584
  0
LINE
  8
DETAIL
  6
CONTINOUS
 62
     5
 10
17.70912
 20
-39.94848
 11
17.70912
 21
-34.18272
  0
LINE
  8
DETAIL
  6
CONTINOUS
 62
     5
 10
17.70912
 20
-39.94848
 11
11.94336
 21
-39.94848
  0
LINE
  8
DETAIL
  6
CONTINOUS
 62
     5
 10
11.94336
 20
-39.94848
 11
11.94336
 21
-34.18272
  0
LINE
  8
DETAIL
  6
CONTINOUS
 62
     5
 10
17.70912
 20
-34.18272
 11
11.94336
 21
-34.18272
  0
LINE
  8
DETAIL
  6
CONTINOUS
 62
     5
 10
17.70912
 20
-32.53536
 11
17.70912
 21
-26.7696
  0
LINE
  8
DETAIL
  6
CONTINOUS
 62
     5
 10
17.70912
 20
-32.53536
 11
11.94336
 21
-32.53536
  0
LINE
  8
DETAIL
  6
CONTINOUS
 62
     5
 10
11.94336
 20
-32.53536
 11
11.94336
 21
-26.7696
  0
LINE
  8
DETAIL
  6
CONTINOUS
 62
     5
 10
17.70912
 20
-26.7696
 11
11.94336
 21
-26.7696
  0
LINE
  8
DETAIL
  6
CONTINOUS
 62
     5
 10
17.70912
 20
-25.12224
 11
17.70912
 21
-19.35648
  0
LINE
  8
DETAIL
  6
CONTINOUS
 62
     5
 10
17.70912
 20
-25.12224
 11
11.94336
 21
-25.12224
  0
LINE
  8
DETAIL
  6
CONTINOUS
 62
     5
 10
11.94336
 20
-25.12224
 11
11.94336
 21
-19.35648
  0
LINE
  8
DETAIL
  6
CONTINOUS
 62
     5
 10
17.70912
 20
-19.35648
 11
11.94336
 21
-19.35648
  0
LINE
  8
DETAIL
  6
CONTINOUS
 62
     5
 10
17.70912
 20
-17.70912
 11
17.70912
 21
-11.94336
  0
LINE
  8
DETAIL
  6
CONTINOUS
 62
     5
 10
17.70912
 20
-17.70912
 11
11.94336
 21
-17.70912
  0
LINE
  8
DETAIL
  6
CONTINOUS
 62
     5
 10
11.94336
 20
-17.70912
 11
11.94336
 21
-11.94336
  0
LINE
  8
DETAIL
  6
CONTINOUS
 62
     5
 10
17.70912
 20
-11.94336
 11
11.94336
 21
-11.94336
  0
LINE
  8
DETAIL
  6
CONTINOUS
 62
     5
 10
17.70912
 20
-10.296
 11
17.70912
 21
-4.53024
  0
LINE
  8
DETAIL
  6
CONTINOUS
 62
     5
 10
17.70912
 20
-10.296
 11
11.94336
 21
-10.296
  0
LINE
  8
DETAIL
  6
CONTINOUS
 62
     5
 10
11.94336
 20
-10.296
 11
11.94336
 21
-4.53024
  0
LINE
  8
DETAIL
  6
CONTINOUS
 62
     5
 10
17.70912
 20
-4.53024
 11
11.94336
 21
-4.53024
  0
LINE
  8
DETAIL
  6
CONTINOUS
 62
     5
 10
17.70912
 20
-2.88288
 11
17.70912
 21
2.88288
  0
LINE
  8
DETAIL
  6
CONTINOUS
 62
     5
 10
17.70912
 20
-2.88288
 11
11.94336
 21
-2.88288
  0
LINE
  8
DETAIL
  6
CONTINOUS
 62
     5
 10
11.94336
 20
-2.88288
 11
11.94336
 21
2.88288
  0
LINE
  8
DETAIL
  6
CONTINOUS
 62
     5
 10
17.70912
 20
2.88288
 11
11.94336
 21
2.88288
  0
LINE
  8
DETAIL
  6
CONTINOUS
 62
     5
 10
17.70912
 20
4.53024
 11
17.70912
 21
10.296
  0
LINE
  8
DETAIL
  6
CONTINOUS
 62
     5
 10
17.70912
 20
4.53024
 11
11.94336
 21
4.53024
  0
LINE
  8
DETAIL
  6
CONTINOUS
 62
     5
 10
11.94336
 20
4.53024
 11
11.94336
 21
10.296
  0
LINE
  8
DETAIL
  6
CONTINOUS
 62
     5
 10
17.70912
 20
10.296
 11
11.94336
 21
10.296
  0
LINE
  8
DETAIL
  6
CONTINOUS
 62
     5
 10
17.70912
 20
11.94336
 11
17.70912
 21
17.70912
  0
LINE
  8
DETAIL
  6
CONTINOUS
 62
     5
 10
17.70912
 20
11.94336
 11
11.94336
 21
11.94336
  0
LINE
  8
DETAIL
  6
CONTINOUS
 62
     5
 10
11.94336
 20
11.94336
 11
11.94336
 21
17.70912
  0
LINE
  8
DETAIL
  6
CONTINOUS
 62
     5
 10
17.70912
 20
17.70912
 11
11.94336
 21
17.70912
  0
LINE
  8
DETAIL
  6
CONTINOUS
 62
     5
 10
17.70912
 20
19.35648
 11
17.70912
 21
25.12224
  0
LINE
  8
DETAIL
  6
CONTINOUS
 62
     5
 10
17.70912
 20
19.35648
 11
11.94336
 21
19.35648
  0
LINE
  8
DETAIL
  6
CONTINOUS
 62
     5
 10
11.94336
 20
19.35648
 11
11.94336
 21
25.12224
  0
LINE
  8
DETAIL
  6
CONTINOUS
 62
     5
 10
17.70912
 20
25.12224
 11
11.94336
 21
25.12224
  0
LINE
  8
DETAIL
  6
CONTINOUS
 62
     5
 10
17.70912
 20
26.7696
 11
17.70912
 21
32.53536
  0
LINE
  8
DETAIL
  6
CONTINOUS
 62
     5
 10
17.70912
 20
26.7696
 11
11.94336
 21
26.7696
  0
LINE
  8
DETAIL
  6
CONTINOUS
 62
     5
 10
11.94336
 20
26.7696
 11
11.94336
 21
32.53536
  0
LINE
  8
DETAIL
  6
CONTINOUS
 62
     5
 10
17.70912
 20
32.53536
 11
11.94336
 21
32.53536
  0
LINE
  8
DETAIL
  6
CONTINOUS
 62
     5
 10
17.70912
 20
34.18272
 11
17.70912
 21
39.94848
  0
LINE
  8
DETAIL
  6
CONTINOUS
 62
     5
 10
17.70912
 20
34.18272
 11
11.94336
 21
34.18272
  0
LINE
  8
DETAIL
  6
CONTINOUS
 62
     5
 10
11.94336
 20
34.18272
 11
11.94336
 21
39.94848
  0
LINE
  8
DETAIL
  6
CONTINOUS
 62
     5
 10
17.70912
 20
39.94848
 11
11.94336
 21
39.94848
  0
LINE
  8
DETAIL
  6
CONTINOUS
 62
     5
 10
17.70912
 20
41.59584
 11
17.70912
 21
47.3616
  0
LINE
  8
DETAIL
  6
CONTINOUS
 62
     5
 10
17.70912
 20
41.59584
 11
11.94336
 21
41.59584
  0
LINE
  8
DETAIL
  6
CONTINOUS
 62
     5
 10
11.94336
 20
41.59584
 11
11.94336
 21
47.3616
  0
LINE
  8
DETAIL
  6
CONTINOUS
 62
     5
 10
17.70912
 20
47.3616
 11
11.94336
 21
47.3616
  0
LINE
  8
DETAIL
  6
CONTINOUS
 62
     5
 10
17.70912
 20
49.00896
 11
17.70912
 21
54.77472
  0
LINE
  8
DETAIL
  6
CONTINOUS
 62
     5
 10
17.70912
 20
49.00896
 11
11.94336
 21
49.00896
  0
LINE
  8
DETAIL
  6
CONTINOUS
 62
     5
 10
11.94336
 20
49.00896
 11
11.94336
 21
54.77472
  0
LINE
  8
DETAIL
  6
CONTINOUS
 62
     5
 10
17.70912
 20
54.77472
 11
11.94336
 21
54.77472
  0
LINE
  8
DETAIL
  6
CONTINOUS
 62
     5
 10
17.70912
 20
56.42208
 11
17.70912
 21
62.18784
  0
LINE
  8
DETAIL
  6
CONTINOUS
 62
     5
 10
17.70912
 20
56.42208
 11
11.94336
 21
56.42208
  0
LINE
  8
DETAIL
  6
CONTINOUS
 62
     5
 10
11.94336
 20
56.42208
 11
11.94336
 21
62.18784
  0
LINE
  8
DETAIL
  6
CONTINOUS
 62
     5
 10
17.70912
 20
62.18784
 11
11.94336
 21
62.18784
  0
LINE
  8
DETAIL
  6
CONTINOUS
 62
     5
 10
17.70912
 20
63.8352
 11
17.70912
 21
69.60096
  0
LINE
  8
DETAIL
  6
CONTINOUS
 62
     5
 10
17.70912
 20
63.8352
 11
11.94336
 21
63.8352
  0
LINE
  8
DETAIL
  6
CONTINOUS
 62
     5
 10
11.94336
 20
63.8352
 11
11.94336
 21
69.60096
  0
LINE
  8
DETAIL
  6
CONTINOUS
 62
     5
 10
17.70912
 20
69.60096
 11
11.94336
 21
69.60096
  0
LINE
  8
DETAIL
  6
CONTINOUS
 62
     5
 10
17.70912
 20
71.24832
 11
17.70912
 21
77.01408
  0
LINE
  8
DETAIL
  6
CONTINOUS
 62
     5
 10
17.70912
 20
71.24832
 11
11.94336
 21
71.24832
  0
LINE
  8
DETAIL
  6
CONTINOUS
 62
     5
 10
11.94336
 20
71.24832
 11
11.94336
 21
77.01408
  0
LINE
  8
DETAIL
  6
CONTINOUS
 62
     5
 10
17.70912
 20
77.01408
 11
11.94336
 21
77.01408
  0
LINE
  8
DETAIL
  6
CONTINOUS
 62
     5
 10
17.70912
 20
78.66144
 11
17.70912
 21
84.4272
  0
LINE
  8
DETAIL
  6
CONTINOUS
 62
     5
 10
17.70912
 20
78.66144
 11
11.94336
 21
78.66144
  0
LINE
  8
DETAIL
  6
CONTINOUS
 62
     5
 10
11.94336
 20
78.66144
 11
11.94336
 21
84.4272
  0
LINE
  8
DETAIL
  6
CONTINOUS
 62
     5
 10
17.70912
 20
84.4272
 11
11.94336
 21
84.4272
  0
LINE
  8
DETAIL
  6
CONTINOUS
 62
     5
 10
17.70912
 20
86.07456
 11
17.70912
 21
91.84032
  0
LINE
  8
DETAIL
  6
CONTINOUS
 62
     5
 10
17.70912
 20
86.07456
 11
11.94336
 21
86.07456
  0
LINE
  8
DETAIL
  6
CONTINOUS
 62
     5
 10
11.94336
 20
86.07456
 11
11.94336
 21
91.84032
  0
LINE
  8
DETAIL
  6
CONTINOUS
 62
     5
 10
17.70912
 20
91.84032
 11
11.94336
 21
91.84032
  0
LINE
  8
DETAIL
  6
CONTINOUS
 62
     5
 10
17.70912
 20
93.48768
 11
17.70912
 21
99.25344
  0
LINE
  8
DETAIL
  6
CONTINOUS
 62
     5
 10
17.70912
 20
93.48768
 11
11.94336
 21
93.48768
  0
LINE
  8
DETAIL
  6
CONTINOUS
 62
     5
 10
11.94336
 20
93.48768
 11
11.94336
 21
99.25344
  0
LINE
  8
DETAIL
  6
CONTINOUS
 62
     5
 10
17.70912
 20
99.25344
 11
11.94336
 21
99.25344
  0
LINE
  8
DETAIL
  6
CONTINOUS
 62
     5
 10
10.296
 20
-99.25344
 11
10.296
 21
-93.48768
  0
LINE
  8
DETAIL
  6
CONTINOUS
 62
     5
 10
10.296
 20
-99.25344
 11
4.53024
 21
-99.25344
  0
LINE
  8
DETAIL
  6
CONTINOUS
 62
     5
 10
4.53024
 20
-99.25344
 11
4.53024
 21
-93.48768
  0
LINE
  8
DETAIL
  6
CONTINOUS
 62
     5
 10
10.296
 20
-93.48768
 11
4.53024
 21
-93.48768
  0
LINE
  8
DETAIL
  6
CONTINOUS
 62
     5
 10
10.296
 20
-91.84032
 11
10.296
 21
-86.07456
  0
LINE
  8
DETAIL
  6
CONTINOUS
 62
     5
 10
10.296
 20
-91.84032
 11
4.53024
 21
-91.84032
  0
LINE
  8
DETAIL
  6
CONTINOUS
 62
     5
 10
4.53024
 20
-91.84032
 11
4.53024
 21
-86.07456
  0
LINE
  8
DETAIL
  6
CONTINOUS
 62
     5
 10
10.296
 20
-86.07456
 11
4.53024
 21
-86.07456
  0
LINE
  8
DETAIL
  6
CONTINOUS
 62
     5
 10
10.296
 20
-84.4272
 11
10.296
 21
-78.66144
  0
LINE
  8
DETAIL
  6
CONTINOUS
 62
     5
 10
10.296
 20
-84.4272
 11
4.53024
 21
-84.4272
  0
LINE
  8
DETAIL
  6
CONTINOUS
 62
     5
 10
4.53024
 20
-84.4272
 11
4.53024
 21
-78.66144
  0
LINE
  8
DETAIL
  6
CONTINOUS
 62
     5
 10
10.296
 20
-78.66144
 11
4.53024
 21
-78.66144
  0
LINE
  8
DETAIL
  6
CONTINOUS
 62
     5
 10
10.296
 20
-77.01408
 11
10.296
 21
-71.24832
  0
LINE
  8
DETAIL
  6
CONTINOUS
 62
     5
 10
10.296
 20
-77.01408
 11
4.53024
 21
-77.01408
  0
LINE
  8
DETAIL
  6
CONTINOUS
 62
     5
 10
4.53024
 20
-77.01408
 11
4.53024
 21
-71.24832
  0
LINE
  8
DETAIL
  6
CONTINOUS
 62
     5
 10
10.296
 20
-71.24832
 11
4.53024
 21
-71.24832
  0
LINE
  8
DETAIL
  6
CONTINOUS
 62
     5
 10
10.296
 20
-69.60096
 11
10.296
 21
-63.8352
  0
LINE
  8
DETAIL
  6
CONTINOUS
 62
     5
 10
10.296
 20
-69.60096
 11
4.53024
 21
-69.60096
  0
LINE
  8
DETAIL
  6
CONTINOUS
 62
     5
 10
4.53024
 20
-69.60096
 11
4.53024
 21
-63.8352
  0
LINE
  8
DETAIL
  6
CONTINOUS
 62
     5
 10
10.296
 20
-63.8352
 11
4.53024
 21
-63.8352
  0
LINE
  8
DETAIL
  6
CONTINOUS
 62
     5
 10
10.296
 20
-62.18784
 11
10.296
 21
-56.42208
  0
LINE
  8
DETAIL
  6
CONTINOUS
 62
     5
 10
10.296
 20
-62.18784
 11
4.53024
 21
-62.18784
  0
LINE
  8
DETAIL
  6
CONTINOUS
 62
     5
 10
4.53024
 20
-62.18784
 11
4.53024
 21
-56.42208
  0
LINE
  8
DETAIL
  6
CONTINOUS
 62
     5
 10
10.296
 20
-56.42208
 11
4.53024
 21
-56.42208
  0
LINE
  8
DETAIL
  6
CONTINOUS
 62
     5
 10
10.296
 20
-54.77472
 11
10.296
 21
-49.00896
  0
LINE
  8
DETAIL
  6
CONTINOUS
 62
     5
 10
10.296
 20
-54.77472
 11
4.53024
 21
-54.77472
  0
LINE
  8
DETAIL
  6
CONTINOUS
 62
     5
 10
4.53024
 20
-54.77472
 11
4.53024
 21
-49.00896
  0
LINE
  8
DETAIL
  6
CONTINOUS
 62
     5
 10
10.296
 20
-49.00896
 11
4.53024
 21
-49.00896
  0
LINE
  8
DETAIL
  6
CONTINOUS
 62
     5
 10
10.296
 20
-47.3616
 11
10.296
 21
-41.59584
  0
LINE
  8
DETAIL
  6
CONTINOUS
 62
     5
 10
10.296
 20
-47.3616
 11
4.53024
 21
-47.3616
  0
LINE
  8
DETAIL
  6
CONTINOUS
 62
     5
 10
4.53024
 20
-47.3616
 11
4.53024
 21
-41.59584
  0
LINE
  8
DETAIL
  6
CONTINOUS
 62
     5
 10
10.296
 20
-41.59584
 11
4.53024
 21
-41.59584
  0
LINE
  8
DETAIL
  6
CONTINOUS
 62
     5
 10
10.296
 20
-39.94848
 11
10.296
 21
-34.18272
  0
LINE
  8
DETAIL
  6
CONTINOUS
 62
     5
 10
10.296
 20
-39.94848
 11
4.53024
 21
-39.94848
  0
LINE
  8
DETAIL
  6
CONTINOUS
 62
     5
 10
4.53024
 20
-39.94848
 11
4.53024
 21
-34.18272
  0
LINE
  8
DETAIL
  6
CONTINOUS
 62
     5
 10
10.296
 20
-34.18272
 11
4.53024
 21
-34.18272
  0
LINE
  8
DETAIL
  6
CONTINOUS
 62
     5
 10
10.296
 20
-32.53536
 11
10.296
 21
-26.7696
  0
LINE
  8
DETAIL
  6
CONTINOUS
 62
     5
 10
10.296
 20
-32.53536
 11
4.53024
 21
-32.53536
  0
LINE
  8
DETAIL
  6
CONTINOUS
 62
     5
 10
4.53024
 20
-32.53536
 11
4.53024
 21
-26.7696
  0
LINE
  8
DETAIL
  6
CONTINOUS
 62
     5
 10
10.296
 20
-26.7696
 11
4.53024
 21
-26.7696
  0
LINE
  8
DETAIL
  6
CONTINOUS
 62
     5
 10
10.296
 20
-25.12224
 11
10.296
 21
-19.35648
  0
LINE
  8
DETAIL
  6
CONTINOUS
 62
     5
 10
10.296
 20
-25.12224
 11
4.53024
 21
-25.12224
  0
LINE
  8
DETAIL
  6
CONTINOUS
 62
     5
 10
4.53024
 20
-25.12224
 11
4.53024
 21
-19.35648
  0
LINE
  8
DETAIL
  6
CONTINOUS
 62
     5
 10
10.296
 20
-19.35648
 11
4.53024
 21
-19.35648
  0
LINE
  8
DETAIL
  6
CONTINOUS
 62
     5
 10
10.296
 20
-17.70912
 11
10.296
 21
-11.94336
  0
LINE
  8
DETAIL
  6
CONTINOUS
 62
     5
 10
10.296
 20
-17.70912
 11
4.53024
 21
-17.70912
  0
LINE
  8
DETAIL
  6
CONTINOUS
 62
     5
 10
4.53024
 20
-17.70912
 11
4.53024
 21
-11.94336
  0
LINE
  8
DETAIL
  6
CONTINOUS
 62
     5
 10
10.296
 20
-11.94336
 11
4.53024
 21
-11.94336
  0
LINE
  8
DETAIL
  6
CONTINOUS
 62
     5
 10
10.296
 20
-10.296
 11
10.296
 21
-4.53024
  0
LINE
  8
DETAIL
  6
CONTINOUS
 62
     5
 10
10.296
 20
-10.296
 11
4.53024
 21
-10.296
  0
LINE
  8
DETAIL
  6
CONTINOUS
 62
     5
 10
4.53024
 20
-10.296
 11
4.53024
 21
-4.53024
  0
LINE
  8
DETAIL
  6
CONTINOUS
 62
     5
 10
10.296
 20
-4.53024
 11
4.53024
 21
-4.53024
  0
LINE
  8
DETAIL
  6
CONTINOUS
 62
     5
 10
10.296
 20
-2.88288
 11
10.296
 21
2.88288
  0
LINE
  8
DETAIL
  6
CONTINOUS
 62
     5
 10
10.296
 20
-2.88288
 11
4.53024
 21
-2.88288
  0
LINE
  8
DETAIL
  6
CONTINOUS
 62
     5
 10
4.53024
 20
-2.88288
 11
4.53024
 21
2.88288
  0
LINE
  8
DETAIL
  6
CONTINOUS
 62
     5
 10
10.296
 20
2.88288
 11
4.53024
 21
2.88288
  0
LINE
  8
DETAIL
  6
CONTINOUS
 62
     5
 10
10.296
 20
4.53024
 11
10.296
 21
10.296
  0
LINE
  8
DETAIL
  6
CONTINOUS
 62
     5
 10
10.296
 20
4.53024
 11
4.53024
 21
4.53024
  0
LINE
  8
DETAIL
  6
CONTINOUS
 62
     5
 10
4.53024
 20
4.53024
 11
4.53024
 21
10.296
  0
LINE
  8
DETAIL
  6
CONTINOUS
 62
     5
 10
10.296
 20
10.296
 11
4.53024
 21
10.296
  0
LINE
  8
DETAIL
  6
CONTINOUS
 62
     5
 10
10.296
 20
11.94336
 11
10.296
 21
17.70912
  0
LINE
  8
DETAIL
  6
CONTINOUS
 62
     5
 10
10.296
 20
11.94336
 11
4.53024
 21
11.94336
  0
LINE
  8
DETAIL
  6
CONTINOUS
 62
     5
 10
4.53024
 20
11.94336
 11
4.53024
 21
17.70912
  0
LINE
  8
DETAIL
  6
CONTINOUS
 62
     5
 10
10.296
 20
17.70912
 11
4.53024
 21
17.70912
  0
LINE
  8
DETAIL
  6
CONTINOUS
 62
     5
 10
10.296
 20
19.35648
 11
10.296
 21
25.12224
  0
LINE
  8
DETAIL
  6
CONTINOUS
 62
     5
 10
10.296
 20
19.35648
 11
4.53024
 21
19.35648
  0
LINE
  8
DETAIL
  6
CONTINOUS
 62
     5
 10
4.53024
 20
19.35648
 11
4.53024
 21
25.12224
  0
LINE
  8
DETAIL
  6
CONTINOUS
 62
     5
 10
10.296
 20
25.12224
 11
4.53024
 21
25.12224
  0
LINE
  8
DETAIL
  6
CONTINOUS
 62
     5
 10
10.296
 20
26.7696
 11
10.296
 21
32.53536
  0
LINE
  8
DETAIL
  6
CONTINOUS
 62
     5
 10
10.296
 20
26.7696
 11
4.53024
 21
26.7696
  0
LINE
  8
DETAIL
  6
CONTINOUS
 62
     5
 10
4.53024
 20
26.7696
 11
4.53024
 21
32.53536
  0
LINE
  8
DETAIL
  6
CONTINOUS
 62
     5
 10
10.296
 20
32.53536
 11
4.53024
 21
32.53536
  0
LINE
  8
DETAIL
  6
CONTINOUS
 62
     5
 10
10.296
 20
34.18272
 11
10.296
 21
39.94848
  0
LINE
  8
DETAIL
  6
CONTINOUS
 62
     5
 10
10.296
 20
34.18272
 11
4.53024
 21
34.18272
  0
LINE
  8
DETAIL
  6
CONTINOUS
 62
     5
 10
4.53024
 20
34.18272
 11
4.53024
 21
39.94848
  0
LINE
  8
DETAIL
  6
CONTINOUS
 62
     5
 10
10.296
 20
39.94848
 11
4.53024
 21
39.94848
  0
LINE
  8
DETAIL
  6
CONTINOUS
 62
     5
 10
10.296
 20
41.59584
 11
10.296
 21
47.3616
  0
LINE
  8
DETAIL
  6
CONTINOUS
 62
     5
 10
10.296
 20
41.59584
 11
4.53024
 21
41.59584
  0
LINE
  8
DETAIL
  6
CONTINOUS
 62
     5
 10
4.53024
 20
41.59584
 11
4.53024
 21
47.3616
  0
LINE
  8
DETAIL
  6
CONTINOUS
 62
     5
 10
10.296
 20
47.3616
 11
4.53024
 21
47.3616
  0
LINE
  8
DETAIL
  6
CONTINOUS
 62
     5
 10
10.296
 20
49.00896
 11
10.296
 21
54.77472
  0
LINE
  8
DETAIL
  6
CONTINOUS
 62
     5
 10
10.296
 20
49.00896
 11
4.53024
 21
49.00896
  0
LINE
  8
DETAIL
  6
CONTINOUS
 62
     5
 10
4.53024
 20
49.00896
 11
4.53024
 21
54.77472
  0
LINE
  8
DETAIL
  6
CONTINOUS
 62
     5
 10
10.296
 20
54.77472
 11
4.53024
 21
54.77472
  0
LINE
  8
DETAIL
  6
CONTINOUS
 62
     5
 10
10.296
 20
56.42208
 11
10.296
 21
62.18784
  0
LINE
  8
DETAIL
  6
CONTINOUS
 62
     5
 10
10.296
 20
56.42208
 11
4.53024
 21
56.42208
  0
LINE
  8
DETAIL
  6
CONTINOUS
 62
     5
 10
4.53024
 20
56.42208
 11
4.53024
 21
62.18784
  0
LINE
  8
DETAIL
  6
CONTINOUS
 62
     5
 10
10.296
 20
62.18784
 11
4.53024
 21
62.18784
  0
LINE
  8
DETAIL
  6
CONTINOUS
 62
     5
 10
10.296
 20
63.8352
 11
10.296
 21
69.60096
  0
LINE
  8
DETAIL
  6
CONTINOUS
 62
     5
 10
10.296
 20
63.8352
 11
4.53024
 21
63.8352
  0
LINE
  8
DETAIL
  6
CONTINOUS
 62
     5
 10
4.53024
 20
63.8352
 11
4.53024
 21
69.60096
  0
LINE
  8
DETAIL
  6
CONTINOUS
 62
     5
 10
10.296
 20
69.60096
 11
4.53024
 21
69.60096
  0
LINE
  8
DETAIL
  6
CONTINOUS
 62
     5
 10
10.296
 20
71.24832
 11
10.296
 21
77.01408
  0
LINE
  8
DETAIL
  6
CONTINOUS
 62
     5
 10
10.296
 20
71.24832
 11
4.53024
 21
71.24832
  0
LINE
  8
DETAIL
  6
CONTINOUS
 62
     5
 10
4.53024
 20
71.24832
 11
4.53024
 21
77.01408
  0
LINE
  8
DETAIL
  6
CONTINOUS
 62
     5
 10
10.296
 20
77.01408
 11
4.53024
 21
77.01408
  0
LINE
  8
DETAIL
  6
CONTINOUS
 62
     5
 10
10.296
 20
78.66144
 11
10.296
 21
84.4272
  0
LINE
  8
DETAIL
  6
CONTINOUS
 62
     5
 10
10.296
 20
78.66144
 11
4.53024
 21
78.66144
  0
LINE
  8
DETAIL
  6
CONTINOUS
 62
     5
 10
4.53024
 20
78.66144
 11
4.53024
 21
84.4272
  0
LINE
  8
DETAIL
  6
CONTINOUS
 62
     5
 10
10.296
 20
84.4272
 11
4.53024
 21
84.4272
  0
LINE
  8
DETAIL
  6
CONTINOUS
 62
     5
 10
10.296
 20
86.07456
 11
10.296
 21
91.84032
  0
LINE
  8
DETAIL
  6
CONTINOUS
 62
     5
 10
10.296
 20
86.07456
 11
4.53024
 21
86.07456
  0
LINE
  8
DETAIL
  6
CONTINOUS
 62
     5
 10
4.53024
 20
86.07456
 11
4.53024
 21
91.84032
  0
LINE
  8
DETAIL
  6
CONTINOUS
 62
     5
 10
10.296
 20
91.84032
 11
4.53024
 21
91.84032
  0
LINE
  8
DETAIL
  6
CONTINOUS
 62
     5
 10
10.296
 20
93.48768
 11
10.296
 21
99.25344
  0
LINE
  8
DETAIL
  6
CONTINOUS
 62
     5
 10
10.296
 20
93.48768
 11
4.53024
 21
93.48768
  0
LINE
  8
DETAIL
  6
CONTINOUS
 62
     5
 10
4.53024
 20
93.48768
 11
4.53024
 21
99.25344
  0
LINE
  8
DETAIL
  6
CONTINOUS
 62
     5
 10
10.296
 20
99.25344
 11
4.53024
 21
99.25344
  0
LINE
  8
DETAIL
  6
CONTINOUS
 62
     5
 10
2.88288
 20
-99.25344
 11
2.88288
 21
-93.48768
  0
LINE
  8
DETAIL
  6
CONTINOUS
 62
     5
 10
2.88288
 20
-99.25344
 11
-0.0
 21
-99.25344
  0
LINE
  8
DETAIL
  6
CONTINOUS
 62
     5
 10
2.88288
 20
-93.48768
 11
-0.0
 21
-93.48768
  0
LINE
  8
DETAIL
  6
CONTINOUS
 62
     5
 10
2.88288
 20
-91.84032
 11
2.88288
 21
-86.07456
  0
LINE
  8
DETAIL
  6
CONTINOUS
 62
     5
 10
2.88288
 20
-91.84032
 11
-0.0
 21
-91.84032
  0
LINE
  8
DETAIL
  6
CONTINOUS
 62
     5
 10
2.88288
 20
-86.07456
 11
-0.0
 21
-86.07456
  0
LINE
  8
DETAIL
  6
CONTINOUS
 62
     5
 10
2.88288
 20
-84.4272
 11
2.88288
 21
-78.66144
  0
LINE
  8
DETAIL
  6
CONTINOUS
 62
     5
 10
2.88288
 20
-84.4272
 11
-0.0
 21
-84.4272
  0
LINE
  8
DETAIL
  6
CONTINOUS
 62
     5
 10
2.88288
 20
-78.66144
 11
-0.0
 21
-78.66144
  0
LINE
  8
DETAIL
  6
CONTINOUS
 62
     5
 10
2.88288
 20
-77.01408
 11
2.88288
 21
-71.24832
  0
LINE
  8
DETAIL
  6
CONTINOUS
 62
     5
 10
2.88288
 20
-77.01408
 11
-0.0
 21
-77.01408
  0
LINE
  8
DETAIL
  6
CONTINOUS
 62
     5
 10
2.88288
 20
-71.24832
 11
-0.0
 21
-71.24832
  0
LINE
  8
DETAIL
  6
CONTINOUS
 62
     5
 10
2.88288
 20
-69.60096
 11
2.88288
 21
-63.8352
  0
LINE
  8
DETAIL
  6
CONTINOUS
 62
     5
 10
2.88288
 20
-69.60096
 11
-0.0
 21
-69.60096
  0
LINE
  8
DETAIL
  6
CONTINOUS
 62
     5
 10
2.88288
 20
-63.8352
 11
-0.0
 21
-63.8352
  0
LINE
  8
DETAIL
  6
CONTINOUS
 62
     5
 10
2.88288
 20
-62.18784
 11
2.88288
 21
-56.42208
  0
LINE
  8
DETAIL
  6
CONTINOUS
 62
     5
 10
2.88288
 20
-62.18784
 11
-0.0
 21
-62.18784
  0
LINE
  8
DETAIL
  6
CONTINOUS
 62
     5
 10
2.88288
 20
-56.42208
 11
-0.0
 21
-56.42208
  0
LINE
  8
DETAIL
  6
CONTINOUS
 62
     5
 10
2.88288
 20
-54.77472
 11
2.88288
 21
-49.00896
  0
LINE
  8
DETAIL
  6
CONTINOUS
 62
     5
 10
2.88288
 20
-54.77472
 11
-0.0
 21
-54.77472
  0
LINE
  8
DETAIL
  6
CONTINOUS
 62
     5
 10
2.88288
 20
-49.00896
 11
-0.0
 21
-49.00896
  0
LINE
  8
DETAIL
  6
CONTINOUS
 62
     5
 10
2.88288
 20
-47.3616
 11
2.88288
 21
-41.59584
  0
LINE
  8
DETAIL
  6
CONTINOUS
 62
     5
 10
2.88288
 20
-47.3616
 11
-0.0
 21
-47.3616
  0
LINE
  8
DETAIL
  6
CONTINOUS
 62
     5
 10
2.88288
 20
-41.59584
 11
-0.0
 21
-41.59584
  0
LINE
  8
DETAIL
  6
CONTINOUS
 62
     5
 10
2.88288
 20
-39.94848
 11
2.88288
 21
-34.18272
  0
LINE
  8
DETAIL
  6
CONTINOUS
 62
     5
 10
2.88288
 20
-39.94848
 11
-0.0
 21
-39.94848
  0
LINE
  8
DETAIL
  6
CONTINOUS
 62
     5
 10
2.88288
 20
-34.18272
 11
-0.0
 21
-34.18272
  0
LINE
  8
DETAIL
  6
CONTINOUS
 62
     5
 10
2.88288
 20
-32.53536
 11
2.88288
 21
-26.7696
  0
LINE
  8
DETAIL
  6
CONTINOUS
 62
     5
 10
2.88288
 20
-32.53536
 11
-0.0
 21
-32.53536
  0
LINE
  8
DETAIL
  6
CONTINOUS
 62
     5
 10
2.88288
 20
-26.7696
 11
-0.0
 21
-26.7696
  0
LINE
  8
DETAIL
  6
CONTINOUS
 62
     5
 10
2.88288
 20
-25.12224
 11
2.88288
 21
-19.35648
  0
LINE
  8
DETAIL
  6
CONTINOUS
 62
     5
 10
2.88288
 20
-25.12224
 11
-0.0
 21
-25.12224
  0
LINE
  8
DETAIL
  6
CONTINOUS
 62
     5
 10
2.88288
 20
-19.35648
 11
-0.0
 21
-19.35648
  0
LINE
  8
DETAIL
  6
CONTINOUS
 62
     5
 10
2.88288
 20
-17.70912
 11
2.88288
 21
-11.94336
  0
LINE
  8
DETAIL
  6
CONTINOUS
 62
     5
 10
2.88288
 20
-17.70912
 11
-0.0
 21
-17.70912
  0
LINE
  8
DETAIL
  6
CONTINOUS
 62
     5
 10
2.88288
 20
-11.94336
 11
-0.0
 21
-11.94336
  0
LINE
  8
DETAIL
  6
CONTINOUS
 62
     5
 10
2.88288
 20
-10.296
 11
2.88288
 21
-4.53024
  0
LINE
  8
DETAIL
  6
CONTINOUS
 62
     5
 10
2.88288
 20
-10.296
 11
-0.0
 21
-10.296
  0
LINE
  8
DETAIL
  6
CONTINOUS
 62
     5
 10
2.88288
 20
-4.53024
 11
-0.0
 21
-4.53024
  0
LINE
  8
DETAIL
  6
CONTINOUS
 62
     5
 10
2.88288
 20
-2.88288
 11
2.88288
 21
2.88288
  0
LINE
  8
DETAIL
  6
CONTINOUS
 62
     5
 10
2.88288
 20
-2.88288
 11
-0.0
 21
-2.88288
  0
LINE
  8
DETAIL
  6
CONTINOUS
 62
     5
 10
2.88288
 20
2.88288
 11
-0.0
 21
2.88288
  0
LINE
  8
DETAIL
  6
CONTINOUS
 62
     5
 10
2.88288
 20
4.53024
 11
2.88288
 21
10.296
  0
LINE
  8
DETAIL
  6
CONTINOUS
 62
     5
 10
2.88288
 20
4.53024
 11
-0.0
 21
4.53024
  0
LINE
  8
DETAIL
  6
CONTINOUS
 62
     5
 10
2.88288
 20
10.296
 11
-0.0
 21
10.296
  0
LINE
  8
DETAIL
  6
CONTINOUS
 62
     5
 10
2.88288
 20
11.94336
 11
2.88288
 21
17.70912
  0
LINE
  8
DETAIL
  6
CONTINOUS
 62
     5
 10
2.88288
 20
11.94336
 11
-0.0
 21
11.94336
  0
LINE
  8
DETAIL
  6
CONTINOUS
 62
     5
 10
2.88288
 20
17.70912
 11
-0.0
 21
17.70912
  0
LINE
  8
DETAIL
  6
CONTINOUS
 62
     5
 10
2.88288
 20
19.35648
 11
2.88288
 21
25.12224
  0
LINE
  8
DETAIL
  6
CONTINOUS
 62
     5
 10
2.88288
 20
19.35648
 11
-0.0
 21
19.35648
  0
LINE
  8
DETAIL
  6
CONTINOUS
 62
     5
 10
2.88288
 20
25.12224
 11
-0.0
 21
25.12224
  0
LINE
  8
DETAIL
  6
CONTINOUS
 62
     5
 10
2.88288
 20
26.7696
 11
2.88288
 21
32.53536
  0
LINE
  8
DETAIL
  6
CONTINOUS
 62
     5
 10
2.88288
 20
26.7696
 11
-0.0
 21
26.7696
  0
LINE
  8
DETAIL
  6
CONTINOUS
 62
     5
 10
2.88288
 20
32.53536
 11
-0.0
 21
32.53536
  0
LINE
  8
DETAIL
  6
CONTINOUS
 62
     5
 10
2.88288
 20
34.18272
 11
2.88288
 21
39.94848
  0
LINE
  8
DETAIL
  6
CONTINOUS
 62
     5
 10
2.88288
 20
34.18272
 11
-0.0
 21
34.18272
  0
LINE
  8
DETAIL
  6
CONTINOUS
 62
     5
 10
2.88288
 20
39.94848
 11
-0.0
 21
39.94848
  0
LINE
  8
DETAIL
  6
CONTINOUS
 62
     5
 10
2.88288
 20
41.59584
 11
2.88288
 21
47.3616
  0
LINE
  8
DETAIL
  6
CONTINOUS
 62
     5
 10
2.88288
 20
41.59584
 11
-0.0
 21
41.59584
  0
LINE
  8
DETAIL
  6
CONTINOUS
 62
     5
 10
2.88288
 20
47.3616
 11
-0.0
 21
47.3616
  0
LINE
  8
DETAIL
  6
CONTINOUS
 62
     5
 10
2.88288
 20
49.00896
 11
2.88288
 21
54.77472
  0
LINE
  8
DETAIL
  6
CONTINOUS
 62
     5
 10
2.88288
 20
49.00896
 11
-0.0
 21
49.00896
  0
LINE
  8
DETAIL
  6
CONTINOUS
 62
     5
 10
2.88288
 20
54.77472
 11
-0.0
 21
54.77472
  0
LINE
  8
DETAIL
  6
CONTINOUS
 62
     5
 10
2.88288
 20
56.42208
 11
2.88288
 21
62.18784
  0
LINE
  8
DETAIL
  6
CONTINOUS
 62
     5
 10
2.88288
 20
56.42208
 11
-0.0
 21
56.42208
  0
LINE
  8
DETAIL
  6
CONTINOUS
 62
     5
 10
2.88288
 20
62.18784
 11
-0.0
 21
62.18784
  0
LINE
  8
DETAIL
  6
CONTINOUS
 62
     5
 10
2.88288
 20
63.8352
 11
2.88288
 21
69.60096
  0
LINE
  8
DETAIL
  6
CONTINOUS
 62
     5
 10
2.88288
 20
63.8352
 11
-0.0
 21
63.8352
  0
LINE
  8
DETAIL
  6
CONTINOUS
 62
     5
 10
2.88288
 20
69.60096
 11
-0.0
 21
69.60096
  0
LINE
  8
DETAIL
  6
CONTINOUS
 62
     5
 10
2.88288
 20
71.24832
 11
2.88288
 21
77.01408
  0
LINE
  8
DETAIL
  6
CONTINOUS
 62
     5
 10
2.88288
 20
71.24832
 11
-0.0
 21
71.24832
  0
LINE
  8
DETAIL
  6
CONTINOUS
 62
     5
 10
2.88288
 20
77.01408
 11
-0.0
 21
77.01408
  0
LINE
  8
DETAIL
  6
CONTINOUS
 62
     5
 10
2.88288
 20
78.66144
 11
2.88288
 21
84.4272
  0
LINE
  8
DETAIL
  6
CONTINOUS
 62
     5
 10
2.88288
 20
78.66144
 11
-0.0
 21
78.66144
  0
LINE
  8
DETAIL
  6
CONTINOUS
 62
     5
 10
2.88288
 20
84.4272
 11
-0.0
 21
84.4272
  0
LINE
  8
DETAIL
  6
CONTINOUS
 62
     5
 10
2.88288
 20
86.07456
 11
2.88288
 21
91.84032
  0
LINE
  8
DETAIL
  6
CONTINOUS
 62
     5
 10
2.88288
 20
86.07456
 11
-0.0
 21
86.07456
  0
LINE
  8
DETAIL
  6
CONTINOUS
 62
     5
 10
2.88288
 20
91.84032
 11
-0.0
 21
91.84032
  0
LINE
  8
DETAIL
  6
CONTINOUS
 62
     5
 10
2.88288
 20
93.48768
 11
2.88288
 21
99.25344
  0
LINE
  8
DETAIL
  6
CONTINOUS
 62
     5
 10
2.88288
 20
93.48768
 11
-0.0
 21
93.48768
  0
LINE
  8
DETAIL
  6
CONTINOUS
 62
     5
 10
2.88288
 20
99.25344
 11
-0.0
 21
99.25344
  0
LINE
  8
DETAIL
  6
CONTINOUS
 62
     5
 10
99.25344
 20
93.48768
 11
93.48768
 21
93.48768
  0
LINE
  8
DETAIL
  6
CONTINOUS
 62
     5
 10
99.25344
 20
91.84032
 11
93.48768
 21
91.84032
  0
LINE
  8
DETAIL
  6
CONTINOUS
 62
     5
 10
99.25344
 20
86.07456
 11
93.48768
 21
86.07456
  0
LINE
  8
DETAIL
  6
CONTINOUS
 62
     5
 10
99.25344
 20
84.4272
 11
93.48768
 21
84.4272
  0
LINE
  8
DETAIL
  6
CONTINOUS
 62
     5
 10
99.25344
 20
78.66144
 11
93.48768
 21
78.66144
  0
LINE
  8
DETAIL
  6
CONTINOUS
 62
     5
 10
99.25344
 20
77.01408
 11
93.48768
 21
77.01408
  0
LINE
  8
DETAIL
  6
CONTINOUS
 62
     5
 10
99.25344
 20
71.24832
 11
93.48768
 21
71.24832
  0
LINE
  8
DETAIL
  6
CONTINOUS
 62
     5
 10
99.25344
 20
69.60096
 11
93.48768
 21
69.60096
  0
LINE
  8
DETAIL
  6
CONTINOUS
 62
     5
 10
99.25344
 20
63.8352
 11
93.48768
 21
63.8352
  0
LINE
  8
DETAIL
  6
CONTINOUS
 62
     5
 10
99.25344
 20
62.18784
 11
93.48768
 21
62.18784
  0
LINE
  8
DETAIL
  6
CONTINOUS
 62
     5
 10
99.25344
 20
56.42208
 11
93.48768
 21
56.42208
  0
LINE
  8
DETAIL
  6
CONTINOUS
 62
     5
 10
99.25344
 20
54.77472
 11
93.48768
 21
54.77472
  0
LINE
  8
DETAIL
  6
CONTINOUS
 62
     5
 10
99.25344
 20
49.00896
 11
93.48768
 21
49.00896
  0
LINE
  8
DETAIL
  6
CONTINOUS
 62
     5
 10
99.25344
 20
47.3616
 11
93.48768
 21
47.3616
  0
LINE
  8
DETAIL
  6
CONTINOUS
 62
     5
 10
99.25344
 20
41.59584
 11
93.48768
 21
41.59584
  0
LINE
  8
DETAIL
  6
CONTINOUS
 62
     5
 10
99.25344
 20
39.94848
 11
93.48768
 21
39.94848
  0
LINE
  8
DETAIL
  6
CONTINOUS
 62
     5
 10
99.25344
 20
34.18272
 11
93.48768
 21
34.18272
  0
LINE
  8
DETAIL
  6
CONTINOUS
 62
     5
 10
99.25344
 20
32.53536
 11
93.48768
 21
32.53536
  0
LINE
  8
DETAIL
  6
CONTINOUS
 62
     5
 10
99.25344
 20
26.7696
 11
93.48768
 21
26.7696
  0
LINE
  8
DETAIL
  6
CONTINOUS
 62
     5
 10
99.25344
 20
25.12224
 11
93.48768
 21
25.12224
  0
LINE
  8
DETAIL
  6
CONTINOUS
 62
     5
 10
99.25344
 20
19.35648
 11
93.48768
 21
19.35648
  0
LINE
  8
DETAIL
  6
CONTINOUS
 62
     5
 10
99.25344
 20
17.70912
 11
93.48768
 21
17.70912
  0
LINE
  8
DETAIL
  6
CONTINOUS
 62
     5
 10
99.25344
 20
11.94336
 11
93.48768
 21
11.94336
  0
LINE
  8
DETAIL
  6
CONTINOUS
 62
     5
 10
99.25344
 20
10.296
 11
93.48768
 21
10.296
  0
LINE
  8
DETAIL
  6
CONTINOUS
 62
     5
 10
99.25344
 20
4.53024
 11
93.48768
 21
4.53024
  0
LINE
  8
DETAIL
  6
CONTINOUS
 62
     5
 10
99.25344
 20
2.88288
 11
93.48768
 21
2.88288
  0
ARC
  8
DETAIL
  6
CONTINOUS
 62
     5
 10
-129.272
 20
129.272
 40
13.728
 50
90.0
 51
180.0
  0
ARC
  8
DETAIL
  6
CONTINOUS
 62
     5
 10
-129.272
 20
-129.272
 40
13.728
 50
180.0
 51
270.0
  0
ARC
  8
DETAIL
  6
CONTINOUS
 62
     5
 10
129.272
 20
-129.272
 40
13.728
 50
270.0
 51
0.0
  0
ARC
  8
DETAIL
  6
CONTINOUS
 62
     5
 10
129.272
 20
129.272
 40
13.728
 50
360.0
 51
90.0
  0
ARC
  8
DETAIL
  6
CONTINUOUS
 62
     5
 10
129.272
 20
-129.272
 40
13.728
 50
270.0
 51
0.0
  0
LINE
  8
DETAIL
  6
CONTINUOUS
 62
     5
 10
54.912
 20
-143.0
 11
129.272
 21
-143.0
  0
ARC
  8
OUTLINE
  6
CONTINUOUS
 62
     3
 10
129.272
 20
-129.272
 40
13.728
 50
270.0
 51
0.0
  0
ARC
  8
OUTLINE
  6
CONTINOUS
 62
     3
 10
129.272
 20
129.272
 40
13.728
 50
360.0
 51
90.0
  0
ARC
  8
OUTLINE
  6
CONTINOUS
 62
     3
 10
129.272
 20
-129.272
 40
13.728
 50
270.0
 51
0.0
  0
ARC
  8
OUTLINE
  6
CONTINOUS
 62
     3
 10
-129.272
 20
-129.272
 40
13.728
 50
180.0
 51
270.0
  0
ARC
  8
OUTLINE
  6
CONTINOUS
 62
     3
 10
-129.272
 20
129.272
 40
13.728
 50
90.0
 51
180.0
  0
LINE
  8
OUTLINE
  6
CONTINOUS
 62
     3
 10
130.416
 20
-143.0
 11
-129.272
 21
-143.0
  0
LINE
  8
OUTLINE
  6
CONTINOUS
 62
     3
 10
143.0
 20
-129.272
 11
143.0
 21
129.272
  0
LINE
  8
OUTLINE
  6
CONTINOUS
 62
     3
 10
-130.416
 20
143.0
 11
129.272
 21
143.0
  0
LINE
  8
OUTLINE
  6
CONTINOUS
 62
     3
 10
-143.0
 20
-129.272
 11
-143.0
 21
129.272
  0
LINE
  8
OUTLINE
  6
CONTINUOUS
 62
     3
 10
123.552
 20
143.0
 11
-123.552
 21
143.0
  0
LINE
  8
OUTLINE
  6
CONTINUOUS
 62
     3
 10
-143.0
 20
123.552
 11
-143.0
 21
-123.552
  0
LINE
  8
OUTLINE
  6
CONTINUOUS
 62
     3
 10
143.0
 20
123.552
 11
143.0
 21
-123.552
  0
LINE
  8
DETAIL
  6
CONTINOUS
 62
     5
 10
-49.0
 20
-218.5
 11
-49.0
 21
-188.5
  0
LINE
  8
DETAIL
  6
CONTINOUS
 62
     5
 10
49.0
 20
-218.5
 11
49.0
 21
-188.5
  0
LINE
  8
DETAIL
  6
CONTINOUS
 62
     5
 10
49.0
 20
-218.5
 11
-49.0
 21
-218.5
  0
LINE
  8
DETAIL
  6
CONTINOUS
 62
     5
 10
52.5
 20
-188.5
 11
-52.5
 21
-188.5
  0
LINE
  8
DETAIL
  6
CONTINOUS
 62
     5
 10
52.5
 20
-163.5
 11
-52.5
 21
-163.5
  0
LINE
  8
DETAIL
  6
CONTINUOUS
 62
     5
 10
-52.5
 20
-188.5
 11
-52.5
 21
-163.5
  0
LINE
  8
DETAIL
  6
CONTINUOUS
 62
     5
 10
52.5
 20
-188.5
 11
52.5
 21
-163.5
  0
LINE
  8
DETAIL
  6
CONTINUOUS
 62
     5
 10
-63.0
 20
-151.5
 11
-52.5
 21
-163.5
  0
LINE
  8
DETAIL
  6
CONTINUOUS
 62
     5
 10
63.0
 20
-151.5
 11
52.5
 21
-163.5
  0
TEXT
  8
NOTE
  6
CONTINUOUS
 62
     4
 10
-43.163889
 20
-333.908295
 40
64.0
  1
EA
 41
0.9
  0
LINE
  8
SIZE
  6
CONTINUOUS
 62
     8
 10
62.5
 20
-385.183352
 11
259.235339
 21
-385.183352
  0
LINE
  8
SIZE
  6
CONTINUOUS
 62
     8
 10
53.0
 20
-528.558602
 11
250.199831
 21
-528.558602
  0
LINE
  8
SIZE
  6
CONTINUOUS
 62
     8
 10
56.5
 20
-669.477967
 11
284.445218
 21
-669.477967
  0
LINE
  8
SIZE
  6
CONTINUOUS
 62
     8
 10
-104.24861
 20
-222.5
 11
-104.24861
 21
-351.342458
  0
LINE
  8
SIZE
  6
CONTINUOUS
 62
     8
 10
-225.658141
 20
-222.5
 11
-225.658141
 21
-351.342458
  0
LINE
  8
DETAIL
  6
CONTINOUS
 62
     5
 10
-63.0
 20
-151.5
 11
-63.0
 21
-143.0
  0
LINE
  8
DETAIL
  6
CONTINOUS
 62
     5
 10
63.0
 20
-151.5
 11
63.0
 21
-143.0
  0
LINE
  8
NOTE
  6
CONTINUOUS
 62
     4
 10
83.0
 20
-81.0
 11
199.659601
 21
-266.209841
  0
TEXT
  8
NOTE
  6
CONTINUOUS
 62
     4
 10
215.268697
 20
-241.958078
 40
64.0
  1
EL
 41
0.9
  0
LINE
  8
NOTE
  6
CONTINUOUS
 62
     4
 10
199.659601
 20
-266.209841
 11
310.444448
 21
-266.209841
  0
LINE
  8
SIZE
  6
CONTINUOUS
 62
     8
 10
423.052667
 20
-79.0
 11
423.052667
 21
-210.52812
  0
POINT
  8
ARRANGE
  6
CONTINUOUS
 62
     1
 10
0.0
 20
0.0
  0
CIRCLE
  8
ARRANGE
  6
CONTINUOUS
 62
     1
 10
0.0
 20
0.0
 40
40.0
  0
LINE
  8
SERVICESPACE
  6
DASHDOT
 62
     2
 10
107.5
 20
107.5
 11
-107.5
 21
107.5
  0
LINE
  8
SERVICESPACE
  6
DASHDOT
 62
     2
 10
107.5
 20
-107.5
 11
-107.5
 21
-107.5
  0
LINE
  8
SERVICESPACE
  6
DASHDOT
 62
     2
 10
-107.5
 20
107.5
 11
-107.5
 21
-107.5
  0
LINE
  8
SERVICESPACE
  6
DASHDOT
 62
     2
 10
107.5
 20
107.5
 11
107.5
 21
-107.5
  0
LINE
  8
SERVICESPACE
  6
DASHDOT
 62
     2
 10
-107.5
 20
107.5
 11
107.5
 21
-107.5
  0
LINE
  8
SERVICESPACE
  6
DASHDOT
 62
     2
 10
107.5
 20
107.5
 11
-107.5
 21
-107.5
  0
TEXT
  8
NOTE
  6
CONTINUOUS
 62
     4
 10
-605.771123
 20
-220.311469
 40
64.0
  1
天井開口寸法
 50
90.0
 41
0.9
  0
LINE
  8
SIZE
  6
CONTINUOUS
 62
     8
 10
-349.759654
 20
-222.5
 11
-349.759654
 21
-466.471741
  0
LINE
  8
SIZE
  6
BYBLOCK
 62
     8
 10
-150.416
 20
143.0
 11
-493.226988
 21
143.0
  0
LINE
  8
SIZE
  6
BYBLOCK
 62
     8
 10
-69.0
 20
-218.5
 11
-493.226988
 21
-218.5
  0
LINE
  8
SIZE
  6
BYBLOCK
 62
     8
 10
-463.226988
 20
141.0
 11
-463.226988
 21
-37.75
  0
LINE
  8
SIZE
  6
BYBLOCK
 62
     8
 10
-463.226988
 20
-216.5
 11
-463.226988
 21
-37.75
  0
TEXT
  8
SIZE
  6
BYBLOCK
 62
     8
 10
-495.226988
 20
-151.914591
 40
64.0
  1
361.5
 50
90.0
 41
0.9
  0
LINE
  8
SIZE
  6
BYBLOCK
 62
     8
 10
-220.0
 20
0.0
 11
-379.759654
 21
0.0
  0
LINE
  8
SIZE
  6
BYBLOCK
 62
     8
 10
-69.0
 20
-218.5
 11
-379.759654
 21
-218.5
  0
LINE
  8
SIZE
  6
BYBLOCK
 62
     8
 10
-349.759654
 20
-220.5
 11
-349.759654
 21
-222.5
  0
LINE
  8
SIZE
  6
BYBLOCK
 62
     8
 10
-349.759654
 20
2.0
 11
-349.759654
 21
4.0
  0
LINE
  8
SIZE
  6
BYBLOCK
 62
     8
 10
-349.759654
 20
-218.5
 11
-349.759654
 21
0.0
  0
TEXT
  8
SIZE
  6
BYBLOCK
 62
     8
 10
-381.759654
 20
-459.280754
 40
64.0
  1
218.5
 50
90.0
 41
0.9
  0
LINE
  8
SIZE
  6
BYBLOCK
 62
     8
 10
-127.5
 20
107.5
 11
-728.686591
 21
107.5
  0
LINE
  8
SIZE
  6
BYBLOCK
 62
     8
 10
-127.5
 20
-107.5
 11
-728.686591
 21
-107.5
  0
LINE
  8
SIZE
  6
BYBLOCK
 62
     8
 10
-698.686591
 20
105.5
 11
-698.686591
 21
0.0
  0
LINE
  8
SIZE
  6
BYBLOCK
 62
     8
 10
-698.686591
 20
-105.5
 11
-698.686591
 21
0.0
  0
TEXT
  8
SIZE
  6
BYBLOCK
 62
     8
 10
-730.686591
 20
-101.211429
 40
64.0
  1
□215
 50
90.0
 41
0.9
  0
LINE
  8
SIZE
  6
BYBLOCK
 62
     8
 10
143.0
 20
143.552
 11
143.0
 21
355.040093
  0
LINE
  8
SIZE
  6
BYBLOCK
 62
     8
 10
-143.0
 20
149.272
 11
-143.0
 21
355.040093
  0
LINE
  8
SIZE
  6
BYBLOCK
 62
     8
 10
141.0
 20
325.040093
 11
0.0
 21
325.040093
  0
LINE
  8
SIZE
  6
BYBLOCK
 62
     8
 10
-141.0
 20
325.040093
 11
0.0
 21
325.040093
  0
TEXT
  8
SIZE
  6
BYBLOCK
 62
     8
 10
-100.876015
 20
357.040093
 40
64.0
  1
□286
 41
0.9
  0
LINE
  8
SIZE
  6
BYBLOCK
 62
     8
 10
220.584362
 20
0.0
 11
453.052667
 21
0.0
  0
LINE
  8
SIZE
  6
BYBLOCK
 62
     8
 10
123.0
 20
-81.0
 11
453.052667
 21
-81.0
  0
LINE
  8
SIZE
  6
BYBLOCK
 62
     8
 10
423.052667
 20
-2.0
 11
423.052667
 21
-40.5
  0
LINE
  8
SIZE
  6
BYBLOCK
 62
     8
 10
423.052667
 20
-79.0
 11
423.052667
 21
-40.5
  0
TEXT
  8
SIZE
  6
BYBLOCK
 62
     8
 10
391.052667
 20
-180.756828
 40
64.0
  1
81
 50
90.0
 41
0.9
  0
LINE
  8
SIZE
  6
BYBLOCK
 62
     8
 10
-69.0
 20
-218.5
 11
-255.658141
 21
-218.5
  0
LINE
  8
SIZE
  6
BYBLOCK
 62
     8
 10
-72.5
 20
-163.5
 11
-255.658141
 21
-163.5
  0
LINE
  8
SIZE
  6
BYBLOCK
 62
     8
 10
-225.658141
 20
-161.5
 11
-225.658141
 21
-159.5
  0
LINE
  8
SIZE
  6
BYBLOCK
 62
     8
 10
-225.658141
 20
-220.5
 11
-225.658141
 21
-222.5
  0
LINE
  8
SIZE
  6
BYBLOCK
 62
     8
 10
-225.658141
 20
-163.5
 11
-225.658141
 21
-218.5
  0
TEXT
  8
SIZE
  6
BYBLOCK
 62
     8
 10
-257.658141
 20
-333.671753
 40
64.0
  1
55
 50
90.0
 41
0.9
  0
LINE
  8
SIZE
  6
BYBLOCK
 62
     8
 10
-69.0
 20
-218.5
 11
-134.24861
 21
-218.5
  0
LINE
  8
SIZE
  6
BYBLOCK
 62
     8
 10
-72.5
 20
-188.5
 11
-134.24861
 21
-188.5
  0
LINE
  8
SIZE
  6
BYBLOCK
 62
     8
 10
-104.24861
 20
-186.5
 11
-104.24861
 21
-184.5
  0
LINE
  8
SIZE
  6
BYBLOCK
 62
     8
 10
-104.24861
 20
-220.5
 11
-104.24861
 21
-222.5
  0
LINE
  8
SIZE
  6
BYBLOCK
 62
     8
 10
-104.24861
 20
-188.5
 11
-104.24861
 21
-218.5
  0
TEXT
  8
SIZE
  6
BYBLOCK
 62
     8
 10
-136.24861
 20
-336.205007
 40
64.0
  1
30
 50
90.0
 41
0.9
  0
LINE
  8
SIZE
  6
BYBLOCK
 62
     8
 10
52.5
 20
-208.5
 11
52.5
 21
-699.477967
  0
LINE
  8
SIZE
  6
BYBLOCK
 62
     8
 10
-52.5
 20
-208.5
 11
-52.5
 21
-699.477967
  0
LINE
  8
SIZE
  6
BYBLOCK
 62
     8
 10
-54.5
 20
-669.477967
 11
-56.5
 21
-669.477967
  0
LINE
  8
SIZE
  6
BYBLOCK
 62
     8
 10
54.5
 20
-669.477967
 11
56.5
 21
-669.477967
  0
LINE
  8
SIZE
  6
BYBLOCK
 62
     8
 10
-52.5
 20
-669.477967
 11
52.5
 21
-669.477967
  0
TEXT
  8
SIZE
  6
BYBLOCK
 62
     8
 10
69.941747
 20
-637.477967
 40
64.0
  1
φ105
 41
0.9
  0
LINE
  8
SIZE
  6
BYBLOCK
 62
     8
 10
49.0
 20
-238.5
 11
49.0
 21
-558.558602
  0
LINE
  8
SIZE
  6
BYBLOCK
 62
     8
 10
-49.0
 20
-238.5
 11
-49.0
 21
-558.558602
  0
LINE
  8
SIZE
  6
BYBLOCK
 62
     8
 10
-51.0
 20
-528.558602
 11
-53.0
 21
-528.558602
  0
LINE
  8
SIZE
  6
BYBLOCK
 62
     8
 10
51.0
 20
-528.558602
 11
53.0
 21
-528.558602
  0
LINE
  8
SIZE
  6
BYBLOCK
 62
     8
 10
-49.0
 20
-528.558602
 11
49.0
 21
-528.558602
  0
TEXT
  8
SIZE
  6
BYBLOCK
 62
     8
 10
71.337372
 20
-496.558602
 40
64.0
  1
φ98
 41
0.9
  0
LINE
  8
SIZE
  6
BYBLOCK
 62
     8
 10
0.0
 20
-277.024365
 11
0.0
 21
-415.183352
  0
LINE
  8
SIZE
  6
BYBLOCK
 62
     8
 10
83.0
 20
-121.0
 11
83.0
 21
-415.183352
  0
LINE
  8
SIZE
  6
BYBLOCK
 62
     8
 10
85.0
 20
-385.183352
 11
87.0
 21
-385.183352
  0
LINE
  8
SIZE
  6
BYBLOCK
 62
     8
 10
-2.0
 20
-385.183352
 11
-4.0
 21
-385.183352
  0
LINE
  8
SIZE
  6
BYBLOCK
 62
     8
 10
83.0
 20
-385.183352
 11
0.0
 21
-385.183352
  0
TEXT
  8
SIZE
  6
BYBLOCK
 62
     8
 10
119.049086
 20
-353.183352
 40
64.0
  1
83
 41
0.9
  0
CIRCLE
  8
SIZE
  6
CONTINUOUS
 62
     8
 10
0.0
 20
-385.183352
 40
6.0
  0
CIRCLE
  8
SIZE
  6
CONTINUOUS
 62
     8
 10
83.0
 20
-385.183352
 40
6.0
  0
CIRCLE
  8
SIZE
  6
CONTINUOUS
 62
     8
 10
49.0
 20
-528.558602
 40
6.0
  0
CIRCLE
  8
SIZE
  6
CONTINUOUS
 62
     8
 10
-49.0
 20
-528.558602
 40
6.0
  0
CIRCLE
  8
SIZE
  6
CONTINUOUS
 62
     8
 10
52.5
 20
-669.477967
 40
6.0
  0
CIRCLE
  8
SIZE
  6
CONTINUOUS
 62
     8
 10
-52.5
 20
-669.477967
 40
6.0
  0
CIRCLE
  8
SIZE
  6
CONTINUOUS
 62
     8
 10
-104.24861
 20
-218.5
 40
6.0
  0
CIRCLE
  8
SIZE
  6
CONTINUOUS
 62
     8
 10
-104.24861
 20
-188.5
 40
6.0
  0
CIRCLE
  8
SIZE
  6
CONTINUOUS
 62
     8
 10
-225.658141
 20
-218.5
 40
6.0
  0
CIRCLE
  8
SIZE
  6
CONTINUOUS
 62
     8
 10
-225.658141
 20
-163.5
 40
6.0
  0
CIRCLE
  8
SIZE
  6
CONTINUOUS
 62
     8
 10
423.052667
 20
-81.0
 40
6.0
  0
CIRCLE
  8
SIZE
  6
CONTINUOUS
 62
     8
 10
423.052667
 20
0.0
 40
6.0
  0
CIRCLE
  8
SIZE
  6
CONTINUOUS
 62
     8
 10
-143.0
 20
325.040093
 40
6.0
  0
CIRCLE
  8
SIZE
  6
CONTINUOUS
 62
     8
 10
143.0
 20
325.040093
 40
6.0
  0
CIRCLE
  8
SIZE
  6
CONTINUOUS
 62
     8
 10
-698.686591
 20
-107.5
 40
6.0
  0
CIRCLE
  8
SIZE
  6
CONTINUOUS
 62
     8
 10
-698.686591
 20
107.5
 40
6.0
  0
CIRCLE
  8
SIZE
  6
CONTINUOUS
 62
     8
 10
-349.759654
 20
0.0
 40
6.0
  0
CIRCLE
  8
SIZE
  6
CONTINUOUS
 62
     8
 10
-349.759654
 20
-218.5
 40
6.0
  0
CIRCLE
  8
SIZE
  6
CONTINUOUS
 62
     8
 10
-463.226988
 20
-218.5
 40
6.0
  0
CIRCLE
  8
SIZE
  6
CONTINUOUS
 62
     8
 10
-463.226988
 20
143.0
 40
6.0
  0
POLYLINE
  8
NOTE
  6
CONTINUOUS
 62
     4
 66
     1
  0
VERTEX
  8
NOTE
  6
CONTINUOUS
 62
     4
 10
112.681359
 20
-107.814491
 50
122.904968
  0
VERTEX
  8
NOTE
  6
CONTINUOUS
 62
     4
 10
83.0
 20
-81.0
 50
122.904968
  0
VERTEX
  8
NOTE
  6
CONTINUOUS
 62
     4
 10
95.297565
 20
-119.06271
 50
122.904968
  0
SEQEND
  8
NOTE
  6
CONTINUOUS
 62
     4
  0
LINE
  8
NOTE
  6
CONTINUOUS
 62
     4
 10
83.0
 20
-61.0
 11
83.0
 21
-101.0
  0
LINE
  8
NOTE
  6
CONTINUOUS
 62
     4
 10
63.0
 20
-81.0
 11
103.0
 21
-81.0
  0
ENDSEC
  0
EOF
