  0
SECTION
  2
HEADER
  9
$ACADVER
  1
AC1006
  9
$INSBASE
 10
0.0
 20
0.0
 30
0.0
  9
$EXTMIN
 10
-817.566234
 20
-930.162642
  9
$EXTMAX
 10
1288.225866
 20
1021.91574
  9
$LIMMIN
 10
-2970.0
 20
-2100.0
  9
$LIMMAX
 10
2970.0
 20
2100.0
  9
$ORTHOMODE
 70
     1
  9
$REGENMODE
 70
     0
  9
$FILLMODE
 70
     1
  9
$QTEXTMODE
 70
     0
  9
$MIRRTEXT
 70
     0
  9
$DRAGMODE
 70
     2
  9
$LTSCALE
 40
20.0
  9
$OSMODE
 70
     0
  9
$ATTMODE
 70
     1
  9
$TEXTSIZE
 40
64.0
  9
$TRACEWID
 40
0.05
  9
$TEXTSTYLE
  7
STANDARD
  9
$CLAYER
  8
0
  9
$CELTYPE
  6
CONTINUOUS
  9
$CECOLOR
 62
     1
  9
$DIMSCALE
 40
1.0
  9
$DIMASZ
 40
2.0
  9
$DIMEXO
 40
20.0
  9
$DIMDLI
 40
200.0
  9
$DIMRND
 40
0.0
  9
$DIMDLE
 40
0.0
  9
$DIMEXE
 40
30.0
  9
$DIMTP
 40
0.0
  9
$DIMTM
 40
0.0
  9
$DIMTXT
 40
64.0
  9
$DIMCEN
 40
0.09
  9
$DIMTSZ
 40
0.0
  9
$DIMTOL
 70
     0
  9
$DIMLIM
 70
     0
  9
$DIMTIH
 70
     0
  9
$DIMTOH
 70
     0
  9
$DIMSE1
 70
     0
  9
$DIMSE2
 70
     0
  9
$DIMTAD
 70
     1
  9
$DIMZIN
 70
     8
  9
$DIMBLK
  1
DOT1
  9
$DIMASO
 70
     1
  9
$DIMSHO
 70
     0
  9
$DIMPOST
  1

  9
$DIMAPOST
  1

  9
$DIMALT
 70
     0
  9
$DIMALTD
 70
     2
  9
$DIMALTF
 40
25.4
  9
$DIMLFAC
 40
1.0
  9
$DIMTOFL
 70
     1
  9
$DIMTVP
 40
0.0
  9
$DIMTIX
 70
     1
  9
$DIMSOXD
 70
     0
  9
$DIMSAH
 70
     0
  9
$DIMBLK1
  1

  9
$DIMBLK2
  1

  9
$LUNITS
 70
     2
  9
$LUPREC
 70
     4
  9
$AXISMODE
 70
     0
  9
$AXISUNIT
 10
0.0
 20
0.0
  9
$SKETCHINC
 40
0.1
  9
$FILLETRAD
 40
0.0
  9
$AUNITS
 70
     1
  9
$AUPREC
 70
     3
  9
$MENU
  1
ACAD
  9
$ELEVATION
 40
0.0
  9
$THICKNESS
 40
0.0
  9
$LIMCHECK
 70
     0
  9
$BLIPMODE
 70
     0
  9
$CHAMFERA
 40
0.0
  9
$CHAMFERB
 40
0.0
  9
$SKPOLY
 70
     0
  9
$TDCREATE
 40
2450702.6417013891
  9
$TDUPDATE
 40
2451695.5759259257
  9
$TDINDWG
 40
0.0058101852
  9
$TDUSRTIMER
 40
0.0058101852
  9
$USRTIMER
 70
     1
  9
$ANGBASE
 50
0.0
  9
$ANGDIR
 70
     0
  9
$PDMODE
 70
     3
  9
$PDSIZE
 40
-2.0
  9
$PLINEWID
 40
0.0
  9
$COORDS
 70
     2
  9
$SPLFRAME
 70
     0
  9
$SPLINETYPE
 70
     6
  9
$SPLINESEGS
 70
     8
  9
$ATTDIA
 70
     0
  9
$ATTREQ
 70
     1
  9
$HANDLING
 70
     0
  9
$HANDSEED
  5
0
  9
$SURFTAB1
 70
     6
  9
$SURFTAB2
 70
     6
  9
$SURFTYPE
 70
     6
  9
$SURFU
 70
     6
  9
$SURFV
 70
     6
  9
$FLATLAND
 70
     1
  9
$UCSNAME
  2

  9
$UCSORG
 10
0.0
 20
0.0
 30
0.0
  9
$UCSXDIR
 10
1.0
 20
0.0
 30
0.0
  9
$UCSYDIR
 10
0.0
 20
1.0
 30
0.0
  9
$USERI1
 70
     0
  9
$USERI2
 70
     0
  9
$USERI3
 70
     0
  9
$USERI4
 70
     0
  9
$USERI5
 70
     0
  9
$USERR1
 40
20.0
  9
$USERR2
 40
0.0
  9
$USERR3
 40
0.0
  9
$USERR4
 40
0.0
  9
$USERR5
 40
0.0
  9
$WORLDVIEW
 70
     1
  9
$VIEWCTR
 10
-0.0
 20
41.309904
  9
$VIEWSIZE
 40
4282.619808
  9
$SNAPMODE
 70
     0
  9
$SNAPUNIT
 10
50.0
 20
50.0
  9
$SNAPBASE
 10
0.0
 20
0.0
  9
$SNAPANG
 50
0.0
  9
$SNAPSTYLE
 70
     0
  9
$SNAPISOPAIR
 70
     0
  9
$GRIDMODE
 70
     0
  9
$GRIDUNIT
 10
100.0
 20
100.0
  9
$FASTZOOM
 70
     1
  9
$VIEWDIR
 10
0.0
 20
0.0
 30
1.0
  0
ENDSEC
  0
SECTION
  2
TABLES
  0
TABLE
  2
VPORT
 70
     2
  0
VPORT
  2
*ACTIVE
 70
     0
 10
0.0
 20
0.0
 11
1.0
 21
1.0
 12
-0.0
 22
41.309904
 13
0.0
 23
0.0
 14
50.0
 24
50.0
 15
100.0
 25
100.0
 16
0.0
 26
0.0
 36
1.0
 17
0.0
 27
0.0
 37
0.0
 40
4282.619808
 41
1.387001
 42
50.0
 43
0.0
 44
0.0
 50
0.0
 51
0.0
 71
     0
 72
  1000
 73
     1
 74
     0
 75
     0
 76
     0
 77
     0
 78
     0
  0
ENDTAB
  0
TABLE
  2
LTYPE
 70
     7
  0
LTYPE
  2
CONTINUOUS
 70
    64
  3
実線
 72
    65
 73
     0
 40
0.0
  0
LTYPE
  2
DASHDOT
 70
    64
  3
____ _ ____ _ ____ _ ____ _ ____ _ ____ _ ____
 72
    65
 73
     4
 40
5.5
 49
4.0
 49
-0.6
 49
0.3
 49
-0.6
  0
LTYPE
  2
DASHED
 70
    64
  3
_ _ _ _ _ _ _ _ _ _ _ _ _ _ _ _ _ _ _ _ _ _ _
 72
    65
 73
     2
 40
2.0
 49
1.2
 49
-0.8
  0
LTYPE
  2
DOT
 70
    64
  3
...............................................
 72
    65
 73
     2
 40
0.8
 49
0.5
 49
-0.3
  0
LTYPE
  2
DASHDOT1
 70
    64
  3
____ _ ____ _ ____ _ ____ _ ____ _ ____ _ ____
 72
    65
 73
     4
 40
2.0
 49
1.5
 49
-0.2
 49
0.1
 49
-0.2
  0
LTYPE
  2
DIVIDE
 70
    64
  3
_____ _ _ _____ _ _ _____ _ _ _____ _ _ ____
 72
    65
 73
     6
 40
6.4
 49
4.0
 49
-0.6
 49
0.3
 49
-0.6
 49
0.3
 49
-0.6
  0
LTYPE
  2
DIVIDE1
 70
    64
  3
_____ _ _ _____ _ _ _____ _ _ _____ _ _ ____
 72
    65
 73
     6
 40
3.2
 49
2.0
 49
-0.3
 49
0.15
 49
-0.3
 49
0.15
 49
-0.3
  0
ENDTAB
  0
TABLE
  2
LAYER
 70
    12
  0
LAYER
  2
0
 70
     0
 62
     7
  6
CONTINUOUS
  0
LAYER
  2
OUTLINE
 70
    64
 62
     7
  6
CONTINUOUS
  0
LAYER
  2
DETAIL
 70
    64
 62
     7
  6
CONTINUOUS
  0
LAYER
  2
BASIS
 70
    64
 62
     7
  6
CONTINUOUS
  0
LAYER
  2
NOTE
 70
    64
 62
     7
  6
CONTINUOUS
  0
LAYER
  2
DEFPOINTS
 70
     0
 62
     7
  6
CONTINUOUS
  0
LAYER
  2
SIZE
 70
    64
 62
     7
  6
CONTINUOUS
  0
LAYER
  2
ARRANGE
 70
    64
 62
     7
  6
CONTINUOUS
  0
LAYER
  2
FIX
 70
    64
 62
     7
  6
CONTINUOUS
  0
LAYER
  2
ETC
 70
    64
 62
     7
  6
CONTINUOUS
  0
LAYER
  2
SERVICESPACE
 70
     0
 62
     7
  6
CONTINUOUS
  0
LAYER
  2
SYMBOLLINE
 70
     0
 62
     7
  6
CONTINUOUS
  0
ENDTAB
  0
TABLE
  2
STYLE
 70
     1
  0
STYLE
  2
STANDARD
 70
    64
 40
0.0
 41
0.9
 50
0.0
 71
     0
 42
64.0
  3
SIMPLEX
  4
BIGFONT
  0
ENDTAB
  0
TABLE
  2
VIEW
 70
     1
  0
VIEW
  2
ALL
 70
     0
 40
4282.619808
 10
-0.0
 20
41.309904
 41
5940.0
 11
0.0
 21
0.0
 31
1.0
 12
0.0
 22
0.0
 32
0.0
 42
50.0
 43
0.0
 44
0.0
 50
0.0
 71
     0
  0
ENDTAB
  0
TABLE
  2
UCS
 70
     0
  0
ENDTAB
  0
TABLE
  2
DWGMGR
 70
     0
  0
ENDTAB
  0
ENDSEC
  0
SECTION
  2
BLOCKS
  0
ENDSEC
  0
SECTION
  2
ENTITIES
  0
LINE
  8
BASIS
  6
DASHDOT
 62
     6
 10
0.0
 20
-520.034429
 11
0.0
 21
72.785488
  0
LINE
  8
NOTE
  6
CONTINUOUS
 62
     4
 10
-200.0
 20
-255.0
 11
-200.0
 21
-295.0
  0
LINE
  8
NOTE
  6
CONTINUOUS
 62
     4
 10
-219.827008
 20
-275.0
 11
-180.0
 21
-275.0
  0
LINE
  8
NOTE
  6
CONTINUOUS
 62
     4
 10
-120.0
 20
-275.0
 11
-80.0
 21
-275.0
  0
LINE
  8
NOTE
  6
CONTINUOUS
 62
     4
 10
-100.0
 20
-255.0
 11
-100.0
 21
-295.0
  0
LINE
  8
NOTE
  6
CONTINUOUS
 62
     4
 10
-20.0
 20
-280.0
 11
20.0
 21
-280.0
  0
LINE
  8
NOTE
  6
CONTINUOUS
 62
     4
 10
0.0
 20
-260.0
 11
0.0
 21
-300.0
  0
LINE
  8
NOTE
  6
CONTINUOUS
 62
     4
 10
80.0
 20
-275.0
 11
120.0
 21
-275.0
  0
LINE
  8
NOTE
  6
CONTINUOUS
 62
     4
 10
100.0
 20
-255.0
 11
100.0
 21
-295.0
  0
LINE
  8
NOTE
  6
CONTINUOUS
 62
     4
 10
180.0
 20
-275.0
 11
220.0
 21
-275.0
  0
LINE
  8
NOTE
  6
CONTINUOUS
 62
     4
 10
200.0
 20
-255.0
 11
200.0
 21
-295.0
  0
POINT
  8
ARRANGE
  6
DASHDOT
 62
     1
 10
0.0
 20
0.0
  0
LINE
  8
DETAIL
  6
CONTINUOUS
 62
     5
 10
-300.0
 20
0.0
 11
-300.0
 21
-440.0
  0
LINE
  8
DETAIL
  6
CONTINUOUS
 62
     5
 10
300.0
 20
0.0
 11
300.0
 21
-440.0
  0
LINE
  8
DETAIL
  6
CONTINUOUS
 62
     5
 10
-300.0
 20
0.0
 11
300.0
 21
0.0
  0
LINE
  8
DETAIL
  6
CONTINUOUS
 62
     5
 10
-300.0
 20
-440.0
 11
300.0
 21
-440.0
  0
CIRCLE
  8
ARRANGE
  6
CONTINUOUS
 62
     1
 10
0.0
 20
0.0
 40
40.0
  0
LINE
  8
OUTLINE
  6
CONTINUOUS
 62
     3
 10
-300.0
 20
0.0
 11
300.0
 21
0.0
  0
LINE
  8
OUTLINE
  6
CONTINUOUS
 62
     3
 10
-300.0
 20
0.0
 11
-300.0
 21
-440.0
  0
LINE
  8
OUTLINE
  6
CONTINUOUS
 62
     3
 10
300.0
 20
0.0
 11
300.0
 21
-440.0
  0
LINE
  8
OUTLINE
  6
CONTINUOUS
 62
     3
 10
-300.0
 20
-440.0
 11
300.0
 21
-440.0
  0
TEXT
  8
ETC
  6
CONTINUOUS
 62
    10
 10
625.689165
 20
205.136187
 40
64.0
  1
V3036
 41
0.9
  0
CIRCLE
  8
FIX
  6
CONTINUOUS
 62
     9
 10
-200.0
 20
-275.0
 40
12.5
  0
CIRCLE
  8
FIX
  6
CONTINUOUS
 62
     9
 10
-100.0
 20
-275.0
 40
12.5
  0
CIRCLE
  8
FIX
  6
CONTINUOUS
 62
     9
 10
100.0
 20
-275.0
 40
12.5
  0
CIRCLE
  8
FIX
  6
CONTINUOUS
 62
     9
 10
200.0
 20
-275.0
 40
12.5
  0
LINE
  8
NOTE
  6
CONTINUOUS
 62
     4
 10
-0.0
 20
-280.0
 11
250.525349
 21
-833.933982
  0
LINE
  8
NOTE
  6
CONTINUOUS
 62
     4
 10
-200.0
 20
-275.0
 11
-446.446285
 21
-676.35821
  0
LINE
  8
NOTE
  6
CONTINUOUS
 62
     4
 10
-446.446285
 20
-676.35821
 11
-100.0
 21
-275.0
  0
LINE
  8
NOTE
  6
CONTINUOUS
 62
     4
 10
-446.446285
 20
-676.35821
 11
-620.895236
 21
-676.35821
  0
LINE
  8
NOTE
  6
CONTINUOUS
 62
     4
 10
250.525349
 20
-833.933982
 11
399.330788
 21
-833.933982
  0
LINE
  8
NOTE
  6
CONTINUOUS
 62
     4
 10
100.0
 20
-275.0
 11
304.276382
 21
-696.756111
  0
LINE
  8
NOTE
  6
CONTINUOUS
 62
     4
 10
304.276382
 20
-696.756111
 11
496.483201
 21
-696.756111
  0
LINE
  8
NOTE
  6
CONTINUOUS
 62
     4
 10
200.0
 20
-275.0
 11
360.723738
 21
-578.118785
  0
LINE
  8
NOTE
  6
CONTINUOUS
 62
     4
 10
360.723738
 20
-578.118785
 11
845.953339
 21
-578.118785
  0
TEXT
  8
NOTE
  6
CONTINUOUS
 62
     4
 10
-575.92022
 20
-656.460053
 40
64.0
  1
AH
 41
0.9
  0
TEXT
  8
NOTE
  6
CONTINUOUS
 62
     4
 10
334.839492
 20
-677.353948
 40
64.0
  1
AH
 41
0.9
  0
TEXT
  8
NOTE
  6
CONTINUOUS
 62
     4
 10
376.43669
 20
-559.632059
 40
64.0
  1
AH 4-φ25
 41
0.9
  0
TEXT
  8
NOTE
  6
CONTINUOUS
 62
     4
 10
275.727684
 20
-815.52861
 40
64.0
  1
EL
 41
0.9
  0
LINE
  8
NOTE
  6
CONTINUOUS
 62
     4
 10
-200.0
 20
0.0
 11
-449.045869
 21
245.555642
  0
LINE
  8
NOTE
  6
CONTINUOUS
 62
     4
 10
-449.045869
 20
245.555642
 11
-817.566234
 21
245.555642
  0
TEXT
  8
NOTE
  6
CONTINUOUS
 62
     4
 10
-761.967773
 20
273.970343
 40
64.0
  1
2-φ6
 41
0.9
  0
LINE
  8
DETAIL
  6
CONTINUOUS
 62
     5
 10
-300.0
 20
-390.0
 11
300.0
 21
-390.0
  0
LINE
  8
SIZE
  6
CONTINUOUS
 62
     8
 10
560.001849
 20
-390.0
 11
560.001849
 21
-245.757466
  0
LINE
  8
SIZE
  6
BYBLOCK
 62
     8
 10
-200.0
 20
40.0
 11
-200.0
 21
124.299529
  0
LINE
  8
SIZE
  6
BYBLOCK
 62
     8
 10
200.0
 20
40.0
 11
200.0
 21
124.299529
  0
LINE
  8
SIZE
  6
BYBLOCK
 62
     8
 10
-198.0
 20
94.299529
 11
0.0
 21
94.299529
  0
LINE
  8
SIZE
  6
BYBLOCK
 62
     8
 10
198.0
 20
94.299529
 11
0.0
 21
94.299529
  0
TEXT
  8
SIZE
  6
BYBLOCK
 62
     8
 10
-74.057143
 20
126.299529
 40
64.0
  1
400
 41
0.9
  0
LINE
  8
SIZE
  6
BYBLOCK
 62
     8
 10
320.0
 20
-440.0
 11
590.001849
 21
-440.0
  0
LINE
  8
SIZE
  6
BYBLOCK
 62
     8
 10
320.0
 20
-390.0
 11
590.001849
 21
-390.0
  0
LINE
  8
SIZE
  6
BYBLOCK
 62
     8
 10
560.001849
 20
-388.0
 11
560.001849
 21
-386.0
  0
LINE
  8
SIZE
  6
BYBLOCK
 62
     8
 10
560.001849
 20
-442.0
 11
560.001849
 21
-444.0
  0
LINE
  8
SIZE
  6
BYBLOCK
 62
     8
 10
560.001849
 20
-390.0
 11
560.001849
 21
-440.0
  0
TEXT
  8
SIZE
  6
BYBLOCK
 62
     8
 10
528.001849
 20
-355.670841
 40
64.0
  1
50
 50
90.0
 41
0.9
  0
LINE
  8
SIZE
  6
BYBLOCK
 62
     8
 10
-320.0
 20
0.0
 11
-592.847024
 21
0.0
  0
LINE
  8
SIZE
  6
BYBLOCK
 62
     8
 10
-320.0
 20
-440.0
 11
-592.847024
 21
-440.0
  0
LINE
  8
SIZE
  6
BYBLOCK
 62
     8
 10
-562.847024
 20
-2.0
 11
-562.847024
 21
-438.0
  0
TEXT
  8
SIZE
  6
BYBLOCK
 62
     8
 10
-594.847024
 20
-294.057143
 40
64.0
  1
440
 50
90.0
 41
0.9
  0
LINE
  8
SIZE
  6
BYBLOCK
 62
     8
 10
300.0
 20
20.0
 11
300.0
 21
256.466785
  0
LINE
  8
SIZE
  6
BYBLOCK
 62
     8
 10
-300.0
 20
20.0
 11
-300.0
 21
256.466785
  0
LINE
  8
SIZE
  6
BYBLOCK
 62
     8
 10
298.0
 20
226.466785
 11
0.0
 21
226.466785
  0
LINE
  8
SIZE
  6
BYBLOCK
 62
     8
 10
-298.0
 20
226.466785
 11
0.0
 21
226.466785
  0
TEXT
  8
SIZE
  6
BYBLOCK
 62
     8
 10
-74.057143
 20
249.978861
 40
64.0
  1
600
 41
0.9
  0
LINE
  8
SIZE
  6
BYBLOCK
 62
     8
 10
-320.0
 20
0.0
 11
-462.278229
 21
0.0
  0
LINE
  8
SIZE
  6
BYBLOCK
 62
     8
 10
-239.827008
 20
-275.0
 11
-462.278229
 21
-275.0
  0
LINE
  8
SIZE
  6
BYBLOCK
 62
     8
 10
-432.278229
 20
-2.0
 11
-432.278229
 21
-273.0
  0
TEXT
  8
SIZE
  6
BYBLOCK
 62
     8
 10
-464.278229
 20
-211.557143
 40
64.0
  1
275
 50
90.0
 41
0.9
  0
LINE
  8
SIZE
  6
BYBLOCK
 62
     8
 10
-100.0
 20
-315.0
 11
-100.0
 21
-738.931084
  0
LINE
  8
SIZE
  6
BYBLOCK
 62
     8
 10
100.0
 20
-315.0
 11
100.0
 21
-738.931084
  0
LINE
  8
SIZE
  6
BYBLOCK
 62
     8
 10
-98.0
 20
-708.931084
 11
98.0
 21
-708.931084
  0
TEXT
  8
SIZE
  6
BYBLOCK
 62
     8
 10
-74.057143
 20
-676.931084
 40
64.0
  1
200
 41
0.9
  0
LINE
  8
SIZE
  6
BYBLOCK
 62
     8
 10
-200.0
 20
-315.0
 11
-200.0
 21
-858.083794
  0
LINE
  8
SIZE
  6
BYBLOCK
 62
     8
 10
200.0
 20
-315.0
 11
200.0
 21
-858.083794
  0
LINE
  8
SIZE
  6
BYBLOCK
 62
     8
 10
-198.0
 20
-828.083794
 11
198.0
 21
-828.083794
  0
TEXT
  8
SIZE
  6
BYBLOCK
 62
     8
 10
-74.057143
 20
-796.083794
 40
64.0
  1
400
 41
0.9
  0
CIRCLE
  8
SIZE
  6
CONTINUOUS
 62
     8
 10
200.0
 20
-828.083794
 40
6.0
  0
CIRCLE
  8
SIZE
  6
CONTINUOUS
 62
     8
 10
-200.0
 20
-828.083794
 40
6.0
  0
CIRCLE
  8
SIZE
  6
CONTINUOUS
 62
     8
 10
100.0
 20
-708.931084
 40
6.0
  0
CIRCLE
  8
SIZE
  6
CONTINUOUS
 62
     8
 10
-100.0
 20
-708.931084
 40
6.0
  0
CIRCLE
  8
SIZE
  6
CONTINUOUS
 62
     8
 10
-432.278229
 20
-275.0
 40
6.0
  0
CIRCLE
  8
SIZE
  6
CONTINUOUS
 62
     8
 10
-432.278229
 20
0.0
 40
6.0
  0
CIRCLE
  8
SIZE
  6
CONTINUOUS
 62
     8
 10
-300.0
 20
226.466785
 40
6.0
  0
CIRCLE
  8
SIZE
  6
CONTINUOUS
 62
     8
 10
300.0
 20
226.466785
 40
6.0
  0
CIRCLE
  8
SIZE
  6
CONTINUOUS
 62
     8
 10
-562.847024
 20
-440.0
 40
6.0
  0
CIRCLE
  8
SIZE
  6
CONTINUOUS
 62
     8
 10
-562.847024
 20
0.0
 40
6.0
  0
CIRCLE
  8
SIZE
  6
CONTINUOUS
 62
     8
 10
560.001849
 20
-440.0
 40
6.0
  0
CIRCLE
  8
SIZE
  6
CONTINUOUS
 62
     8
 10
560.001849
 20
-390.0
 40
6.0
  0
CIRCLE
  8
SIZE
  6
CONTINUOUS
 62
     8
 10
200.0
 20
94.299529
 40
6.0
  0
CIRCLE
  8
SIZE
  6
CONTINUOUS
 62
     8
 10
-200.0
 20
94.299529
 40
6.0
  0
POLYLINE
  8
NOTE
  6
CONTINUOUS
 62
     4
 66
     1
  0
VERTEX
  8
NOTE
  6
CONTINUOUS
 62
     4
 10
-235.147072
 20
19.096684
 50
316.483156
  0
VERTEX
  8
NOTE
  6
CONTINUOUS
 62
     4
 10
-200.0
 20
0.0
 50
316.483156
  0
VERTEX
  8
NOTE
  6
CONTINUOUS
 62
     4
 10
-220.889915
 20
34.111749
 50
316.483156
  0
SEQEND
  8
NOTE
  6
CONTINUOUS
 62
     4
  0
LINE
  8
NOTE
  6
CONTINUOUS
 62
     4
 10
200.0
 20
-20.0
 11
200.0
 21
20.0
  0
LINE
  8
NOTE
  6
CONTINUOUS
 62
     4
 10
180.0
 20
0.0
 11
220.0
 21
0.0
  0
LINE
  8
NOTE
  6
CONTINUOUS
 62
     4
 10
-200.0
 20
-20.0
 11
-200.0
 21
20.0
  0
LINE
  8
NOTE
  6
CONTINUOUS
 62
     4
 10
-220.0
 20
0.0
 11
-180.0
 21
0.0
  0
POLYLINE
  8
NOTE
  6
CONTINUOUS
 62
     4
 66
     1
  0
VERTEX
  8
NOTE
  6
CONTINUOUS
 62
     4
 10
228.88406
 20
-302.671485
 50
121.228258
  0
VERTEX
  8
NOTE
  6
CONTINUOUS
 62
     4
 10
200.0
 20
-275.0
 50
121.228258
  0
VERTEX
  8
NOTE
  6
CONTINUOUS
 62
     4
 10
211.178587
 20
-313.406239
 50
121.228258
  0
SEQEND
  8
NOTE
  6
CONTINUOUS
 62
     4
  0
POLYLINE
  8
NOTE
  6
CONTINUOUS
 62
     4
 66
     1
  0
VERTEX
  8
NOTE
  6
CONTINUOUS
 62
     4
 10
127.136875
 20
-304.386902
 50
117.720446
  0
VERTEX
  8
NOTE
  6
CONTINUOUS
 62
     4
 10
100.0
 20
-275.0
 50
117.720446
  0
VERTEX
  8
NOTE
  6
CONTINUOUS
 62
     4
 10
108.807772
 20
-314.018241
 50
117.720446
  0
SEQEND
  8
NOTE
  6
CONTINUOUS
 62
     4
  0
POLYLINE
  8
NOTE
  6
CONTINUOUS
 62
     4
 66
     1
  0
VERTEX
  8
NOTE
  6
CONTINUOUS
 62
     4
 10
-117.764337
 20
-310.838922
 50
48.633691
  0
VERTEX
  8
NOTE
  6
CONTINUOUS
 62
     4
 10
-100.0
 20
-275.0
 50
48.633691
  0
VERTEX
  8
NOTE
  6
CONTINUOUS
 62
     4
 10
-133.303828
 20
-297.155249
 50
48.633691
  0
SEQEND
  8
NOTE
  6
CONTINUOUS
 62
     4
  0
POLYLINE
  8
NOTE
  6
CONTINUOUS
 62
     4
 66
     1
  0
VERTEX
  8
NOTE
  6
CONTINUOUS
 62
     4
 10
-212.119487
 20
-313.119785
 50
57.362891
  0
VERTEX
  8
NOTE
  6
CONTINUOUS
 62
     4
 10
-200.0
 20
-275.0
 50
57.362891
  0
VERTEX
  8
NOTE
  6
CONTINUOUS
 62
     4
 10
-229.555676
 20
-301.952959
 50
57.362891
  0
SEQEND
  8
NOTE
  6
CONTINUOUS
 62
     4
  0
POLYLINE
  8
NOTE
  6
CONTINUOUS
 62
     4
 66
     1
  0
VERTEX
  8
NOTE
  6
CONTINUOUS
 62
     4
 10
26.011667
 20
-310.387385
 50
115.563597
  0
VERTEX
  8
NOTE
  6
CONTINUOUS
 62
     4
 10
-0.0
 20
-280.0
 50
115.563597
  0
VERTEX
  8
NOTE
  6
CONTINUOUS
 62
     4
 10
7.333072
 20
-319.322081
 50
115.563597
  0
SEQEND
  8
NOTE
  6
CONTINUOUS
 62
     4
  0
TEXT
  8
ETC
  6
CONTINUOUS
 62
    10
 10
627.878491
 20
108.807668
 40
64.0
  1
換気扇
 41
0.9
  0
ENDSEC
  0
EOF
