  0
SECTION
  2
HEADER
  9
$ACADVER
  1
AC1006
  9
$INSBASE
 10
0.0
 20
0.0
 30
0.0
  9
$EXTMIN
 10
-508.317135
 20
-759.829757
  9
$EXTMAX
 10
1009.96657
 20
464.785545
  9
$LIMMIN
 10
-2970.0
 20
-2100.0
  9
$LIMMAX
 10
2970.0
 20
2100.0
  9
$ORTHOMODE
 70
     0
  9
$REGENMODE
 70
     0
  9
$FILLMODE
 70
     1
  9
$QTEXTMODE
 70
     0
  9
$MIRRTEXT
 70
     0
  9
$DRAGMODE
 70
     2
  9
$LTSCALE
 40
20.0
  9
$OSMODE
 70
     0
  9
$ATTMODE
 70
     1
  9
$TEXTSIZE
 40
64.0
  9
$TRACEWID
 40
0.05
  9
$TEXTSTYLE
  7
STANDARD
  9
$CLAYER
  8
0
  9
$CELTYPE
  6
CONTINUOUS
  9
$CECOLOR
 62
     4
  9
$DIMSCALE
 40
1.0
  9
$DIMASZ
 40
2.0
  9
$DIMEXO
 40
20.0
  9
$DIMDLI
 40
200.0
  9
$DIMRND
 40
0.0
  9
$DIMDLE
 40
0.0
  9
$DIMEXE
 40
30.0
  9
$DIMTP
 40
0.0
  9
$DIMTM
 40
0.0
  9
$DIMTXT
 40
64.0
  9
$DIMCEN
 40
0.09
  9
$DIMTSZ
 40
0.0
  9
$DIMTOL
 70
     0
  9
$DIMLIM
 70
     0
  9
$DIMTIH
 70
     0
  9
$DIMTOH
 70
     0
  9
$DIMSE1
 70
     0
  9
$DIMSE2
 70
     0
  9
$DIMTAD
 70
     1
  9
$DIMZIN
 70
     8
  9
$DIMBLK
  1
DOT1
  9
$DIMASO
 70
     1
  9
$DIMSHO
 70
     0
  9
$DIMPOST
  1

  9
$DIMAPOST
  1

  9
$DIMALT
 70
     0
  9
$DIMALTD
 70
     2
  9
$DIMALTF
 40
25.4
  9
$DIMLFAC
 40
1.0
  9
$DIMTOFL
 70
     1
  9
$DIMTVP
 40
0.0
  9
$DIMTIX
 70
     1
  9
$DIMSOXD
 70
     0
  9
$DIMSAH
 70
     0
  9
$DIMBLK1
  1

  9
$DIMBLK2
  1

  9
$LUNITS
 70
     2
  9
$LUPREC
 70
     4
  9
$AXISMODE
 70
     0
  9
$AXISUNIT
 10
0.0
 20
0.0
  9
$SKETCHINC
 40
0.1
  9
$FILLETRAD
 40
0.0
  9
$AUNITS
 70
     1
  9
$AUPREC
 70
     3
  9
$MENU
  1
ACAD
  9
$ELEVATION
 40
0.0
  9
$THICKNESS
 40
0.0
  9
$LIMCHECK
 70
     0
  9
$BLIPMODE
 70
     0
  9
$CHAMFERA
 40
0.0
  9
$CHAMFERB
 40
0.0
  9
$SKPOLY
 70
     0
  9
$TDCREATE
 40
2449771.6136342594
  9
$TDUPDATE
 40
2451695.5078356480
  9
$TDINDWG
 40
0.0062500000
  9
$TDUSRTIMER
 40
0.0062500000
  9
$USRTIMER
 70
     1
  9
$ANGBASE
 50
0.0
  9
$ANGDIR
 70
     0
  9
$PDMODE
 70
     3
  9
$PDSIZE
 40
-2.0
  9
$PLINEWID
 40
0.0
  9
$COORDS
 70
     0
  9
$SPLFRAME
 70
     0
  9
$SPLINETYPE
 70
     6
  9
$SPLINESEGS
 70
     8
  9
$ATTDIA
 70
     0
  9
$ATTREQ
 70
     1
  9
$HANDLING
 70
     0
  9
$HANDSEED
  5
0
  9
$SURFTAB1
 70
     6
  9
$SURFTAB2
 70
     6
  9
$SURFTYPE
 70
     6
  9
$SURFU
 70
     6
  9
$SURFV
 70
     6
  9
$FLATLAND
 70
     1
  9
$UCSNAME
  2

  9
$UCSORG
 10
0.0
 20
0.0
 30
0.0
  9
$UCSXDIR
 10
1.0
 20
0.0
 30
0.0
  9
$UCSYDIR
 10
0.0
 20
1.0
 30
0.0
  9
$USERI1
 70
     0
  9
$USERI2
 70
     0
  9
$USERI3
 70
     0
  9
$USERI4
 70
     0
  9
$USERI5
 70
     0
  9
$USERR1
 40
20.0
  9
$USERR2
 40
0.0
  9
$USERR3
 40
0.0
  9
$USERR4
 40
0.0
  9
$USERR5
 40
0.0
  9
$WORLDVIEW
 70
     1
  9
$VIEWCTR
 10
-0.0
 20
41.309904
  9
$VIEWSIZE
 40
4282.619808
  9
$SNAPMODE
 70
     0
  9
$SNAPUNIT
 10
50.0
 20
50.0
  9
$SNAPBASE
 10
0.0
 20
0.0
  9
$SNAPANG
 50
0.0
  9
$SNAPSTYLE
 70
     0
  9
$SNAPISOPAIR
 70
     0
  9
$GRIDMODE
 70
     0
  9
$GRIDUNIT
 10
130.0
 20
130.0
  9
$FASTZOOM
 70
     1
  9
$VIEWDIR
 10
0.0
 20
0.0
 30
1.0
  0
ENDSEC
  0
SECTION
  2
TABLES
  0
TABLE
  2
VPORT
 70
     2
  0
VPORT
  2
*ACTIVE
 70
     0
 10
0.0
 20
0.0
 11
1.0
 21
1.0
 12
-0.0
 22
41.309904
 13
0.0
 23
0.0
 14
50.0
 24
50.0
 15
130.0
 25
130.0
 16
0.0
 26
0.0
 36
1.0
 17
0.0
 27
0.0
 37
0.0
 40
4282.619808
 41
1.387001
 42
50.0
 43
0.0
 44
0.0
 50
0.0
 51
0.0
 71
     0
 72
   500
 73
     1
 74
     0
 75
     0
 76
     0
 77
     0
 78
     0
  0
ENDTAB
  0
TABLE
  2
LTYPE
 70
     7
  0
LTYPE
  2
CONTINUOUS
 70
    64
  3
実線
 72
    65
 73
     0
 40
0.0
  0
LTYPE
  2
DASHDOT
 70
    64
  3
____ _ ____ _ ____ _ ____ _ ____ _ ____ _ ____
 72
    65
 73
     4
 40
5.5
 49
4.0
 49
-0.6
 49
0.3
 49
-0.6
  0
LTYPE
  2
DASHED
 70
    64
  3
_ _ _ _ _ _ _ _ _ _ _ _ _ _ _ _ _ _ _ _ _ _ _
 72
    65
 73
     2
 40
2.0
 49
1.2
 49
-0.8
  0
LTYPE
  2
DOT
 70
    64
  3
...............................................
 72
    65
 73
     2
 40
0.8
 49
0.5
 49
-0.3
  0
LTYPE
  2
DASHDOT1
 70
    64
  3
____ _ ____ _ ____ _ ____ _ ____ _ ____ _ ____
 72
    65
 73
     4
 40
2.0
 49
1.5
 49
-0.2
 49
0.1
 49
-0.2
  0
LTYPE
  2
DIVIDE
 70
    64
  3
_____ _ _ _____ _ _ _____ _ _ _____ _ _ ____
 72
    65
 73
     6
 40
6.4
 49
4.0
 49
-0.6
 49
0.3
 49
-0.6
 49
0.3
 49
-0.6
  0
LTYPE
  2
DIVIDE1
 70
    64
  3
_____ _ _ _____ _ _ _____ _ _ _____ _ _ ____
 72
    65
 73
     6
 40
3.2
 49
2.0
 49
-0.3
 49
0.15
 49
-0.3
 49
0.15
 49
-0.3
  0
ENDTAB
  0
TABLE
  2
LAYER
 70
    12
  0
LAYER
  2
0
 70
     0
 62
     7
  6
CONTINUOUS
  0
LAYER
  2
OUTLINE
 70
    64
 62
     7
  6
CONTINUOUS
  0
LAYER
  2
DETAIL
 70
    64
 62
     7
  6
CONTINUOUS
  0
LAYER
  2
BASIS
 70
    64
 62
     7
  6
CONTINUOUS
  0
LAYER
  2
NOTE
 70
    64
 62
     7
  6
CONTINUOUS
  0
LAYER
  2
DEFPOINTS
 70
     0
 62
     7
  6
CONTINUOUS
  0
LAYER
  2
SIZE
 70
    64
 62
     7
  6
CONTINUOUS
  0
LAYER
  2
FIX
 70
    64
 62
     7
  6
CONTINUOUS
  0
LAYER
  2
ARRANGE
 70
    64
 62
     7
  6
CONTINUOUS
  0
LAYER
  2
ETC
 70
    64
 62
     7
  6
CONTINUOUS
  0
LAYER
  2
SERVICESPACE
 70
     0
 62
     7
  6
CONTINUOUS
  0
LAYER
  2
SYMBOLLINE
 70
     0
 62
     7
  6
CONTINUOUS
  0
ENDTAB
  0
TABLE
  2
STYLE
 70
     1
  0
STYLE
  2
STANDARD
 70
    64
 40
0.0
 41
0.9
 50
0.0
 71
     0
 42
64.0
  3
SIMPLEX
  4
BIGFONT
  0
ENDTAB
  0
TABLE
  2
VIEW
 70
     1
  0
VIEW
  2
ALL
 70
     0
 40
4282.619808
 10
-0.0
 20
41.309904
 41
5940.0
 11
0.0
 21
0.0
 31
1.0
 12
0.0
 22
0.0
 32
0.0
 42
50.0
 43
0.0
 44
0.0
 50
0.0
 71
     0
  0
ENDTAB
  0
TABLE
  2
UCS
 70
     0
  0
ENDTAB
  0
TABLE
  2
DWGMGR
 70
     0
  0
ENDTAB
  0
ENDSEC
  0
SECTION
  2
BLOCKS
  0
ENDSEC
  0
SECTION
  2
ENTITIES
  0
LINE
  8
DETAIL
  6
CONTINUOUS
 62
     5
 10
-74.0
 20
0.0
 11
-74.0
 21
20.0
  0
LINE
  8
DETAIL
  6
CONTINUOUS
 62
     5
 10
74.0
 20
0.0
 11
74.0
 21
20.0
  0
LINE
  8
DETAIL
  6
CONTINUOUS
 62
     5
 10
-74.0
 20
20.0
 11
74.0
 21
20.0
  0
POINT
  8
ARRANGE
  6
CONTINUOUS
 62
     1
 10
0.0
 20
0.0
  0
LINE
  8
NOTE
  6
CONTINUOUS
 62
     4
 10
23.857495
 20
87.095421
 11
118.660219
 21
87.095421
  0
LINE
  8
NOTE
  6
CONTINUOUS
 62
     4
 10
180.5
 20
-25.0
 11
118.660219
 21
87.095421
  0
TEXT
  8
NOTE
  6
CONTINUOUS
 62
     4
 10
27.523159
 20
99.095554
 40
64.0
  1
EL
 41
0.9
  0
LINE
  8
BASIS
  6
DASHDOT
 62
     6
 10
326.811838
 20
-140.0
 11
-311.631009
 21
-140.0
  0
LINE
  8
BASIS
  6
DASHDOT
 62
     6
 10
0.0
 20
-381.214455
 11
0.0
 21
110.387027
  0
LINE
  8
DETAIL
  6
CONTINUOUS
 62
     5
 10
173.941125
 20
-5.0
 11
173.941125
 21
0.0
  0
LINE
  8
DETAIL
  6
CONTINUOUS
 62
     5
 10
-173.941126
 20
-5.0
 11
-173.941126
 21
0.0
  0
LINE
  8
DETAIL
  6
CONTINUOUS
 62
     5
 10
140.0
 20
-306.0
 11
140.0
 21
-5.0
  0
LINE
  8
DETAIL
  6
CONTINUOUS
 62
     5
 10
-140.0
 20
-306.0
 11
-140.0
 21
-5.0
  0
LINE
  8
DETAIL
  6
CONTINUOUS
 62
     5
 10
65.0
 20
-25.0
 11
-65.0
 21
-25.0
  0
LINE
  8
DETAIL
  6
CONTINUOUS
 62
     5
 10
-65.0
 20
-25.0
 11
-65.0
 21
-51.258803
  0
LINE
  8
DETAIL
  6
CONTINUOUS
 62
     5
 10
65.0
 20
-25.0
 11
65.0
 21
-51.258803
  0
ARC
  8
DETAIL
  6
CONTINUOUS
 62
     5
 10
0.0
 20
-140.0
 40
110.0
 50
126.221547
 51
53.778453
  0
LINE
  8
DETAIL
  6
CONTINUOUS
 62
     5
 10
-221.0
 20
-306.0
 11
-221.0
 21
-5.0
  0
LINE
  8
DETAIL
  6
CONTINUOUS
 62
     5
 10
221.0
 20
-306.0
 11
221.0
 21
-5.0
  0
LINE
  8
DETAIL
  6
CONTINUOUS
 62
     5
 10
-221.0
 20
-306.0
 11
221.0
 21
-306.0
  0
LINE
  8
DETAIL
  6
CONTINUOUS
 62
     5
 10
245.0
 20
0.0
 11
245.0
 21
-5.0
  0
LINE
  8
DETAIL
  6
CONTINUOUS
 62
     5
 10
-245.0
 20
0.0
 11
-245.0
 21
-5.0
  0
LINE
  8
DETAIL
  6
CONTINUOUS
 62
     5
 10
-245.0
 20
-5.0
 11
245.0
 21
-5.0
  0
LINE
  8
DETAIL
  6
CONTINUOUS
 62
     5
 10
-245.0
 20
0.0
 11
245.0
 21
0.0
  0
TEXT
  8
ETC
  6
CONTINUOUS
 62
    10
 10
776.823713
 20
-18.050997
 40
64.0
  1
V4021
 41
0.9
  0
LINE
  8
SIZE
  6
CONTINUOUS
 62
     8
 10
182.5
 20
218.785545
 11
-12.90845
 21
218.785545
  0
TEXT
  8
ETC
  6
CONTINUOUS
 62
    10
 10
777.568676
 20
-287.29011
 40
64.0
  1
換気扇
 41
0.9
  0
LINE
  8
NOTE
  6
CONTINUOUS
 62
     4
 10
235.0
 20
20.0
 11
235.0
 21
-20.0
  0
LINE
  8
NOTE
  6
CONTINUOUS
 62
     4
 10
215.0
 20
0.0
 11
255.0
 21
0.0
  0
LINE
  8
NOTE
  6
CONTINUOUS
 62
     4
 10
-235.0
 20
20.0
 11
-235.0
 21
-20.0
  0
LINE
  8
NOTE
  6
CONTINUOUS
 62
     4
 10
-255.0
 20
0.0
 11
-215.0
 21
0.0
  0
LINE
  8
NOTE
  6
CONTINUOUS
 62
     4
 10
180.5
 20
-5.0
 11
180.5
 21
-45.0
  0
LINE
  8
NOTE
  6
CONTINUOUS
 62
     4
 10
160.5
 20
-25.0
 11
200.5
 21
-25.0
  0
CIRCLE
  8
ARRANGE
  6
CONTINUOUS
 62
     1
 10
0.0
 20
0.0
 40
40.0
  0
CIRCLE
  8
FIX
  6
CONTINUOUS
 62
     9
 10
-235.0
 20
0.0
 40
40.0
  0
CIRCLE
  8
FIX
  6
CONTINUOUS
 62
     9
 10
235.0
 20
0.0
 40
40.0
  0
LINE
  8
OUTLINE
  6
CONTINUOUS
 62
     3
 10
-245.0
 20
-0.0
 11
245.0
 21
-0.0
  0
LINE
  8
OUTLINE
  6
CONTINUOUS
 62
     3
 10
-245.0
 20
-5.0
 11
-221.0
 21
-5.0
  0
LINE
  8
OUTLINE
  6
CONTINUOUS
 62
     3
 10
-245.0
 20
-0.0
 11
-245.0
 21
-5.0
  0
LINE
  8
OUTLINE
  6
CONTINUOUS
 62
     3
 10
245.0
 20
-0.0
 11
245.0
 21
-5.0
  0
LINE
  8
OUTLINE
  6
CONTINUOUS
 62
     3
 10
-221.0
 20
-306.0
 11
221.0
 21
-306.0
  0
LINE
  8
OUTLINE
  6
CONTINUOUS
 62
     3
 10
221.0
 20
-306.0
 11
221.0
 21
-5.0
  0
LINE
  8
OUTLINE
  6
CONTINUOUS
 62
     3
 10
-221.0
 20
-306.0
 11
-221.0
 21
-5.0
  0
LINE
  8
OUTLINE
  6
CONTINUOUS
 62
     3
 10
221.0
 20
-5.0
 11
245.0
 21
-5.0
  0
LINE
  8
SIZE
  6
BYBLOCK
 62
     8
 10
180.5
 20
15.0
 11
180.5
 21
248.785545
  0
LINE
  8
SIZE
  6
BYBLOCK
 62
     8
 10
245.0
 20
40.0
 11
245.0
 21
248.785545
  0
LINE
  8
SIZE
  6
BYBLOCK
 62
     8
 10
182.5
 20
218.785545
 11
212.75
 21
218.785545
  0
LINE
  8
SIZE
  6
BYBLOCK
 62
     8
 10
243.0
 20
218.785545
 11
212.75
 21
218.785545
  0
TEXT
  8
SIZE
  6
BYBLOCK
 62
     8
 10
-3.604111
 20
250.785545
 40
64.0
  1
64.5
 41
0.9
  0
LINE
  8
SIZE
  6
BYBLOCK
 62
     8
 10
-265.0
 20
0.0
 11
-442.317135
 21
0.0
  0
LINE
  8
SIZE
  6
BYBLOCK
 62
     8
 10
-241.0
 20
-306.0
 11
-442.317135
 21
-306.0
  0
LINE
  8
SIZE
  6
BYBLOCK
 62
     8
 10
-412.317135
 20
-2.0
 11
-412.317135
 21
-304.0
  0
TEXT
  8
SIZE
  6
BYBLOCK
 62
     8
 10
-444.317135
 20
-225.685714
 40
64.0
  1
306
 50
90.0
 41
0.9
  0
LINE
  8
SIZE
  6
BYBLOCK
 62
     8
 10
-245.0
 20
20.0
 11
-245.0
 21
398.785545
  0
LINE
  8
SIZE
  6
BYBLOCK
 62
     8
 10
245.0
 20
20.0
 11
245.0
 21
398.785545
  0
LINE
  8
SIZE
  6
BYBLOCK
 62
     8
 10
-243.0
 20
368.785545
 11
0.0
 21
368.785545
  0
LINE
  8
SIZE
  6
BYBLOCK
 62
     8
 10
243.0
 20
368.785545
 11
0.0
 21
368.785545
  0
TEXT
  8
SIZE
  6
BYBLOCK
 62
     8
 10
-74.057143
 20
400.785545
 40
64.0
  1
490
 41
0.9
  0
LINE
  8
SIZE
  6
BYBLOCK
 62
     8
 10
221.0
 20
-326.0
 11
221.0
 21
-611.214455
  0
LINE
  8
SIZE
  6
BYBLOCK
 62
     8
 10
-221.0
 20
-326.0
 11
-221.0
 21
-611.214455
  0
LINE
  8
SIZE
  6
BYBLOCK
 62
     8
 10
219.0
 20
-581.214455
 11
-219.0
 21
-581.214455
  0
TEXT
  8
SIZE
  6
BYBLOCK
 62
     8
 10
-74.057143
 20
-549.214455
 40
64.0
  1
442
 41
0.9
  0
LINE
  8
SIZE
  6
BYBLOCK
 62
     8
 10
346.811837
 20
-140.0
 11
440.746797
 21
-140.0
  0
LINE
  8
SIZE
  6
BYBLOCK
 62
     8
 10
220.5
 20
-25.0
 11
440.746797
 21
-25.0
  0
LINE
  8
SIZE
  6
BYBLOCK
 62
     8
 10
420.746797
 20
-138.0
 11
420.746797
 21
-82.5
  0
LINE
  8
SIZE
  6
BYBLOCK
 62
     8
 10
420.746797
 20
-27.0
 11
420.746797
 21
-82.5
  0
TEXT
  8
SIZE
  6
BYBLOCK
 62
     8
 10
388.746797
 20
-145.585714
 40
64.0
  1
115
 50
90.0
 41
0.9
  0
LINE
  8
SIZE
  6
BYBLOCK
 62
     8
 10
346.811837
 20
-140.0
 11
564.298119
 21
-140.0
  0
LINE
  8
SIZE
  6
BYBLOCK
 62
     8
 10
275.0
 20
0.0
 11
564.298119
 21
0.0
  0
LINE
  8
SIZE
  6
BYBLOCK
 62
     8
 10
544.298119
 20
-138.0
 11
544.298119
 21
-70.0
  0
LINE
  8
SIZE
  6
BYBLOCK
 62
     8
 10
544.298119
 20
-2.0
 11
544.298119
 21
-70.0
  0
TEXT
  8
SIZE
  6
BYBLOCK
 62
     8
 10
512.298119
 20
-138.571428
 40
64.0
  1
140
 50
90.0
 41
0.9
  0
CIRCLE
  8
SIZE
  6
CONTINUOUS
 62
     8
 10
544.298119
 20
0.0
 40
6.0
  0
CIRCLE
  8
SIZE
  6
CONTINUOUS
 62
     8
 10
544.298119
 20
-140.0
 40
6.0
  0
CIRCLE
  8
SIZE
  6
CONTINUOUS
 62
     8
 10
420.746797
 20
-25.0
 40
6.0
  0
CIRCLE
  8
SIZE
  6
CONTINUOUS
 62
     8
 10
420.746797
 20
-140.0
 40
6.0
  0
CIRCLE
  8
SIZE
  6
CONTINUOUS
 62
     8
 10
-221.0
 20
-581.214455
 40
6.0
  0
CIRCLE
  8
SIZE
  6
CONTINUOUS
 62
     8
 10
221.0
 20
-581.214455
 40
6.0
  0
CIRCLE
  8
SIZE
  6
CONTINUOUS
 62
     8
 10
245.0
 20
368.785545
 40
6.0
  0
CIRCLE
  8
SIZE
  6
CONTINUOUS
 62
     8
 10
-245.0
 20
368.785545
 40
6.0
  0
CIRCLE
  8
SIZE
  6
CONTINUOUS
 62
     8
 10
-412.317135
 20
-306.0
 40
6.0
  0
CIRCLE
  8
SIZE
  6
CONTINUOUS
 62
     8
 10
-412.317135
 20
-0.0
 40
6.0
  0
CIRCLE
  8
SIZE
  6
CONTINUOUS
 62
     8
 10
245.0
 20
218.785545
 40
6.0
  0
CIRCLE
  8
SIZE
  6
CONTINUOUS
 62
     8
 10
180.5
 20
218.785545
 40
6.0
  0
POLYLINE
  8
NOTE
  6
CONTINUOUS
 62
     4
 66
     1
  0
VERTEX
  8
NOTE
  6
CONTINUOUS
 62
     4
 10
153.368953
 20
4.392283
 50
297.709083
  0
VERTEX
  8
NOTE
  6
CONTINUOUS
 62
     4
 10
180.5
 20
-25.0
 50
297.709083
  0
VERTEX
  8
NOTE
  6
CONTINUOUS
 62
     4
 10
171.699966
 20
14.019987
 50
297.709083
  0
SEQEND
  8
NOTE
  6
CONTINUOUS
 62
     4
  0
ENDSEC
  0
EOF
