  0
SECTION
  2
HEADER
  9
$ACADVER
  1
AC1006
  9
$INSBASE
 10
0.0
 20
0.0
 30
0.0
  9
$EXTMIN
 10
-8212.439557
 20
-9558.084925
  9
$EXTMAX
 10
7889.337367
 20
8634.000358
  9
$LIMMIN
 10
-2970.0
 20
-2100.0
  9
$LIMMAX
 10
2970.0
 20
2100.0
  9
$ORTHOMODE
 70
     0
  9
$REGENMODE
 70
     0
  9
$FILLMODE
 70
     1
  9
$QTEXTMODE
 70
     0
  9
$MIRRTEXT
 70
     0
  9
$DRAGMODE
 70
     2
  9
$LTSCALE
 40
20.0
  9
$OSMODE
 70
     0
  9
$ATTMODE
 70
     1
  9
$TEXTSIZE
 40
64.0
  9
$TRACEWID
 40
0.05
  9
$TEXTSTYLE
  7
STANDARD
  9
$CLAYER
  8
0
  9
$CELTYPE
  6
CONTINUOUS
  9
$CECOLOR
 62
     1
  9
$DIMSCALE
 40
1.0
  9
$DIMASZ
 40
2.0
  9
$DIMEXO
 40
20.0
  9
$DIMDLI
 40
200.0
  9
$DIMRND
 40
0.0
  9
$DIMDLE
 40
0.0
  9
$DIMEXE
 40
30.0
  9
$DIMTP
 40
0.0
  9
$DIMTM
 40
0.0
  9
$DIMTXT
 40
64.0
  9
$DIMCEN
 40
0.09
  9
$DIMTSZ
 40
0.0
  9
$DIMTOL
 70
     0
  9
$DIMLIM
 70
     0
  9
$DIMTIH
 70
     0
  9
$DIMTOH
 70
     0
  9
$DIMSE1
 70
     0
  9
$DIMSE2
 70
     0
  9
$DIMTAD
 70
     1
  9
$DIMZIN
 70
     8
  9
$DIMBLK
  1
DOT1
  9
$DIMASO
 70
     1
  9
$DIMSHO
 70
     0
  9
$DIMPOST
  1

  9
$DIMAPOST
  1

  9
$DIMALT
 70
     0
  9
$DIMALTD
 70
     2
  9
$DIMALTF
 40
25.4
  9
$DIMLFAC
 40
1.0
  9
$DIMTOFL
 70
     1
  9
$DIMTVP
 40
0.0
  9
$DIMTIX
 70
     1
  9
$DIMSOXD
 70
     0
  9
$DIMSAH
 70
     0
  9
$DIMBLK1
  1

  9
$DIMBLK2
  1

  9
$LUNITS
 70
     2
  9
$LUPREC
 70
     4
  9
$AXISMODE
 70
     0
  9
$AXISUNIT
 10
0.0
 20
0.0
  9
$SKETCHINC
 40
0.1
  9
$FILLETRAD
 40
50.0
  9
$AUNITS
 70
     1
  9
$AUPREC
 70
     3
  9
$MENU
  1
ACAD
  9
$ELEVATION
 40
0.0
  9
$THICKNESS
 40
0.0
  9
$LIMCHECK
 70
     0
  9
$BLIPMODE
 70
     0
  9
$CHAMFERA
 40
0.0
  9
$CHAMFERB
 40
0.0
  9
$SKPOLY
 70
     0
  9
$TDCREATE
 40
2450956.6825578702
  9
$TDUPDATE
 40
2451726.4345717593
  9
$TDINDWG
 40
0.0104629630
  9
$TDUSRTIMER
 40
0.0104629630
  9
$USRTIMER
 70
     1
  9
$ANGBASE
 50
0.0
  9
$ANGDIR
 70
     0
  9
$PDMODE
 70
     3
  9
$PDSIZE
 40
-2.0
  9
$PLINEWID
 40
0.0
  9
$COORDS
 70
     2
  9
$SPLFRAME
 70
     0
  9
$SPLINETYPE
 70
     6
  9
$SPLINESEGS
 70
     8
  9
$ATTDIA
 70
     0
  9
$ATTREQ
 70
     1
  9
$HANDLING
 70
     0
  9
$HANDSEED
  5
0
  9
$SURFTAB1
 70
     6
  9
$SURFTAB2
 70
     6
  9
$SURFTYPE
 70
     6
  9
$SURFU
 70
     6
  9
$SURFV
 70
     6
  9
$FLATLAND
 70
     1
  9
$UCSNAME
  2

  9
$UCSORG
 10
0.0
 20
0.0
 30
0.0
  9
$UCSXDIR
 10
1.0
 20
0.0
 30
0.0
  9
$UCSYDIR
 10
0.0
 20
1.0
 30
0.0
  9
$USERI1
 70
     0
  9
$USERI2
 70
     0
  9
$USERI3
 70
     0
  9
$USERI4
 70
     0
  9
$USERI5
 70
     0
  9
$USERR1
 40
20.0
  9
$USERR2
 40
0.0
  9
$USERR3
 40
0.0
  9
$USERR4
 40
0.0
  9
$USERR5
 40
0.0
  9
$WORLDVIEW
 70
     1
  9
$VIEWCTR
 10
83.718344
 20
46.107783
  9
$VIEWSIZE
 40
4282.619808
  9
$SNAPMODE
 70
     0
  9
$SNAPUNIT
 10
400.0
 20
400.0
  9
$SNAPBASE
 10
0.0
 20
0.0
  9
$SNAPANG
 50
0.0
  9
$SNAPSTYLE
 70
     0
  9
$SNAPISOPAIR
 70
     0
  9
$GRIDMODE
 70
     0
  9
$GRIDUNIT
 10
400.0
 20
400.0
  9
$FASTZOOM
 70
     1
  9
$VIEWDIR
 10
0.0
 20
0.0
 30
1.0
  0
ENDSEC
  0
SECTION
  2
TABLES
  0
TABLE
  2
VPORT
 70
     2
  0
VPORT
  2
*ACTIVE
 70
     0
 10
0.0
 20
0.0
 11
1.0
 21
1.0
 12
83.718344
 22
46.107783
 13
0.0
 23
0.0
 14
400.0
 24
400.0
 15
400.0
 25
400.0
 16
0.0
 26
0.0
 36
1.0
 17
0.0
 27
0.0
 37
0.0
 40
1164.916178
 41
1.387001
 42
50.0
 43
0.0
 44
0.0
 50
0.0
 51
0.0
 71
     0
 72
   500
 73
     1
 74
     0
 75
     0
 76
     0
 77
     0
 78
     0
  0
ENDTAB
  0
TABLE
  2
LTYPE
 70
     7
  0
LTYPE
  2
CONTINUOUS
 70
    64
  3
実線
 72
    65
 73
     0
 40
0.0
  0
LTYPE
  2
DASHED
 70
    64
  3
_ _ _ _ _ _ _ _ _ _ _ _ _ _ _ _ _ _ _ _ _ _ _
 72
    65
 73
     2
 40
2.0
 49
1.2
 49
-0.8
  0
LTYPE
  2
DASHDOT
 70
    64
  3
____ _ ____ _ ____ _ ____ _ ____ _ ____ _ ____
 72
    65
 73
     4
 40
5.5
 49
4.0
 49
-0.6
 49
0.3
 49
-0.6
  0
LTYPE
  2
DOT
 70
    64
  3
...............................................
 72
    65
 73
     2
 40
0.8
 49
0.5
 49
-0.3
  0
LTYPE
  2
DASHDOT1
 70
    64
  3
____ _ ____ _ ____ _ ____ _ ____ _ ____ _ ____
 72
    65
 73
     4
 40
2.0
 49
1.5
 49
-0.2
 49
0.1
 49
-0.2
  0
LTYPE
  2
DIVIDE
 70
    64
  3
_____ _ _ _____ _ _ _____ _ _ _____ _ _ ____
 72
    65
 73
     6
 40
6.4
 49
4.0
 49
-0.6
 49
0.3
 49
-0.6
 49
0.3
 49
-0.6
  0
LTYPE
  2
DIVIDE1
 70
    64
  3
_____ _ _ _____ _ _ _____ _ _ _____ _ _ ____
 72
    65
 73
     6
 40
3.2
 49
2.0
 49
-0.3
 49
0.15
 49
-0.3
 49
0.15
 49
-0.3
  0
ENDTAB
  0
TABLE
  2
LAYER
 70
    12
  0
LAYER
  2
0
 70
     0
 62
     7
  6
CONTINUOUS
  0
LAYER
  2
OUTLINE
 70
    64
 62
     7
  6
CONTINUOUS
  0
LAYER
  2
DETAIL
 70
    64
 62
     7
  6
CONTINUOUS
  0
LAYER
  2
BASIS
 70
    64
 62
     7
  6
CONTINUOUS
  0
LAYER
  2
NOTE
 70
    64
 62
     7
  6
CONTINUOUS
  0
LAYER
  2
DEFPOINTS
 70
     0
 62
     7
  6
CONTINUOUS
  0
LAYER
  2
SIZE
 70
    64
 62
     7
  6
CONTINUOUS
  0
LAYER
  2
ARRANGE
 70
    64
 62
     7
  6
CONTINUOUS
  0
LAYER
  2
ETC
 70
    64
 62
     7
  6
CONTINUOUS
  0
LAYER
  2
FIX
 70
     0
 62
     7
  6
CONTINUOUS
  0
LAYER
  2
SERVICESPACE
 70
     0
 62
     7
  6
CONTINUOUS
  0
LAYER
  2
SYMBOLLINE
 70
     0
 62
     7
  6
CONTINUOUS
  0
ENDTAB
  0
TABLE
  2
STYLE
 70
     1
  0
STYLE
  2
STANDARD
 70
    64
 40
0.0
 41
0.9
 50
0.0
 71
     0
 42
64.0
  3
SIMPLEX
  4
BIGFONT
  0
ENDTAB
  0
TABLE
  2
VIEW
 70
     1
  0
VIEW
  2
ALL
 70
     0
 40
4508.020851
 10
-0.0
 20
41.309904
 41
6252.631579
 11
0.0
 21
0.0
 31
1.0
 12
0.0
 22
0.0
 32
0.0
 42
50.0
 43
0.0
 44
0.0
 50
0.0
 71
     0
  0
ENDTAB
  0
TABLE
  2
UCS
 70
     0
  0
ENDTAB
  0
TABLE
  2
DWGMGR
 70
     0
  0
ENDTAB
  0
ENDSEC
  0
SECTION
  2
BLOCKS
  0
ENDSEC
  0
SECTION
  2
ENTITIES
  0
TEXT
  8
ETC
  6
CONTINUOUS
 62
    10
 10
490.844721
 20
431.315136
 40
64.0
  1
VL0511
 41
0.9
  0
LINE
  8
BASIS
  6
DASHDOT
 62
     6
 10
0.0
 20
300.702786
 11
0.0
 21
-84.592195
  0
CIRCLE
  8
ARRANGE
  6
CONTINUOUS
 62
     1
 10
0.0
 20
0.0
 40
40.0
  0
LINE
  8
DETAIL
  6
CONTINUOUS
 62
     5
 10
0.0
 20
-25.0
 11
-126.276339
 21
-25.0
  0
LINE
  8
DETAIL
  6
CONTINUOUS
 62
     5
 10
177.0
 20
0.0
 11
-177.0
 21
0.0
  0
LINE
  8
DETAIL
  6
CONTINUOUS
 62
     5
 10
147.5
 20
276.0
 11
-147.5
 21
276.0
  0
POLYLINE
  8
DETAIL
  6
CONTINUOUS
 62
     5
 66
     1
  0
VERTEX
  8
DETAIL
  6
CONTINUOUS
 62
     5
 10
-177.0
 20
-0.0
 42
0.227574
 50
10.020677
  0
VERTEX
  8
DETAIL
  6
CONTINUOUS
 62
     5
 10
-172.304278
 20
-8.973449
 42
0.08902
 50
10.020677
  0
VERTEX
  8
DETAIL
  6
CONTINUOUS
 62
     5
 10
-150.111799
 20
-20.0681
 42
0.041014
 70
     2
 50
343.612405
  0
VERTEX
  8
DETAIL
  6
CONTINUOUS
 62
     5
 10
-126.276339
 20
-25.0
 42
0.034184
 50
343.612405
  0
SEQEND
  8
DETAIL
  6
CONTINUOUS
 62
     5
  0
POLYLINE
  8
DETAIL
  6
CONTINUOUS
 62
     5
 66
     1
  0
VERTEX
  8
DETAIL
  6
CONTINUOUS
 62
     5
 10
177.0
 20
-0.0
 42
-0.227574
  0
VERTEX
  8
DETAIL
  6
CONTINUOUS
 62
     5
 10
172.304278
 20
-8.973449
 42
-0.08902
  0
VERTEX
  8
DETAIL
  6
CONTINUOUS
 62
     5
 10
150.111799
 20
-20.0681
 42
-0.041014
 70
     2
 50
343.612405
  0
VERTEX
  8
DETAIL
  6
CONTINUOUS
 62
     5
 10
126.276339
 20
-25.0
 42
-0.034184
  0
SEQEND
  8
DETAIL
  6
CONTINUOUS
 62
     5
  0
LINE
  8
DETAIL
  6
CONTINUOUS
 62
     5
 10
0.0
 20
-25.0
 11
126.276339
 21
-25.0
  0
LINE
  8
SIZE
  6
CONTINUOUS
 62
     8
 10
385.610469
 20
-25.0
 11
385.610469
 21
-143.995918
  0
LINE
  8
NOTE
  6
CONTINUOUS
 62
     4
 10
-177.0
 20
0.0
 11
-316.965128
 21
109.973344
  0
LINE
  8
NOTE
  6
CONTINUOUS
 62
     4
 10
-316.965128
 20
109.973344
 11
-428.341824
 21
109.973344
  0
TEXT
  8
NOTE
  6
CONTINUOUS
 62
     4
 10
-420.657376
 20
126.347533
 40
64.0
  1
EL
 41
0.9
  0
TEXT
  8
NOTE
  6
CONTINUOUS
 62
     4
 10
365.30765
 20
-261.137086
 40
64.0
  1
4-φ5
 41
0.9
  0
LINE
  8
NOTE
  6
CONTINUOUS
 62
     4
 10
313.673839
 20
-277.511276
 11
603.264349
 21
-277.511276
  0
LINE
  8
NOTE
  6
CONTINUOUS
 62
     4
 10
160.0
 20
-0.0
 11
313.673839
 21
-277.511276
  0
LINE
  8
DETAIL
  6
CONTINUOUS
 62
     5
 10
-147.5
 20
276.0
 11
-150.0
 21
0.0
  0
LINE
  8
DETAIL
  6
CONTINUOUS
 62
     5
 10
147.5
 20
276.0
 11
150.0
 21
0.0
  0
LINE
  8
OUTLINE
  6
CONTINUOUS
 62
     3
 10
-147.5
 20
276.0
 11
-150.0
 21
0.0
  0
LINE
  8
OUTLINE
  6
CONTINUOUS
 62
     3
 10
147.5
 20
276.0
 11
-147.5
 21
276.0
  0
LINE
  8
OUTLINE
  6
CONTINUOUS
 62
     3
 10
147.5
 20
276.0
 11
150.0
 21
0.0
  0
LINE
  8
OUTLINE
  6
CONTINUOUS
 62
     3
 10
177.0
 20
0.0
 11
-177.0
 21
0.0
  0
POINT
  8
ARRANGE
  6
CONTINUOUS
 62
     1
 10
0.0
 20
0.0
  0
LINE
  8
SIZE
  6
BYBLOCK
 62
     8
 10
-160.0
 20
-40.0
 11
-160.0
 21
-265.738482
  0
LINE
  8
SIZE
  6
BYBLOCK
 62
     8
 10
160.0
 20
-40.0
 11
160.0
 21
-265.738482
  0
LINE
  8
SIZE
  6
BYBLOCK
 62
     8
 10
-158.0
 20
-235.738482
 11
158.0
 21
-235.738482
  0
TEXT
  8
SIZE
  6
BYBLOCK
 62
     8
 10
-74.057143
 20
-203.738482
 40
64.0
  1
320
 41
0.9
  0
LINE
  8
SIZE
  6
BYBLOCK
 62
     8
 10
-177.0
 20
-20.0
 11
-177.0
 21
-390.869035
  0
LINE
  8
SIZE
  6
BYBLOCK
 62
     8
 10
177.0
 20
-20.0
 11
177.0
 21
-390.869035
  0
LINE
  8
SIZE
  6
BYBLOCK
 62
     8
 10
-175.0
 20
-360.869035
 11
0.0
 21
-360.869035
  0
LINE
  8
SIZE
  6
BYBLOCK
 62
     8
 10
175.0
 20
-360.869035
 11
0.0
 21
-360.869035
  0
TEXT
  8
SIZE
  6
BYBLOCK
 62
     8
 10
-75.428571
 20
-328.869035
 40
64.0
  1
354
 41
0.9
  0
LINE
  8
SIZE
  6
BYBLOCK
 62
     8
 10
197.0
 20
-0.0
 11
415.610469
 21
-0.0
  0
LINE
  8
SIZE
  6
BYBLOCK
 62
     8
 10
20.0
 20
-25.0
 11
415.610469
 21
-25.0
  0
LINE
  8
SIZE
  6
BYBLOCK
 62
     8
 10
385.610469
 20
-2.0
 11
385.610469
 21
-12.5
  0
LINE
  8
SIZE
  6
BYBLOCK
 62
     8
 10
385.610469
 20
-23.0
 11
385.610469
 21
-12.5
  0
TEXT
  8
SIZE
  6
BYBLOCK
 62
     8
 10
353.610469
 20
-135.975694
 40
64.0
  1
25
 50
90.0
 41
0.9
  0
LINE
  8
SIZE
  6
BYBLOCK
 62
     8
 10
167.5
 20
276.0
 11
415.610469
 21
276.0
  0
LINE
  8
SIZE
  6
BYBLOCK
 62
     8
 10
197.0
 20
-0.0
 11
415.610469
 21
-0.0
  0
LINE
  8
SIZE
  6
BYBLOCK
 62
     8
 10
385.610469
 20
274.0
 11
385.610469
 21
2.0
  0
TEXT
  8
SIZE
  6
BYBLOCK
 62
     8
 10
353.610469
 20
65.314286
 40
64.0
  1
276
 50
90.0
 41
0.9
  0
LINE
  8
SIZE
  6
BYBLOCK
 62
     8
 10
-147.5
 20
296.0
 11
-147.5
 21
422.919333
  0
LINE
  8
SIZE
  6
BYBLOCK
 62
     8
 10
147.5
 20
296.0
 11
147.5
 21
422.919333
  0
LINE
  8
SIZE
  6
BYBLOCK
 62
     8
 10
-145.5
 20
392.919333
 11
0.0
 21
392.919333
  0
LINE
  8
SIZE
  6
BYBLOCK
 62
     8
 10
145.5
 20
392.919333
 11
0.0
 21
392.919333
  0
TEXT
  8
SIZE
  6
BYBLOCK
 62
     8
 10
-74.057143
 20
424.919333
 40
64.0
  1
295
 41
0.9
  0
CIRCLE
  8
SIZE
  6
CONTINUOUS
 62
     8
 10
147.5
 20
392.919333
 40
6.0
  0
CIRCLE
  8
SIZE
  6
CONTINUOUS
 62
     8
 10
-147.5
 20
392.919333
 40
6.0
  0
CIRCLE
  8
SIZE
  6
CONTINUOUS
 62
     8
 10
385.610469
 20
-0.0
 40
6.0
  0
CIRCLE
  8
SIZE
  6
CONTINUOUS
 62
     8
 10
385.610469
 20
276.0
 40
6.0
  0
CIRCLE
  8
SIZE
  6
CONTINUOUS
 62
     8
 10
385.610469
 20
-25.0
 40
6.0
  0
CIRCLE
  8
SIZE
  6
CONTINUOUS
 62
     8
 10
385.610469
 20
-0.0
 40
6.0
  0
CIRCLE
  8
SIZE
  6
CONTINUOUS
 62
     8
 10
177.0
 20
-360.869035
 40
6.0
  0
CIRCLE
  8
SIZE
  6
CONTINUOUS
 62
     8
 10
-177.0
 20
-360.869035
 40
6.0
  0
CIRCLE
  8
SIZE
  6
CONTINUOUS
 62
     8
 10
160.0
 20
-235.738482
 40
6.0
  0
CIRCLE
  8
SIZE
  6
CONTINUOUS
 62
     8
 10
-160.0
 20
-235.738482
 40
6.0
  0
POLYLINE
  8
NOTE
  6
CONTINUOUS
 62
     4
 66
     1
  0
VERTEX
  8
NOTE
  6
CONTINUOUS
 62
     4
 10
169.660484
 20
-38.815912
  0
VERTEX
  8
NOTE
  6
CONTINUOUS
 62
     4
 10
160.0
 20
0.0
  0
VERTEX
  8
NOTE
  6
CONTINUOUS
 62
     4
 10
187.774181
 20
-28.785324
  0
SEQEND
  8
NOTE
  6
CONTINUOUS
 62
     4
  0
LINE
  8
NOTE
  6
CONTINUOUS
 62
     4
 10
160.0
 20
-20.0
 11
160.0
 21
20.0
  0
LINE
  8
NOTE
  6
CONTINUOUS
 62
     4
 10
140.0
 20
0.0
 11
180.0
 21
0.0
  0
LINE
  8
NOTE
  6
CONTINUOUS
 62
     4
 10
-160.0
 20
-20.0
 11
-160.0
 21
20.0
  0
LINE
  8
NOTE
  6
CONTINUOUS
 62
     4
 10
-180.0
 20
0.0
 11
-140.0
 21
0.0
  0
POLYLINE
  8
NOTE
  6
CONTINUOUS
 62
     4
 66
     1
  0
VERTEX
  8
NOTE
  6
CONTINUOUS
 62
     4
 10
-213.777115
 20
15.730346
 50
321.842585
  0
VERTEX
  8
NOTE
  6
CONTINUOUS
 62
     4
 10
-177.0
 20
0.0
 50
321.842585
  0
VERTEX
  8
NOTE
  6
CONTINUOUS
 62
     4
 10
-200.984743
 20
32.011437
 50
321.842585
  0
SEQEND
  8
NOTE
  6
CONTINUOUS
 62
     4
  0
LINE
  8
NOTE
  6
CONTINUOUS
 62
     4
 10
-177.0
 20
-20.0
 11
-177.0
 21
20.0
  0
LINE
  8
NOTE
  6
CONTINUOUS
 62
     4
 10
-197.0
 20
0.0
 11
-157.0
 21
0.0
  0
TEXT
  8
ETC
  6
CONTINUOUS
 62
    10
 10
489.35113
 20
332.197397
 40
64.0
  1
換気扇
 41
0.9
  0
ENDSEC
  0
EOF
