  0
SECTION
  2
HEADER
  9
$ACADVER
  1
AC1006
  9
$INSBASE
 10
0.0
 20
0.0
 30
0.0
  9
$EXTMIN
 10
-738.775177
 20
-803.326955
  9
$EXTMAX
 10
2468.618098
 20
780.151852
  9
$LIMMIN
 10
-2970.0
 20
-2100.0
  9
$LIMMAX
 10
2970.0
 20
2100.0
  9
$ORTHOMODE
 70
     0
  9
$REGENMODE
 70
     0
  9
$FILLMODE
 70
     1
  9
$QTEXTMODE
 70
     0
  9
$MIRRTEXT
 70
     0
  9
$DRAGMODE
 70
     2
  9
$LTSCALE
 40
20.0
  9
$OSMODE
 70
     0
  9
$ATTMODE
 70
     1
  9
$TEXTSIZE
 40
64.0
  9
$TRACEWID
 40
0.05
  9
$TEXTSTYLE
  7
STANDARD
  9
$CLAYER
  8
0
  9
$CELTYPE
  6
CONTINUOUS
  9
$CECOLOR
 62
     9
  9
$DIMSCALE
 40
1.0
  9
$DIMASZ
 40
2.0
  9
$DIMEXO
 40
20.0
  9
$DIMDLI
 40
200.0
  9
$DIMRND
 40
0.0
  9
$DIMDLE
 40
0.0
  9
$DIMEXE
 40
30.0
  9
$DIMTP
 40
0.0
  9
$DIMTM
 40
0.0
  9
$DIMTXT
 40
64.0
  9
$DIMCEN
 40
0.09
  9
$DIMTSZ
 40
0.0
  9
$DIMTOL
 70
     0
  9
$DIMLIM
 70
     0
  9
$DIMTIH
 70
     0
  9
$DIMTOH
 70
     0
  9
$DIMSE1
 70
     0
  9
$DIMSE2
 70
     0
  9
$DIMTAD
 70
     1
  9
$DIMZIN
 70
     8
  9
$DIMBLK
  1
DOT1
  9
$DIMASO
 70
     1
  9
$DIMSHO
 70
     0
  9
$DIMPOST
  1

  9
$DIMAPOST
  1

  9
$DIMALT
 70
     0
  9
$DIMALTD
 70
     2
  9
$DIMALTF
 40
25.4
  9
$DIMLFAC
 40
1.0
  9
$DIMTOFL
 70
     1
  9
$DIMTVP
 40
0.0
  9
$DIMTIX
 70
     1
  9
$DIMSOXD
 70
     0
  9
$DIMSAH
 70
     0
  9
$DIMBLK1
  1

  9
$DIMBLK2
  1

  9
$LUNITS
 70
     2
  9
$LUPREC
 70
     4
  9
$AXISMODE
 70
     0
  9
$AXISUNIT
 10
0.0
 20
0.0
  9
$SKETCHINC
 40
0.1
  9
$FILLETRAD
 40
20.0
  9
$AUNITS
 70
     1
  9
$AUPREC
 70
     3
  9
$MENU
  1
ACAD
  9
$ELEVATION
 40
0.0
  9
$THICKNESS
 40
0.0
  9
$LIMCHECK
 70
     0
  9
$BLIPMODE
 70
     0
  9
$CHAMFERA
 40
0.0
  9
$CHAMFERB
 40
0.0
  9
$SKPOLY
 70
     0
  9
$TDCREATE
 40
2451125.5928240740
  9
$TDUPDATE
 40
2451257.6730671297
  9
$TDINDWG
 40
0.0059027778
  9
$TDUSRTIMER
 40
0.0059027778
  9
$USRTIMER
 70
     1
  9
$ANGBASE
 50
0.0
  9
$ANGDIR
 70
     0
  9
$PDMODE
 70
     3
  9
$PDSIZE
 40
-2.0
  9
$PLINEWID
 40
0.0
  9
$COORDS
 70
     2
  9
$SPLFRAME
 70
     0
  9
$SPLINETYPE
 70
     6
  9
$SPLINESEGS
 70
     8
  9
$ATTDIA
 70
     0
  9
$ATTREQ
 70
     1
  9
$HANDLING
 70
     0
  9
$HANDSEED
  5
0
  9
$SURFTAB1
 70
     6
  9
$SURFTAB2
 70
     6
  9
$SURFTYPE
 70
     6
  9
$SURFU
 70
     6
  9
$SURFV
 70
     6
  9
$FLATLAND
 70
     1
  9
$UCSNAME
  2

  9
$UCSORG
 10
0.0
 20
0.0
 30
0.0
  9
$UCSXDIR
 10
1.0
 20
0.0
 30
0.0
  9
$UCSYDIR
 10
0.0
 20
1.0
 30
0.0
  9
$USERI1
 70
     0
  9
$USERI2
 70
     0
  9
$USERI3
 70
     0
  9
$USERI4
 70
     0
  9
$USERI5
 70
     0
  9
$USERR1
 40
20.0
  9
$USERR2
 40
0.0
  9
$USERR3
 40
0.0
  9
$USERR4
 40
0.0
  9
$USERR5
 40
0.0
  9
$WORLDVIEW
 70
     1
  9
$VIEWCTR
 10
56.000502
 20
165.630093
  9
$VIEWSIZE
 40
4282.619808
  9
$SNAPMODE
 70
     0
  9
$SNAPUNIT
 10
50.0
 20
50.0
  9
$SNAPBASE
 10
0.0
 20
0.0
  9
$SNAPANG
 50
0.0
  9
$SNAPSTYLE
 70
     0
  9
$SNAPISOPAIR
 70
     0
  9
$GRIDMODE
 70
     0
  9
$GRIDUNIT
 10
400.0
 20
400.0
  9
$FASTZOOM
 70
     1
  9
$VIEWDIR
 10
0.0
 20
0.0
 30
1.0
  0
ENDSEC
  0
SECTION
  2
TABLES
  0
TABLE
  2
VPORT
 70
     2
  0
VPORT
  2
*ACTIVE
 70
     0
 10
0.0
 20
0.0
 11
1.0
 21
1.0
 12
56.000502
 22
165.630093
 13
0.0
 23
0.0
 14
50.0
 24
50.0
 15
400.0
 25
400.0
 16
0.0
 26
0.0
 36
1.0
 17
0.0
 27
0.0
 37
0.0
 40
1442.591574
 41
1.387001
 42
50.0
 43
0.0
 44
0.0
 50
0.0
 51
0.0
 71
     0
 72
   500
 73
     1
 74
     0
 75
     0
 76
     0
 77
     0
 78
     0
  0
ENDTAB
  0
TABLE
  2
LTYPE
 70
     7
  0
LTYPE
  2
CONTINUOUS
 70
    64
  3
実線
 72
    65
 73
     0
 40
0.0
  0
LTYPE
  2
DASHDOT
 70
    64
  3
____ _ ____ _ ____ _ ____ _ ____ _ ____ _ ____
 72
    65
 73
     4
 40
5.5
 49
4.0
 49
-0.6
 49
0.3
 49
-0.6
  0
LTYPE
  2
DASHED
 70
    64
  3
_ _ _ _ _ _ _ _ _ _ _ _ _ _ _ _ _ _ _ _ _ _ _
 72
    65
 73
     2
 40
2.0
 49
1.2
 49
-0.8
  0
LTYPE
  2
DOT
 70
    64
  3
...............................................
 72
    65
 73
     2
 40
0.8
 49
0.5
 49
-0.3
  0
LTYPE
  2
DASHDOT1
 70
    64
  3
____ _ ____ _ ____ _ ____ _ ____ _ ____ _ ____
 72
    65
 73
     4
 40
2.0
 49
1.5
 49
-0.2
 49
0.1
 49
-0.2
  0
LTYPE
  2
DIVIDE
 70
    64
  3
_____ _ _ _____ _ _ _____ _ _ _____ _ _ ____
 72
    65
 73
     6
 40
6.4
 49
4.0
 49
-0.6
 49
0.3
 49
-0.6
 49
0.3
 49
-0.6
  0
LTYPE
  2
DIVIDE1
 70
    64
  3
_____ _ _ _____ _ _ _____ _ _ _____ _ _ ____
 72
    65
 73
     6
 40
3.2
 49
2.0
 49
-0.3
 49
0.15
 49
-0.3
 49
0.15
 49
-0.3
  0
ENDTAB
  0
TABLE
  2
LAYER
 70
    12
  0
LAYER
  2
0
 70
     0
 62
     2
  6
CONTINUOUS
  0
LAYER
  2
OUTLINE
 70
    64
 62
     4
  6
CONTINUOUS
  0
LAYER
  2
DETAIL
 70
    64
 62
     1
  6
CONTINUOUS
  0
LAYER
  2
BASIS
 70
    64
 62
     1
  6
CONTINUOUS
  0
LAYER
  2
NOTE
 70
    64
 62
     1
  6
CONTINUOUS
  0
LAYER
  2
DEFPOINTS
 70
     0
 62
     7
  6
CONTINUOUS
  0
LAYER
  2
SIZE
 70
    64
 62
     7
  6
CONTINUOUS
  0
LAYER
  2
FIX
 70
    64
 62
     7
  6
CONTINUOUS
  0
LAYER
  2
ARRANGE
 70
    64
 62
     7
  6
CONTINUOUS
  0
LAYER
  2
ETC
 70
    64
 62
     7
  6
CONTINUOUS
  0
LAYER
  2
SERVICESPACE
 70
     0
 62
     7
  6
CONTINUOUS
  0
LAYER
  2
SYMBOLLINE
 70
     0
 62
     7
  6
CONTINUOUS
  0
ENDTAB
  0
TABLE
  2
STYLE
 70
     1
  0
STYLE
  2
STANDARD
 70
    64
 40
0.0
 41
0.9
 50
0.0
 71
     0
 42
64.0
  3
SIMPLEX
  4
BIGFONT
  0
ENDTAB
  0
TABLE
  2
VIEW
 70
     1
  0
VIEW
  2
ALL
 70
     0
 40
4282.619808
 10
-0.0
 20
41.309904
 41
5940.0
 11
0.0
 21
0.0
 31
1.0
 12
0.0
 22
0.0
 32
0.0
 42
50.0
 43
0.0
 44
0.0
 50
0.0
 71
     0
  0
ENDTAB
  0
TABLE
  2
UCS
 70
     0
  0
ENDTAB
  0
TABLE
  2
DWGMGR
 70
     0
  0
ENDTAB
  0
ENDSEC
  0
SECTION
  2
BLOCKS
  0
ENDSEC
  0
SECTION
  2
ENTITIES
  0
TEXT
  8
ETC
  6
CONTINUOUS
 62
    10
 10
511.963579
 20
450.140336
 40
64.0
  1
NEX0012
 41
0.9
  0
LINE
  8
BASIS
  6
DASHDOT
 62
     6
 10
0.0
 20
-219.253433
 11
-0.0
 21
217.837931
  0
TEXT
  8
ETC
  6
CONTINUOUS
 62
    10
 10
504.049652
 20
351.496121
 40
64.0
  1
換気扇
 41
0.9
  0
CIRCLE
  8
ARRANGE
  6
CONTINUOUS
 62
     1
 10
-0.0
 20
-0.0
 40
40.0
  0
LINE
  8
BASIS
  6
DASHDOT
 62
     6
 10
-206.274333
 20
-0.0
 11
206.469649
 21
0.0
  0
LINE
  8
DETAIL
  6
CONTINUOUS
 62
     5
 10
-175.0
 20
-0.0
 11
-175.0
 21
-50.0
  0
LINE
  8
DETAIL
  6
CONTINUOUS
 62
     5
 10
175.0
 20
-50.0
 11
175.0
 21
0.0
  0
LINE
  8
DETAIL
  6
CONTINUOUS
 62
     5
 10
-35.0
 20
187.0
 11
-35.0
 21
104.283268
  0
LINE
  8
DETAIL
  6
CONTINUOUS
 62
     5
 10
35.0
 20
-187.0
 11
35.0
 21
-104.283268
  0
LINE
  8
DETAIL
  6
CONTINUOUS
 62
     5
 10
175.0
 20
-155.0
 11
175.0
 21
155.0
  0
LINE
  8
DETAIL
  6
CONTINUOUS
 62
     5
 10
-175.0
 20
155.0
 11
-175.0
 21
-155.0
  0
LINE
  8
DETAIL
  6
CONTINUOUS
 62
     5
 10
-155.0
 20
175.0
 11
-35.0
 21
175.0
  0
LINE
  8
DETAIL
  6
CONTINUOUS
 62
     5
 10
155.0
 20
-175.0
 11
35.0
 21
-175.0
  0
ARC
  8
DETAIL
  6
CONTINUOUS
 62
     5
 10
-155.0
 20
155.0
 40
20.0
 50
90.0
 51
180.0
  0
ARC
  8
DETAIL
  6
CONTINUOUS
 62
     5
 10
155.0
 20
155.0
 40
20.0
 50
0.0
 51
90.0
  0
ARC
  8
DETAIL
  6
CONTINUOUS
 62
     5
 10
155.0
 20
-155.0
 40
20.0
 50
270.0
 51
0.0
  0
ARC
  8
DETAIL
  6
CONTINUOUS
 62
     5
 10
-155.0
 20
-155.0
 40
20.0
 50
180.0
 51
270.0
  0
ARC
  8
DETAIL
  6
CONTINUOUS
 62
     5
 10
-0.0
 20
-0.0
 40
135.0
 50
285.026114
 51
74.973886
  0
ARC
  8
DETAIL
  6
CONTINUOUS
 62
     5
 10
-0.0
 20
-0.0
 40
160.0
 50
282.635625
 51
77.364375
  0
CIRCLE
  8
DETAIL
  6
CONTINUOUS
 62
     5
 10
-0.0
 20
-0.0
 40
75.0
  0
CIRCLE
  8
DETAIL
  6
CONTINUOUS
 62
     5
 10
-0.0
 20
-0.0
 40
45.0
  0
LINE
  8
DETAIL
  6
CONTINUOUS
 62
     5
 10
-35.0
 20
-104.283268
 11
-35.0
 21
-187.0
  0
LINE
  8
DETAIL
  6
CONTINUOUS
 62
     5
 10
35.0
 20
104.283268
 11
35.0
 21
187.0
  0
LINE
  8
DETAIL
  6
CONTINUOUS
 62
     5
 10
-25.0
 20
179.0
 11
-25.0
 21
107.121426
  0
LINE
  8
DETAIL
  6
CONTINUOUS
 62
     5
 10
25.0
 20
107.121426
 11
25.0
 21
179.0
  0
LINE
  8
DETAIL
  6
CONTINUOUS
 62
     5
 10
-25.0
 20
-107.121426
 11
-25.0
 21
-179.0
  0
LINE
  8
DETAIL
  6
CONTINUOUS
 62
     5
 10
25.0
 20
-179.0
 11
25.0
 21
-107.121426
  0
LINE
  8
DETAIL
  6
CONTINUOUS
 62
     5
 10
-35.0
 20
187.0
 11
35.0
 21
187.0
  0
LINE
  8
DETAIL
  6
CONTINUOUS
 62
     5
 10
35.0
 20
-187.0
 11
-35.0
 21
-187.0
  0
LINE
  8
DETAIL
  6
CONTINUOUS
 62
     5
 10
-25.0
 20
179.0
 11
25.0
 21
179.0
  0
LINE
  8
DETAIL
  6
CONTINUOUS
 62
     5
 10
25.0
 20
-179.0
 11
-25.0
 21
-179.0
  0
LINE
  8
DETAIL
  6
CONTINUOUS
 62
     5
 10
35.0
 20
175.0
 11
155.0
 21
175.0
  0
LINE
  8
DETAIL
  6
CONTINUOUS
 62
     5
 10
-25.0
 20
175.0
 11
25.0
 21
175.0
  0
LINE
  8
DETAIL
  6
CONTINUOUS
 62
     5
 10
25.0
 20
-175.0
 11
-25.0
 21
-175.0
  0
LINE
  8
DETAIL
  6
CONTINUOUS
 62
     5
 10
-35.0
 20
-175.0
 11
-155.0
 21
-175.0
  0
ARC
  8
DETAIL
  6
CONTINUOUS
 62
     5
 10
-0.0
 20
-0.0
 40
135.0
 50
259.328071
 51
280.671929
  0
ARC
  8
DETAIL
  6
CONTINUOUS
 62
     5
 10
-0.0
 20
-0.0
 40
160.0
 50
261.010701
 51
278.989299
  0
ARC
  8
DETAIL
  6
CONTINUOUS
 62
     5
 10
-0.0
 20
-0.0
 40
135.0
 50
105.026114
 51
254.973886
  0
ARC
  8
DETAIL
  6
CONTINUOUS
 62
     5
 10
-0.0
 20
-0.0
 40
160.0
 50
102.635625
 51
257.364375
  0
ARC
  8
DETAIL
  6
CONTINUOUS
 62
     5
 10
-0.0
 20
-0.0
 40
160.0
 50
81.010701
 51
98.989299
  0
ARC
  8
DETAIL
  6
CONTINUOUS
 62
     5
 10
-0.0
 20
-0.0
 40
135.0
 50
79.328071
 51
100.671929
  0
LINE
  8
DETAIL
  6
CONTINUOUS
 62
     5
 10
7.5
 20
-202.0
 11
-7.5
 21
-202.0
  0
LINE
  8
DETAIL
  6
CONTINUOUS
 62
     5
 10
7.5
 20
-202.0
 11
7.5
 21
-187.0
  0
LINE
  8
DETAIL
  6
CONTINUOUS
 62
     5
 10
-7.5
 20
-202.0
 11
-7.5
 21
-187.0
  0
LINE
  8
SIZE
  6
CONTINUOUS
 62
     8
 10
468.216874
 20
185.0
 11
468.216874
 21
289.692247
  0
LINE
  8
NOTE
  6
CONTINUOUS
 62
     4
 10
175.0
 20
-115.0
 11
276.957764
 21
-293.618549
  0
LINE
  8
NOTE
  6
CONTINUOUS
 62
     4
 10
276.957764
 20
-293.618549
 11
385.639316
 21
-293.618549
  0
TEXT
  8
NOTE
  6
CONTINUOUS
 62
     4
 10
294.005851
 20
-278.702789
 40
64.0
  1
EL
 41
0.9
  0
LINE
  8
NOTE
  6
CONTINUOUS
 62
     4
 10
-176.347904
 20
-317.531266
 11
-436.764985
 21
-317.531266
  0
TEXT
  8
NOTE
  6
CONTINUOUS
 62
     4
 10
-423.333298
 20
-302.615506
 40
64.0
  1
4-φ5
 41
0.9
  0
LINE
  8
NOTE
  6
CONTINUOUS
 62
     4
 10
-85.0
 20
-157.5
 11
-176.347904
 21
-317.531266
  0
LINE
  8
OUTLINE
  6
CONTINUOUS
 62
     3
 10
155.0
 20
-175.0
 11
-155.0
 21
-175.0
  0
ARC
  8
OUTLINE
  6
CONTINUOUS
 62
     3
 10
-155.0
 20
-155.0
 40
20.0
 50
180.0
 51
270.0
  0
ARC
  8
OUTLINE
  6
CONTINUOUS
 62
     3
 10
155.0
 20
-155.0
 40
20.0
 50
270.0
 51
0.0
  0
ARC
  8
OUTLINE
  6
CONTINUOUS
 62
     3
 10
155.0
 20
155.0
 40
20.0
 50
0.0
 51
90.0
  0
ARC
  8
OUTLINE
  6
CONTINUOUS
 62
     3
 10
-155.0
 20
155.0
 40
20.0
 50
90.0
 51
180.0
  0
LINE
  8
OUTLINE
  6
CONTINUOUS
 62
     3
 10
-155.0
 20
175.0
 11
155.0
 21
175.0
  0
LINE
  8
OUTLINE
  6
CONTINUOUS
 62
     3
 10
-175.0
 20
155.0
 11
-175.0
 21
-155.0
  0
LINE
  8
OUTLINE
  6
CONTINUOUS
 62
     3
 10
175.0
 20
-155.0
 11
175.0
 21
155.0
  0
LINE
  8
OUTLINE
  6
CONTINUOUS
 62
     3
 10
175.0
 20
-50.0
 11
175.0
 21
0.0
  0
LINE
  8
OUTLINE
  6
CONTINUOUS
 62
     3
 10
-175.0
 20
-0.0
 11
-175.0
 21
-50.0
  0
CIRCLE
  8
DETAIL
  6
CONTINUOUS
 62
     5
 10
0.0
 20
0.0
 40
110.0
  0
CIRCLE
  8
FIX
  6
CONTINUOUS
 62
     9
 10
-85.0
 20
157.5
 40
2.5
  0
CIRCLE
  8
FIX
  6
CONTINUOUS
 62
     9
 10
85.0
 20
157.5
 40
2.5
  0
CIRCLE
  8
FIX
  6
CONTINUOUS
 62
     9
 10
-85.0
 20
-157.5
 40
2.5
  0
CIRCLE
  8
FIX
  6
CONTINUOUS
 62
     9
 10
85.0
 20
-157.5
 40
2.5
  0
POINT
  8
ARRANGE
  6
CONTINUOUS
 62
     1
 10
0.0
 20
0.0
  0
LINE
  8
SIZE
  6
BYBLOCK
 62
     8
 10
55.0
 20
187.0
 11
498.216874
 21
187.0
  0
LINE
  8
SIZE
  6
BYBLOCK
 62
     8
 10
175.0
 20
175.0
 11
498.216874
 21
175.0
  0
LINE
  8
SIZE
  6
BYBLOCK
 62
     8
 10
468.216874
 20
185.0
 11
468.216874
 21
181.0
  0
LINE
  8
SIZE
  6
BYBLOCK
 62
     8
 10
468.216874
 20
177.0
 11
468.216874
 21
181.0
  0
TEXT
  8
SIZE
  6
BYBLOCK
 62
     8
 10
436.216874
 20
204.382466
 40
64.0
  1
12
 50
90.0
 41
0.9
  0
LINE
  8
SIZE
  6
BYBLOCK
 62
     8
 10
175.0
 20
175.0
 11
498.216874
 21
175.0
  0
LINE
  8
SIZE
  6
BYBLOCK
 62
     8
 10
175.0
 20
-175.0
 11
498.216874
 21
-175.0
  0
LINE
  8
SIZE
  6
BYBLOCK
 62
     8
 10
468.216874
 20
173.0
 11
468.216874
 21
-173.0
  0
TEXT
  8
SIZE
  6
BYBLOCK
 62
     8
 10
436.216874
 20
-74.057143
 40
64.0
  1
350
 50
90.0
 41
0.9
  0
LINE
  8
SIZE
  6
BYBLOCK
 62
     8
 10
125.0
 20
157.5
 11
356.582899
 21
157.5
  0
LINE
  8
SIZE
  6
BYBLOCK
 62
     8
 10
125.0
 20
-157.5
 11
356.582899
 21
-157.5
  0
LINE
  8
SIZE
  6
BYBLOCK
 62
     8
 10
326.582899
 20
155.5
 11
326.582899
 21
-155.5
  0
TEXT
  8
SIZE
  6
BYBLOCK
 62
     8
 10
294.582899
 20
-68.571429
 40
64.0
  1
315
 50
90.0
 41
0.9
  0
LINE
  8
SIZE
  6
BYBLOCK
 62
     8
 10
-175.0
 20
175.0
 11
-175.0
 21
450.316682
  0
LINE
  8
SIZE
  6
BYBLOCK
 62
     8
 10
175.0
 20
175.0
 11
175.0
 21
450.316682
  0
LINE
  8
SIZE
  6
BYBLOCK
 62
     8
 10
-173.0
 20
420.316682
 11
173.0
 21
420.316682
  0
TEXT
  8
SIZE
  6
BYBLOCK
 62
     8
 10
-74.057143
 20
452.316682
 40
64.0
  1
350
 41
0.9
  0
LINE
  8
SIZE
  6
BYBLOCK
 62
     8
 10
-85.0
 20
197.5
 11
-85.0
 21
326.280329
  0
LINE
  8
SIZE
  6
BYBLOCK
 62
     8
 10
85.0
 20
197.5
 11
85.0
 21
326.280329
  0
LINE
  8
SIZE
  6
BYBLOCK
 62
     8
 10
-83.0
 20
296.280329
 11
-0.0
 21
296.280329
  0
LINE
  8
SIZE
  6
BYBLOCK
 62
     8
 10
83.0
 20
296.280329
 11
-0.0
 21
296.280329
  0
TEXT
  8
SIZE
  6
BYBLOCK
 62
     8
 10
-68.571429
 20
328.280329
 40
64.0
  1
170
 41
0.9
  0
CIRCLE
  8
SIZE
  6
CONTINUOUS
 62
     8
 10
85.0
 20
296.280329
 40
6.0
  0
CIRCLE
  8
SIZE
  6
CONTINUOUS
 62
     8
 10
-85.0
 20
296.280329
 40
6.0
  0
CIRCLE
  8
SIZE
  6
CONTINUOUS
 62
     8
 10
175.0
 20
420.316682
 40
6.0
  0
CIRCLE
  8
SIZE
  6
CONTINUOUS
 62
     8
 10
-175.0
 20
420.316682
 40
6.0
  0
CIRCLE
  8
SIZE
  6
CONTINUOUS
 62
     8
 10
326.582899
 20
-157.5
 40
6.0
  0
CIRCLE
  8
SIZE
  6
CONTINUOUS
 62
     8
 10
326.582899
 20
157.5
 40
6.0
  0
CIRCLE
  8
SIZE
  6
CONTINUOUS
 62
     8
 10
468.216874
 20
-175.0
 40
6.0
  0
CIRCLE
  8
SIZE
  6
CONTINUOUS
 62
     8
 10
468.216874
 20
175.0
 40
6.0
  0
CIRCLE
  8
SIZE
  6
CONTINUOUS
 62
     8
 10
468.216874
 20
175.0
 40
6.0
  0
CIRCLE
  8
SIZE
  6
CONTINUOUS
 62
     8
 10
468.216874
 20
187.0
 40
6.0
  0
POLYLINE
  8
NOTE
  6
CONTINUOUS
 62
     4
 66
     1
  0
VERTEX
  8
NOTE
  6
CONTINUOUS
 62
     4
 10
-113.144858
 20
-185.923001
  0
VERTEX
  8
NOTE
  6
CONTINUOUS
 62
     4
 10
-85.0
 20
-157.5
  0
VERTEX
  8
NOTE
  6
CONTINUOUS
 62
     4
 10
-95.162662
 20
-196.18747
  0
SEQEND
  8
NOTE
  6
CONTINUOUS
 62
     4
  0
POLYLINE
  8
NOTE
  6
CONTINUOUS
 62
     4
 66
     1
  0
VERTEX
  8
NOTE
  6
CONTINUOUS
 62
     4
 10
203.144858
 20
-143.423001
 50
119.71828
  0
VERTEX
  8
NOTE
  6
CONTINUOUS
 62
     4
 10
175.0
 20
-115.0
 50
119.71828
  0
VERTEX
  8
NOTE
  6
CONTINUOUS
 62
     4
 10
185.162662
 20
-153.68747
 50
119.71828
  0
SEQEND
  8
NOTE
  6
CONTINUOUS
 62
     4
  0
LINE
  8
NOTE
  6
CONTINUOUS
 62
     4
 10
-85.0
 20
137.5
 11
-85.0
 21
177.5
  0
LINE
  8
NOTE
  6
CONTINUOUS
 62
     4
 10
-105.0
 20
157.5
 11
-65.0
 21
157.5
  0
LINE
  8
NOTE
  6
CONTINUOUS
 62
     4
 10
-85.0
 20
-177.5
 11
-85.0
 21
-137.5
  0
LINE
  8
NOTE
  6
CONTINUOUS
 62
     4
 10
-105.0
 20
-157.5
 11
-65.0
 21
-157.5
  0
LINE
  8
NOTE
  6
CONTINUOUS
 62
     4
 10
85.0
 20
137.5
 11
85.0
 21
177.5
  0
LINE
  8
NOTE
  6
CONTINUOUS
 62
     4
 10
65.0
 20
157.5
 11
105.0
 21
157.5
  0
LINE
  8
NOTE
  6
CONTINUOUS
 62
     4
 10
85.0
 20
-177.5
 11
85.0
 21
-137.5
  0
LINE
  8
NOTE
  6
CONTINUOUS
 62
     4
 10
65.0
 20
-157.5
 11
105.0
 21
-157.5
  0
LINE
  8
NOTE
  6
CONTINUOUS
 62
     4
 10
175.0
 20
-135.0
 11
175.0
 21
-95.0
  0
LINE
  8
NOTE
  6
CONTINUOUS
 62
     4
 10
155.0
 20
-115.0
 11
195.0
 21
-115.0
  0
ENDSEC
  0
EOF
