  0
SECTION
  2
HEADER
  9
$ACADVER
  1
AC1006
  9
$INSBASE
 10
0.0
 20
0.0
 30
0.0
  9
$EXTMIN
 10
-1040.785879
 20
-1606.211772
  9
$EXTMAX
 10
2637.006677
 20
871.236422
  9
$LIMMIN
 10
-2970.0
 20
-2100.0
  9
$LIMMAX
 10
2970.0
 20
2100.0
  9
$ORTHOMODE
 70
     1
  9
$REGENMODE
 70
     0
  9
$FILLMODE
 70
     1
  9
$QTEXTMODE
 70
     0
  9
$MIRRTEXT
 70
     0
  9
$DRAGMODE
 70
     2
  9
$LTSCALE
 40
20.0
  9
$OSMODE
 70
     0
  9
$ATTMODE
 70
     1
  9
$TEXTSIZE
 40
64.0
  9
$TRACEWID
 40
0.05
  9
$TEXTSTYLE
  7
STANDARD
  9
$CLAYER
  8
0
  9
$CELTYPE
  6
CONTINUOUS
  9
$CECOLOR
 62
     8
  9
$DIMSCALE
 40
1.0
  9
$DIMASZ
 40
2.0
  9
$DIMEXO
 40
20.0
  9
$DIMDLI
 40
200.0
  9
$DIMRND
 40
0.0
  9
$DIMDLE
 40
0.0
  9
$DIMEXE
 40
30.0
  9
$DIMTP
 40
0.0
  9
$DIMTM
 40
0.0
  9
$DIMTXT
 40
64.0
  9
$DIMCEN
 40
0.09
  9
$DIMTSZ
 40
0.0
  9
$DIMTOL
 70
     0
  9
$DIMLIM
 70
     0
  9
$DIMTIH
 70
     0
  9
$DIMTOH
 70
     0
  9
$DIMSE1
 70
     0
  9
$DIMSE2
 70
     0
  9
$DIMTAD
 70
     1
  9
$DIMZIN
 70
     8
  9
$DIMBLK
  1
DOT1
  9
$DIMASO
 70
     1
  9
$DIMSHO
 70
     0
  9
$DIMPOST
  1

  9
$DIMAPOST
  1

  9
$DIMALT
 70
     0
  9
$DIMALTD
 70
     2
  9
$DIMALTF
 40
25.4
  9
$DIMLFAC
 40
1.0
  9
$DIMTOFL
 70
     1
  9
$DIMTVP
 40
0.0
  9
$DIMTIX
 70
     1
  9
$DIMSOXD
 70
     0
  9
$DIMSAH
 70
     0
  9
$DIMBLK1
  1

  9
$DIMBLK2
  1

  9
$LUNITS
 70
     2
  9
$LUPREC
 70
     4
  9
$AXISMODE
 70
     0
  9
$AXISUNIT
 10
0.0
 20
0.0
  9
$SKETCHINC
 40
0.1
  9
$FILLETRAD
 40
20.0
  9
$AUNITS
 70
     1
  9
$AUPREC
 70
     3
  9
$MENU
  1
ACAD
  9
$ELEVATION
 40
0.0
  9
$THICKNESS
 40
0.0
  9
$LIMCHECK
 70
     0
  9
$BLIPMODE
 70
     0
  9
$CHAMFERA
 40
0.0
  9
$CHAMFERB
 40
0.0
  9
$SKPOLY
 70
     0
  9
$TDCREATE
 40
2451327.6724884259
  9
$TDUPDATE
 40
2451451.6072453703
  9
$TDINDWG
 40
0.0204976852
  9
$TDUSRTIMER
 40
0.0204976852
  9
$USRTIMER
 70
     1
  9
$ANGBASE
 50
0.0
  9
$ANGDIR
 70
     0
  9
$PDMODE
 70
     3
  9
$PDSIZE
 40
-2.0
  9
$PLINEWID
 40
0.0
  9
$COORDS
 70
     2
  9
$SPLFRAME
 70
     0
  9
$SPLINETYPE
 70
     6
  9
$SPLINESEGS
 70
     8
  9
$ATTDIA
 70
     0
  9
$ATTREQ
 70
     1
  9
$HANDLING
 70
     0
  9
$HANDSEED
  5
0
  9
$SURFTAB1
 70
     6
  9
$SURFTAB2
 70
     6
  9
$SURFTYPE
 70
     6
  9
$SURFU
 70
     6
  9
$SURFV
 70
     6
  9
$FLATLAND
 70
     1
  9
$UCSNAME
  2

  9
$UCSORG
 10
0.0
 20
0.0
 30
0.0
  9
$UCSXDIR
 10
1.0
 20
0.0
 30
0.0
  9
$UCSYDIR
 10
0.0
 20
1.0
 30
0.0
  9
$USERI1
 70
     0
  9
$USERI2
 70
     0
  9
$USERI3
 70
     0
  9
$USERI4
 70
     0
  9
$USERI5
 70
     0
  9
$USERR1
 40
20.0
  9
$USERR2
 40
0.0
  9
$USERR3
 40
0.0
  9
$USERR4
 40
0.0
  9
$USERR5
 40
0.0
  9
$WORLDVIEW
 70
     1
  9
$VIEWCTR
 10
-47.444089
 20
83.964111
  9
$VIEWSIZE
 40
4282.619808
  9
$SNAPMODE
 70
     0
  9
$SNAPUNIT
 10
50.0
 20
50.0
  9
$SNAPBASE
 10
0.0
 20
0.0
  9
$SNAPANG
 50
0.0
  9
$SNAPSTYLE
 70
     0
  9
$SNAPISOPAIR
 70
     0
  9
$GRIDMODE
 70
     0
  9
$GRIDUNIT
 10
400.0
 20
400.0
  9
$FASTZOOM
 70
     1
  9
$VIEWDIR
 10
0.0
 20
0.0
 30
1.0
  0
ENDSEC
  0
SECTION
  2
TABLES
  0
TABLE
  2
VPORT
 70
     2
  0
VPORT
  2
*ACTIVE
 70
     0
 10
0.0
 20
0.0
 11
1.0
 21
1.0
 12
-47.444089
 22
83.964111
 13
0.0
 23
0.0
 14
50.0
 24
50.0
 15
400.0
 25
400.0
 16
0.0
 26
0.0
 36
1.0
 17
0.0
 27
0.0
 37
0.0
 40
1888.183813
 41
1.387001
 42
50.0
 43
0.0
 44
0.0
 50
0.0
 51
0.0
 71
     0
 72
   500
 73
     1
 74
     0
 75
     0
 76
     0
 77
     0
 78
     0
  0
ENDTAB
  0
TABLE
  2
LTYPE
 70
     8
  0
LTYPE
  2
CONTINUOUS
 70
    64
  3
Ä└É³
 72
    65
 73
     0
 40
0.0
  0
LTYPE
  2
DASHDOT
 70
    64
  3
____ _ ____ _ ____ _ ____ _ ____ _ ____ _ ____
 72
    65
 73
     4
 40
5.5
 49
4.0
 49
-0.6
 49
0.3
 49
-0.6
  0
LTYPE
  2
DASHED
 70
    64
  3
_ _ _ _ _ _ _ _ _ _ _ _ _ _ _ _ _ _ _ _ _ _ _
 72
    65
 73
     2
 40
2.0
 49
1.2
 49
-0.8
  0
LTYPE
  2
CONTINOUS
 70
    64
  3
Solid line
 72
    65
 73
     0
 40
0.0
  0
LTYPE
  2
DOT
 70
    64
  3
...............................................
 72
    65
 73
     2
 40
0.8
 49
0.5
 49
-0.3
  0
LTYPE
  2
DASHDOT1
 70
    64
  3
____ _ ____ _ ____ _ ____ _ ____ _ ____ _ ____
 72
    65
 73
     4
 40
2.0
 49
1.5
 49
-0.2
 49
0.1
 49
-0.2
  0
LTYPE
  2
DIVIDE
 70
    64
  3
_____ _ _ _____ _ _ _____ _ _ _____ _ _ ____
 72
    65
 73
     6
 40
6.4
 49
4.0
 49
-0.6
 49
0.3
 49
-0.6
 49
0.3
 49
-0.6
  0
LTYPE
  2
DIVIDE1
 70
    64
  3
_____ _ _ _____ _ _ _____ _ _ _____ _ _ ____
 72
    65
 73
     6
 40
3.2
 49
2.0
 49
-0.3
 49
0.15
 49
-0.3
 49
0.15
 49
-0.3
  0
ENDTAB
  0
TABLE
  2
LAYER
 70
    12
  0
LAYER
  2
0
 70
     0
 62
     2
  6
CONTINUOUS
  0
LAYER
  2
OUTLINE
 70
    64
 62
     4
  6
CONTINUOUS
  0
LAYER
  2
DETAIL
 70
    64
 62
     1
  6
CONTINUOUS
  0
LAYER
  2
BASIS
 70
    64
 62
     1
  6
CONTINUOUS
  0
LAYER
  2
NOTE
 70
    64
 62
     1
  6
CONTINUOUS
  0
LAYER
  2
DEFPOINTS
 70
     0
 62
     7
  6
CONTINUOUS
  0
LAYER
  2
SIZE
 70
    64
 62
     7
  6
CONTINUOUS
  0
LAYER
  2
FIX
 70
    64
 62
     7
  6
CONTINUOUS
  0
LAYER
  2
ARRANGE
 70
    64
 62
     7
  6
CONTINUOUS
  0
LAYER
  2
ETC
 70
    64
 62
     7
  6
CONTINUOUS
  0
LAYER
  2
SERVICESPACE
 70
     0
 62
     7
  6
CONTINUOUS
  0
LAYER
  2
SYMBOLLINE
 70
     0
 62
     7
  6
CONTINUOUS
  0
ENDTAB
  0
TABLE
  2
STYLE
 70
     1
  0
STYLE
  2
STANDARD
 70
    64
 40
0.0
 41
0.9
 50
0.0
 71
     0
 42
64.0
  3
SIMPLEX
  4
BIGFONT
  0
ENDTAB
  0
TABLE
  2
VIEW
 70
     1
  0
VIEW
  2
ALL
 70
     0
 40
4282.619808
 10
-0.0
 20
41.309904
 41
5940.0
 11
0.0
 21
0.0
 31
1.0
 12
0.0
 22
0.0
 32
0.0
 42
50.0
 43
0.0
 44
0.0
 50
0.0
 71
     0
  0
ENDTAB
  0
TABLE
  2
UCS
 70
     0
  0
ENDTAB
  0
TABLE
  2
DWGMGR
 70
     0
  0
ENDTAB
  0
ENDSEC
  0
SECTION
  2
BLOCKS
  0
ENDSEC
  0
SECTION
  2
ENTITIES
  0
TEXT
  8
ETC
  6
CONTINUOUS
 62
    10
 10
355.813614
 20
750.323659
 40
64.0
  1
NVD0042
 41
0.9
  0
TEXT
  8
ETC
  6
CONTINUOUS
 62
    10
 10
347.899687
 20
640.526914
 40
64.0
  1
èÀïCÉ¯
 41
0.9
  0
TEXT
  8
NOTE
  6
CONTINUOUS
 62
     4
 10
-512.16012
 20
-349.008725
 40
64.0
  1
8-âË5
 41
0.9
  0
LINE
  8
NOTE
  6
CONTINUOUS
 62
     4
 10
-249.440972
 20
-364.144276
 11
-524.296304
 21
-364.144276
  0
LINE
  8
NOTE
  6
CONTINUOUS
 62
     4
 10
274.524214
 20
245.758446
 11
378.419232
 21
245.758446
  0
TEXT
  8
NOTE
  6
CONTINUOUS
 62
     4
 10
280.525444
 20
264.738905
 40
64.0
  1
EL
 41
0.9
  0
LINE
  8
DETAIL
  6
CONTINOUS
 62
     5
 10
105.0
 20
0.0
 11
-105.0
 21
0.0
  0
LINE
  8
BASIS
  6
DASHDOT
 62
     6
 10
0.0
 20
-71.819337
 11
0.0
 21
221.772731
  0
LINE
  8
DETAIL
  6
CONTINUOUS
 62
     5
 10
105.0
 20
0.0
 11
105.0
 21
-5.0
  0
LINE
  8
DETAIL
  6
CONTINUOUS
 62
     5
 10
-105.0
 20
0.0
 11
-105.0
 21
-5.0
  0
LINE
  8
DETAIL
  6
CONTINOUS
 62
     5
 10
95.0
 20
-15.0
 11
-95.0
 21
-15.0
  0
LINE
  8
DETAIL
  6
CONTINOUS
 62
     5
 10
69.5
 20
149.0
 11
40.0
 21
149.0
  0
LINE
  8
DETAIL
  6
CONTINUOUS
 62
     5
 10
69.5
 20
149.0
 11
72.0
 21
0.0
  0
LINE
  8
DETAIL
  6
CONTINUOUS
 62
     5
 10
-69.5
 20
149.0
 11
-72.0
 21
0.0
  0
LINE
  8
DETAIL
  6
CONTINOUS
 62
     5
 10
39.5
 20
180.0
 11
-21.5
 21
180.0
  0
LINE
  8
BASIS
  6
DASHDOT
 62
     6
 10
9.0
 20
116.213916
 11
9.0
 21
197.071534
  0
ARC
  8
DETAIL
  6
CONTINUOUS
 62
     5
 10
95.0
 20
-5.0
 40
10.0
 50
270.0
 51
0.0
  0
ARC
  8
DETAIL
  6
CONTINUOUS
 62
     5
 10
-95.0
 20
-5.0
 40
10.0
 50
180.0
 51
270.0
  0
LINE
  8
DETAIL
  6
CONTINUOUS
 62
     5
 10
74.0
 20
0.0
 11
34.0
 21
0.0
  0
LINE
  8
NOTE
  6
CONTINUOUS
 62
     4
 10
101.0
 20
0.0
 11
61.0
 21
0.0
  0
LINE
  8
NOTE
  6
CONTINUOUS
 62
     4
 10
81.0
 20
20.0
 11
81.0
 21
-20.0
  0
LINE
  8
NOTE
  6
CONTINUOUS
 62
     4
 10
70.0
 20
0.0
 11
30.0
 21
0.0
  0
LINE
  8
NOTE
  6
CONTINUOUS
 62
     4
 10
50.0
 20
20.0
 11
50.0
 21
-20.0
  0
LINE
  8
NOTE
  6
CONTINUOUS
 62
     4
 10
-30.0
 20
0.0
 11
-70.0
 21
0.0
  0
LINE
  8
NOTE
  6
CONTINUOUS
 62
     4
 10
-50.0
 20
20.0
 11
-50.0
 21
-20.0
  0
LINE
  8
NOTE
  6
CONTINUOUS
 62
     4
 10
-61.0
 20
0.0
 11
-101.0
 21
0.0
  0
LINE
  8
NOTE
  6
CONTINUOUS
 62
     4
 10
-81.0
 20
20.0
 11
-81.0
 21
-20.0
  0
LINE
  8
SIZE
  6
CONTINUOUS
 62
     8
 10
103.0
 20
-700.264081
 11
376.255598
 21
-700.264081
  0
LINE
  8
SIZE
  6
CONTINUOUS
 62
     8
 10
207.157176
 20
270.975665
 11
11.0
 21
270.975665
  0
LINE
  8
SIZE
  6
CONTINUOUS
 62
     8
 10
273.035253
 20
391.182273
 11
30.5
 21
391.182273
  0
LINE
  8
DETAIL
  6
CONTINUOUS
 62
     5
 10
-21.5
 20
180.0
 11
-21.5
 21
163.781324
  0
LINE
  8
DETAIL
  6
CONTINUOUS
 62
     5
 10
39.5
 20
180.0
 11
39.5
 21
158.476361
  0
CIRCLE
  8
FIX
  6
CONTINUOUS
 62
     9
 10
-81.0
 20
0.0
 40
2.5
  0
CIRCLE
  8
FIX
  6
CONTINUOUS
 62
     9
 10
-50.0
 20
0.0
 40
2.5
  0
CIRCLE
  8
FIX
  6
CONTINUOUS
 62
     9
 10
50.0
 20
0.0
 40
2.5
  0
CIRCLE
  8
FIX
  6
CONTINUOUS
 62
     9
 10
81.0
 20
0.0
 40
2.5
  0
CIRCLE
  8
FIX
  6
CONTINUOUS
 62
     9
 10
87.0
 20
125.0
 40
10.0
  0
LINE
  8
DETAIL
  6
CONTINUOUS
 62
     5
 10
100.5
 20
125.0
 11
72.5
 21
125.0
  0
LINE
  8
DETAIL
  6
CONTINUOUS
 62
     5
 10
100.5
 20
123.0
 11
74.5
 21
123.0
  0
LINE
  8
DETAIL
  6
CONTINUOUS
 62
     5
 10
100.5
 20
125.0
 11
100.5
 21
123.0
  0
LINE
  8
DETAIL
  6
CONTINUOUS
 62
     5
 10
72.5
 20
125.0
 11
72.5
 21
0.0
  0
LINE
  8
DETAIL
  6
CONTINUOUS
 62
     5
 10
74.5
 20
123.0
 11
74.5
 21
0.0
  0
LINE
  8
DETAIL
  6
CONTINUOUS
 62
     5
 10
-100.5
 20
125.0
 11
-100.5
 21
123.0
  0
LINE
  8
DETAIL
  6
CONTINUOUS
 62
     5
 10
-100.5
 20
123.0
 11
-74.5
 21
123.0
  0
LINE
  8
DETAIL
  6
CONTINUOUS
 62
     5
 10
-100.5
 20
125.0
 11
-72.5
 21
125.0
  0
CIRCLE
  8
FIX
  6
CONTINUOUS
 62
     9
 10
-87.0
 20
125.0
 40
10.0
  0
LINE
  8
DETAIL
  6
CONTINUOUS
 62
     5
 10
-74.5
 20
123.0
 11
-74.5
 21
0.0
  0
LINE
  8
DETAIL
  6
CONTINUOUS
 62
     5
 10
-72.5
 20
125.0
 11
-72.5
 21
0.0
  0
TEXT
  8
NOTE
  6
CONTINUOUS
 62
     4
 10
-516.914705
 20
284.939573
 40
64.0
  1
AH-2
 41
0.9
  0
LINE
  8
NOTE
  6
CONTINUOUS
 62
     4
 10
-279.559308
 20
262.136165
 11
-531.331714
 21
262.136165
  0
LINE
  8
NOTE
  6
CONTINUOUS
 62
     4
 10
-87.0
 20
125.0
 11
-279.559308
 21
262.136165
  0
CIRCLE
  8
ARRANGE
  6
CONTINUOUS
 62
     1
 10
0.0
 20
0.0
 40
40.0
  0
POINT
  8
ARRANGE
  6
CONTINUOUS
 62
     1
 10
0.0
 20
0.0
  0
LINE
  8
DETAIL
  6
DASHDOT
 62
     5
 10
-40.0
 20
136.003676
 11
-40.0
 21
156.797262
  0
LINE
  8
DETAIL
  6
DASHDOT
 62
     5
 10
40.0
 20
136.003676
 11
40.0
 21
156.797262
  0
LINE
  8
DETAIL
  6
CONTINOUS
 62
     5
 10
-40.0
 20
149.0
 11
-69.5
 21
149.0
  0
LINE
  8
SIZE
  6
CONTINUOUS
 62
     8
 10
358.304191
 20
-574.578559
 11
72.0
 21
-574.578559
  0
LINE
  8
OUTLINE
  6
CONTINOUS
 62
     3
 10
40.0
 20
149.0
 11
69.5
 21
149.0
  0
LINE
  8
OUTLINE
  6
CONTINUOUS
 62
     3
 10
-74.0
 20
0.0
 11
-34.0
 21
0.0
  0
LINE
  8
OUTLINE
  6
CONTINUOUS
 62
     3
 10
69.5
 20
149.0
 11
72.0
 21
0.0
  0
LINE
  8
OUTLINE
  6
CONTINUOUS
 62
     3
 10
-69.5
 20
149.0
 11
-72.0
 21
0.0
  0
LINE
  8
OUTLINE
  6
CONTINOUS
 62
     3
 10
-69.5
 20
149.0
 11
40.0
 21
149.0
  0
LINE
  8
OUTLINE
  6
CONTINOUS
 62
     3
 10
-105.0
 20
0.0
 11
105.0
 21
0.0
  0
LINE
  8
NOTE
  6
CONTINUOUS
 62
     4
 10
-81.321761
 20
0.346336
 11
-249.440972
 21
-364.144276
  0
LINE
  8
SIZE
  6
CONTINUOUS
 62
     8
 10
54.0
 20
-192.422785
 11
235.287122
 21
-192.422785
  0
LINE
  8
SIZE
  6
CONTINUOUS
 62
     8
 10
50.0
 20
-327.164293
 11
291.206452
 21
-327.164293
  0
POLYLINE
  8
DETAIL
  6
CONTINUOUS
 62
     5
 66
     1
  0
VERTEX
  8
DETAIL
  6
CONTINUOUS
 62
     5
 10
0.0
 20
165.0
 42
-0.020666
  0
VERTEX
  8
DETAIL
  6
CONTINUOUS
 62
     5
 10
16.500979
 20
164.317676
 42
-0.028693
  0
VERTEX
  8
DETAIL
  6
CONTINUOUS
 62
     5
 10
28.284271
 20
162.656854
 42
-0.063192
 70
     2
 50
191.309932
  0
VERTEX
  8
DETAIL
  6
CONTINUOUS
 62
     5
 10
38.626791
 20
159.187947
 42
-0.287816
  0
VERTEX
  8
DETAIL
  6
CONTINUOUS
 62
     5
 10
40.0
 20
157.0
 42
-0.03643
  0
VERTEX
  8
DETAIL
  6
CONTINUOUS
 62
     5
 10
39.974272
 20
156.647355
 42
-0.063192
  0
SEQEND
  8
DETAIL
  6
CONTINUOUS
 62
     5
  0
POLYLINE
  8
DETAIL
  6
CONTINUOUS
 62
     5
 66
     1
  0
VERTEX
  8
DETAIL
  6
CONTINUOUS
 62
     5
 10
-39.974272
 20
156.647355
 42
-0.03643
  0
VERTEX
  8
DETAIL
  6
CONTINUOUS
 62
     5
 10
-40.0
 20
157.0
 42
-0.287816
  0
VERTEX
  8
DETAIL
  6
CONTINUOUS
 62
     5
 10
-38.626791
 20
159.187947
 42
-0.063192
  0
VERTEX
  8
DETAIL
  6
CONTINUOUS
 62
     5
 10
-28.284271
 20
162.656854
 42
-0.028693
 70
     2
 50
168.690068
  0
VERTEX
  8
DETAIL
  6
CONTINUOUS
 62
     5
 10
-16.500979
 20
164.317676
 42
-0.020666
  0
VERTEX
  8
DETAIL
  6
CONTINUOUS
 62
     5
 10
0.0
 20
165.0
 42
-0.020666
  0
SEQEND
  8
DETAIL
  6
CONTINUOUS
 62
     5
  0
LINE
  8
BASIS
  6
DASHDOT
 62
     6
 10
62.881156
 20
102.0
 11
-61.940557
 21
102.0
  0
LINE
  8
SIZE
  6
CONTINUOUS
 62
     8
 10
-569.273085
 20
-20.293388
 11
-569.273085
 21
-125.09998
  0
LINE
  8
SIZE
  6
CONTINUOUS
 62
     8
 10
718.408868
 20
45.5
 11
718.408868
 21
-165.332868
  0
LINE
  8
SIZE
  6
CONTINUOUS
 62
     8
 10
585.207481
 20
48.59768
 11
585.207481
 21
-124.194447
  0
TEXT
  8
NOTE
  6
CONTINUOUS
 62
     4
 10
-45.906348
 20
62.150898
 40
64.0
  1
EA
 41
0.9
  0
CIRCLE
  8
DETAIL
  6
CONTINUOUS
 62
     5
 10
0.0
 20
102.0
 40
49.0
  0
CIRCLE
  8
DETAIL
  6
CONTINUOUS
 62
     5
 10
0.0
 20
102.0
 40
52.5
  0
LINE
  8
SIZE
  6
CONTINUOUS
 62
     8
 10
-332.392235
 20
-5.293388
 11
-332.392235
 21
-168.59257
  0
LINE
  8
DETAIL
  6
CONTINOUS
 62
     5
 10
-32.5
 20
49.0
 11
32.5
 21
49.0
  0
LINE
  8
DETAIL
  6
CONTINUOUS
 62
     5
 10
-52.5
 20
69.0
 11
-52.5
 21
149.0
  0
ARC
  8
DETAIL
  6
CONTINUOUS
 62
     5
 10
-32.5
 20
69.0
 40
20.0
 50
180.0
 51
270.0
  0
LINE
  8
DETAIL
  6
CONTINUOUS
 62
     5
 10
52.5
 20
69.0
 11
52.5
 21
149.0
  0
ARC
  8
DETAIL
  6
CONTINUOUS
 62
     5
 10
32.5
 20
69.0
 40
20.0
 50
270.0
 51
0.0
  0
LINE
  8
NOTE
  6
CONTINUOUS
 62
     4
 10
54.0
 20
118.0
 11
274.524214
 21
245.758446
  0
LINE
  8
SIZE
  6
CONTINUOUS
 62
     8
 10
445.127863
 20
-2.0
 11
445.127863
 21
-164.748541
  0
LINE
  8
SIZE
  6
BYBLOCK
 62
     8
 10
125.0
 20
-0.0
 11
475.127863
 21
-0.0
  0
LINE
  8
SIZE
  6
BYBLOCK
 62
     8
 10
94.0
 20
118.0
 11
475.127863
 21
118.0
  0
LINE
  8
SIZE
  6
BYBLOCK
 62
     8
 10
445.127863
 20
120.0
 11
445.127863
 21
122.0
  0
LINE
  8
SIZE
  6
BYBLOCK
 62
     8
 10
445.127863
 20
-2.0
 11
445.127863
 21
-4.0
  0
LINE
  8
SIZE
  6
BYBLOCK
 62
     8
 10
445.127863
 20
118.0
 11
445.127863
 21
-0.0
  0
TEXT
  8
SIZE
  6
BYBLOCK
 62
     8
 10
413.127863
 20
-155.382968
 40
64.0
  1
118
 50
90.0
 41
0.9
  0
LINE
  8
SIZE
  6
BYBLOCK
 62
     8
 10
0.0
 20
-91.819337
 11
0.0
 21
-222.422785
  0
LINE
  8
SIZE
  6
BYBLOCK
 62
     8
 10
54.0
 20
78.0
 11
54.0
 21
-222.422785
  0
LINE
  8
SIZE
  6
BYBLOCK
 62
     8
 10
56.0
 20
-192.422785
 11
58.0
 21
-192.422785
  0
LINE
  8
SIZE
  6
BYBLOCK
 62
     8
 10
-2.0
 20
-192.422785
 11
-4.0
 21
-192.422785
  0
LINE
  8
SIZE
  6
BYBLOCK
 62
     8
 10
54.0
 20
-192.422785
 11
0.0
 21
-192.422785
  0
TEXT
  8
SIZE
  6
BYBLOCK
 62
     8
 10
133.698486
 20
-162.086095
 40
64.0
  1
54
 41
0.9
  0
LINE
  8
SIZE
  6
BYBLOCK
 62
     8
 10
20.0
 20
154.5
 11
748.408868
 21
154.5
  0
LINE
  8
SIZE
  6
BYBLOCK
 62
     8
 10
20.0
 20
49.5
 11
748.408868
 21
49.5
  0
LINE
  8
SIZE
  6
BYBLOCK
 62
     8
 10
718.408868
 20
47.5
 11
718.408868
 21
45.5
  0
LINE
  8
SIZE
  6
BYBLOCK
 62
     8
 10
718.408868
 20
156.5
 11
718.408868
 21
158.5
  0
LINE
  8
SIZE
  6
BYBLOCK
 62
     8
 10
718.408868
 20
49.5
 11
718.408868
 21
154.5
  0
TEXT
  8
SIZE
  6
BYBLOCK
 62
     8
 10
686.408868
 20
-174.235893
 40
64.0
  1
âË105
 50
90.0
 41
0.9
  0
LINE
  8
SIZE
  6
BYBLOCK
 62
     8
 10
20.0
 20
53.0
 11
615.207481
 21
53.0
  0
LINE
  8
SIZE
  6
BYBLOCK
 62
     8
 10
20.0
 20
151.0
 11
615.207481
 21
151.0
  0
LINE
  8
SIZE
  6
BYBLOCK
 62
     8
 10
585.207481
 20
153.0
 11
585.207481
 21
155.0
  0
LINE
  8
SIZE
  6
BYBLOCK
 62
     8
 10
585.207481
 20
51.0
 11
585.207481
 21
49.0
  0
LINE
  8
SIZE
  6
BYBLOCK
 62
     8
 10
585.207481
 20
151.0
 11
585.207481
 21
53.0
  0
TEXT
  8
SIZE
  6
BYBLOCK
 62
     8
 10
553.207481
 20
-131.200529
 40
64.0
  1
âË98
 50
90.0
 41
0.9
  0
LINE
  8
SIZE
  6
BYBLOCK
 62
     8
 10
-125.0
 20
0.0
 11
-362.392235
 21
0.0
  0
LINE
  8
SIZE
  6
BYBLOCK
 62
     8
 10
-81.940557
 20
102.0
 11
-362.392235
 21
102.0
  0
LINE
  8
SIZE
  6
BYBLOCK
 62
     8
 10
-332.392235
 20
104.0
 11
-332.392235
 21
106.0
  0
LINE
  8
SIZE
  6
BYBLOCK
 62
     8
 10
-332.392235
 20
-2.0
 11
-332.392235
 21
-4.0
  0
LINE
  8
SIZE
  6
BYBLOCK
 62
     8
 10
-332.392235
 20
102.0
 11
-332.392235
 21
0.0
  0
TEXT
  8
SIZE
  6
BYBLOCK
 62
     8
 10
-364.392235
 20
-169.888778
 40
64.0
  1
102
 50
90.0
 41
0.9
  0
LINE
  8
SIZE
  6
BYBLOCK
 62
     8
 10
-125.0
 20
0.0
 11
-599.273085
 21
0.0
  0
LINE
  8
SIZE
  6
BYBLOCK
 62
     8
 10
-41.5
 20
180.0
 11
-599.273085
 21
180.0
  0
LINE
  8
SIZE
  6
BYBLOCK
 62
     8
 10
-569.273085
 20
2.0
 11
-569.273085
 21
90.0
  0
LINE
  8
SIZE
  6
BYBLOCK
 62
     8
 10
-569.273085
 20
178.0
 11
-569.273085
 21
90.0
  0
TEXT
  8
SIZE
  6
BYBLOCK
 62
     8
 10
-601.273085
 20
20.135183
 40
64.0
  1
180
 50
90.0
 41
0.9
  0
LINE
  8
SIZE
  6
BYBLOCK
 62
     8
 10
39.5
 20
200.0
 11
39.5
 21
421.182273
  0
LINE
  8
SIZE
  6
BYBLOCK
 62
     8
 10
-21.5
 20
200.0
 11
-21.5
 21
421.182273
  0
LINE
  8
SIZE
  6
BYBLOCK
 62
     8
 10
-23.5
 20
391.182273
 11
-25.5
 21
391.182273
  0
LINE
  8
SIZE
  6
BYBLOCK
 62
     8
 10
41.5
 20
391.182273
 11
43.5
 21
391.182273
  0
LINE
  8
SIZE
  6
BYBLOCK
 62
     8
 10
-21.5
 20
391.182273
 11
39.5
 21
391.182273
  0
TEXT
  8
SIZE
  6
BYBLOCK
 62
     8
 10
107.515521
 20
423.182273
 40
64.0
  1
âË61
 41
0.9
  0
LINE
  8
SIZE
  6
BYBLOCK
 62
     8
 10
9.0
 20
217.071534
 11
9.0
 21
300.975665
  0
LINE
  8
SIZE
  6
BYBLOCK
 62
     8
 10
0.0
 20
241.772731
 11
0.0
 21
300.975665
  0
LINE
  8
SIZE
  6
BYBLOCK
 62
     8
 10
-2.0
 20
270.975665
 11
-4.0
 21
270.975665
  0
LINE
  8
SIZE
  6
BYBLOCK
 62
     8
 10
11.0
 20
270.975665
 11
13.0
 21
270.975665
  0
LINE
  8
SIZE
  6
BYBLOCK
 62
     8
 10
0.0
 20
270.975665
 11
9.0
 21
270.975665
  0
TEXT
  8
SIZE
  6
BYBLOCK
 62
     8
 10
137.675861
 20
302.975665
 40
64.0
  1
9
 41
0.9
  0
LINE
  8
SIZE
  6
BYBLOCK
 62
     8
 10
-115.0
 20
-15.0
 11
-599.273085
 21
-15.0
  0
LINE
  8
SIZE
  6
BYBLOCK
 62
     8
 10
-125.0
 20
0.0
 11
-599.273085
 21
0.0
  0
LINE
  8
SIZE
  6
BYBLOCK
 62
     8
 10
-569.273085
 20
2.0
 11
-569.273085
 21
4.0
  0
LINE
  8
SIZE
  6
BYBLOCK
 62
     8
 10
-569.273085
 20
-17.0
 11
-569.273085
 21
-19.0
  0
LINE
  8
SIZE
  6
BYBLOCK
 62
     8
 10
-569.273085
 20
0.0
 11
-569.273085
 21
-15.0
  0
TEXT
  8
SIZE
  6
BYBLOCK
 62
     8
 10
-601.273085
 20
-116.078923
 40
64.0
  1
15
 50
90.0
 41
0.9
  0
LINE
  8
SIZE
  6
BYBLOCK
 62
     8
 10
-50.0
 20
-40.0
 11
-50.0
 21
-357.164293
  0
LINE
  8
SIZE
  6
BYBLOCK
 62
     8
 10
50.0
 20
-40.0
 11
50.0
 21
-357.164293
  0
LINE
  8
SIZE
  6
BYBLOCK
 62
     8
 10
52.0
 20
-327.164293
 11
54.0
 21
-327.164293
  0
LINE
  8
SIZE
  6
BYBLOCK
 62
     8
 10
-52.0
 20
-327.164293
 11
-54.0
 21
-327.164293
  0
LINE
  8
SIZE
  6
BYBLOCK
 62
     8
 10
50.0
 20
-327.164293
 11
-50.0
 21
-327.164293
  0
TEXT
  8
SIZE
  6
BYBLOCK
 62
     8
 10
128.217723
 20
-295.164293
 40
64.0
  1
100
 41
0.9
  0
LINE
  8
SIZE
  6
BYBLOCK
 62
     8
 10
-81.0
 20
-40.0
 11
-81.0
 21
-506.866492
  0
LINE
  8
SIZE
  6
BYBLOCK
 62
     8
 10
81.0
 20
-40.0
 11
81.0
 21
-506.866492
  0
LINE
  8
SIZE
  6
BYBLOCK
 62
     8
 10
-79.0
 20
-476.866492
 11
0.0
 21
-476.866492
  0
LINE
  8
SIZE
  6
BYBLOCK
 62
     8
 10
79.0
 20
-476.866492
 11
0.0
 21
-476.866492
  0
TEXT
  8
SIZE
  6
BYBLOCK
 62
     8
 10
-68.571429
 20
-444.866492
 40
64.0
  1
162
 41
0.9
  0
LINE
  8
SIZE
  6
BYBLOCK
 62
     8
 10
-125.0
 20
0.0
 11
-470.402277
 21
0.0
  0
LINE
  8
SIZE
  6
BYBLOCK
 62
     8
 10
-127.0
 20
125.0
 11
-470.402277
 21
125.0
  0
LINE
  8
SIZE
  6
BYBLOCK
 62
     8
 10
-440.402277
 20
127.0
 11
-440.402277
 21
129.0
  0
LINE
  8
SIZE
  6
BYBLOCK
 62
     8
 10
-440.402277
 20
-2.0
 11
-440.402277
 21
-4.0
  0
LINE
  8
SIZE
  6
BYBLOCK
 62
     8
 10
-440.402277
 20
125.0
 11
-440.402277
 21
0.0
  0
TEXT
  8
SIZE
  6
BYBLOCK
 62
     8
 10
-472.402277
 20
10.024189
 40
64.0
  1
125
 50
90.0
 41
0.9
  0
LINE
  8
SIZE
  6
BYBLOCK
 62
     8
 10
100.5
 20
145.0
 11
100.5
 21
760.763579
  0
LINE
  8
SIZE
  6
BYBLOCK
 62
     8
 10
-100.5
 20
145.0
 11
-100.5
 21
760.763579
  0
LINE
  8
SIZE
  6
BYBLOCK
 62
     8
 10
98.5
 20
730.763579
 11
-98.5
 21
730.763579
  0
TEXT
  8
SIZE
  6
BYBLOCK
 62
     8
 10
-61.714286
 20
762.763579
 40
64.0
  1
201
 41
0.9
  0
LINE
  8
SIZE
  6
BYBLOCK
 62
     8
 10
87.0
 20
165.0
 11
87.0
 21
631.110504
  0
LINE
  8
SIZE
  6
BYBLOCK
 62
     8
 10
-87.0
 20
165.0
 11
-87.0
 21
631.110504
  0
LINE
  8
SIZE
  6
BYBLOCK
 62
     8
 10
85.0
 20
601.110504
 11
-85.0
 21
601.110504
  0
TEXT
  8
SIZE
  6
BYBLOCK
 62
     8
 10
-69.942857
 20
633.110504
 40
64.0
  1
174
 41
0.9
  0
LINE
  8
SIZE
  6
BYBLOCK
 62
     8
 10
-72.0
 20
-20.0
 11
-72.0
 21
-604.578559
  0
LINE
  8
SIZE
  6
BYBLOCK
 62
     8
 10
72.0
 20
-20.0
 11
72.0
 21
-604.578559
  0
LINE
  8
SIZE
  6
BYBLOCK
 62
     8
 10
74.0
 20
-574.578559
 11
76.0
 21
-574.578559
  0
LINE
  8
SIZE
  6
BYBLOCK
 62
     8
 10
-74.0
 20
-574.578559
 11
-76.0
 21
-574.578559
  0
LINE
  8
SIZE
  6
BYBLOCK
 62
     8
 10
72.0
 20
-574.578559
 11
-72.0
 21
-574.578559
  0
TEXT
  8
SIZE
  6
BYBLOCK
 62
     8
 10
156.670443
 20
-542.578559
 40
64.0
  1
üá144
 41
0.9
  0
LINE
  8
SIZE
  6
BYBLOCK
 62
     8
 10
-105.0
 20
-35.0
 11
-105.0
 21
-730.264081
  0
LINE
  8
SIZE
  6
BYBLOCK
 62
     8
 10
105.0
 20
-35.0
 11
105.0
 21
-730.264081
  0
LINE
  8
SIZE
  6
BYBLOCK
 62
     8
 10
-103.0
 20
-700.264081
 11
0.0
 21
-700.264081
  0
LINE
  8
SIZE
  6
BYBLOCK
 62
     8
 10
103.0
 20
-700.264081
 11
0.0
 21
-700.264081
  0
TEXT
  8
SIZE
  6
BYBLOCK
 62
     8
 10
152.850807
 20
-668.264081
 40
64.0
  1
üá210
 41
0.9
  0
LINE
  8
SIZE
  6
BYBLOCK
 62
     8
 10
-69.5
 20
169.0
 11
-69.5
 21
507.689563
  0
LINE
  8
SIZE
  6
BYBLOCK
 62
     8
 10
69.5
 20
169.0
 11
69.5
 21
507.689563
  0
LINE
  8
SIZE
  6
BYBLOCK
 62
     8
 10
-67.5
 20
477.689563
 11
0.0
 21
477.689563
  0
LINE
  8
SIZE
  6
BYBLOCK
 62
     8
 10
67.5
 20
477.689563
 11
0.0
 21
477.689563
  0
TEXT
  8
SIZE
  6
BYBLOCK
 62
     8
 10
-67.2
 20
509.689563
 40
64.0
  1
139
 41
0.9
  0
CIRCLE
  8
SIZE
  6
CONTINUOUS
 62
     8
 10
69.5
 20
477.689563
 40
6.0
  0
CIRCLE
  8
SIZE
  6
CONTINUOUS
 62
     8
 10
-69.5
 20
477.689563
 40
6.0
  0
CIRCLE
  8
SIZE
  6
CONTINUOUS
 62
     8
 10
105.0
 20
-700.264081
 40
6.0
  0
CIRCLE
  8
SIZE
  6
CONTINUOUS
 62
     8
 10
-105.0
 20
-700.264081
 40
6.0
  0
CIRCLE
  8
SIZE
  6
CONTINUOUS
 62
     8
 10
-72.0
 20
-574.578559
 40
6.0
  0
CIRCLE
  8
SIZE
  6
CONTINUOUS
 62
     8
 10
72.0
 20
-574.578559
 40
6.0
  0
CIRCLE
  8
SIZE
  6
CONTINUOUS
 62
     8
 10
-87.0
 20
601.110504
 40
6.0
  0
CIRCLE
  8
SIZE
  6
CONTINUOUS
 62
     8
 10
87.0
 20
601.110504
 40
6.0
  0
CIRCLE
  8
SIZE
  6
CONTINUOUS
 62
     8
 10
-100.5
 20
730.763579
 40
6.0
  0
CIRCLE
  8
SIZE
  6
CONTINUOUS
 62
     8
 10
100.5
 20
730.763579
 40
6.0
  0
CIRCLE
  8
SIZE
  6
CONTINUOUS
 62
     8
 10
-440.402277
 20
0.0
 40
6.0
  0
CIRCLE
  8
SIZE
  6
CONTINUOUS
 62
     8
 10
-440.402277
 20
125.0
 40
6.0
  0
CIRCLE
  8
SIZE
  6
CONTINUOUS
 62
     8
 10
81.0
 20
-476.866492
 40
6.0
  0
CIRCLE
  8
SIZE
  6
CONTINUOUS
 62
     8
 10
-81.0
 20
-476.866492
 40
6.0
  0
CIRCLE
  8
SIZE
  6
CONTINUOUS
 62
     8
 10
-50.0
 20
-327.164293
 40
6.0
  0
CIRCLE
  8
SIZE
  6
CONTINUOUS
 62
     8
 10
50.0
 20
-327.164293
 40
6.0
  0
CIRCLE
  8
SIZE
  6
CONTINUOUS
 62
     8
 10
-569.273085
 20
-15.0
 40
6.0
  0
CIRCLE
  8
SIZE
  6
CONTINUOUS
 62
     8
 10
-569.273085
 20
0.0
 40
6.0
  0
CIRCLE
  8
SIZE
  6
CONTINUOUS
 62
     8
 10
9.0
 20
270.975665
 40
6.0
  0
CIRCLE
  8
SIZE
  6
CONTINUOUS
 62
     8
 10
0.0
 20
270.975665
 40
6.0
  0
CIRCLE
  8
SIZE
  6
CONTINUOUS
 62
     8
 10
39.5
 20
391.182273
 40
6.0
  0
CIRCLE
  8
SIZE
  6
CONTINUOUS
 62
     8
 10
-21.5
 20
391.182273
 40
6.0
  0
CIRCLE
  8
SIZE
  6
CONTINUOUS
 62
     8
 10
-569.273085
 20
180.0
 40
6.0
  0
CIRCLE
  8
SIZE
  6
CONTINUOUS
 62
     8
 10
-569.273085
 20
0.0
 40
6.0
  0
CIRCLE
  8
SIZE
  6
CONTINUOUS
 62
     8
 10
-332.392235
 20
0.0
 40
6.0
  0
CIRCLE
  8
SIZE
  6
CONTINUOUS
 62
     8
 10
-332.392235
 20
102.0
 40
6.0
  0
CIRCLE
  8
SIZE
  6
CONTINUOUS
 62
     8
 10
585.207481
 20
53.0
 40
6.0
  0
CIRCLE
  8
SIZE
  6
CONTINUOUS
 62
     8
 10
585.207481
 20
151.0
 40
6.0
  0
CIRCLE
  8
SIZE
  6
CONTINUOUS
 62
     8
 10
718.408868
 20
154.5
 40
6.0
  0
CIRCLE
  8
SIZE
  6
CONTINUOUS
 62
     8
 10
718.408868
 20
49.5
 40
6.0
  0
CIRCLE
  8
SIZE
  6
CONTINUOUS
 62
     8
 10
0.0
 20
-192.422785
 40
6.0
  0
CIRCLE
  8
SIZE
  6
CONTINUOUS
 62
     8
 10
54.0
 20
-192.422785
 40
6.0
  0
CIRCLE
  8
SIZE
  6
CONTINUOUS
 62
     8
 10
445.127863
 20
-0.0
 40
6.0
  0
CIRCLE
  8
SIZE
  6
CONTINUOUS
 62
     8
 10
445.127863
 20
118.0
 40
6.0
  0
POLYLINE
  8
NOTE
  6
CONTINUOUS
 62
     4
 66
     1
  0
VERTEX
  8
NOTE
  6
CONTINUOUS
 62
     4
 10
82.923263
 20
145.630506
 50
208.690509
  0
VERTEX
  8
NOTE
  6
CONTINUOUS
 62
     4
 10
54.0
 20
118.0
 50
208.690509
  0
VERTEX
  8
NOTE
  6
CONTINUOUS
 62
     4
 10
92.863533
 20
127.467088
 50
208.690509
  0
SEQEND
  8
NOTE
  6
CONTINUOUS
 62
     4
  0
LINE
  8
NOTE
  6
CONTINUOUS
 62
     4
 10
54.0
 20
98.0
 11
54.0
 21
138.0
  0
LINE
  8
NOTE
  6
CONTINUOUS
 62
     4
 10
34.0
 20
118.0
 11
74.0
 21
118.0
  0
POLYLINE
  8
NOTE
  6
CONTINUOUS
 62
     4
 66
     1
  0
VERTEX
  8
NOTE
  6
CONTINUOUS
 62
     4
 10
-107.92123
 20
-29.527871
  0
VERTEX
  8
NOTE
  6
CONTINUOUS
 62
     4
 10
-81.321761
 20
0.346336
  0
VERTEX
  8
NOTE
  6
CONTINUOUS
 62
     4
 10
-89.420474
 20
-38.825221
  0
SEQEND
  8
NOTE
  6
CONTINUOUS
 62
     4
  0
POLYLINE
  8
NOTE
  6
CONTINUOUS
 62
     4
 66
     1
  0
VERTEX
  8
NOTE
  6
CONTINUOUS
 62
     4
 10
-124.444245
 20
139.068706
 50
324.40759
  0
VERTEX
  8
NOTE
  6
CONTINUOUS
 62
     4
 10
-87.0
 20
125.0
 50
324.40759
  0
VERTEX
  8
NOTE
  6
CONTINUOUS
 62
     4
 10
-112.393315
 20
155.905979
 50
324.40759
  0
SEQEND
  8
NOTE
  6
CONTINUOUS
 62
     4
  0
LINE
  8
NOTE
  6
CONTINUOUS
 62
     4
 10
-87.0
 20
105.0
 11
-87.0
 21
145.0
  0
LINE
  8
NOTE
  6
CONTINUOUS
 62
     4
 10
-67.0
 20
125.0
 11
-107.0
 21
125.0
  0
LINE
  8
NOTE
  6
CONTINUOUS
 62
     4
 10
87.0
 20
105.0
 11
87.0
 21
145.0
  0
LINE
  8
NOTE
  6
CONTINUOUS
 62
     4
 10
67.0
 20
125.0
 11
107.0
 21
125.0
  0
ENDSEC
  0
EOF
