  0
SECTION
  2
HEADER
  9
$ACADVER
  1
AC1006
  9
$INSBASE
 10
0.0
 20
0.0
 30
0.0
  9
$EXTMIN
 10
-667.553537
 20
-1249.116569
  9
$EXTMAX
 10
1451.798159
 20
609.478191
  9
$LIMMIN
 10
-2970.0
 20
-2100.0
  9
$LIMMAX
 10
2970.0
 20
2100.0
  9
$ORTHOMODE
 70
     0
  9
$REGENMODE
 70
     0
  9
$FILLMODE
 70
     1
  9
$QTEXTMODE
 70
     0
  9
$MIRRTEXT
 70
     0
  9
$DRAGMODE
 70
     2
  9
$LTSCALE
 40
20.0
  9
$OSMODE
 70
     0
  9
$ATTMODE
 70
     1
  9
$TEXTSIZE
 40
64.0
  9
$TRACEWID
 40
0.05
  9
$TEXTSTYLE
  7
STANDARD
  9
$CLAYER
  8
0
  9
$CELTYPE
  6
CONTINUOUS
  9
$CECOLOR
 62
     1
  9
$DIMSCALE
 40
1.0
  9
$DIMASZ
 40
2.0
  9
$DIMEXO
 40
20.0
  9
$DIMDLI
 40
200.0
  9
$DIMRND
 40
0.0
  9
$DIMDLE
 40
0.0
  9
$DIMEXE
 40
30.0
  9
$DIMTP
 40
0.0
  9
$DIMTM
 40
0.0
  9
$DIMTXT
 40
64.0
  9
$DIMCEN
 40
0.09
  9
$DIMTSZ
 40
0.0
  9
$DIMTOL
 70
     0
  9
$DIMLIM
 70
     0
  9
$DIMTIH
 70
     0
  9
$DIMTOH
 70
     0
  9
$DIMSE1
 70
     0
  9
$DIMSE2
 70
     0
  9
$DIMTAD
 70
     1
  9
$DIMZIN
 70
     8
  9
$DIMBLK
  1
DOT1
  9
$DIMASO
 70
     1
  9
$DIMSHO
 70
     0
  9
$DIMPOST
  1

  9
$DIMAPOST
  1

  9
$DIMALT
 70
     0
  9
$DIMALTD
 70
     2
  9
$DIMALTF
 40
25.4
  9
$DIMLFAC
 40
1.0
  9
$DIMTOFL
 70
     1
  9
$DIMTVP
 40
0.0
  9
$DIMTIX
 70
     1
  9
$DIMSOXD
 70
     0
  9
$DIMSAH
 70
     0
  9
$DIMBLK1
  1

  9
$DIMBLK2
  1

  9
$LUNITS
 70
     2
  9
$LUPREC
 70
     4
  9
$AXISMODE
 70
     0
  9
$AXISUNIT
 10
0.0
 20
0.0
  9
$SKETCHINC
 40
0.1
  9
$FILLETRAD
 40
0.0
  9
$AUNITS
 70
     1
  9
$AUPREC
 70
     3
  9
$MENU
  1
ACAD
  9
$ELEVATION
 40
0.0
  9
$THICKNESS
 40
0.0
  9
$LIMCHECK
 70
     0
  9
$BLIPMODE
 70
     0
  9
$CHAMFERA
 40
0.0
  9
$CHAMFERB
 40
0.0
  9
$SKPOLY
 70
     0
  9
$TDCREATE
 40
2450499.4470023150
  9
$TDUPDATE
 40
2451695.5670023146
  9
$TDINDWG
 40
0.0120601852
  9
$TDUSRTIMER
 40
0.0120601852
  9
$USRTIMER
 70
     1
  9
$ANGBASE
 50
0.0
  9
$ANGDIR
 70
     0
  9
$PDMODE
 70
     3
  9
$PDSIZE
 40
-2.0
  9
$PLINEWID
 40
0.0
  9
$COORDS
 70
     2
  9
$SPLFRAME
 70
     0
  9
$SPLINETYPE
 70
     6
  9
$SPLINESEGS
 70
     8
  9
$ATTDIA
 70
     0
  9
$ATTREQ
 70
     1
  9
$HANDLING
 70
     0
  9
$HANDSEED
  5
0
  9
$SURFTAB1
 70
     6
  9
$SURFTAB2
 70
     6
  9
$SURFTYPE
 70
     6
  9
$SURFU
 70
     6
  9
$SURFV
 70
     6
  9
$FLATLAND
 70
     1
  9
$UCSNAME
  2

  9
$UCSORG
 10
0.0
 20
0.0
 30
0.0
  9
$UCSXDIR
 10
1.0
 20
0.0
 30
0.0
  9
$UCSYDIR
 10
0.0
 20
1.0
 30
0.0
  9
$USERI1
 70
     0
  9
$USERI2
 70
     0
  9
$USERI3
 70
     0
  9
$USERI4
 70
     0
  9
$USERI5
 70
     0
  9
$USERR1
 40
20.0
  9
$USERR2
 40
0.0
  9
$USERR3
 40
0.0
  9
$USERR4
 40
0.0
  9
$USERR5
 40
0.0
  9
$WORLDVIEW
 70
     1
  9
$VIEWCTR
 10
-0.0
 20
41.309904
  9
$VIEWSIZE
 40
4282.619808
  9
$SNAPMODE
 70
     0
  9
$SNAPUNIT
 10
400.0
 20
400.0
  9
$SNAPBASE
 10
0.0
 20
0.0
  9
$SNAPANG
 50
0.0
  9
$SNAPSTYLE
 70
     0
  9
$SNAPISOPAIR
 70
     0
  9
$GRIDMODE
 70
     1
  9
$GRIDUNIT
 10
400.0
 20
400.0
  9
$FASTZOOM
 70
     1
  9
$VIEWDIR
 10
0.0
 20
0.0
 30
1.0
  0
ENDSEC
  0
SECTION
  2
TABLES
  0
TABLE
  2
VPORT
 70
     2
  0
VPORT
  2
*ACTIVE
 70
     0
 10
0.0
 20
0.0
 11
1.0
 21
1.0
 12
-0.0
 22
41.309904
 13
0.0
 23
0.0
 14
400.0
 24
400.0
 15
400.0
 25
400.0
 16
0.0
 26
0.0
 36
1.0
 17
0.0
 27
0.0
 37
0.0
 40
4282.619808
 41
1.387001
 42
50.0
 43
0.0
 44
0.0
 50
0.0
 51
0.0
 71
     0
 72
   500
 73
     1
 74
     0
 75
     0
 76
     1
 77
     0
 78
     0
  0
ENDTAB
  0
TABLE
  2
LTYPE
 70
     8
  0
LTYPE
  2
CONTINUOUS
 70
    64
  3
実線
 72
    65
 73
     0
 40
0.0
  0
LTYPE
  2
DASHDOT
 70
    64
  3
____ _ ____ _ ____ _ ____ _ ____ _ ____ _ ____
 72
    65
 73
     4
 40
5.5
 49
4.0
 49
-0.6
 49
0.3
 49
-0.6
  0
LTYPE
  2
CONTINOUS
 70
    64
  3
Solid line
 72
    65
 73
     0
 40
0.0
  0
LTYPE
  2
DASHED
 70
    64
  3
_ _ _ _ _ _ _ _ _ _ _ _ _ _ _ _ _ _ _ _ _ _ _
 72
    65
 73
     2
 40
2.0
 49
1.2
 49
-0.8
  0
LTYPE
  2
DOT
 70
    64
  3
...............................................
 72
    65
 73
     2
 40
0.8
 49
0.5
 49
-0.3
  0
LTYPE
  2
DASHDOT1
 70
    64
  3
____ _ ____ _ ____ _ ____ _ ____ _ ____ _ ____
 72
    65
 73
     4
 40
2.0
 49
1.5
 49
-0.2
 49
0.1
 49
-0.2
  0
LTYPE
  2
DIVIDE
 70
    64
  3
_____ _ _ _____ _ _ _____ _ _ _____ _ _ ____
 72
    65
 73
     6
 40
6.4
 49
4.0
 49
-0.6
 49
0.3
 49
-0.6
 49
0.3
 49
-0.6
  0
LTYPE
  2
DIVIDE1
 70
    64
  3
_____ _ _ _____ _ _ _____ _ _ _____ _ _ ____
 72
    65
 73
     6
 40
3.2
 49
2.0
 49
-0.3
 49
0.15
 49
-0.3
 49
0.15
 49
-0.3
  0
ENDTAB
  0
TABLE
  2
LAYER
 70
    12
  0
LAYER
  2
0
 70
    64
 62
     2
  6
CONTINUOUS
  0
LAYER
  2
OUTLINE
 70
    64
 62
     4
  6
CONTINUOUS
  0
LAYER
  2
DETAIL
 70
    64
 62
     1
  6
CONTINUOUS
  0
LAYER
  2
BASIS
 70
    64
 62
     1
  6
CONTINUOUS
  0
LAYER
  2
NOTE
 70
    64
 62
     1
  6
CONTINUOUS
  0
LAYER
  2
DEFPOINTS
 70
     0
 62
     7
  6
CONTINUOUS
  0
LAYER
  2
SIZE
 70
    64
 62
     7
  6
CONTINUOUS
  0
LAYER
  2
FIX
 70
    64
 62
     7
  6
CONTINUOUS
  0
LAYER
  2
ARRANGE
 70
    64
 62
     7
  6
CONTINUOUS
  0
LAYER
  2
ETC
 70
    64
 62
     7
  6
CONTINUOUS
  0
LAYER
  2
SERVICESPACE
 70
     0
 62
     7
  6
CONTINUOUS
  0
LAYER
  2
SYMBOLLINE
 70
     0
 62
     7
  6
CONTINUOUS
  0
ENDTAB
  0
TABLE
  2
STYLE
 70
     1
  0
STYLE
  2
STANDARD
 70
    64
 40
0.0
 41
0.9
 50
0.0
 71
     0
 42
64.0
  3
SIMPLEX
  4
BIGFONT
  0
ENDTAB
  0
TABLE
  2
VIEW
 70
     1
  0
VIEW
  2
ALL
 70
     0
 40
4282.619808
 10
-0.0
 20
41.309904
 41
5940.0
 11
0.0
 21
0.0
 31
1.0
 12
0.0
 22
0.0
 32
0.0
 42
50.0
 43
0.0
 44
0.0
 50
0.0
 71
     0
  0
ENDTAB
  0
TABLE
  2
UCS
 70
     0
  0
ENDTAB
  0
TABLE
  2
DWGMGR
 70
     0
  0
ENDTAB
  0
ENDSEC
  0
SECTION
  2
BLOCKS
  0
ENDSEC
  0
SECTION
  2
ENTITIES
  0
TEXT
  8
ETC
  6
CONTINUOUS
 62
    10
 10
550.982226
 20
545.478191
 40
64.0
  1
V3202
 41
0.9
  0
TEXT
  8
ETC
  6
CONTINUOUS
 62
    10
 10
557.308105
 20
399.982983
 40
64.0
  1
換気扇
 41
0.9
  0
LINE
  8
SIZE
  6
CONTINUOUS
 62
     8
 10
245.0
 20
172.189567
 11
43.651466
 21
172.189567
  0
LINE
  8
SIZE
  6
CONTINUOUS
 62
     8
 10
458.517477
 20
-598.0
 11
458.517477
 21
-721.546405
  0
POLYLINE
  8
NOTE
  6
CONTINUOUS
 62
     4
 66
     1
  0
VERTEX
  8
NOTE
  6
CONTINUOUS
 62
     4
 10
-276.215883
 20
-183.017368
 50
319.876817
  0
VERTEX
  8
NOTE
  6
CONTINUOUS
 62
     4
 10
-240.0
 20
-200.0
 50
319.876817
  0
VERTEX
  8
NOTE
  6
CONTINUOUS
 62
     4
 10
-262.872559
 20
-167.184668
 50
319.876817
  0
SEQEND
  8
NOTE
  6
CONTINUOUS
 62
     4
  0
POLYLINE
  8
NOTE
  6
CONTINUOUS
 62
     4
 66
     1
  0
VERTEX
  8
NOTE
  6
CONTINUOUS
 62
     4
 10
160.188878
 20
-173.329848
 50
303.182986
  0
VERTEX
  8
NOTE
  6
CONTINUOUS
 62
     4
 10
190.0
 20
-200.0
 50
303.182986
  0
VERTEX
  8
NOTE
  6
CONTINUOUS
 62
     4
 10
177.517887
 20
-161.99741
 50
303.182986
  0
SEQEND
  8
NOTE
  6
CONTINUOUS
 62
     4
  0
POLYLINE
  8
NOTE
  6
CONTINUOUS
 62
     4
 66
     1
  0
VERTEX
  8
NOTE
  6
CONTINUOUS
 62
     4
 10
264.420408
 20
-168.319664
  0
VERTEX
  8
NOTE
  6
CONTINUOUS
 62
     4
 10
240.0
 20
-200.0
  0
VERTEX
  8
NOTE
  6
CONTINUOUS
 62
     4
 10
245.308525
 20
-160.35382
  0
SEQEND
  8
NOTE
  6
CONTINUOUS
 62
     4
  0
LINE
  8
NOTE
  6
CONTINUOUS
 62
     4
 10
31.248454
 20
41.093832
 11
129.012709
 21
41.093832
  0
LINE
  8
NOTE
  6
CONTINUOUS
 62
     4
 10
190.0
 20
-200.0
 11
31.248454
 21
40.156732
  0
TEXT
  8
NOTE
  6
CONTINUOUS
 62
     4
 10
42.585762
 20
54.034984
 40
64.0
  1
EL
 41
0.9
  0
LINE
  8
NOTE
  6
CONTINUOUS
 62
     4
 10
-393.469982
 20
-63.455524
 11
-566.531008
 21
-63.455524
  0
LINE
  8
NOTE
  6
CONTINUOUS
 62
     4
 10
-240.0
 20
-200.0
 11
-393.469982
 21
-63.455524
  0
LINE
  8
NOTE
  6
CONTINUOUS
 62
     4
 10
331.114942
 20
40.018638
 11
936.128674
 21
40.018638
  0
LINE
  8
NOTE
  6
CONTINUOUS
 62
     4
 10
240.0
 20
-200.0
 11
331.114942
 21
40.018638
  0
TEXT
  8
NOTE
  6
CONTINUOUS
 62
     4
 10
366.130325
 20
56.97041
 40
64.0
  1
AH 2×2-φ25
 41
0.9
  0
TEXT
  8
NOTE
  6
CONTINUOUS
 62
     4
 10
-545.20352
 20
-30.264832
 40
64.0
  1
AH
 41
0.9
  0
POINT
  8
ARRANGE
  6
CONTINUOUS
 62
     1
 10
0.0
 20
0.0
  0
LINE
  8
DETAIL
  6
CONTINUOUS
 62
     5
 10
-300.0
 20
-200.0
 11
-300.0
 21
-0.0
  0
LINE
  8
DETAIL
  6
CONTINUOUS
 62
     5
 10
0.0
 20
-0.0
 11
-300.0
 21
-0.0
  0
LINE
  8
DETAIL
  6
CONTINOUS
 62
     5
 10
0.0
 20
-553.0
 11
-295.02076
 21
-553.0
  0
LINE
  8
DETAIL
  6
CONTINOUS
 62
     5
 10
0.0
 20
-470.0
 11
-295.02076
 21
-470.0
  0
LINE
  8
NOTE
  6
CONTINOUS
 62
     4
 10
298.800194
 20
-200.799954
 11
298.800194
 21
-200.199954
  0
LINE
  8
BASIS
  6
DASHDOT
 62
     6
 10
0.0
 20
-621.941443
 11
0.0
 21
32.121465
  0
LINE
  8
DETAIL
  6
CONTINOUS
 62
     5
 10
-300.0
 20
-600.0
 11
-300.0
 21
-200.0
  0
LINE
  8
DETAIL
  6
CONTINOUS
 62
     5
 10
0.0
 20
-0.0
 11
300.0
 21
-0.0
  0
LINE
  8
DETAIL
  6
CONTINOUS
 62
     5
 10
0.0
 20
-553.0
 11
295.02076
 21
-553.0
  0
LINE
  8
DETAIL
  6
CONTINOUS
 62
     5
 10
0.0
 20
-470.0
 11
295.02076
 21
-470.0
  0
LINE
  8
DETAIL
  6
CONTINOUS
 62
     5
 10
-300.0
 20
-200.0
 11
300.0
 21
-200.0
  0
LINE
  8
DETAIL
  6
CONTINOUS
 62
     5
 10
300.0
 20
-600.0
 11
300.0
 21
-0.0
  0
LINE
  8
DETAIL
  6
CONTINOUS
 62
     5
 10
-300.0
 20
-600.0
 11
300.0
 21
-600.0
  0
LINE
  8
NOTE
  6
CONTINUOUS
 62
     4
 10
240.0
 20
-180.0
 11
240.0
 21
-220.0
  0
LINE
  8
NOTE
  6
CONTINUOUS
 62
     4
 10
220.0
 20
-200.0
 11
260.0
 21
-200.0
  0
LINE
  8
NOTE
  6
CONTINUOUS
 62
     4
 10
-240.0
 20
-180.0
 11
-240.0
 21
-220.0
  0
LINE
  8
NOTE
  6
CONTINUOUS
 62
     4
 10
-260.0
 20
-200.0
 11
-220.0
 21
-200.0
  0
LINE
  8
NOTE
  6
CONTINUOUS
 62
     4
 10
190.0
 20
-180.0
 11
190.0
 21
-220.0
  0
LINE
  8
NOTE
  6
CONTINUOUS
 62
     4
 10
170.0
 20
-200.0
 11
210.0
 21
-200.0
  0
CIRCLE
  8
ARRANGE
  6
CONTINUOUS
 62
     1
 10
0.0
 20
0.0
 40
40.0
  0
LINE
  8
OUTLINE
  6
CONTINOUS
 62
     3
 10
-300.0
 20
-600.0
 11
-300.0
 21
-200.0
  0
LINE
  8
OUTLINE
  6
CONTINUOUS
 62
     3
 10
0.0
 20
0.0
 11
-300.0
 21
0.0
  0
LINE
  8
OUTLINE
  6
CONTINUOUS
 62
     3
 10
-300.0
 20
-200.0
 11
-300.0
 21
0.0
  0
LINE
  8
OUTLINE
  6
CONTINOUS
 62
     3
 10
0.0
 20
0.0
 11
300.0
 21
0.0
  0
LINE
  8
OUTLINE
  6
CONTINOUS
 62
     3
 10
300.0
 20
-600.0
 11
300.0
 21
0.0
  0
LINE
  8
OUTLINE
  6
CONTINOUS
 62
     3
 10
-300.0
 20
-600.0
 11
300.0
 21
-600.0
  0
CIRCLE
  8
FIX
  6
CONTINUOUS
 62
     9
 10
-240.0
 20
-200.0
 40
12.5
  0
CIRCLE
  8
FIX
  6
CONTINUOUS
 62
     9
 10
240.0
 20
-200.0
 40
12.5
  0
LINE
  8
NOTE
  6
CONTINUOUS
 62
     4
 10
-240.0
 20
-495.0
 11
-70.379888
 21
-819.557107
  0
LINE
  8
NOTE
  6
CONTINUOUS
 62
     4
 10
-70.379888
 20
-819.557107
 11
274.282613
 21
-819.557107
  0
TEXT
  8
NOTE
  6
CONTINUOUS
 62
     4
 10
-26.481475
 20
-789.370263
 40
64.0
  1
4-φ8
 41
0.9
  0
LINE
  8
SIZE
  6
BYBLOCK
 62
     8
 10
-320.0
 20
-600.0
 11
-601.553537
 21
-600.0
  0
LINE
  8
SIZE
  6
BYBLOCK
 62
     8
 10
-280.0
 20
-260.0
 11
-601.553537
 21
-260.0
  0
LINE
  8
SIZE
  6
BYBLOCK
 62
     8
 10
-571.553537
 20
-598.0
 11
-571.553537
 21
-262.0
  0
TEXT
  8
SIZE
  6
BYBLOCK
 62
     8
 10
-603.553537
 20
-504.057143
 40
64.0
  1
340
 50
90.0
 41
0.9
  0
LINE
  8
SIZE
  6
BYBLOCK
 62
     8
 10
-320.0
 20
-600.0
 11
-480.551754
 21
-600.0
  0
LINE
  8
SIZE
  6
BYBLOCK
 62
     8
 10
-280.0
 20
-495.0
 11
-480.551754
 21
-495.0
  0
LINE
  8
SIZE
  6
BYBLOCK
 62
     8
 10
-450.551754
 20
-493.0
 11
-450.551754
 21
-491.0
  0
LINE
  8
SIZE
  6
BYBLOCK
 62
     8
 10
-450.551754
 20
-602.0
 11
-450.551754
 21
-604.0
  0
LINE
  8
SIZE
  6
BYBLOCK
 62
     8
 10
-450.551754
 20
-495.0
 11
-450.551754
 21
-600.0
  0
TEXT
  8
SIZE
  6
BYBLOCK
 62
     8
 10
-482.551754
 20
-616.071429
 40
64.0
  1
105
 50
90.0
 41
0.9
  0
LINE
  8
SIZE
  6
BYBLOCK
 62
     8
 10
320.0
 20
0.0
 11
879.11684
 21
0.0
  0
LINE
  8
SIZE
  6
BYBLOCK
 62
     8
 10
320.0
 20
-600.0
 11
879.11684
 21
-600.0
  0
LINE
  8
SIZE
  6
BYBLOCK
 62
     8
 10
849.11684
 20
-2.0
 11
849.11684
 21
-300.0
  0
LINE
  8
SIZE
  6
BYBLOCK
 62
     8
 10
849.11684
 20
-598.0
 11
849.11684
 21
-300.0
  0
TEXT
  8
SIZE
  6
BYBLOCK
 62
     8
 10
817.11684
 20
-374.057142
 40
64.0
  1
600
 50
90.0
 41
0.9
  0
LINE
  8
SIZE
  6
BYBLOCK
 62
     8
 10
340.0
 20
-600.0
 11
488.517477
 21
-600.0
  0
LINE
  8
SIZE
  6
BYBLOCK
 62
     8
 10
315.02076
 20
-553.0
 11
488.517477
 21
-553.0
  0
LINE
  8
SIZE
  6
BYBLOCK
 62
     8
 10
458.517477
 20
-598.0
 11
458.517477
 21
-576.5
  0
LINE
  8
SIZE
  6
BYBLOCK
 62
     8
 10
458.517477
 20
-555.0
 11
458.517477
 21
-576.5
  0
TEXT
  8
SIZE
  6
BYBLOCK
 62
     8
 10
426.517477
 20
-722.318636
 40
64.0
  1
47
 50
90.0
 41
0.9
  0
LINE
  8
SIZE
  6
BYBLOCK
 62
     8
 10
360.0
 20
-600.0
 11
636.46801
 21
-600.0
  0
LINE
  8
SIZE
  6
BYBLOCK
 62
     8
 10
315.02076
 20
-470.0
 11
636.46801
 21
-470.0
  0
LINE
  8
SIZE
  6
BYBLOCK
 62
     8
 10
606.46801
 20
-468.0
 11
606.46801
 21
-466.0
  0
LINE
  8
SIZE
  6
BYBLOCK
 62
     8
 10
606.46801
 20
-602.0
 11
606.46801
 21
-604.0
  0
LINE
  8
SIZE
  6
BYBLOCK
 62
     8
 10
606.46801
 20
-470.0
 11
606.46801
 21
-600.0
  0
TEXT
  8
SIZE
  6
BYBLOCK
 62
     8
 10
574.46801
 20
-603.571428
 40
64.0
  1
130
 50
90.0
 41
0.9
  0
LINE
  8
SIZE
  6
BYBLOCK
 62
     8
 10
320.0
 20
-600.0
 11
750.082316
 21
-600.0
  0
LINE
  8
SIZE
  6
BYBLOCK
 62
     8
 10
320.0
 20
-200.0
 11
750.082316
 21
-200.0
  0
LINE
  8
SIZE
  6
BYBLOCK
 62
     8
 10
720.082316
 20
-598.0
 11
720.082316
 21
-202.0
  0
TEXT
  8
SIZE
  6
BYBLOCK
 62
     8
 10
688.082316
 20
-474.057142
 40
64.0
  1
400
 50
90.0
 41
0.9
  0
LINE
  8
SIZE
  6
BYBLOCK
 62
     8
 10
-240.0
 20
-156.941329
 11
-240.0
 21
317.577792
  0
LINE
  8
SIZE
  6
BYBLOCK
 62
     8
 10
240.0
 20
-165.636424
 11
240.0
 21
317.577792
  0
LINE
  8
SIZE
  6
BYBLOCK
 62
     8
 10
-238.0
 20
287.577792
 11
0.0
 21
287.577792
  0
LINE
  8
SIZE
  6
BYBLOCK
 62
     8
 10
238.0
 20
287.577792
 11
0.0
 21
287.577792
  0
TEXT
  8
SIZE
  6
BYBLOCK
 62
     8
 10
-74.057143
 20
319.577792
 40
64.0
  1
480
 41
0.9
  0
LINE
  8
SIZE
  6
BYBLOCK
 62
     8
 10
300.0
 20
23.045848
 11
300.0
 21
202.189567
  0
LINE
  8
SIZE
  6
BYBLOCK
 62
     8
 10
190.0
 20
-190.0
 11
190.0
 21
202.189567
  0
LINE
  8
SIZE
  6
BYBLOCK
 62
     8
 10
298.0
 20
172.189567
 11
245.0
 21
172.189567
  0
LINE
  8
SIZE
  6
BYBLOCK
 62
     8
 10
192.0
 20
172.189567
 11
245.0
 21
172.189567
  0
TEXT
  8
SIZE
  6
BYBLOCK
 62
     8
 10
50.131601
 20
204.189567
 40
64.0
  1
110
 41
0.9
  0
LINE
  8
SIZE
  6
BYBLOCK
 62
     8
 10
-300.0
 20
14.350753
 11
-300.0
 21
442.014387
  0
LINE
  8
SIZE
  6
BYBLOCK
 62
     8
 10
300.0
 20
23.045848
 11
300.0
 21
442.014387
  0
LINE
  8
SIZE
  6
BYBLOCK
 62
     8
 10
-298.0
 20
412.014387
 11
0.0
 21
412.014387
  0
LINE
  8
SIZE
  6
BYBLOCK
 62
     8
 10
298.0
 20
412.014387
 11
0.0
 21
412.014387
  0
TEXT
  8
SIZE
  6
BYBLOCK
 62
     8
 10
-74.057143
 20
444.014387
 40
64.0
  1
600
 41
0.9
  0
CIRCLE
  8
SIZE
  6
CONTINUOUS
 62
     8
 10
300.0
 20
412.014387
 40
6.0
  0
CIRCLE
  8
SIZE
  6
CONTINUOUS
 62
     8
 10
-300.0
 20
412.014387
 40
6.0
  0
CIRCLE
  8
SIZE
  6
CONTINUOUS
 62
     8
 10
190.0
 20
172.189567
 40
6.0
  0
CIRCLE
  8
SIZE
  6
CONTINUOUS
 62
     8
 10
300.0
 20
172.189567
 40
6.0
  0
CIRCLE
  8
SIZE
  6
CONTINUOUS
 62
     8
 10
240.0
 20
287.577792
 40
6.0
  0
CIRCLE
  8
SIZE
  6
CONTINUOUS
 62
     8
 10
-240.0
 20
287.577792
 40
6.0
  0
CIRCLE
  8
SIZE
  6
CONTINUOUS
 62
     8
 10
720.082316
 20
-200.0
 40
6.0
  0
CIRCLE
  8
SIZE
  6
CONTINUOUS
 62
     8
 10
720.082316
 20
-600.0
 40
6.0
  0
CIRCLE
  8
SIZE
  6
CONTINUOUS
 62
     8
 10
606.46801
 20
-600.0
 40
6.0
  0
CIRCLE
  8
SIZE
  6
CONTINUOUS
 62
     8
 10
606.46801
 20
-470.0
 40
6.0
  0
CIRCLE
  8
SIZE
  6
CONTINUOUS
 62
     8
 10
458.517477
 20
-553.0
 40
6.0
  0
CIRCLE
  8
SIZE
  6
CONTINUOUS
 62
     8
 10
458.517477
 20
-600.0
 40
6.0
  0
CIRCLE
  8
SIZE
  6
CONTINUOUS
 62
     8
 10
849.11684
 20
-600.0
 40
6.0
  0
CIRCLE
  8
SIZE
  6
CONTINUOUS
 62
     8
 10
849.11684
 20
-0.0
 40
6.0
  0
CIRCLE
  8
SIZE
  6
CONTINUOUS
 62
     8
 10
-450.551754
 20
-600.0
 40
6.0
  0
CIRCLE
  8
SIZE
  6
CONTINUOUS
 62
     8
 10
-450.551754
 20
-495.0
 40
6.0
  0
CIRCLE
  8
SIZE
  6
CONTINUOUS
 62
     8
 10
-571.553537
 20
-260.0
 40
6.0
  0
CIRCLE
  8
SIZE
  6
CONTINUOUS
 62
     8
 10
-571.553537
 20
-600.0
 40
6.0
  0
POLYLINE
  8
NOTE
  6
CONTINUOUS
 62
     4
 66
     1
  0
VERTEX
  8
NOTE
  6
CONTINUOUS
 62
     4
 10
-211.968842
 20
-523.53514
 50
119.489532
  0
VERTEX
  8
NOTE
  6
CONTINUOUS
 62
     4
 10
-240.0
 20
-495.0
 50
119.489532
  0
VERTEX
  8
NOTE
  6
CONTINUOUS
 62
     4
 10
-229.991875
 20
-533.727735
 50
119.489532
  0
SEQEND
  8
NOTE
  6
CONTINUOUS
 62
     4
  0
LINE
  8
NOTE
  6
CONTINUOUS
 62
     4
 10
240.0
 20
-515.0
 11
240.0
 21
-475.0
  0
LINE
  8
NOTE
  6
CONTINUOUS
 62
     4
 10
220.0
 20
-495.0
 11
260.0
 21
-495.0
  0
LINE
  8
NOTE
  6
CONTINUOUS
 62
     4
 10
240.0
 20
-280.0
 11
240.0
 21
-240.0
  0
LINE
  8
NOTE
  6
CONTINUOUS
 62
     4
 10
220.0
 20
-260.0
 11
260.0
 21
-260.0
  0
LINE
  8
NOTE
  6
CONTINUOUS
 62
     4
 10
-240.0
 20
-515.0
 11
-240.0
 21
-475.0
  0
LINE
  8
NOTE
  6
CONTINUOUS
 62
     4
 10
-260.0
 20
-495.0
 11
-220.0
 21
-495.0
  0
LINE
  8
NOTE
  6
CONTINUOUS
 62
     4
 10
-240.0
 20
-280.0
 11
-240.0
 21
-240.0
  0
LINE
  8
NOTE
  6
CONTINUOUS
 62
     4
 10
-260.0
 20
-260.0
 11
-220.0
 21
-260.0
  0
ENDSEC
  0
EOF
