  0
SECTION
  2
HEADER
  9
$ACADVER
  1
AC1006
  9
$INSBASE
 10
0.0
 20
0.0
 30
0.0
  9
$EXTMIN
 10
-2240.337396
 20
-1684.739181
  9
$EXTMAX
 10
2314.56608
 20
652.014567
  9
$LIMMIN
 10
-2970.0
 20
-2100.0
  9
$LIMMAX
 10
2970.0
 20
2100.0
  9
$ORTHOMODE
 70
     1
  9
$REGENMODE
 70
     0
  9
$FILLMODE
 70
     1
  9
$QTEXTMODE
 70
     0
  9
$MIRRTEXT
 70
     0
  9
$DRAGMODE
 70
     2
  9
$LTSCALE
 40
20.0
  9
$OSMODE
 70
     0
  9
$ATTMODE
 70
     1
  9
$TEXTSIZE
 40
64.0
  9
$TRACEWID
 40
0.05
  9
$TEXTSTYLE
  7
STANDARD
  9
$CLAYER
  8
0
  9
$CELTYPE
  6
CONTINUOUS
  9
$CECOLOR
 62
     8
  9
$DIMSCALE
 40
1.0
  9
$DIMASZ
 40
2.0
  9
$DIMEXO
 40
20.0
  9
$DIMDLI
 40
200.0
  9
$DIMRND
 40
0.0
  9
$DIMDLE
 40
0.0
  9
$DIMEXE
 40
30.0
  9
$DIMTP
 40
0.0
  9
$DIMTM
 40
0.0
  9
$DIMTXT
 40
64.0
  9
$DIMCEN
 40
0.09
  9
$DIMTSZ
 40
0.0
  9
$DIMTOL
 70
     0
  9
$DIMLIM
 70
     0
  9
$DIMTIH
 70
     0
  9
$DIMTOH
 70
     0
  9
$DIMSE1
 70
     0
  9
$DIMSE2
 70
     0
  9
$DIMTAD
 70
     1
  9
$DIMZIN
 70
     8
  9
$DIMBLK
  1
DOT1
  9
$DIMASO
 70
     1
  9
$DIMSHO
 70
     0
  9
$DIMPOST
  1

  9
$DIMAPOST
  1

  9
$DIMALT
 70
     0
  9
$DIMALTD
 70
     2
  9
$DIMALTF
 40
25.4
  9
$DIMLFAC
 40
1.0
  9
$DIMTOFL
 70
     1
  9
$DIMTVP
 40
0.0
  9
$DIMTIX
 70
     1
  9
$DIMSOXD
 70
     0
  9
$DIMSAH
 70
     0
  9
$DIMBLK1
  1

  9
$DIMBLK2
  1

  9
$LUNITS
 70
     2
  9
$LUPREC
 70
     4
  9
$AXISMODE
 70
     0
  9
$AXISUNIT
 10
0.0
 20
0.0
  9
$SKETCHINC
 40
0.1
  9
$FILLETRAD
 40
5.0
  9
$AUNITS
 70
     1
  9
$AUPREC
 70
     3
  9
$MENU
  1
ACAD
  9
$ELEVATION
 40
0.0
  9
$THICKNESS
 40
0.0
  9
$LIMCHECK
 70
     0
  9
$BLIPMODE
 70
     0
  9
$CHAMFERA
 40
0.0
  9
$CHAMFERB
 40
0.0
  9
$SKPOLY
 70
     0
  9
$TDCREATE
 40
2451355.6598263890
  9
$TDUPDATE
 40
2451452.3718865742
  9
$TDINDWG
 40
0.0332870370
  9
$TDUSRTIMER
 40
0.0332870370
  9
$USRTIMER
 70
     1
  9
$ANGBASE
 50
0.0
  9
$ANGDIR
 70
     0
  9
$PDMODE
 70
     3
  9
$PDSIZE
 40
-2.0
  9
$PLINEWID
 40
0.0
  9
$COORDS
 70
     0
  9
$SPLFRAME
 70
     0
  9
$SPLINETYPE
 70
     6
  9
$SPLINESEGS
 70
     8
  9
$ATTDIA
 70
     0
  9
$ATTREQ
 70
     1
  9
$HANDLING
 70
     0
  9
$HANDSEED
  5
0
  9
$SURFTAB1
 70
     6
  9
$SURFTAB2
 70
     6
  9
$SURFTYPE
 70
     6
  9
$SURFU
 70
     6
  9
$SURFV
 70
     6
  9
$FLATLAND
 70
     1
  9
$UCSNAME
  2

  9
$UCSORG
 10
0.0
 20
0.0
 30
0.0
  9
$UCSXDIR
 10
1.0
 20
0.0
 30
0.0
  9
$UCSYDIR
 10
0.0
 20
1.0
 30
0.0
  9
$USERI1
 70
     0
  9
$USERI2
 70
     0
  9
$USERI3
 70
     0
  9
$USERI4
 70
     0
  9
$USERI5
 70
     0
  9
$USERR1
 40
20.0
  9
$USERR2
 40
0.0
  9
$USERR3
 40
0.0
  9
$USERR4
 40
0.0
  9
$USERR5
 40
0.0
  9
$WORLDVIEW
 70
     1
  9
$VIEWCTR
 10
2.189752
 20
50.739686
  9
$VIEWSIZE
 40
4282.619808
  9
$SNAPMODE
 70
     0
  9
$SNAPUNIT
 10
400.0
 20
400.0
  9
$SNAPBASE
 10
0.0
 20
0.0
  9
$SNAPANG
 50
0.0
  9
$SNAPSTYLE
 70
     0
  9
$SNAPISOPAIR
 70
     0
  9
$GRIDMODE
 70
     0
  9
$GRIDUNIT
 10
400.0
 20
400.0
  9
$FASTZOOM
 70
     1
  9
$VIEWDIR
 10
0.0
 20
0.0
 30
1.0
  0
ENDSEC
  0
SECTION
  2
TABLES
  0
TABLE
  2
VPORT
 70
     2
  0
VPORT
  2
*ACTIVE
 70
     0
 10
0.0
 20
0.0
 11
1.0
 21
1.0
 12
2.189752
 22
50.739686
 13
0.0
 23
0.0
 14
400.0
 24
400.0
 15
400.0
 25
400.0
 16
0.0
 26
0.0
 36
1.0
 17
0.0
 27
0.0
 37
0.0
 40
2065.814328
 41
1.387001
 42
50.0
 43
0.0
 44
0.0
 50
0.0
 51
0.0
 71
     0
 72
   500
 73
     1
 74
     0
 75
     0
 76
     0
 77
     0
 78
     0
  0
ENDTAB
  0
TABLE
  2
LTYPE
 70
     7
  0
LTYPE
  2
CONTINUOUS
 70
    64
  3
Ä└É³
 72
    65
 73
     0
 40
0.0
  0
LTYPE
  2
DASHED
 70
    64
  3
_ _ _ _ _ _ _ _ _ _ _ _ _ _ _ _ _ _ _ _ _ _ _
 72
    65
 73
     2
 40
2.0
 49
1.2
 49
-0.8
  0
LTYPE
  2
DASHDOT
 70
    64
  3
____ _ ____ _ ____ _ ____ _ ____ _ ____ _ ____
 72
    65
 73
     4
 40
5.5
 49
4.0
 49
-0.6
 49
0.3
 49
-0.6
  0
LTYPE
  2
DOT
 70
    64
  3
...............................................
 72
    65
 73
     2
 40
0.8
 49
0.5
 49
-0.3
  0
LTYPE
  2
DASHDOT1
 70
    64
  3
____ _ ____ _ ____ _ ____ _ ____ _ ____ _ ____
 72
    65
 73
     4
 40
2.0
 49
1.5
 49
-0.2
 49
0.1
 49
-0.2
  0
LTYPE
  2
DIVIDE
 70
    64
  3
_____ _ _ _____ _ _ _____ _ _ _____ _ _ ____
 72
    65
 73
     6
 40
6.4
 49
4.0
 49
-0.6
 49
0.3
 49
-0.6
 49
0.3
 49
-0.6
  0
LTYPE
  2
DIVIDE1
 70
    64
  3
_____ _ _ _____ _ _ _____ _ _ _____ _ _ ____
 72
    65
 73
     6
 40
3.2
 49
2.0
 49
-0.3
 49
0.15
 49
-0.3
 49
0.15
 49
-0.3
  0
ENDTAB
  0
TABLE
  2
LAYER
 70
    12
  0
LAYER
  2
0
 70
     0
 62
     7
  6
CONTINUOUS
  0
LAYER
  2
OUTLINE
 70
    64
 62
     7
  6
CONTINUOUS
  0
LAYER
  2
DETAIL
 70
    64
 62
     7
  6
CONTINUOUS
  0
LAYER
  2
BASIS
 70
    64
 62
     7
  6
CONTINUOUS
  0
LAYER
  2
NOTE
 70
    64
 62
     7
  6
CONTINUOUS
  0
LAYER
  2
DEFPOINTS
 70
     0
 62
     7
  6
CONTINUOUS
  0
LAYER
  2
SIZE
 70
    64
 62
     7
  6
CONTINUOUS
  0
LAYER
  2
ARRANGE
 70
    64
 62
     7
  6
CONTINUOUS
  0
LAYER
  2
FIX
 70
    64
 62
     7
  6
CONTINUOUS
  0
LAYER
  2
ETC
 70
    64
 62
     7
  6
CONTINUOUS
  0
LAYER
  2
SERVICESPACE
 70
     0
 62
     7
  6
CONTINUOUS
  0
LAYER
  2
SYMBOLLINE
 70
     0
 62
     7
  6
CONTINUOUS
  0
ENDTAB
  0
TABLE
  2
STYLE
 70
     1
  0
STYLE
  2
STANDARD
 70
    64
 40
0.0
 41
0.9
 50
0.0
 71
     0
 42
64.0
  3
SIMPLEX
  4
BIGFONT
  0
ENDTAB
  0
TABLE
  2
VIEW
 70
     1
  0
VIEW
  2
ALL
 70
     0
 40
4508.020851
 10
-0.0
 20
41.309904
 41
6252.631579
 11
0.0
 21
0.0
 31
1.0
 12
0.0
 22
0.0
 32
0.0
 42
50.0
 43
0.0
 44
0.0
 50
0.0
 71
     0
  0
ENDTAB
  0
TABLE
  2
UCS
 70
     0
  0
ENDTAB
  0
TABLE
  2
DWGMGR
 70
     0
  0
ENDTAB
  0
ENDSEC
  0
SECTION
  2
BLOCKS
  0
ENDSEC
  0
SECTION
  2
ENTITIES
  0
LINE
  8
DETAIL
  6
CONTINUOUS
 62
     5
 10
-104.5
 20
-20.0
 11
-104.5
 21
0.0
  0
LINE
  8
DETAIL
  6
CONTINUOUS
 62
     5
 10
104.5
 20
-20.0
 11
104.5
 21
0.0
  0
LINE
  8
DETAIL
  6
CONTINUOUS
 62
     5
 10
-143.0
 20
-6.0
 11
143.0
 21
-6.0
  0
LINE
  8
DETAIL
  6
CONTINUOUS
 62
     5
 10
-36.0
 20
160.5
 11
-36.0
 21
189.0
  0
LINE
  8
DETAIL
  6
CONTINUOUS
 62
     5
 10
25.0
 20
160.5
 11
25.0
 21
189.0
  0
LINE
  8
DETAIL
  6
CONTINUOUS
 62
     5
 10
-36.0
 20
189.0
 11
25.0
 21
189.0
  0
POLYLINE
  8
DETAIL
  6
CONTINUOUS
 62
     5
 66
     1
  0
VERTEX
  8
DETAIL
  6
CONTINUOUS
 62
     5
 10
-143.0
 20
-8.553879
 42
0.242297
  0
VERTEX
  8
DETAIL
  6
CONTINUOUS
 62
     5
 10
-141.178581
 20
-12.091872
 42
0.083306
  0
VERTEX
  8
DETAIL
  6
CONTINUOUS
 62
     5
 10
-131.284271
 20
-16.916687
 42
0.041428
 70
     2
 50
343.528638
  0
VERTEX
  8
DETAIL
  6
CONTINUOUS
 62
     5
 10
-119.423522
 20
-19.37872
 42
0.011695
  0
VERTEX
  8
DETAIL
  6
CONTINUOUS
 62
     5
 10
-113.134913
 20
-20.0
 42
0.030475
  0
SEQEND
  8
DETAIL
  6
CONTINUOUS
 62
     5
  0
LINE
  8
DETAIL
  6
CONTINUOUS
 62
     5
 10
-143.0
 20
-8.553879
 11
-143.0
 21
0.0
  0
POLYLINE
  8
DETAIL
  6
CONTINUOUS
 62
     5
 66
     1
  0
VERTEX
  8
DETAIL
  6
CONTINUOUS
 62
     5
 10
143.0
 20
-8.553879
 42
-0.242297
  0
VERTEX
  8
DETAIL
  6
CONTINUOUS
 62
     5
 10
141.178581
 20
-12.091872
 42
-0.083306
  0
VERTEX
  8
DETAIL
  6
CONTINUOUS
 62
     5
 10
131.284271
 20
-16.916687
 42
-0.041428
 70
     2
 50
343.528638
  0
VERTEX
  8
DETAIL
  6
CONTINUOUS
 62
     5
 10
119.423522
 20
-19.37872
 42
-0.011695
  0
VERTEX
  8
DETAIL
  6
CONTINUOUS
 62
     5
 10
113.134913
 20
-20.0
 42
-0.030475
  0
SEQEND
  8
DETAIL
  6
CONTINUOUS
 62
     5
  0
LINE
  8
DETAIL
  6
CONTINUOUS
 62
     5
 10
143.0
 20
-8.553879
 11
143.0
 21
0.0
  0
LINE
  8
DETAIL
  6
CONTINUOUS
 62
     5
 10
-143.0
 20
0.0
 11
143.0
 21
0.0
  0
LINE
  8
DETAIL
  6
CONTINUOUS
 62
     5
 10
-113.134913
 20
-20.0
 11
113.134913
 21
-20.0
  0
LINE
  8
BASIS
  6
DASHDOT
 62
     6
 10
0.0
 20
-47.081866
 11
0.0
 21
216.537898
  0
LINE
  8
DETAIL
  6
CONTINUOUS
 62
     5
 10
84.708696
 20
187.0
 11
95.25
 21
187.0
  0
LINE
  8
BASIS
  6
DASHDOT
 62
     6
 10
-5.5
 20
116.725851
 11
-5.5
 21
201.639025
  0
LINE
  8
DETAIL
  6
DASHDOT
 62
     5
 10
39.5
 20
138.0
 11
39.5
 21
160.5
  0
LINE
  8
DETAIL
  6
DASHDOT
 62
     5
 10
-50.5
 20
138.0
 11
-50.5
 21
160.5
  0
LINE
  8
DETAIL
  6
CONTINUOUS
 62
     5
 10
-20.0
 20
120.0
 11
20.0
 21
120.0
  0
LINE
  8
DETAIL
  6
CONTINUOUS
 62
     5
 10
-20.0
 20
118.0
 11
20.0
 21
118.0
  0
LINE
  8
DETAIL
  6
CONTINUOUS
 62
     5
 10
20.0
 20
120.0
 11
20.0
 21
-0.0
  0
LINE
  8
DETAIL
  6
CONTINUOUS
 62
     5
 10
-20.0
 20
-0.0
 11
-20.0
 21
120.0
  0
CIRCLE
  8
FIX
  6
CONTINUOUS
 62
     9
 10
0.0
 20
120.0
 40
7.5
  0
LINE
  8
BASIS
  6
DASHDOT
 62
     6
 10
234.377402
 20
102.0
 11
76.93674
 21
102.0
  0
LINE
  8
SIZE
  6
CONTINUOUS
 62
     8
 10
-673.109193
 20
-22.0
 11
-673.109193
 21
-161.308166
  0
TEXT
  8
NOTE
  6
CONTINUOUS
 62
     4
 10
-515.676635
 20
263.321568
 40
64.0
  1
AH-2
 41
0.9
  0
LINE
  8
NOTE
  6
CONTINUOUS
 62
     4
 10
-277.506392
 20
238.092749
 11
-523.884166
 21
238.092749
  0
TEXT
  8
NOTE
  6
CONTINUOUS
 62
     4
 10
255.816887
 20
61.291415
 40
64.0
  1
EA
 41
0.9
  0
LINE
  8
DETAIL
  6
CONTINUOUS
 62
     5
 10
84.708696
 20
187.0
 11
65.169468
 21
138.0
  0
POINT
  8
ARRANGE
  6
CONTINUOUS
 62
     1
 10
0.0
 20
0.0
  0
CIRCLE
  8
ARRANGE
  6
CONTINUOUS
 62
     1
 10
0.0
 20
0.0
 40
40.0
  0
TEXT
  8
ETC
  6
CONTINUOUS
 62
    10
 10
694.778625
 20
576.904933
 40
64.0
  1
NVD0195
 41
0.9
  0
LINE
  8
DETAIL
  6
CONTINUOUS
 62
     5
 10
-99.0
 20
-0.0
 11
-95.25
 21
65.0
  0
LINE
  8
DETAIL
  6
CONTINUOUS
 62
     5
 10
-95.25
 20
65.0
 11
-95.25
 21
138.0
  0
LINE
  8
DETAIL
  6
CONTINUOUS
 62
     5
 10
99.0
 20
0.0
 11
95.25
 21
187.0
  0
LINE
  8
DETAIL
  6
CONTINUOUS
 62
     5
 10
-95.25
 20
138.0
 11
65.169468
 21
138.0
  0
LINE
  8
DETAIL
  6
CONTINUOUS
 62
     5
 10
178.25
 20
49.5
 11
178.25
 21
154.5
  0
LINE
  8
DETAIL
  6
CONTINUOUS
 62
     5
 10
146.213394
 20
49.5
 11
146.213394
 21
154.5
  0
LINE
  8
DETAIL
  6
CONTINUOUS
 62
     5
 10
178.25
 20
49.5
 11
146.213394
 21
49.5
  0
LINE
  8
DETAIL
  6
CONTINUOUS
 62
     5
 10
208.25
 20
53.0
 11
178.25
 21
53.0
  0
LINE
  8
DETAIL
  6
CONTINUOUS
 62
     5
 10
208.25
 20
53.0
 11
208.25
 21
151.0
  0
LINE
  8
DETAIL
  6
CONTINUOUS
 62
     5
 10
208.25
 20
151.0
 11
178.25
 21
151.0
  0
LINE
  8
DETAIL
  6
CONTINUOUS
 62
     5
 10
178.25
 20
154.5
 11
146.213394
 21
154.5
  0
LINE
  8
DETAIL
  6
CONTINUOUS
 62
     5
 10
146.213394
 20
49.5
 11
98.097594
 21
45.0
  0
LINE
  8
DETAIL
  6
CONTINUOUS
 62
     5
 10
146.213394
 20
154.5
 11
95.807202
 21
159.214207
  0
LINE
  8
SIZE
  6
CONTINUOUS
 62
     8
 10
991.945291
 20
154.5
 11
991.945291
 21
428.937104
  0
LINE
  8
SIZE
  6
CONTINUOUS
 62
     8
 10
880.414758
 20
153.0
 11
880.414758
 21
377.981835
  0
LINE
  8
SIZE
  6
CONTINUOUS
 62
     8
 10
811.568749
 20
-0.0
 11
811.568749
 21
-170.131602
  0
LINE
  8
SIZE
  6
CONTINUOUS
 62
     8
 10
689.022855
 20
-4.0
 11
689.022855
 21
-141.211044
  0
LINE
  8
SIZE
  6
CONTINUOUS
 62
     8
 10
210.25
 20
433.61448
 11
342.208781
 21
433.61448
  0
LINE
  8
SIZE
  6
CONTINUOUS
 62
     8
 10
210.25
 20
556.014567
 11
364.39753
 21
556.014567
  0
LINE
  8
SIZE
  6
CONTINUOUS
 62
     8
 10
-9.5
 20
307.511086
 11
-259.661041
 21
307.511086
  0
LINE
  8
DETAIL
  6
CONTINUOUS
 62
     5
 10
-50.5
 20
160.5
 11
39.5
 21
160.5
  0
LINE
  8
SIZE
  6
CONTINUOUS
 62
     8
 10
-558.951468
 20
162.5
 11
-558.951468
 21
400.771196
  0
LINE
  8
SIZE
  6
CONTINUOUS
 62
     8
 10
-463.590188
 20
0.0
 11
-463.590188
 21
-184.166333
  0
TEXT
  8
NOTE
  6
CONTINUOUS
 62
     4
 10
281.325596
 20
229.098492
 40
64.0
  1
EL
 41
0.9
  0
LINE
  8
NOTE
  6
CONTINUOUS
 62
     4
 10
257.968627
 20
204.846729
 11
376.501346
 21
204.846729
  0
CIRCLE
  8
FIX
  6
CONTINUOUS
 62
     9
 10
75.0
 20
0.0
 40
2.5
  0
CIRCLE
  8
FIX
  6
CONTINUOUS
 62
     9
 10
106.0
 20
0.0
 40
2.5
  0
CIRCLE
  8
FIX
  6
CONTINUOUS
 62
     9
 10
-75.0
 20
0.0
 40
2.5
  0
CIRCLE
  8
FIX
  6
CONTINUOUS
 62
     9
 10
-106.0
 20
-0.0
 40
2.5
  0
LINE
  8
DETAIL
  6
CONTINUOUS
 62
     5
 10
104.5
 20
-20.0
 11
104.5
 21
0.0
  0
LINE
  8
DETAIL
  6
CONTINUOUS
 62
     5
 10
-104.5
 20
-20.0
 11
-104.5
 21
0.0
  0
LINE
  8
DETAIL
  6
CONTINUOUS
 62
     5
 10
113.134913
 20
-20.0
 11
-113.134913
 21
-20.0
  0
LINE
  8
NOTE
  6
CONTINUOUS
 62
     4
 10
-106.0
 20
-0.0
 11
-281.961464
 21
-286.794407
  0
TEXT
  8
NOTE
  6
CONTINUOUS
 62
     4
 10
-544.680611
 20
-261.891794
 40
64.0
  1
8-âË5
 41
0.9
  0
LINE
  8
NOTE
  6
CONTINUOUS
 62
     4
 10
-281.961464
 20
-286.794407
 11
-558.735545
 21
-286.794407
  0
LINE
  8
SIZE
  6
CONTINUOUS
 62
     8
 10
59.0
 20
-280.832164
 11
300.699172
 21
-280.832164
  0
LINE
  8
OUTLINE
  6
CONTINUOUS
 62
     3
 10
-95.25
 20
138.0
 11
65.169468
 21
138.0
  0
LINE
  8
OUTLINE
  6
CONTINUOUS
 62
     3
 10
99.0
 20
0.0
 11
95.25
 21
187.0
  0
LINE
  8
OUTLINE
  6
CONTINUOUS
 62
     3
 10
-95.25
 20
65.0
 11
-95.25
 21
138.0
  0
LINE
  8
OUTLINE
  6
CONTINUOUS
 62
     3
 10
-99.0
 20
-0.0
 11
-95.25
 21
65.0
  0
LINE
  8
OUTLINE
  6
CONTINUOUS
 62
     3
 10
84.708696
 20
187.0
 11
65.169468
 21
138.0
  0
LINE
  8
OUTLINE
  6
CONTINUOUS
 62
     3
 10
84.708696
 20
187.0
 11
95.25
 21
187.0
  0
LINE
  8
OUTLINE
  6
CONTINUOUS
 62
     3
 10
-143.0
 20
0.0
 11
143.0
 21
0.0
  0
LINE
  8
NOTE
  6
CONTINUOUS
 62
     4
 10
-0.0
 20
120.0
 11
-277.506392
 21
238.092749
  0
LINE
  8
NOTE
  6
CONTINUOUS
 62
     4
 10
55.0
 20
138.0
 11
257.968627
 21
204.846729
  0
LINE
  8
SIZE
  6
CONTINUOUS
 62
     8
 10
208.25
 20
307.511086
 11
531.441364
 21
307.511086
  0
LINE
  8
SIZE
  6
CONTINUOUS
 62
     8
 10
206.25
 20
-139.124418
 11
535.383695
 21
-139.124418
  0
LINE
  8
SIZE
  6
BYBLOCK
 62
     8
 10
-143.0
 20
-20.0
 11
-143.0
 21
-169.124418
  0
LINE
  8
SIZE
  6
BYBLOCK
 62
     8
 10
208.25
 20
33.0
 11
208.25
 21
-169.124418
  0
LINE
  8
SIZE
  6
BYBLOCK
 62
     8
 10
-141.0
 20
-139.124418
 11
32.625
 21
-139.124418
  0
LINE
  8
SIZE
  6
BYBLOCK
 62
     8
 10
206.25
 20
-139.124418
 11
32.625
 21
-139.124418
  0
TEXT
  8
SIZE
  6
BYBLOCK
 62
     8
 10
245.979372
 20
-107.124418
 40
64.0
  1
351.25
 41
0.9
  0
LINE
  8
SIZE
  6
BYBLOCK
 62
     8
 10
0.0
 20
236.537898
 11
0.0
 21
337.511086
  0
LINE
  8
SIZE
  6
BYBLOCK
 62
     8
 10
208.25
 20
171.0
 11
208.25
 21
337.511086
  0
LINE
  8
SIZE
  6
BYBLOCK
 62
     8
 10
210.25
 20
307.511086
 11
212.25
 21
307.511086
  0
LINE
  8
SIZE
  6
BYBLOCK
 62
     8
 10
-2.0
 20
307.511086
 11
-4.0
 21
307.511086
  0
LINE
  8
SIZE
  6
BYBLOCK
 62
     8
 10
208.25
 20
307.511086
 11
0.0
 21
307.511086
  0
TEXT
  8
SIZE
  6
BYBLOCK
 62
     8
 10
233.640104
 20
339.511086
 40
64.0
  1
208.25
 41
0.9
  0
LINE
  8
SIZE
  6
BYBLOCK
 62
     8
 10
0.0
 20
-67.081866
 11
0.0
 21
-310.832164
  0
LINE
  8
SIZE
  6
BYBLOCK
 62
     8
 10
55.0
 20
98.0
 11
55.0
 21
-310.832164
  0
LINE
  8
SIZE
  6
BYBLOCK
 62
     8
 10
57.0
 20
-280.832164
 11
59.0
 21
-280.832164
  0
LINE
  8
SIZE
  6
BYBLOCK
 62
     8
 10
-2.0
 20
-280.832164
 11
-4.0
 21
-280.832164
  0
LINE
  8
SIZE
  6
BYBLOCK
 62
     8
 10
55.0
 20
-280.832164
 11
0.0
 21
-280.832164
  0
TEXT
  8
SIZE
  6
BYBLOCK
 62
     8
 10
175.910664
 20
-249.783736
 40
64.0
  1
55
 41
0.9
  0
LINE
  8
SIZE
  6
BYBLOCK
 62
     8
 10
75.0
 20
-40.0
 11
75.0
 21
-450.807623
  0
LINE
  8
SIZE
  6
BYBLOCK
 62
     8
 10
-75.0
 20
-40.0
 11
-75.0
 21
-450.807623
  0
LINE
  8
SIZE
  6
BYBLOCK
 62
     8
 10
73.0
 20
-420.807623
 11
0.0
 21
-420.807623
  0
LINE
  8
SIZE
  6
BYBLOCK
 62
     8
 10
-73.0
 20
-420.807623
 11
0.0
 21
-420.807623
  0
TEXT
  8
SIZE
  6
BYBLOCK
 62
     8
 10
-76.67598
 20
-388.807623
 40
64.0
  1
150
 41
0.9
  0
LINE
  8
SIZE
  6
BYBLOCK
 62
     8
 10
106.0
 20
-40.0
 11
106.0
 21
-713.648103
  0
LINE
  8
SIZE
  6
BYBLOCK
 62
     8
 10
-106.0
 20
-40.0
 11
-106.0
 21
-713.648103
  0
LINE
  8
SIZE
  6
BYBLOCK
 62
     8
 10
104.0
 20
-683.648103
 11
0.0
 21
-683.648103
  0
LINE
  8
SIZE
  6
BYBLOCK
 62
     8
 10
-104.0
 20
-683.648103
 11
0.0
 21
-683.648103
  0
TEXT
  8
SIZE
  6
BYBLOCK
 62
     8
 10
-76.67598
 20
-651.648103
 40
64.0
  1
212
 41
0.9
  0
LINE
  8
SIZE
  6
BYBLOCK
 62
     8
 10
99.0
 20
-20.0
 11
99.0
 21
-594.148201
  0
LINE
  8
SIZE
  6
BYBLOCK
 62
     8
 10
-99.0
 20
-20.0
 11
-99.0
 21
-594.148201
  0
LINE
  8
SIZE
  6
BYBLOCK
 62
     8
 10
-101.0
 20
-564.148201
 11
-103.0
 21
-564.148201
  0
LINE
  8
SIZE
  6
BYBLOCK
 62
     8
 10
101.0
 20
-564.148201
 11
103.0
 21
-564.148201
  0
LINE
  8
SIZE
  6
BYBLOCK
 62
     8
 10
-99.0
 20
-564.148201
 11
99.0
 21
-564.148201
  0
TEXT
  8
SIZE
  6
BYBLOCK
 62
     8
 10
-94.506605
 20
-532.148201
 40
64.0
  1
üá198
 41
0.9
  0
LINE
  8
SIZE
  6
BYBLOCK
 62
     8
 10
-115.25
 20
138.0
 11
-588.951468
 21
138.0
  0
LINE
  8
SIZE
  6
BYBLOCK
 62
     8
 10
-70.5
 20
160.5
 11
-588.951468
 21
160.5
  0
LINE
  8
SIZE
  6
BYBLOCK
 62
     8
 10
-558.951468
 20
162.5
 11
-558.951468
 21
164.5
  0
LINE
  8
SIZE
  6
BYBLOCK
 62
     8
 10
-558.951468
 20
136.0
 11
-558.951468
 21
134.0
  0
LINE
  8
SIZE
  6
BYBLOCK
 62
     8
 10
-558.951468
 20
160.5
 11
-558.951468
 21
138.0
  0
TEXT
  8
SIZE
  6
BYBLOCK
 62
     8
 10
-590.951468
 20
221.006988
 40
64.0
  1
22.5
 50
90.0
 41
0.9
  0
LINE
  8
SIZE
  6
BYBLOCK
 62
     8
 10
-163.0
 20
0.0
 11
-493.590188
 21
0.0
  0
LINE
  8
SIZE
  6
BYBLOCK
 62
     8
 10
-40.0
 20
120.0
 11
-493.590188
 21
120.0
  0
LINE
  8
SIZE
  6
BYBLOCK
 62
     8
 10
-463.590188
 20
122.0
 11
-463.590188
 21
124.0
  0
LINE
  8
SIZE
  6
BYBLOCK
 62
     8
 10
-463.590188
 20
-2.0
 11
-463.590188
 21
-4.0
  0
LINE
  8
SIZE
  6
BYBLOCK
 62
     8
 10
-463.590188
 20
120.0
 11
-463.590188
 21
0.0
  0
TEXT
  8
SIZE
  6
BYBLOCK
 62
     8
 10
-495.590188
 20
-177.48387
 40
64.0
  1
120
 50
90.0
 41
0.9
  0
LINE
  8
SIZE
  6
BYBLOCK
 62
     8
 10
-163.0
 20
0.0
 11
-588.951468
 21
0.0
  0
LINE
  8
SIZE
  6
BYBLOCK
 62
     8
 10
-115.25
 20
138.0
 11
-588.951468
 21
138.0
  0
LINE
  8
SIZE
  6
BYBLOCK
 62
     8
 10
-558.951468
 20
2.0
 11
-558.951468
 21
69.0
  0
LINE
  8
SIZE
  6
BYBLOCK
 62
     8
 10
-558.951468
 20
136.0
 11
-558.951468
 21
69.0
  0
TEXT
  8
SIZE
  6
BYBLOCK
 62
     8
 10
-590.951468
 20
0.428571
 40
64.0
  1
138
 50
90.0
 41
0.9
  0
LINE
  8
SIZE
  6
BYBLOCK
 62
     8
 10
-163.0
 20
0.0
 11
-703.109193
 21
0.0
  0
LINE
  8
SIZE
  6
BYBLOCK
 62
     8
 10
-56.0
 20
189.0
 11
-703.109193
 21
189.0
  0
LINE
  8
SIZE
  6
BYBLOCK
 62
     8
 10
-673.109193
 20
2.0
 11
-673.109193
 21
94.5
  0
LINE
  8
SIZE
  6
BYBLOCK
 62
     8
 10
-673.109193
 20
187.0
 11
-673.109193
 21
94.5
  0
TEXT
  8
SIZE
  6
BYBLOCK
 62
     8
 10
-705.109193
 20
27.3
 40
64.0
  1
189
 50
90.0
 41
0.9
  0
LINE
  8
SIZE
  6
BYBLOCK
 62
     8
 10
-133.134913
 20
-20.0
 11
-703.109193
 21
-20.0
  0
LINE
  8
SIZE
  6
BYBLOCK
 62
     8
 10
-163.0
 20
0.0
 11
-703.109193
 21
0.0
  0
LINE
  8
SIZE
  6
BYBLOCK
 62
     8
 10
-673.109193
 20
2.0
 11
-673.109193
 21
4.0
  0
LINE
  8
SIZE
  6
BYBLOCK
 62
     8
 10
-673.109193
 20
-22.0
 11
-673.109193
 21
-24.0
  0
LINE
  8
SIZE
  6
BYBLOCK
 62
     8
 10
-673.109193
 20
0.0
 11
-673.109193
 21
-20.0
  0
TEXT
  8
SIZE
  6
BYBLOCK
 62
     8
 10
-705.109193
 20
-147.34326
 40
64.0
  1
20
 50
90.0
 41
0.9
  0
LINE
  8
SIZE
  6
BYBLOCK
 62
     8
 10
178.25
 20
174.5
 11
178.25
 21
463.61448
  0
LINE
  8
SIZE
  6
BYBLOCK
 62
     8
 10
208.25
 20
171.0
 11
208.25
 21
463.61448
  0
LINE
  8
SIZE
  6
BYBLOCK
 62
     8
 10
210.25
 20
433.61448
 11
212.25
 21
433.61448
  0
LINE
  8
SIZE
  6
BYBLOCK
 62
     8
 10
176.25
 20
433.61448
 11
174.25
 21
433.61448
  0
LINE
  8
SIZE
  6
BYBLOCK
 62
     8
 10
208.25
 20
433.61448
 11
178.25
 21
433.61448
  0
TEXT
  8
SIZE
  6
BYBLOCK
 62
     8
 10
235.376425
 20
465.61448
 40
64.0
  1
30
 41
0.9
  0
LINE
  8
SIZE
  6
BYBLOCK
 62
     8
 10
95.25
 20
207.0
 11
95.25
 21
586.014567
  0
LINE
  8
SIZE
  6
BYBLOCK
 62
     8
 10
208.25
 20
171.0
 11
208.25
 21
586.014567
  0
LINE
  8
SIZE
  6
BYBLOCK
 62
     8
 10
210.25
 20
556.014567
 11
212.25
 21
556.014567
  0
LINE
  8
SIZE
  6
BYBLOCK
 62
     8
 10
93.25
 20
556.014567
 11
91.25
 21
556.014567
  0
LINE
  8
SIZE
  6
BYBLOCK
 62
     8
 10
208.25
 20
556.014567
 11
95.25
 21
556.014567
  0
TEXT
  8
SIZE
  6
BYBLOCK
 62
     8
 10
230.117562
 20
588.014567
 40
64.0
  1
113
 41
0.9
  0
LINE
  8
SIZE
  6
BYBLOCK
 62
     8
 10
-95.25
 20
85.0
 11
-95.25
 21
586.014567
  0
LINE
  8
SIZE
  6
BYBLOCK
 62
     8
 10
95.25
 20
207.0
 11
95.25
 21
586.014567
  0
LINE
  8
SIZE
  6
BYBLOCK
 62
     8
 10
97.25
 20
556.014567
 11
99.25
 21
556.014567
  0
LINE
  8
SIZE
  6
BYBLOCK
 62
     8
 10
-97.25
 20
556.014567
 11
-99.25
 21
556.014567
  0
LINE
  8
SIZE
  6
BYBLOCK
 62
     8
 10
95.25
 20
556.014567
 11
-95.25
 21
556.014567
  0
TEXT
  8
SIZE
  6
BYBLOCK
 62
     8
 10
-109.714286
 20
588.014567
 40
64.0
  1
190.5
 41
0.9
  0
LINE
  8
SIZE
  6
BYBLOCK
 62
     8
 10
0.0
 20
236.537898
 11
0.0
 21
337.511086
  0
LINE
  8
SIZE
  6
BYBLOCK
 62
     8
 10
-5.5
 20
221.639025
 11
-5.5
 21
337.511086
  0
LINE
  8
SIZE
  6
BYBLOCK
 62
     8
 10
-7.5
 20
307.511086
 11
-9.5
 21
307.511086
  0
LINE
  8
SIZE
  6
BYBLOCK
 62
     8
 10
2.0
 20
307.511086
 11
4.0
 21
307.511086
  0
LINE
  8
SIZE
  6
BYBLOCK
 62
     8
 10
-5.5
 20
307.511086
 11
0.0
 21
307.511086
  0
TEXT
  8
SIZE
  6
BYBLOCK
 62
     8
 10
-239.216054
 20
339.511086
 40
64.0
  1
5.5
 41
0.9
  0
LINE
  8
SIZE
  6
BYBLOCK
 62
     8
 10
163.0
 20
0.0
 11
719.022855
 21
-0.0
  0
LINE
  8
SIZE
  6
BYBLOCK
 62
     8
 10
118.097594
 20
45.0
 11
719.022855
 21
45.0
  0
LINE
  8
SIZE
  6
BYBLOCK
 62
     8
 10
689.022855
 20
47.0
 11
689.022855
 21
49.0
  0
LINE
  8
SIZE
  6
BYBLOCK
 62
     8
 10
689.022855
 20
-2.0
 11
689.022855
 21
-4.0
  0
LINE
  8
SIZE
  6
BYBLOCK
 62
     8
 10
689.022855
 20
45.0
 11
689.022855
 21
-0.0
  0
TEXT
  8
SIZE
  6
BYBLOCK
 62
     8
 10
657.022855
 20
-124.661941
 40
64.0
  1
45
 50
90.0
 41
0.9
  0
LINE
  8
SIZE
  6
BYBLOCK
 62
     8
 10
163.0
 20
0.0
 11
841.568749
 21
-0.0
  0
LINE
  8
SIZE
  6
BYBLOCK
 62
     8
 10
254.377402
 20
102.0
 11
841.568749
 21
102.0
  0
LINE
  8
SIZE
  6
BYBLOCK
 62
     8
 10
811.568749
 20
104.0
 11
811.568749
 21
106.0
  0
LINE
  8
SIZE
  6
BYBLOCK
 62
     8
 10
811.568749
 20
-2.0
 11
811.568749
 21
-4.0
  0
LINE
  8
SIZE
  6
BYBLOCK
 62
     8
 10
811.568749
 20
102.0
 11
811.568749
 21
-0.0
  0
TEXT
  8
SIZE
  6
BYBLOCK
 62
     8
 10
779.568749
 20
-160.79705
 40
64.0
  1
102
 50
90.0
 41
0.9
  0
LINE
  8
SIZE
  6
BYBLOCK
 62
     8
 10
198.25
 20
49.5
 11
1021.945291
 21
49.5
  0
LINE
  8
SIZE
  6
BYBLOCK
 62
     8
 10
198.25
 20
154.5
 11
1021.945291
 21
154.5
  0
LINE
  8
SIZE
  6
BYBLOCK
 62
     8
 10
991.945291
 20
156.5
 11
991.945291
 21
158.5
  0
LINE
  8
SIZE
  6
BYBLOCK
 62
     8
 10
991.945291
 20
47.5
 11
991.945291
 21
45.5
  0
LINE
  8
SIZE
  6
BYBLOCK
 62
     8
 10
991.945291
 20
154.5
 11
991.945291
 21
49.5
  0
TEXT
  8
SIZE
  6
BYBLOCK
 62
     8
 10
959.945291
 20
213.958326
 40
64.0
  1
âË105
 50
90.0
 41
0.9
  0
LINE
  8
SIZE
  6
BYBLOCK
 62
     8
 10
228.25
 20
53.0
 11
910.414758
 21
53.0
  0
LINE
  8
SIZE
  6
BYBLOCK
 62
     8
 10
228.25
 20
151.0
 11
910.414758
 21
151.0
  0
LINE
  8
SIZE
  6
BYBLOCK
 62
     8
 10
880.414758
 20
153.0
 11
880.414758
 21
155.0
  0
LINE
  8
SIZE
  6
BYBLOCK
 62
     8
 10
880.414758
 20
51.0
 11
880.414758
 21
49.0
  0
LINE
  8
SIZE
  6
BYBLOCK
 62
     8
 10
880.414758
 20
151.0
 11
880.414758
 21
53.0
  0
TEXT
  8
SIZE
  6
BYBLOCK
 62
     8
 10
848.414758
 20
206.980625
 40
64.0
  1
âË98
 50
90.0
 41
0.9
  0
LINE
  8
SIZE
  6
BYBLOCK
 62
     8
 10
163.0
 20
0.0
 11
1161.014228
 21
-0.0
  0
LINE
  8
SIZE
  6
BYBLOCK
 62
     8
 10
115.25
 20
187.0
 11
1161.014228
 21
187.0
  0
LINE
  8
SIZE
  6
BYBLOCK
 62
     8
 10
1131.014228
 20
2.0
 11
1131.014228
 21
93.5
  0
LINE
  8
SIZE
  6
BYBLOCK
 62
     8
 10
1131.014228
 20
185.0
 11
1131.014228
 21
93.5
  0
TEXT
  8
SIZE
  6
BYBLOCK
 62
     8
 10
1099.014228
 20
24.928571
 40
64.0
  1
187
 50
90.0
 41
0.9
  0
LINE
  8
SIZE
  6
BYBLOCK
 62
     8
 10
25.0
 20
209.0
 11
25.0
 21
457.889946
  0
LINE
  8
SIZE
  6
BYBLOCK
 62
     8
 10
-36.0
 20
209.0
 11
-36.0
 21
457.889946
  0
LINE
  8
SIZE
  6
BYBLOCK
 62
     8
 10
-38.0
 20
427.889946
 11
-40.0
 21
427.889946
  0
LINE
  8
SIZE
  6
BYBLOCK
 62
     8
 10
27.0
 20
427.889946
 11
29.0
 21
427.889946
  0
LINE
  8
SIZE
  6
BYBLOCK
 62
     8
 10
-36.0
 20
427.889946
 11
25.0
 21
427.889946
  0
TEXT
  8
SIZE
  6
BYBLOCK
 62
     8
 10
-68.585714
 20
459.889946
 40
64.0
  1
âË61
 41
0.9
  0
LINE
  8
SIZE
  6
BYBLOCK
 62
     8
 10
143.0
 20
-28.553879
 11
143.0
 21
-862.849518
  0
LINE
  8
SIZE
  6
BYBLOCK
 62
     8
 10
-143.0
 20
-28.553879
 11
-143.0
 21
-862.849518
  0
LINE
  8
SIZE
  6
BYBLOCK
 62
     8
 10
141.0
 20
-832.849518
 11
-0.0
 21
-832.849518
  0
LINE
  8
SIZE
  6
BYBLOCK
 62
     8
 10
-141.0
 20
-832.849518
 11
-0.0
 21
-832.849518
  0
TEXT
  8
SIZE
  6
BYBLOCK
 62
     8
 10
-102.899686
 20
-800.849518
 40
64.0
  1
üá286
 41
0.9
  0
CIRCLE
  8
SIZE
  6
CONTINUOUS
 62
     8
 10
-143.0
 20
-832.849518
 40
6.0
  0
CIRCLE
  8
SIZE
  6
CONTINUOUS
 62
     8
 10
143.0
 20
-832.849518
 40
6.0
  0
CIRCLE
  8
SIZE
  6
CONTINUOUS
 62
     8
 10
25.0
 20
427.889946
 40
6.0
  0
CIRCLE
  8
SIZE
  6
CONTINUOUS
 62
     8
 10
-36.0
 20
427.889946
 40
6.0
  0
CIRCLE
  8
SIZE
  6
CONTINUOUS
 62
     8
 10
1131.014228
 20
187.0
 40
6.0
  0
CIRCLE
  8
SIZE
  6
CONTINUOUS
 62
     8
 10
1131.014228
 20
-0.0
 40
6.0
  0
CIRCLE
  8
SIZE
  6
CONTINUOUS
 62
     8
 10
880.414758
 20
53.0
 40
6.0
  0
CIRCLE
  8
SIZE
  6
CONTINUOUS
 62
     8
 10
880.414758
 20
151.0
 40
6.0
  0
CIRCLE
  8
SIZE
  6
CONTINUOUS
 62
     8
 10
991.945291
 20
49.5
 40
6.0
  0
CIRCLE
  8
SIZE
  6
CONTINUOUS
 62
     8
 10
991.945291
 20
154.5
 40
6.0
  0
CIRCLE
  8
SIZE
  6
CONTINUOUS
 62
     8
 10
811.568749
 20
-0.0
 40
6.0
  0
CIRCLE
  8
SIZE
  6
CONTINUOUS
 62
     8
 10
811.568749
 20
102.0
 40
6.0
  0
CIRCLE
  8
SIZE
  6
CONTINUOUS
 62
     8
 10
689.022855
 20
-0.0
 40
6.0
  0
CIRCLE
  8
SIZE
  6
CONTINUOUS
 62
     8
 10
689.022855
 20
45.0
 40
6.0
  0
CIRCLE
  8
SIZE
  6
CONTINUOUS
 62
     8
 10
-0.0
 20
307.511086
 40
6.0
  0
CIRCLE
  8
SIZE
  6
CONTINUOUS
 62
     8
 10
-5.5
 20
307.511086
 40
6.0
  0
CIRCLE
  8
SIZE
  6
CONTINUOUS
 62
     8
 10
-95.25
 20
556.014567
 40
6.0
  0
CIRCLE
  8
SIZE
  6
CONTINUOUS
 62
     8
 10
95.25
 20
556.014567
 40
6.0
  0
CIRCLE
  8
SIZE
  6
CONTINUOUS
 62
     8
 10
95.25
 20
556.014567
 40
6.0
  0
CIRCLE
  8
SIZE
  6
CONTINUOUS
 62
     8
 10
208.25
 20
556.014567
 40
6.0
  0
CIRCLE
  8
SIZE
  6
CONTINUOUS
 62
     8
 10
178.25
 20
433.61448
 40
6.0
  0
CIRCLE
  8
SIZE
  6
CONTINUOUS
 62
     8
 10
208.25
 20
433.61448
 40
6.0
  0
CIRCLE
  8
SIZE
  6
CONTINUOUS
 62
     8
 10
-673.109193
 20
-20.0
 40
6.0
  0
CIRCLE
  8
SIZE
  6
CONTINUOUS
 62
     8
 10
-673.109193
 20
0.0
 40
6.0
  0
CIRCLE
  8
SIZE
  6
CONTINUOUS
 62
     8
 10
-673.109193
 20
189.0
 40
6.0
  0
CIRCLE
  8
SIZE
  6
CONTINUOUS
 62
     8
 10
-673.109193
 20
0.0
 40
6.0
  0
CIRCLE
  8
SIZE
  6
CONTINUOUS
 62
     8
 10
-558.951468
 20
138.0
 40
6.0
  0
CIRCLE
  8
SIZE
  6
CONTINUOUS
 62
     8
 10
-558.951468
 20
0.0
 40
6.0
  0
CIRCLE
  8
SIZE
  6
CONTINUOUS
 62
     8
 10
-463.590188
 20
0.0
 40
6.0
  0
CIRCLE
  8
SIZE
  6
CONTINUOUS
 62
     8
 10
-463.590188
 20
120.0
 40
6.0
  0
CIRCLE
  8
SIZE
  6
CONTINUOUS
 62
     8
 10
-558.951468
 20
138.0
 40
6.0
  0
CIRCLE
  8
SIZE
  6
CONTINUOUS
 62
     8
 10
-558.951468
 20
160.5
 40
6.0
  0
CIRCLE
  8
SIZE
  6
CONTINUOUS
 62
     8
 10
99.0
 20
-564.148201
 40
6.0
  0
CIRCLE
  8
SIZE
  6
CONTINUOUS
 62
     8
 10
-99.0
 20
-564.148201
 40
6.0
  0
CIRCLE
  8
SIZE
  6
CONTINUOUS
 62
     8
 10
-106.0
 20
-683.648103
 40
6.0
  0
CIRCLE
  8
SIZE
  6
CONTINUOUS
 62
     8
 10
106.0
 20
-683.648103
 40
6.0
  0
CIRCLE
  8
SIZE
  6
CONTINUOUS
 62
     8
 10
-75.0
 20
-420.807623
 40
6.0
  0
CIRCLE
  8
SIZE
  6
CONTINUOUS
 62
     8
 10
75.0
 20
-420.807623
 40
6.0
  0
CIRCLE
  8
SIZE
  6
CONTINUOUS
 62
     8
 10
0.0
 20
-280.832164
 40
6.0
  0
CIRCLE
  8
SIZE
  6
CONTINUOUS
 62
     8
 10
55.0
 20
-280.832164
 40
6.0
  0
CIRCLE
  8
SIZE
  6
CONTINUOUS
 62
     8
 10
0.0
 20
307.511086
 40
6.0
  0
CIRCLE
  8
SIZE
  6
CONTINUOUS
 62
     8
 10
208.25
 20
307.511086
 40
6.0
  0
CIRCLE
  8
SIZE
  6
CONTINUOUS
 62
     8
 10
208.25
 20
-139.124418
 40
6.0
  0
CIRCLE
  8
SIZE
  6
CONTINUOUS
 62
     8
 10
-143.0
 20
-139.124418
 40
6.0
  0
POLYLINE
  8
NOTE
  6
CONTINUOUS
 62
     4
 66
     1
  0
VERTEX
  8
NOTE
  6
CONTINUOUS
 62
     4
 10
86.850216
 20
162.198425
 50
202.226008
  0
VERTEX
  8
NOTE
  6
CONTINUOUS
 62
     4
 10
55.0
 20
138.0
 50
202.226008
  0
VERTEX
  8
NOTE
  6
CONTINUOUS
 62
     4
 10
94.682308
 20
143.031342
 50
202.226008
  0
SEQEND
  8
NOTE
  6
CONTINUOUS
 62
     4
  0
LINE
  8
NOTE
  6
CONTINUOUS
 62
     4
 10
-75.0
 20
-20.0
 11
-75.0
 21
20.0
  0
LINE
  8
NOTE
  6
CONTINUOUS
 62
     4
 10
-95.0
 20
0.0
 11
-55.0
 21
0.0
  0
LINE
  8
NOTE
  6
CONTINUOUS
 62
     4
 10
-106.0
 20
-20.0
 11
-106.0
 21
20.0
  0
LINE
  8
NOTE
  6
CONTINUOUS
 62
     4
 10
-126.0
 20
-0.0
 11
-86.0
 21
-0.0
  0
LINE
  8
NOTE
  6
CONTINUOUS
 62
     4
 10
75.0
 20
-20.0
 11
75.0
 21
20.0
  0
LINE
  8
NOTE
  6
CONTINUOUS
 62
     4
 10
55.0
 20
0.0
 11
95.0
 21
0.0
  0
LINE
  8
NOTE
  6
CONTINUOUS
 62
     4
 10
106.0
 20
-20.0
 11
106.0
 21
20.0
  0
LINE
  8
NOTE
  6
CONTINUOUS
 62
     4
 10
86.0
 20
0.0
 11
126.0
 21
0.0
  0
POLYLINE
  8
NOTE
  6
CONTINUOUS
 62
     4
 66
     1
  0
VERTEX
  8
NOTE
  6
CONTINUOUS
 62
     4
 10
-117.336083
 20
-38.360047
 50
58.536644
  0
VERTEX
  8
NOTE
  6
CONTINUOUS
 62
     4
 10
-106.0
 20
-0.0
 50
58.536644
  0
VERTEX
  8
NOTE
  6
CONTINUOUS
 62
     4
 10
-134.997359
 20
-27.552734
 50
58.536644
  0
SEQEND
  8
NOTE
  6
CONTINUOUS
 62
     4
  0
LINE
  8
NOTE
  6
CONTINUOUS
 62
     4
 10
55.0
 20
118.0
 11
55.0
 21
158.0
  0
LINE
  8
NOTE
  6
CONTINUOUS
 62
     4
 10
35.0
 20
138.0
 11
75.0
 21
138.0
  0
POLYLINE
  8
NOTE
  6
CONTINUOUS
 62
     4
 66
     1
  0
VERTEX
  8
NOTE
  6
CONTINUOUS
 62
     4
 10
-32.379807
 20
143.485061
  0
VERTEX
  8
NOTE
  6
CONTINUOUS
 62
     4
 10
-0.0
 20
120.0
  0
VERTEX
  8
NOTE
  6
CONTINUOUS
 62
     4
 10
-39.784266
 20
124.148756
  0
SEQEND
  8
NOTE
  6
CONTINUOUS
 62
     4
  0
LINE
  8
NOTE
  6
CONTINUOUS
 62
     4
 10
0.0
 20
100.0
 11
0.0
 21
140.0
  0
LINE
  8
NOTE
  6
CONTINUOUS
 62
     4
 10
-20.0
 20
120.0
 11
20.0
 21
120.0
  0
TEXT
  8
ETC
  6
CONTINUOUS
 62
    10
 10
691.906203
 20
479.204565
 40
64.0
  1
èÀïCÉ¯
 41
0.9
  0
ENDSEC
  0
EOF
