  0
SECTION
  2
HEADER
  9
$ACADVER
  1
AC1006
  9
$INSBASE
 10
0.0
 20
0.0
 30
0.0
  9
$EXTMIN
 10
-2720.158097
 20
-1309.312287
  9
$EXTMAX
 10
959.376456
 20
1543.050614
  9
$LIMMIN
 10
-4200.0
 20
-2970.0
  9
$LIMMAX
 10
4200.0
 20
2970.0
  9
$ORTHOMODE
 70
     1
  9
$REGENMODE
 70
     0
  9
$FILLMODE
 70
     1
  9
$QTEXTMODE
 70
     0
  9
$MIRRTEXT
 70
     0
  9
$DRAGMODE
 70
     2
  9
$LTSCALE
 40
20.0
  9
$OSMODE
 70
     0
  9
$ATTMODE
 70
     1
  9
$TEXTSIZE
 40
64.0
  9
$TRACEWID
 40
0.05
  9
$TEXTSTYLE
  7
STANDARD
  9
$CLAYER
  8
0
  9
$CELTYPE
  6
CONTINUOUS
  9
$CECOLOR
 62
     8
  9
$DIMSCALE
 40
1.0
  9
$DIMASZ
 40
2.0
  9
$DIMEXO
 40
20.0
  9
$DIMDLI
 40
200.0
  9
$DIMRND
 40
0.0
  9
$DIMDLE
 40
0.0
  9
$DIMEXE
 40
30.0
  9
$DIMTP
 40
0.0
  9
$DIMTM
 40
0.0
  9
$DIMTXT
 40
64.0
  9
$DIMCEN
 40
0.09
  9
$DIMTSZ
 40
0.0
  9
$DIMTOL
 70
     0
  9
$DIMLIM
 70
     0
  9
$DIMTIH
 70
     0
  9
$DIMTOH
 70
     0
  9
$DIMSE1
 70
     0
  9
$DIMSE2
 70
     0
  9
$DIMTAD
 70
     1
  9
$DIMZIN
 70
     8
  9
$DIMBLK
  1
DOT1
  9
$DIMASO
 70
     1
  9
$DIMSHO
 70
     0
  9
$DIMPOST
  1

  9
$DIMAPOST
  1

  9
$DIMALT
 70
     0
  9
$DIMALTD
 70
     2
  9
$DIMALTF
 40
25.4
  9
$DIMLFAC
 40
1.0
  9
$DIMTOFL
 70
     1
  9
$DIMTVP
 40
0.0
  9
$DIMTIX
 70
     1
  9
$DIMSOXD
 70
     0
  9
$DIMSAH
 70
     0
  9
$DIMBLK1
  1

  9
$DIMBLK2
  1

  9
$LUNITS
 70
     2
  9
$LUPREC
 70
     4
  9
$AXISMODE
 70
     0
  9
$AXISUNIT
 10
0.0
 20
0.0
  9
$SKETCHINC
 40
0.1
  9
$FILLETRAD
 40
10.0
  9
$AUNITS
 70
     1
  9
$AUPREC
 70
     3
  9
$MENU
  1
ACAD
  9
$ELEVATION
 40
0.0
  9
$THICKNESS
 40
0.0
  9
$LIMCHECK
 70
     1
  9
$BLIPMODE
 70
     0
  9
$CHAMFERA
 40
0.0
  9
$CHAMFERB
 40
0.0
  9
$SKPOLY
 70
     0
  9
$TDCREATE
 40
2451628.6747685187
  9
$TDUPDATE
 40
2451647.5691666668
  9
$TDINDWG
 40
0.0083217593
  9
$TDUSRTIMER
 40
0.0083217593
  9
$USRTIMER
 70
     1
  9
$ANGBASE
 50
0.0
  9
$ANGDIR
 70
     0
  9
$PDMODE
 70
     3
  9
$PDSIZE
 40
-2.0
  9
$PLINEWID
 40
0.0
  9
$COORDS
 70
     0
  9
$SPLFRAME
 70
     0
  9
$SPLINETYPE
 70
     6
  9
$SPLINESEGS
 70
     8
  9
$ATTDIA
 70
     0
  9
$ATTREQ
 70
     1
  9
$HANDLING
 70
     0
  9
$HANDSEED
  5
0
  9
$SURFTAB1
 70
     6
  9
$SURFTAB2
 70
     6
  9
$SURFTYPE
 70
     6
  9
$SURFU
 70
     6
  9
$SURFV
 70
     6
  9
$FLATLAND
 70
     1
  9
$UCSNAME
  2

  9
$UCSORG
 10
0.0
 20
0.0
 30
0.0
  9
$UCSXDIR
 10
1.0
 20
0.0
 30
0.0
  9
$UCSYDIR
 10
0.0
 20
1.0
 30
0.0
  9
$USERI1
 70
     0
  9
$USERI2
 70
     0
  9
$USERI3
 70
     0
  9
$USERI4
 70
     0
  9
$USERI5
 70
     0
  9
$USERR1
 40
20.0
  9
$USERR2
 40
0.0
  9
$USERR3
 40
0.0
  9
$USERR4
 40
0.0
  9
$USERR5
 40
0.0
  9
$WORLDVIEW
 70
     1
  9
$VIEWCTR
 10
20.425626
 20
156.988398
  9
$VIEWSIZE
 40
6056.230032
  9
$SNAPMODE
 70
     0
  9
$SNAPUNIT
 10
400.0
 20
400.0
  9
$SNAPBASE
 10
0.0
 20
0.0
  9
$SNAPANG
 50
0.0
  9
$SNAPSTYLE
 70
     0
  9
$SNAPISOPAIR
 70
     0
  9
$GRIDMODE
 70
     0
  9
$GRIDUNIT
 10
400.0
 20
400.0
  9
$FASTZOOM
 70
     1
  9
$VIEWDIR
 10
0.0
 20
0.0
 30
1.0
  0
ENDSEC
  0
SECTION
  2
TABLES
  0
TABLE
  2
VPORT
 70
     2
  0
VPORT
  2
*ACTIVE
 70
     0
 10
0.0
 20
0.0
 11
1.0
 21
1.0
 12
20.425626
 22
156.988398
 13
0.0
 23
0.0
 14
400.0
 24
400.0
 15
400.0
 25
400.0
 16
0.0
 26
0.0
 36
1.0
 17
0.0
 27
0.0
 37
0.0
 40
1638.47318
 41
1.387001
 42
50.0
 43
0.0
 44
0.0
 50
0.0
 51
0.0
 71
     0
 72
   500
 73
     1
 74
     0
 75
     0
 76
     0
 77
     0
 78
     0
  0
ENDTAB
  0
TABLE
  2
LTYPE
 70
     7
  0
LTYPE
  2
CONTINUOUS
 70
    64
  3
実線
 72
    65
 73
     0
 40
0.0
  0
LTYPE
  2
DASHED
 70
    64
  3
_ _ _ _ _ _ _ _ _ _ _ _ _ _ _ _ _ _ _ _ _ _ _
 72
    65
 73
     2
 40
2.0
 49
1.2
 49
-0.8
  0
LTYPE
  2
DASHDOT
 70
    64
  3
____ _ ____ _ ____ _ ____ _ ____ _ ____ _ ____
 72
    65
 73
     4
 40
5.5
 49
4.0
 49
-0.6
 49
0.3
 49
-0.6
  0
LTYPE
  2
DOT
 70
    64
  3
...............................................
 72
    65
 73
     2
 40
0.8
 49
0.5
 49
-0.3
  0
LTYPE
  2
DASHDOT1
 70
    64
  3
____ _ ____ _ ____ _ ____ _ ____ _ ____ _ ____
 72
    65
 73
     4
 40
2.0
 49
1.5
 49
-0.2
 49
0.1
 49
-0.2
  0
LTYPE
  2
DIVIDE
 70
    64
  3
_____ _ _ _____ _ _ _____ _ _ _____ _ _ ____
 72
    65
 73
     6
 40
6.4
 49
4.0
 49
-0.6
 49
0.3
 49
-0.6
 49
0.3
 49
-0.6
  0
LTYPE
  2
DIVIDE1
 70
    64
  3
_____ _ _ _____ _ _ _____ _ _ _____ _ _ ____
 72
    65
 73
     6
 40
3.2
 49
2.0
 49
-0.3
 49
0.15
 49
-0.3
 49
0.15
 49
-0.3
  0
ENDTAB
  0
TABLE
  2
LAYER
 70
    12
  0
LAYER
  2
0
 70
     0
 62
     7
  6
CONTINUOUS
  0
LAYER
  2
OUTLINE
 70
    64
 62
     3
  6
CONTINUOUS
  0
LAYER
  2
DETAIL
 70
    64
 62
     5
  6
CONTINUOUS
  0
LAYER
  2
BASIS
 70
    64
 62
     6
  6
DASHDOT
  0
LAYER
  2
SIZE
 70
    64
 62
     7
  6
CONTINUOUS
  0
LAYER
  2
NOTE
 70
    64
 62
     4
  6
CONTINUOUS
  0
LAYER
  2
ARRANGE
 70
    64
 62
     1
  6
CONTINUOUS
  0
LAYER
  2
DEFPOINTS
 70
     0
 62
     7
  6
CONTINUOUS
  0
LAYER
  2
ETC
 70
    64
 62
     7
  6
CONTINUOUS
  0
LAYER
  2
FIX
 70
    64
 62
     7
  6
CONTINUOUS
  0
LAYER
  2
SERVICESPACE
 70
     0
 62
     7
  6
CONTINUOUS
  0
LAYER
  2
SYMBOLLINE
 70
     0
 62
     7
  6
CONTINUOUS
  0
ENDTAB
  0
TABLE
  2
STYLE
 70
     1
  0
STYLE
  2
STANDARD
 70
    64
 40
0.0
 41
0.9
 50
0.0
 71
     0
 42
64.0
  3
SIMPLEX
  4
BIGFONT
  0
ENDTAB
  0
TABLE
  2
VIEW
 70
     1
  0
VIEW
  2
ALL
 70
     0
 40
6374.978981
 10
0.0
 20
58.115016
 41
8842.105263
 11
0.0
 21
0.0
 31
1.0
 12
0.0
 22
0.0
 32
0.0
 42
50.0
 43
0.0
 44
0.0
 50
0.0
 71
     0
  0
ENDTAB
  0
TABLE
  2
UCS
 70
     0
  0
ENDTAB
  0
TABLE
  2
DWGMGR
 70
     0
  0
ENDTAB
  0
ENDSEC
  0
SECTION
  2
BLOCKS
  0
ENDSEC
  0
SECTION
  2
ENTITIES
  0
TEXT
  8
ETC
  6
CONTINUOUS
 62
    10
 10
391.903284
 20
576.151507
 40
64.0
  1
システム部材
 41
0.9
  0
LINE
  8
DETAIL
  6
CONTINUOUS
 62
     5
 10
179.284241
 20
-2.541623
 11
-179.284241
 21
-2.541623
  0
LINE
  8
DETAIL
  6
CONTINUOUS
 62
     5
 10
180.0
 20
-0.0
 11
-180.0
 21
0.0
  0
LINE
  8
DETAIL
  6
CONTINUOUS
 62
     5
 10
150.0
 20
-8.0
 11
-150.211239
 21
-8.0
  0
LINE
  8
DETAIL
  6
CONTINUOUS
 62
     5
 10
-180.0
 20
0.0
 11
-180.0
 21
-1.208162
  0
LINE
  8
DETAIL
  6
CONTINUOUS
 62
     5
 10
-150.211239
 20
-8.0
 11
-178.688377
 21
-2.78196
  0
ARC
  8
DETAIL
  6
CONTINUOUS
 62
     5
 10
-178.4
 20
-1.208162
 40
1.6
 50
180.0
 51
259.616531
  0
LINE
  8
DETAIL
  6
CONTINUOUS
 62
     5
 10
180.0
 20
-0.0
 11
180.0
 21
-1.208162
  0
LINE
  8
DETAIL
  6
CONTINUOUS
 62
     5
 10
150.461485
 20
-7.954146
 11
178.688377
 21
-2.78196
  0
ARC
  8
DETAIL
  6
CONTINUOUS
 62
     5
 10
178.4
 20
-1.208162
 40
1.6
 50
280.383469
 51
0.0
  0
LINE
  8
DETAIL
  6
CONTINUOUS
 62
     5
 10
150.0
 20
250.0
 11
150.0
 21
-0.0
  0
LINE
  8
DETAIL
  6
CONTINUOUS
 62
     5
 10
-150.0
 20
250.0
 11
150.0
 21
250.0
  0
LINE
  8
DETAIL
  6
CONTINUOUS
 62
     5
 10
-150.0
 20
250.0
 11
-150.0
 21
0.0
  0
LINE
  8
BASIS
  6
DASHDOT
 62
     6
 10
0.0
 20
276.650609
 11
0.0
 21
-53.757468
  0
LINE
  8
DETAIL
  6
CONTINUOUS
 62
     5
 10
179.0
 20
150.0
 11
179.0
 21
148.0
  0
LINE
  8
DETAIL
  6
CONTINUOUS
 62
     5
 10
150.0
 20
150.0
 11
179.0
 21
150.0
  0
LINE
  8
DETAIL
  6
CONTINUOUS
 62
     5
 10
152.0
 20
148.0
 11
179.0
 21
148.0
  0
LINE
  8
DETAIL
  6
CONTINUOUS
 62
     5
 10
152.0
 20
148.0
 11
152.0
 21
105.0
  0
CIRCLE
  8
FIX
  6
CONTINUOUS
 62
     9
 10
167.0
 20
150.0
 40
6.0
  0
CIRCLE
  8
FIX
  6
CONTINUOUS
 62
     9
 10
-167.0
 20
150.0
 40
6.0
  0
LINE
  8
DETAIL
  6
CONTINUOUS
 62
     5
 10
-152.0
 20
148.0
 11
-152.0
 21
105.0
  0
LINE
  8
DETAIL
  6
CONTINUOUS
 62
     5
 10
-152.0
 20
148.0
 11
-179.0
 21
148.0
  0
LINE
  8
DETAIL
  6
CONTINUOUS
 62
     5
 10
-150.0
 20
150.0
 11
-179.0
 21
150.0
  0
LINE
  8
DETAIL
  6
CONTINUOUS
 62
     5
 10
-179.0
 20
150.0
 11
-179.0
 21
148.0
  0
LINE
  8
SIZE
  6
CONTINUOUS
 62
     8
 10
530.7609
 20
-8.0
 11
530.7609
 21
-99.452533
  0
LINE
  8
SIZE
  6
CONTINUOUS
 62
     8
 10
-181.0
 20
378.483037
 11
-319.131432
 21
378.483037
  0
CIRCLE
  8
FIX
  6
CONTINUOUS
 62
     9
 10
-160.0
 20
0.0
 40
2.5
  0
CIRCLE
  8
FIX
  6
CONTINUOUS
 62
     9
 10
-85.0
 20
0.0
 40
2.5
  0
CIRCLE
  8
FIX
  6
CONTINUOUS
 62
     9
 10
160.0
 20
0.0
 40
2.5
  0
CIRCLE
  8
FIX
  6
CONTINUOUS
 62
     9
 10
85.0
 20
0.0
 40
2.5
  0
TEXT
  8
NOTE
  6
CONTINUOUS
 62
     4
 10
306.882724
 20
415.141051
 40
64.0
  1
AH 2-φ12×52
 41
0.9
  0
LINE
  8
NOTE
  6
CONTINUOUS
 62
     4
 10
292.792154
 20
384.145014
 11
924.04968
 21
384.145014
  0
LINE
  8
NOTE
  6
CONTINUOUS
 62
     4
 10
-547.28198
 20
-160.417328
 11
-284.226881
 21
-160.417328
  0
TEXT
  8
NOTE
  6
CONTINUOUS
 62
     4
 10
-526.584681
 20
-135.056934
 40
64.0
  1
8-φ5
 41
0.9
  0
LINE
  8
NOTE
  6
CONTINUOUS
 62
     4
 10
167.0
 20
150.0
 11
292.792154
 21
384.145014
  0
LINE
  8
NOTE
  6
CONTINUOUS
 62
     4
 10
-160.0
 20
0.0
 11
-284.226881
 21
-160.417328
  0
POINT
  8
ARRANGE
  6
CONTINUOUS
 62
     1
 10
0.0
 20
0.0
  0
CIRCLE
  8
ARRANGE
  6
CONTINUOUS
 62
     1
 10
0.0
 20
0.0
 40
40.0
  0
LINE
  8
OUTLINE
  6
CONTINUOUS
 62
     3
 10
-150.0
 20
250.0
 11
150.0
 21
250.0
  0
LINE
  8
OUTLINE
  6
CONTINUOUS
 62
     3
 10
150.0
 20
250.0
 11
150.0
 21
-0.0
  0
LINE
  8
OUTLINE
  6
CONTINUOUS
 62
     3
 10
-150.0
 20
250.0
 11
-150.0
 21
0.0
  0
LINE
  8
OUTLINE
  6
CONTINUOUS
 62
     3
 10
180.0
 20
-0.0
 11
-180.0
 21
0.0
  0
TEXT
  8
ETC
  6
CONTINUOUS
 62
    10
 10
399.159679
 20
678.479398
 40
64.0
  1
NP5003
 41
0.9
  0
LINE
  8
DETAIL
  6
CONTINUOUS
 62
     5
 10
150.0
 20
60.0
 11
-150.0
 21
60.0
  0
LINE
  8
DETAIL
  6
CONTINUOUS
 62
     5
 10
-20.0
 20
107.3505
 11
-125.0
 21
107.3505
  0
LINE
  8
DETAIL
  6
CONTINUOUS
 62
     5
 10
-125.0
 20
250.0
 11
-125.0
 21
107.3505
  0
LINE
  8
DETAIL
  6
CONTINUOUS
 62
     5
 10
-20.0
 20
250.0
 11
-20.0
 21
107.3505
  0
LINE
  8
SIZE
  6
CONTINUOUS
 62
     8
 10
385.833429
 20
0.0
 11
385.833429
 21
-148.480522
  0
LINE
  8
DETAIL
  6
CONTINUOUS
 62
     5
 10
-150.0
 20
105.0
 11
-152.0
 21
105.0
  0
LINE
  8
DETAIL
  6
CONTINUOUS
 62
     5
 10
150.0
 20
105.0
 11
152.0
 21
105.0
  0
LINE
  8
SIZE
  6
BYBLOCK
 62
     8
 10
200.0
 20
0.0
 11
415.833429
 21
0.0
  0
LINE
  8
SIZE
  6
BYBLOCK
 62
     8
 10
170.0
 20
60.0
 11
415.833429
 21
60.0
  0
LINE
  8
SIZE
  6
BYBLOCK
 62
     8
 10
385.833429
 20
62.0
 11
385.833429
 21
64.0
  0
LINE
  8
SIZE
  6
BYBLOCK
 62
     8
 10
385.833429
 20
-2.0
 11
385.833429
 21
-4.0
  0
LINE
  8
SIZE
  6
BYBLOCK
 62
     8
 10
385.833429
 20
60.0
 11
385.833429
 21
0.0
  0
TEXT
  8
SIZE
  6
BYBLOCK
 62
     8
 10
353.833429
 20
-138.811975
 40
64.0
  1
60
 50
90.0
 41
0.9
  0
LINE
  8
SIZE
  6
BYBLOCK
 62
     8
 10
85.0
 20
-40.0
 11
85.0
 21
-217.659228
  0
LINE
  8
SIZE
  6
BYBLOCK
 62
     8
 10
-85.0
 20
-40.0
 11
-85.0
 21
-217.659228
  0
LINE
  8
SIZE
  6
BYBLOCK
 62
     8
 10
83.0
 20
-187.659228
 11
0.0
 21
-187.659228
  0
LINE
  8
SIZE
  6
BYBLOCK
 62
     8
 10
-83.0
 20
-187.659228
 11
0.0
 21
-187.659228
  0
TEXT
  8
SIZE
  6
BYBLOCK
 62
     8
 10
-68.571429
 20
-155.659228
 40
64.0
  1
170
 41
0.9
  0
LINE
  8
SIZE
  6
BYBLOCK
 62
     8
 10
160.0
 20
-40.0
 11
160.0
 21
-359.612168
  0
LINE
  8
SIZE
  6
BYBLOCK
 62
     8
 10
-160.0
 20
-40.0
 11
-160.0
 21
-359.612168
  0
LINE
  8
SIZE
  6
BYBLOCK
 62
     8
 10
158.0
 20
-329.612168
 11
0.0
 21
-329.612168
  0
LINE
  8
SIZE
  6
BYBLOCK
 62
     8
 10
-158.0
 20
-329.612168
 11
0.0
 21
-329.612168
  0
TEXT
  8
SIZE
  6
BYBLOCK
 62
     8
 10
-74.057143
 20
-297.612168
 40
64.0
  1
320
 41
0.9
  0
LINE
  8
SIZE
  6
BYBLOCK
 62
     8
 10
-200.0
 20
0.0
 11
-341.320549
 21
0.0
  0
LINE
  8
SIZE
  6
BYBLOCK
 62
     8
 10
-207.0
 20
150.0
 11
-341.320549
 21
150.0
  0
LINE
  8
SIZE
  6
BYBLOCK
 62
     8
 10
-311.320549
 20
2.0
 11
-311.320549
 21
148.0
  0
TEXT
  8
SIZE
  6
BYBLOCK
 62
     8
 10
-343.320549
 20
6.428571
 40
64.0
  1
150
 50
90.0
 41
0.9
  0
LINE
  8
SIZE
  6
BYBLOCK
 62
     8
 10
-150.0
 20
270.0
 11
-150.0
 21
408.483037
  0
LINE
  8
SIZE
  6
BYBLOCK
 62
     8
 10
-179.0
 20
168.0
 11
-179.0
 21
408.483037
  0
LINE
  8
SIZE
  6
BYBLOCK
 62
     8
 10
-181.0
 20
378.483037
 11
-183.0
 21
378.483037
  0
LINE
  8
SIZE
  6
BYBLOCK
 62
     8
 10
-148.0
 20
378.483037
 11
-146.0
 21
378.483037
  0
LINE
  8
SIZE
  6
BYBLOCK
 62
     8
 10
-179.0
 20
378.483037
 11
-150.0
 21
378.483037
  0
TEXT
  8
SIZE
  6
BYBLOCK
 62
     8
 10
-298.046072
 20
410.483037
 40
64.0
  1
29
 41
0.9
  0
LINE
  8
SIZE
  6
BYBLOCK
 62
     8
 10
200.0
 20
-0.0
 11
560.7609
 21
-0.0
  0
LINE
  8
SIZE
  6
BYBLOCK
 62
     8
 10
169.956826
 20
-8.0
 11
560.7609
 21
-8.0
  0
LINE
  8
SIZE
  6
BYBLOCK
 62
     8
 10
530.7609
 20
-10.0
 11
530.7609
 21
-12.0
  0
LINE
  8
SIZE
  6
BYBLOCK
 62
     8
 10
530.7609
 20
2.0
 11
530.7609
 21
4.0
  0
LINE
  8
SIZE
  6
BYBLOCK
 62
     8
 10
530.7609
 20
-8.0
 11
530.7609
 21
-0.0
  0
TEXT
  8
SIZE
  6
BYBLOCK
 62
     8
 10
498.7609
 20
-82.963506
 40
64.0
  1
8
 50
90.0
 41
0.9
  0
LINE
  8
SIZE
  6
BYBLOCK
 62
     8
 10
200.0
 20
-0.0
 11
560.7609
 21
-0.0
  0
LINE
  8
SIZE
  6
BYBLOCK
 62
     8
 10
170.0
 20
250.0
 11
560.7609
 21
250.0
  0
LINE
  8
SIZE
  6
BYBLOCK
 62
     8
 10
530.7609
 20
2.0
 11
530.7609
 21
125.0
  0
LINE
  8
SIZE
  6
BYBLOCK
 62
     8
 10
530.7609
 20
248.0
 11
530.7609
 21
125.0
  0
TEXT
  8
SIZE
  6
BYBLOCK
 62
     8
 10
498.7609
 20
50.942857
 40
64.0
  1
250
 50
90.0
 41
0.9
  0
LINE
  8
SIZE
  6
BYBLOCK
 62
     8
 10
180.0
 20
-20.0
 11
180.0
 21
-490.67996
  0
LINE
  8
SIZE
  6
BYBLOCK
 62
     8
 10
-180.0
 20
-20.0
 11
-180.0
 21
-490.67996
  0
LINE
  8
SIZE
  6
BYBLOCK
 62
     8
 10
178.0
 20
-460.67996
 11
0.0
 21
-460.67996
  0
LINE
  8
SIZE
  6
BYBLOCK
 62
     8
 10
-178.0
 20
-460.67996
 11
0.0
 21
-460.67996
  0
TEXT
  8
SIZE
  6
BYBLOCK
 62
     8
 10
-106.697143
 20
-428.67996
 40
64.0
  1
□360
 41
0.9
  0
LINE
  8
SIZE
  6
BYBLOCK
 62
     8
 10
167.0
 20
190.0
 11
167.0
 21
668.318347
  0
LINE
  8
SIZE
  6
BYBLOCK
 62
     8
 10
-167.0
 20
190.0
 11
-167.0
 21
668.318347
  0
LINE
  8
SIZE
  6
BYBLOCK
 62
     8
 10
165.0
 20
638.318347
 11
-165.0
 21
638.318347
  0
TEXT
  8
SIZE
  6
BYBLOCK
 62
     8
 10
-75.428571
 20
670.318347
 40
64.0
  1
334
 41
0.9
  0
LINE
  8
SIZE
  6
BYBLOCK
 62
     8
 10
150.0
 20
270.0
 11
150.0
 21
536.19622
  0
LINE
  8
SIZE
  6
BYBLOCK
 62
     8
 10
-150.0
 20
270.0
 11
-150.0
 21
536.19622
  0
LINE
  8
SIZE
  6
BYBLOCK
 62
     8
 10
148.0
 20
506.19622
 11
0.0
 21
506.19622
  0
LINE
  8
SIZE
  6
BYBLOCK
 62
     8
 10
-148.0
 20
506.19622
 11
0.0
 21
506.19622
  0
TEXT
  8
SIZE
  6
BYBLOCK
 62
     8
 10
-106.697143
 20
538.19622
 40
64.0
  1
□300
 41
0.9
  0
CIRCLE
  8
SIZE
  6
CONTINUOUS
 62
     8
 10
-150.0
 20
506.19622
 40
6.0
  0
CIRCLE
  8
SIZE
  6
CONTINUOUS
 62
     8
 10
150.0
 20
506.19622
 40
6.0
  0
CIRCLE
  8
SIZE
  6
CONTINUOUS
 62
     8
 10
-167.0
 20
638.318347
 40
6.0
  0
CIRCLE
  8
SIZE
  6
CONTINUOUS
 62
     8
 10
167.0
 20
638.318347
 40
6.0
  0
CIRCLE
  8
SIZE
  6
CONTINUOUS
 62
     8
 10
-180.0
 20
-460.67996
 40
6.0
  0
CIRCLE
  8
SIZE
  6
CONTINUOUS
 62
     8
 10
180.0
 20
-460.67996
 40
6.0
  0
CIRCLE
  8
SIZE
  6
CONTINUOUS
 62
     8
 10
530.7609
 20
250.0
 40
6.0
  0
CIRCLE
  8
SIZE
  6
CONTINUOUS
 62
     8
 10
530.7609
 20
-0.0
 40
6.0
  0
CIRCLE
  8
SIZE
  6
CONTINUOUS
 62
     8
 10
530.7609
 20
-0.0
 40
6.0
  0
CIRCLE
  8
SIZE
  6
CONTINUOUS
 62
     8
 10
530.7609
 20
-8.0
 40
6.0
  0
CIRCLE
  8
SIZE
  6
CONTINUOUS
 62
     8
 10
-150.0
 20
378.483037
 40
6.0
  0
CIRCLE
  8
SIZE
  6
CONTINUOUS
 62
     8
 10
-179.0
 20
378.483037
 40
6.0
  0
CIRCLE
  8
SIZE
  6
CONTINUOUS
 62
     8
 10
-311.320549
 20
150.0
 40
6.0
  0
CIRCLE
  8
SIZE
  6
CONTINUOUS
 62
     8
 10
-311.320549
 20
0.0
 40
6.0
  0
CIRCLE
  8
SIZE
  6
CONTINUOUS
 62
     8
 10
-160.0
 20
-329.612168
 40
6.0
  0
CIRCLE
  8
SIZE
  6
CONTINUOUS
 62
     8
 10
160.0
 20
-329.612168
 40
6.0
  0
CIRCLE
  8
SIZE
  6
CONTINUOUS
 62
     8
 10
-85.0
 20
-187.659228
 40
6.0
  0
CIRCLE
  8
SIZE
  6
CONTINUOUS
 62
     8
 10
85.0
 20
-187.659228
 40
6.0
  0
CIRCLE
  8
SIZE
  6
CONTINUOUS
 62
     8
 10
385.833429
 20
0.0
 40
6.0
  0
CIRCLE
  8
SIZE
  6
CONTINUOUS
 62
     8
 10
385.833429
 20
60.0
 40
6.0
  0
POLYLINE
  8
NOTE
  6
CONTINUOUS
 62
     4
 66
     1
  0
VERTEX
  8
NOTE
  6
CONTINUOUS
 62
     4
 10
-174.694745
 20
-37.203017
 50
53.446575
  0
VERTEX
  8
NOTE
  6
CONTINUOUS
 62
     4
 10
-160.0
 20
0.0
 50
53.446575
  0
VERTEX
  8
NOTE
  6
CONTINUOUS
 62
     4
 10
-191.327531
 20
-24.871385
 50
53.446575
  0
SEQEND
  8
NOTE
  6
CONTINUOUS
 62
     4
  0
POLYLINE
  8
NOTE
  6
CONTINUOUS
 62
     4
 66
     1
  0
VERTEX
  8
NOTE
  6
CONTINUOUS
 62
     4
 10
175.937652
 20
188.988695
 50
242.088762
  0
VERTEX
  8
NOTE
  6
CONTINUOUS
 62
     4
 10
167.0
 20
150.0
 50
242.088762
  0
VERTEX
  8
NOTE
  6
CONTINUOUS
 62
     4
 10
194.234582
 20
179.296375
 50
242.088762
  0
SEQEND
  8
NOTE
  6
CONTINUOUS
 62
     4
  0
LINE
  8
NOTE
  6
CONTINUOUS
 62
     4
 10
160.0
 20
-20.0
 11
160.0
 21
20.0
  0
LINE
  8
NOTE
  6
CONTINUOUS
 62
     4
 10
180.0
 20
0.0
 11
140.0
 21
0.0
  0
LINE
  8
NOTE
  6
CONTINUOUS
 62
     4
 10
85.0
 20
-20.0
 11
85.0
 21
20.0
  0
LINE
  8
NOTE
  6
CONTINUOUS
 62
     4
 10
105.0
 20
0.0
 11
65.0
 21
0.0
  0
LINE
  8
NOTE
  6
CONTINUOUS
 62
     4
 10
-85.0
 20
-20.0
 11
-85.0
 21
20.0
  0
LINE
  8
NOTE
  6
CONTINUOUS
 62
     4
 10
-105.0
 20
0.0
 11
-65.0
 21
0.0
  0
LINE
  8
NOTE
  6
CONTINUOUS
 62
     4
 10
-160.0
 20
-20.0
 11
-160.0
 21
20.0
  0
LINE
  8
NOTE
  6
CONTINUOUS
 62
     4
 10
-180.0
 20
0.0
 11
-140.0
 21
0.0
  0
LINE
  8
NOTE
  6
CONTINUOUS
 62
     4
 10
-167.0
 20
130.0
 11
-167.0
 21
170.0
  0
LINE
  8
NOTE
  6
CONTINUOUS
 62
     4
 10
-147.0
 20
150.0
 11
-187.0
 21
150.0
  0
LINE
  8
NOTE
  6
CONTINUOUS
 62
     4
 10
167.0
 20
130.0
 11
167.0
 21
170.0
  0
LINE
  8
NOTE
  6
CONTINUOUS
 62
     4
 10
147.0
 20
150.0
 11
187.0
 21
150.0
  0
ENDSEC
  0
EOF
