  0
SECTION
  2
HEADER
  9
$ACADVER
  1
AC1006
  9
$INSBASE
 10
0.0
 20
0.0
 30
0.0
  9
$EXTMIN
 10
-991.104184
 20
-632.748906
  9
$EXTMAX
 10
741.843119
 20
762.217286
  9
$LIMMIN
 10
-2970.0
 20
-2100.0
  9
$LIMMAX
 10
2970.0
 20
2100.0
  9
$ORTHOMODE
 70
     0
  9
$REGENMODE
 70
     0
  9
$FILLMODE
 70
     1
  9
$QTEXTMODE
 70
     0
  9
$MIRRTEXT
 70
     0
  9
$DRAGMODE
 70
     2
  9
$LTSCALE
 40
20.0
  9
$OSMODE
 70
     0
  9
$ATTMODE
 70
     1
  9
$TEXTSIZE
 40
64.0
  9
$TRACEWID
 40
0.05
  9
$TEXTSTYLE
  7
STANDARD
  9
$CLAYER
  8
0
  9
$CELTYPE
  6
CONTINUOUS
  9
$CECOLOR
 62
     8
  9
$DIMSCALE
 40
1.0
  9
$DIMASZ
 40
2.0
  9
$DIMEXO
 40
20.0
  9
$DIMDLI
 40
200.0
  9
$DIMRND
 40
0.0
  9
$DIMDLE
 40
0.0
  9
$DIMEXE
 40
30.0
  9
$DIMTP
 40
0.0
  9
$DIMTM
 40
0.0
  9
$DIMTXT
 40
64.0
  9
$DIMCEN
 40
0.09
  9
$DIMTSZ
 40
0.0
  9
$DIMTOL
 70
     0
  9
$DIMLIM
 70
     0
  9
$DIMTIH
 70
     0
  9
$DIMTOH
 70
     0
  9
$DIMSE1
 70
     0
  9
$DIMSE2
 70
     0
  9
$DIMTAD
 70
     1
  9
$DIMZIN
 70
     8
  9
$DIMBLK
  1
DOT1
  9
$DIMASO
 70
     1
  9
$DIMSHO
 70
     0
  9
$DIMPOST
  1

  9
$DIMAPOST
  1

  9
$DIMALT
 70
     0
  9
$DIMALTD
 70
     2
  9
$DIMALTF
 40
25.4
  9
$DIMLFAC
 40
1.0
  9
$DIMTOFL
 70
     1
  9
$DIMTVP
 40
0.0
  9
$DIMTIX
 70
     1
  9
$DIMSOXD
 70
     0
  9
$DIMSAH
 70
     0
  9
$DIMBLK1
  1

  9
$DIMBLK2
  1

  9
$LUNITS
 70
     2
  9
$LUPREC
 70
     4
  9
$AXISMODE
 70
     0
  9
$AXISUNIT
 10
0.0
 20
0.0
  9
$SKETCHINC
 40
0.1
  9
$FILLETRAD
 40
3.0
  9
$AUNITS
 70
     1
  9
$AUPREC
 70
     3
  9
$MENU
  1
ACAD
  9
$ELEVATION
 40
0.0
  9
$THICKNESS
 40
0.0
  9
$LIMCHECK
 70
     0
  9
$BLIPMODE
 70
     0
  9
$CHAMFERA
 40
0.0
  9
$CHAMFERB
 40
0.0
  9
$SKPOLY
 70
     0
  9
$TDCREATE
 40
2451344.4447453702
  9
$TDUPDATE
 40
2451451.6781018521
  9
$TDINDWG
 40
0.0132986111
  9
$TDUSRTIMER
 40
0.0132986111
  9
$USRTIMER
 70
     1
  9
$ANGBASE
 50
0.0
  9
$ANGDIR
 70
     0
  9
$PDMODE
 70
     3
  9
$PDSIZE
 40
-2.0
  9
$PLINEWID
 40
0.0
  9
$COORDS
 70
     2
  9
$SPLFRAME
 70
     0
  9
$SPLINETYPE
 70
     6
  9
$SPLINESEGS
 70
     8
  9
$ATTDIA
 70
     0
  9
$ATTREQ
 70
     1
  9
$HANDLING
 70
     0
  9
$HANDSEED
  5
0
  9
$SURFTAB1
 70
     6
  9
$SURFTAB2
 70
     6
  9
$SURFTYPE
 70
     6
  9
$SURFU
 70
     6
  9
$SURFV
 70
     6
  9
$FLATLAND
 70
     1
  9
$UCSNAME
  2

  9
$UCSORG
 10
0.0
 20
0.0
 30
0.0
  9
$UCSXDIR
 10
1.0
 20
0.0
 30
0.0
  9
$UCSYDIR
 10
0.0
 20
1.0
 30
0.0
  9
$USERI1
 70
     0
  9
$USERI2
 70
     0
  9
$USERI3
 70
     0
  9
$USERI4
 70
     0
  9
$USERI5
 70
     0
  9
$USERR1
 40
20.0
  9
$USERR2
 40
0.0
  9
$USERR3
 40
0.0
  9
$USERR4
 40
0.0
  9
$USERR5
 40
0.0
  9
$WORLDVIEW
 70
     1
  9
$VIEWCTR
 10
22.131881
 20
172.354877
  9
$VIEWSIZE
 40
4282.619808
  9
$SNAPMODE
 70
     0
  9
$SNAPUNIT
 10
50.0
 20
50.0
  9
$SNAPBASE
 10
0.0
 20
0.0
  9
$SNAPANG
 50
0.0
  9
$SNAPSTYLE
 70
     0
  9
$SNAPISOPAIR
 70
     1
  9
$GRIDMODE
 70
     0
  9
$GRIDUNIT
 10
400.0
 20
400.0
  9
$FASTZOOM
 70
     1
  9
$VIEWDIR
 10
0.0
 20
0.0
 30
1.0
  0
ENDSEC
  0
SECTION
  2
TABLES
  0
TABLE
  2
VPORT
 70
     2
  0
VPORT
  2
*ACTIVE
 70
     0
 10
0.0
 20
0.0
 11
1.0
 21
1.0
 12
22.131881
 22
172.354877
 13
0.0
 23
0.0
 14
50.0
 24
50.0
 15
400.0
 25
400.0
 16
0.0
 26
0.0
 36
1.0
 17
0.0
 27
0.0
 37
0.0
 40
2052.367747
 41
1.387001
 42
50.0
 43
0.0
 44
0.0
 50
0.0
 51
0.0
 71
     0
 72
   500
 73
     1
 74
     0
 75
     0
 76
     0
 77
     0
 78
     1
  0
ENDTAB
  0
TABLE
  2
LTYPE
 70
     8
  0
LTYPE
  2
CONTINUOUS
 70
    64
  3
Ä└É³
 72
    65
 73
     0
 40
0.0
  0
LTYPE
  2
DASHDOT
 70
    64
  3
____ _ ____ _ ____ _ ____ _ ____ _ ____ _ ____
 72
    65
 73
     4
 40
5.5
 49
4.0
 49
-0.6
 49
0.3
 49
-0.6
  0
LTYPE
  2
DASHED
 70
    64
  3
_ _ _ _ _ _ _ _ _ _ _ _ _ _ _ _ _ _ _ _ _ _ _
 72
    65
 73
     2
 40
2.0
 49
1.2
 49
-0.8
  0
LTYPE
  2
DIVIDE
 70
    64
  3
_____ _ _ _____ _ _ _____ _ _ _____ _ _ ____
 72
    65
 73
     6
 40
6.4
 49
4.0
 49
-0.6
 49
0.3
 49
-0.6
 49
0.3
 49
-0.6
  0
LTYPE
  2
CONTINOUS
 70
    64
  3
Solid line
 72
    65
 73
     0
 40
0.0
  0
LTYPE
  2
DOT
 70
    64
  3
...............................................
 72
    65
 73
     2
 40
0.8
 49
0.5
 49
-0.3
  0
LTYPE
  2
DASHDOT1
 70
    64
  3
____ _ ____ _ ____ _ ____ _ ____ _ ____ _ ____
 72
    65
 73
     4
 40
2.0
 49
1.5
 49
-0.2
 49
0.1
 49
-0.2
  0
LTYPE
  2
DIVIDE1
 70
    64
  3
_____ _ _ _____ _ _ _____ _ _ _____ _ _ ____
 72
    65
 73
     6
 40
3.2
 49
2.0
 49
-0.3
 49
0.15
 49
-0.3
 49
0.15
 49
-0.3
  0
ENDTAB
  0
TABLE
  2
LAYER
 70
    12
  0
LAYER
  2
0
 70
     0
 62
     2
  6
CONTINUOUS
  0
LAYER
  2
OUTLINE
 70
    64
 62
     4
  6
CONTINUOUS
  0
LAYER
  2
DETAIL
 70
    64
 62
     1
  6
CONTINUOUS
  0
LAYER
  2
BASIS
 70
    64
 62
     1
  6
CONTINUOUS
  0
LAYER
  2
NOTE
 70
    64
 62
     1
  6
CONTINUOUS
  0
LAYER
  2
DEFPOINTS
 70
     0
 62
     7
  6
CONTINUOUS
  0
LAYER
  2
SIZE
 70
    64
 62
     7
  6
CONTINUOUS
  0
LAYER
  2
FIX
 70
    64
 62
     7
  6
CONTINUOUS
  0
LAYER
  2
ARRANGE
 70
    64
 62
     7
  6
CONTINUOUS
  0
LAYER
  2
ETC
 70
    64
 62
     7
  6
CONTINUOUS
  0
LAYER
  2
SERVICESPACE
 70
     0
 62
     7
  6
CONTINUOUS
  0
LAYER
  2
SYMBOLLINE
 70
     0
 62
     7
  6
CONTINUOUS
  0
ENDTAB
  0
TABLE
  2
STYLE
 70
     1
  0
STYLE
  2
STANDARD
 70
    64
 40
0.0
 41
0.9
 50
0.0
 71
     0
 42
64.0
  3
SIMPLEX
  4
BIGFONT
  0
ENDTAB
  0
TABLE
  2
VIEW
 70
     1
  0
VIEW
  2
ALL
 70
     0
 40
4282.619808
 10
-0.0
 20
41.309904
 41
5940.0
 11
0.0
 21
0.0
 31
1.0
 12
0.0
 22
0.0
 32
0.0
 42
50.0
 43
0.0
 44
0.0
 50
0.0
 71
     0
  0
ENDTAB
  0
TABLE
  2
UCS
 70
     0
  0
ENDTAB
  0
TABLE
  2
DWGMGR
 70
     0
  0
ENDTAB
  0
ENDSEC
  0
SECTION
  2
BLOCKS
  0
ENDSEC
  0
SECTION
  2
ENTITIES
  0
TEXT
  8
ETC
  6
CONTINUOUS
 62
    10
 10
369.472852
 20
595.805528
 40
64.0
  1
èÀïCÉ¯
 41
0.9
  0
LINE
  8
DETAIL
  6
CONTINUOUS
 62
     5
 10
-105.5
 20
179.0
 11
-105.5
 21
-0.0
  0
LINE
  8
DETAIL
  6
CONTINUOUS
 62
     5
 10
-132.5
 20
186.0
 11
-132.5
 21
182.0
  0
LINE
  8
DETAIL
  6
CONTINUOUS
 62
     5
 10
-132.5
 20
186.0
 11
-106.5
 21
186.0
  0
LINE
  8
DETAIL
  6
CONTINUOUS
 62
     5
 10
132.5
 20
186.0
 11
132.5
 21
182.0
  0
LINE
  8
DETAIL
  6
CONTINUOUS
 62
     5
 10
105.5
 20
179.0
 11
105.5
 21
-0.0
  0
LINE
  8
DETAIL
  6
CONTINUOUS
 62
     5
 10
132.5
 20
186.0
 11
106.5
 21
186.0
  0
CIRCLE
  8
FIX
  6
CONTINUOUS
 62
     9
 10
-119.0
 20
186.0
 40
7.5
  0
CIRCLE
  8
FIX
  6
CONTINUOUS
 62
     9
 10
119.0
 20
186.0
 40
7.5
  0
LINE
  8
NOTE
  6
CONTINUOUS
 62
     4
 10
139.0
 20
186.0
 11
99.0
 21
186.0
  0
LINE
  8
NOTE
  6
CONTINUOUS
 62
     4
 10
119.0
 20
206.0
 11
119.0
 21
166.0
  0
LINE
  8
DETAIL
  6
CONTINOUS
 62
     5
 10
-42.5
 20
189.0
 11
18.5
 21
189.0
  0
LINE
  8
NOTE
  6
CONTINUOUS
 62
     4
 10
-119.0
 20
206.0
 11
-119.0
 21
166.0
  0
LINE
  8
NOTE
  6
CONTINUOUS
 62
     4
 10
-139.0
 20
186.0
 11
-99.0
 21
186.0
  0
LINE
  8
DETAIL
  6
CONTINOUS
 62
     5
 10
18.5
 20
155.0
 11
18.5
 21
189.0
  0
LINE
  8
DETAIL
  6
CONTINOUS
 62
     5
 10
-42.5
 20
155.0
 11
-42.5
 21
189.0
  0
LINE
  8
BASIS
  6
DASHDOT
 62
     6
 10
-12.0
 20
148.382624
 11
-12.0
 21
205.272759
  0
LINE
  8
BASIS
  6
DASHDOT
 62
     6
 10
-0.0
 20
-49.328414
 11
0.0
 21
223.192157
  0
LINE
  8
NOTE
  6
CONTINUOUS
 62
     4
 10
259.100245
 20
-262.629232
 11
693.12296
 21
-262.629232
  0
TEXT
  8
NOTE
  6
CONTINUOUS
 62
     4
 10
277.51374
 20
-239.028305
 40
64.0
  1
8-âË5ü~10
 41
0.9
  0
LINE
  8
NOTE
  6
CONTINUOUS
 62
     4
 10
-374.893045
 20
338.672887
 11
-991.104184
 21
338.672887
  0
TEXT
  8
NOTE
  6
CONTINUOUS
 62
     4
 10
-989.803363
 20
370.729469
 40
64.0
  1
AH 2-âË15ü~22
 41
0.9
  0
LINE
  8
DETAIL
  6
CONTINUOUS
 62
     5
 10
101.5
 20
-0.0
 11
101.5
 21
149.0
  0
LINE
  8
DETAIL
  6
CONTINUOUS
 62
     5
 10
-101.5
 20
-0.0
 11
-101.5
 21
149.0
  0
LINE
  8
DETAIL
  6
CONTINUOUS
 62
     5
 10
132.5
 20
182.0
 11
108.5
 21
182.0
  0
LINE
  8
DETAIL
  6
CONTINUOUS
 62
     5
 10
101.5
 20
181.0
 11
101.5
 21
-0.0
  0
LINE
  8
DETAIL
  6
CONTINUOUS
 62
     5
 10
-132.5
 20
182.0
 11
-108.5
 21
182.0
  0
LINE
  8
DETAIL
  6
CONTINUOUS
 62
     5
 10
-101.5
 20
181.0
 11
-101.5
 21
-0.0
  0
ARC
  8
DETAIL
  6
CONTINUOUS
 62
     5
 10
106.5
 20
181.0
 40
5.0
 50
90.0
 51
180.0
  0
ARC
  8
DETAIL
  6
CONTINUOUS
 62
     5
 10
-106.5
 20
181.0
 40
5.0
 50
0.0
 51
90.0
  0
ARC
  8
DETAIL
  6
CONTINUOUS
 62
     5
 10
108.5
 20
179.0
 40
3.0
 50
90.0
 51
180.0
  0
ARC
  8
DETAIL
  6
CONTINUOUS
 62
     5
 10
-108.5
 20
179.0
 40
3.0
 50
0.0
 51
90.0
  0
LINE
  8
SIZE
  6
CONTINUOUS
 62
     8
 10
-10.0
 20
313.145717
 11
-232.635604
 21
313.145717
  0
LINE
  8
SIZE
  6
CONTINUOUS
 62
     8
 10
-44.5
 20
431.202933
 11
-287.59696
 21
431.202933
  0
LINE
  8
NOTE
  6
CONTINUOUS
 62
     4
 10
117.5
 20
0.0
 11
259.100245
 21
-262.629232
  0
CIRCLE
  8
FIX
  6
CONTINUOUS
 62
     9
 10
-65.0
 20
0.0
 40
2.5
  0
CIRCLE
  8
FIX
  6
CONTINUOUS
 62
     9
 10
65.0
 20
0.0
 40
2.5
  0
LINE
  8
NOTE
  6
CONTINUOUS
 62
     4
 10
-248.907208
 20
47.813793
 11
-367.439927
 21
47.813793
  0
TEXT
  8
NOTE
  6
CONTINUOUS
 62
     4
 10
-357.292749
 20
72.065556
 40
64.0
  1
EL
 41
0.9
  0
LINE
  8
SIZE
  6
CONTINUOUS
 62
     8
 10
-79.0
 20
-185.663093
 11
-273.01709
 21
-185.663093
  0
LINE
  8
DETAIL
  6
CONTINUOUS
 62
     5
 10
-104.5
 20
-20.0
 11
-104.5
 21
0.0
  0
LINE
  8
DETAIL
  6
CONTINUOUS
 62
     5
 10
104.5
 20
-20.0
 11
104.5
 21
0.0
  0
LINE
  8
DETAIL
  6
CONTINUOUS
 62
     5
 10
-143.0
 20
-6.0
 11
143.0
 21
-6.0
  0
POLYLINE
  8
DETAIL
  6
CONTINUOUS
 62
     5
 66
     1
  0
VERTEX
  8
DETAIL
  6
CONTINUOUS
 62
     5
 10
-143.0
 20
-8.553879
 42
0.242297
  0
VERTEX
  8
DETAIL
  6
CONTINUOUS
 62
     5
 10
-141.178581
 20
-12.091872
 42
0.083306
  0
VERTEX
  8
DETAIL
  6
CONTINUOUS
 62
     5
 10
-131.284271
 20
-16.916687
 42
0.041428
 70
     2
 50
343.528638
  0
VERTEX
  8
DETAIL
  6
CONTINUOUS
 62
     5
 10
-119.423522
 20
-19.37872
 42
0.011695
  0
VERTEX
  8
DETAIL
  6
CONTINUOUS
 62
     5
 10
-113.134913
 20
-20.0
 42
0.030475
  0
SEQEND
  8
DETAIL
  6
CONTINUOUS
 62
     5
  0
LINE
  8
DETAIL
  6
CONTINUOUS
 62
     5
 10
-143.0
 20
-8.553879
 11
-143.0
 21
0.0
  0
POLYLINE
  8
DETAIL
  6
CONTINUOUS
 62
     5
 66
     1
  0
VERTEX
  8
DETAIL
  6
CONTINUOUS
 62
     5
 10
143.0
 20
-8.553879
 42
-0.242297
  0
VERTEX
  8
DETAIL
  6
CONTINUOUS
 62
     5
 10
141.178581
 20
-12.091872
 42
-0.083306
  0
VERTEX
  8
DETAIL
  6
CONTINUOUS
 62
     5
 10
131.284271
 20
-16.916687
 42
-0.041428
 70
     2
 50
343.528638
  0
VERTEX
  8
DETAIL
  6
CONTINUOUS
 62
     5
 10
119.423522
 20
-19.37872
 42
-0.011695
  0
VERTEX
  8
DETAIL
  6
CONTINUOUS
 62
     5
 10
113.134913
 20
-20.0
 42
-0.030475
  0
SEQEND
  8
DETAIL
  6
CONTINUOUS
 62
     5
  0
LINE
  8
DETAIL
  6
CONTINUOUS
 62
     5
 10
143.0
 20
-8.553879
 11
143.0
 21
0.0
  0
LINE
  8
DETAIL
  6
CONTINUOUS
 62
     5
 10
-143.0
 20
0.0
 11
143.0
 21
0.0
  0
LINE
  8
DETAIL
  6
CONTINUOUS
 62
     5
 10
-113.134913
 20
-20.0
 11
113.134913
 21
-20.0
  0
CIRCLE
  8
FIX
  6
CONTINUOUS
 62
     9
 10
117.5
 20
0.0
 40
2.5
  0
LINE
  8
DETAIL
  6
CONTINUOUS
 62
     5
 10
-75.0
 20
172.0
 11
-51.161904
 21
172.0
  0
LINE
  8
DETAIL
  6
CONTINUOUS
 62
     5
 10
75.0
 20
155.0
 11
75.0
 21
172.0
  0
LINE
  8
DETAIL
  6
CONTINUOUS
 62
     5
 10
-75.0
 20
155.0
 11
-75.0
 21
172.0
  0
LINE
  8
DETAIL
  6
CONTINUOUS
 62
     5
 10
0.0
 20
155.0
 11
101.5
 21
155.0
  0
LINE
  8
DETAIL
  6
CONTINUOUS
 62
     5
 10
18.5
 20
172.0
 11
75.0
 21
172.0
  0
CIRCLE
  8
FIX
  6
CONTINUOUS
 62
     9
 10
-117.5
 20
0.0
 40
2.5
  0
LINE
  8
NOTE
  6
CONTINUOUS
 62
     4
 10
-119.0
 20
186.0
 11
-374.893045
 21
338.672887
  0
LINE
  8
DETAIL
  6
CONTINUOUS
 62
     5
 10
-70.679246
 20
155.0
 11
-101.5
 21
155.0
  0
LINE
  8
SIZE
  6
CONTINUOUS
 62
     8
 10
-518.939992
 20
-24.0
 11
-518.939992
 21
-138.46384
  0
LINE
  8
SIZE
  6
CONTINUOUS
 62
     8
 10
467.850154
 20
186.0
 11
467.850154
 21
316.468265
  0
POINT
  8
ARRANGE
  6
CONTINUOUS
 62
     1
 10
0.0
 20
0.0
  0
CIRCLE
  8
ARRANGE
  6
CONTINUOUS
 62
     1
 10
0.0
 20
0.0
 40
40.0
  0
LINE
  8
OUTLINE
  6
CONTINUOUS
 62
     3
 10
143.0
 20
0.0
 11
-143.0
 21
0.0
  0
LINE
  8
OUTLINE
  6
CONTINUOUS
 62
     3
 10
75.0
 20
155.0
 11
101.5
 21
155.0
  0
LINE
  8
OUTLINE
  6
CONTINUOUS
 62
     3
 10
-0.0
 20
155.0
 11
-101.5
 21
155.0
  0
LINE
  8
OUTLINE
  6
CONTINUOUS
 62
     3
 10
-101.5
 20
155.0
 11
-101.5
 21
-0.0
  0
LINE
  8
OUTLINE
  6
CONTINUOUS
 62
     3
 10
101.5
 20
155.0
 11
101.5
 21
-0.0
  0
TEXT
  8
ETC
  6
CONTINUOUS
 62
    10
 10
377.043119
 20
698.217286
 40
64.0
  1
NVD0153
 41
0.9
  0
LINE
  8
OUTLINE
  6
CONTINUOUS
 62
     3
 10
-0.0
 20
155.0
 11
101.5
 21
155.0
  0
LINE
  8
BASIS
  6
DASHDOT
 62
     6
 10
0.0
 20
-49.328414
 11
0.0
 21
223.192157
  0
LINE
  8
DETAIL
  6
CONTINUOUS
 62
     5
 10
0.0
 20
155.0
 11
-101.5
 21
155.0
  0
LINE
  8
DETAIL
  6
CONTINUOUS
 62
     5
 10
-42.5
 20
172.0
 11
-75.0
 21
172.0
  0
LINE
  8
DETAIL
  6
CONTINUOUS
 62
     5
 10
0.0
 20
157.0
 11
-42.5
 21
157.0
  0
LINE
  8
DETAIL
  6
CONTINUOUS
 62
     5
 10
0.0
 20
157.0
 11
18.5
 21
157.0
  0
LINE
  8
NOTE
  6
CONTINUOUS
 62
     4
 10
-83.0
 20
155.0
 11
-248.907208
 21
47.813793
  0
LINE
  8
SIZE
  6
BYBLOCK
 62
     8
 10
-83.0
 20
115.0
 11
-83.0
 21
-215.663093
  0
LINE
  8
SIZE
  6
BYBLOCK
 62
     8
 10
-0.0
 20
-69.328414
 11
-0.0
 21
-215.663093
  0
LINE
  8
SIZE
  6
BYBLOCK
 62
     8
 10
2.0
 20
-185.663093
 11
4.0
 21
-185.663093
  0
LINE
  8
SIZE
  6
BYBLOCK
 62
     8
 10
-85.0
 20
-185.663093
 11
-87.0
 21
-185.663093
  0
LINE
  8
SIZE
  6
BYBLOCK
 62
     8
 10
-0.0
 20
-185.663093
 11
-83.0
 21
-185.663093
  0
TEXT
  8
SIZE
  6
BYBLOCK
 62
     8
 10
-256.229634
 20
-153.663093
 40
64.0
  1
83
 41
0.9
  0
LINE
  8
SIZE
  6
BYBLOCK
 62
     8
 10
121.5
 20
155.0
 11
497.850154
 21
155.0
  0
LINE
  8
SIZE
  6
BYBLOCK
 62
     8
 10
159.0
 20
186.0
 11
497.850154
 21
186.0
  0
LINE
  8
SIZE
  6
BYBLOCK
 62
     8
 10
467.850154
 20
188.0
 11
467.850154
 21
190.0
  0
LINE
  8
SIZE
  6
BYBLOCK
 62
     8
 10
467.850154
 20
153.0
 11
467.850154
 21
151.0
  0
LINE
  8
SIZE
  6
BYBLOCK
 62
     8
 10
467.850154
 20
186.0
 11
467.850154
 21
155.0
  0
TEXT
  8
SIZE
  6
BYBLOCK
 62
     8
 10
435.850154
 20
220.305938
 40
64.0
  1
31
 50
90.0
 41
0.9
  0
LINE
  8
SIZE
  6
BYBLOCK
 62
     8
 10
163.0
 20
-0.0
 11
497.850154
 21
-0.0
  0
LINE
  8
SIZE
  6
BYBLOCK
 62
     8
 10
121.5
 20
155.0
 11
497.850154
 21
155.0
  0
LINE
  8
SIZE
  6
BYBLOCK
 62
     8
 10
467.850154
 20
2.0
 11
467.850154
 21
77.5
  0
LINE
  8
SIZE
  6
BYBLOCK
 62
     8
 10
467.850154
 20
153.0
 11
467.850154
 21
77.5
  0
TEXT
  8
SIZE
  6
BYBLOCK
 62
     8
 10
435.850154
 20
8.928571
 40
64.0
  1
155
 50
90.0
 41
0.9
  0
LINE
  8
SIZE
  6
BYBLOCK
 62
     8
 10
163.0
 20
-0.0
 11
637.193239
 21
-0.0
  0
LINE
  8
SIZE
  6
BYBLOCK
 62
     8
 10
95.0
 20
172.0
 11
637.193239
 21
172.0
  0
LINE
  8
SIZE
  6
BYBLOCK
 62
     8
 10
607.193239
 20
2.0
 11
607.193239
 21
86.0
  0
LINE
  8
SIZE
  6
BYBLOCK
 62
     8
 10
607.193239
 20
170.0
 11
607.193239
 21
86.0
  0
TEXT
  8
SIZE
  6
BYBLOCK
 62
     8
 10
575.193239
 20
17.428571
 40
64.0
  1
172
 50
90.0
 41
0.9
  0
LINE
  8
SIZE
  6
BYBLOCK
 62
     8
 10
-163.0
 20
0.0
 11
-548.939992
 21
0.0
  0
LINE
  8
SIZE
  6
BYBLOCK
 62
     8
 10
-133.134913
 20
-20.0
 11
-548.939992
 21
-20.0
  0
LINE
  8
SIZE
  6
BYBLOCK
 62
     8
 10
-518.939992
 20
-22.0
 11
-518.939992
 21
-24.0
  0
LINE
  8
SIZE
  6
BYBLOCK
 62
     8
 10
-518.939992
 20
2.0
 11
-518.939992
 21
4.0
  0
LINE
  8
SIZE
  6
BYBLOCK
 62
     8
 10
-518.939992
 20
-20.0
 11
-518.939992
 21
0.0
  0
TEXT
  8
SIZE
  6
BYBLOCK
 62
     8
 10
-550.939992
 20
-132.68794
 40
64.0
  1
20
 50
90.0
 41
0.9
  0
LINE
  8
SIZE
  6
BYBLOCK
 62
     8
 10
-163.0
 20
0.0
 11
-548.939992
 21
0.0
  0
LINE
  8
SIZE
  6
BYBLOCK
 62
     8
 10
-62.5
 20
189.0
 11
-548.939992
 21
189.0
  0
LINE
  8
SIZE
  6
BYBLOCK
 62
     8
 10
-518.939992
 20
2.0
 11
-518.939992
 21
187.0
  0
TEXT
  8
SIZE
  6
BYBLOCK
 62
     8
 10
-550.939992
 20
27.3
 40
64.0
  1
189
 50
90.0
 41
0.9
  0
LINE
  8
SIZE
  6
BYBLOCK
 62
     8
 10
-42.5
 20
209.0
 11
-42.5
 21
461.202933
  0
LINE
  8
SIZE
  6
BYBLOCK
 62
     8
 10
18.5
 20
209.0
 11
18.5
 21
461.202933
  0
LINE
  8
SIZE
  6
BYBLOCK
 62
     8
 10
20.5
 20
431.202933
 11
22.5
 21
431.202933
  0
LINE
  8
SIZE
  6
BYBLOCK
 62
     8
 10
-44.5
 20
431.202933
 11
-46.5
 21
431.202933
  0
LINE
  8
SIZE
  6
BYBLOCK
 62
     8
 10
18.5
 20
431.202933
 11
-42.5
 21
431.202933
  0
TEXT
  8
SIZE
  6
BYBLOCK
 62
     8
 10
-290.344362
 20
463.202933
 40
64.0
  1
âË61
 41
0.9
  0
LINE
  8
SIZE
  6
BYBLOCK
 62
     8
 10
-117.5
 20
-40.0
 11
-117.5
 21
-491.77491
  0
LINE
  8
SIZE
  6
BYBLOCK
 62
     8
 10
117.5
 20
-40.0
 11
117.5
 21
-491.77491
  0
LINE
  8
SIZE
  6
BYBLOCK
 62
     8
 10
-115.5
 20
-461.77491
 11
-0.0
 21
-461.77491
  0
LINE
  8
SIZE
  6
BYBLOCK
 62
     8
 10
115.5
 20
-461.77491
 11
-0.0
 21
-461.77491
  0
TEXT
  8
SIZE
  6
BYBLOCK
 62
     8
 10
-76.916395
 20
-429.77491
 40
64.0
  1
235
 41
0.9
  0
LINE
  8
SIZE
  6
BYBLOCK
 62
     8
 10
0.0
 20
243.192157
 11
0.0
 21
343.145717
  0
LINE
  8
SIZE
  6
BYBLOCK
 62
     8
 10
-12.0
 20
225.272759
 11
-12.0
 21
343.145717
  0
LINE
  8
SIZE
  6
BYBLOCK
 62
     8
 10
-14.0
 20
313.145717
 11
-16.0
 21
313.145717
  0
LINE
  8
SIZE
  6
BYBLOCK
 62
     8
 10
2.0
 20
313.145717
 11
4.0
 21
313.145717
  0
LINE
  8
SIZE
  6
BYBLOCK
 62
     8
 10
-12.0
 20
313.145717
 11
0.0
 21
313.145717
  0
TEXT
  8
SIZE
  6
BYBLOCK
 62
     8
 10
-217.957613
 20
345.145717
 40
64.0
  1
12
 41
0.9
  0
LINE
  8
SIZE
  6
BYBLOCK
 62
     8
 10
-101.5
 20
178.0
 11
-101.5
 21
569.237226
  0
LINE
  8
SIZE
  6
BYBLOCK
 62
     8
 10
101.5
 20
178.0
 11
101.5
 21
569.237226
  0
LINE
  8
SIZE
  6
BYBLOCK
 62
     8
 10
103.5
 20
539.237226
 11
105.5
 21
539.237226
  0
LINE
  8
SIZE
  6
BYBLOCK
 62
     8
 10
-103.5
 20
539.237226
 11
-105.5
 21
539.237226
  0
LINE
  8
SIZE
  6
BYBLOCK
 62
     8
 10
101.5
 20
539.237226
 11
-101.5
 21
539.237226
  0
TEXT
  8
SIZE
  6
BYBLOCK
 62
     8
 10
-106.697143
 20
571.237226
 40
64.0
  1
üá203
 41
0.9
  0
LINE
  8
SIZE
  6
BYBLOCK
 62
     8
 10
-65.0
 20
-40.0
 11
-65.0
 21
-351.603544
  0
LINE
  8
SIZE
  6
BYBLOCK
 62
     8
 10
65.0
 20
-40.0
 11
65.0
 21
-351.603544
  0
LINE
  8
SIZE
  6
BYBLOCK
 62
     8
 10
67.0
 20
-321.603544
 11
69.0
 21
-321.603544
  0
LINE
  8
SIZE
  6
BYBLOCK
 62
     8
 10
-67.0
 20
-321.603544
 11
-69.0
 21
-321.603544
  0
LINE
  8
SIZE
  6
BYBLOCK
 62
     8
 10
65.0
 20
-321.603544
 11
-65.0
 21
-321.603544
  0
TEXT
  8
SIZE
  6
BYBLOCK
 62
     8
 10
-68.571429
 20
-289.603544
 40
64.0
  1
130
 41
0.9
  0
LINE
  8
SIZE
  6
BYBLOCK
 62
     8
 10
-143.0
 20
-20.0
 11
-143.0
 21
-632.748906
  0
LINE
  8
SIZE
  6
BYBLOCK
 62
     8
 10
143.0
 20
-20.0
 11
143.0
 21
-632.748906
  0
LINE
  8
SIZE
  6
BYBLOCK
 62
     8
 10
-141.0
 20
-602.748906
 11
0.0
 21
-602.748906
  0
LINE
  8
SIZE
  6
BYBLOCK
 62
     8
 10
141.0
 20
-602.748906
 11
0.0
 21
-602.748906
  0
TEXT
  8
SIZE
  6
BYBLOCK
 62
     8
 10
-105.325714
 20
-570.748906
 40
64.0
  1
üá286
 41
0.9
  0
LINE
  8
SIZE
  6
BYBLOCK
 62
     8
 10
-119.0
 20
225.901403
 11
-119.0
 21
693.685246
  0
LINE
  8
SIZE
  6
BYBLOCK
 62
     8
 10
119.0
 20
225.0
 11
119.0
 21
693.685246
  0
LINE
  8
SIZE
  6
BYBLOCK
 62
     8
 10
-117.0
 20
663.685246
 11
-0.0
 21
663.685246
  0
LINE
  8
SIZE
  6
BYBLOCK
 62
     8
 10
117.0
 20
663.685246
 11
-0.0
 21
663.685246
  0
TEXT
  8
SIZE
  6
BYBLOCK
 62
     8
 10
-74.057143
 20
695.685246
 40
64.0
  1
238
 41
0.9
  0
CIRCLE
  8
SIZE
  6
CONTINUOUS
 62
     8
 10
119.0
 20
663.685246
 40
6.0
  0
CIRCLE
  8
SIZE
  6
CONTINUOUS
 62
     8
 10
-119.0
 20
663.685246
 40
6.0
  0
CIRCLE
  8
SIZE
  6
CONTINUOUS
 62
     8
 10
143.0
 20
-602.748906
 40
6.0
  0
CIRCLE
  8
SIZE
  6
CONTINUOUS
 62
     8
 10
-143.0
 20
-602.748906
 40
6.0
  0
CIRCLE
  8
SIZE
  6
CONTINUOUS
 62
     8
 10
-65.0
 20
-321.603544
 40
6.0
  0
CIRCLE
  8
SIZE
  6
CONTINUOUS
 62
     8
 10
65.0
 20
-321.603544
 40
6.0
  0
CIRCLE
  8
SIZE
  6
CONTINUOUS
 62
     8
 10
-101.5
 20
539.237226
 40
6.0
  0
CIRCLE
  8
SIZE
  6
CONTINUOUS
 62
     8
 10
101.5
 20
539.237226
 40
6.0
  0
CIRCLE
  8
SIZE
  6
CONTINUOUS
 62
     8
 10
0.0
 20
313.145717
 40
6.0
  0
CIRCLE
  8
SIZE
  6
CONTINUOUS
 62
     8
 10
-12.0
 20
313.145717
 40
6.0
  0
CIRCLE
  8
SIZE
  6
CONTINUOUS
 62
     8
 10
117.5
 20
-461.77491
 40
6.0
  0
CIRCLE
  8
SIZE
  6
CONTINUOUS
 62
     8
 10
-117.5
 20
-461.77491
 40
6.0
  0
CIRCLE
  8
SIZE
  6
CONTINUOUS
 62
     8
 10
-42.5
 20
431.202933
 40
6.0
  0
CIRCLE
  8
SIZE
  6
CONTINUOUS
 62
     8
 10
18.5
 20
431.202933
 40
6.0
  0
CIRCLE
  8
SIZE
  6
CONTINUOUS
 62
     8
 10
-518.939992
 20
189.0
 40
6.0
  0
CIRCLE
  8
SIZE
  6
CONTINUOUS
 62
     8
 10
-518.939992
 20
0.0
 40
6.0
  0
CIRCLE
  8
SIZE
  6
CONTINUOUS
 62
     8
 10
-518.939992
 20
0.0
 40
6.0
  0
CIRCLE
  8
SIZE
  6
CONTINUOUS
 62
     8
 10
-518.939992
 20
-20.0
 40
6.0
  0
CIRCLE
  8
SIZE
  6
CONTINUOUS
 62
     8
 10
607.193239
 20
172.0
 40
6.0
  0
CIRCLE
  8
SIZE
  6
CONTINUOUS
 62
     8
 10
607.193239
 20
-0.0
 40
6.0
  0
CIRCLE
  8
SIZE
  6
CONTINUOUS
 62
     8
 10
467.850154
 20
155.0
 40
6.0
  0
CIRCLE
  8
SIZE
  6
CONTINUOUS
 62
     8
 10
467.850154
 20
-0.0
 40
6.0
  0
CIRCLE
  8
SIZE
  6
CONTINUOUS
 62
     8
 10
467.850154
 20
155.0
 40
6.0
  0
CIRCLE
  8
SIZE
  6
CONTINUOUS
 62
     8
 10
467.850154
 20
186.0
 40
6.0
  0
CIRCLE
  8
SIZE
  6
CONTINUOUS
 62
     8
 10
-83.0
 20
-185.663093
 40
6.0
  0
CIRCLE
  8
SIZE
  6
CONTINUOUS
 62
     8
 10
-0.0
 20
-185.663093
 40
6.0
  0
POLYLINE
  8
NOTE
  6
CONTINUOUS
 62
     4
 66
     1
  0
VERTEX
  8
NOTE
  6
CONTINUOUS
 62
     4
 10
-109.936684
 20
125.42949
 50
32.66865
  0
VERTEX
  8
NOTE
  6
CONTINUOUS
 62
     4
 10
-83.0
 20
155.0
 50
32.66865
  0
VERTEX
  8
NOTE
  6
CONTINUOUS
 62
     4
 10
-121.113108
 20
142.85953
 50
32.66865
  0
SEQEND
  8
NOTE
  6
CONTINUOUS
 62
     4
  0
POLYLINE
  8
NOTE
  6
CONTINUOUS
 62
     4
 66
     1
  0
VERTEX
  8
NOTE
  6
CONTINUOUS
 62
     4
 10
-146.656633
 20
214.898281
  0
VERTEX
  8
NOTE
  6
CONTINUOUS
 62
     4
 10
-119.0
 20
186.0
  0
VERTEX
  8
NOTE
  6
CONTINUOUS
 62
     4
 10
-157.400487
 20
197.198329
  0
SEQEND
  8
NOTE
  6
CONTINUOUS
 62
     4
  0
LINE
  8
NOTE
  6
CONTINUOUS
 62
     4
 10
65.0
 20
-20.0
 11
65.0
 21
20.0
  0
LINE
  8
NOTE
  6
CONTINUOUS
 62
     4
 10
85.0
 20
0.0
 11
45.0
 21
0.0
  0
LINE
  8
NOTE
  6
CONTINUOUS
 62
     4
 10
117.5
 20
-20.0
 11
117.5
 21
20.0
  0
LINE
  8
NOTE
  6
CONTINUOUS
 62
     4
 10
137.5
 20
0.0
 11
97.5
 21
0.0
  0
LINE
  8
NOTE
  6
CONTINUOUS
 62
     4
 10
-65.0
 20
-20.0
 11
-65.0
 21
20.0
  0
LINE
  8
NOTE
  6
CONTINUOUS
 62
     4
 10
-45.0
 20
0.0
 11
-85.0
 21
0.0
  0
LINE
  8
NOTE
  6
CONTINUOUS
 62
     4
 10
-83.0
 20
135.0
 11
-83.0
 21
175.0
  0
LINE
  8
NOTE
  6
CONTINUOUS
 62
     4
 10
-63.0
 20
155.0
 11
-103.0
 21
155.0
  0
LINE
  8
NOTE
  6
CONTINUOUS
 62
     4
 10
-117.5
 20
-20.0
 11
-117.5
 21
20.0
  0
LINE
  8
NOTE
  6
CONTINUOUS
 62
     4
 10
-97.5
 20
0.0
 11
-137.5
 21
0.0
  0
POLYLINE
  8
NOTE
  6
CONTINUOUS
 62
     4
 66
     1
  0
VERTEX
  8
NOTE
  6
CONTINUOUS
 62
     4
 10
126.677727
 20
-38.932882
  0
VERTEX
  8
NOTE
  6
CONTINUOUS
 62
     4
 10
117.5
 20
0.0
  0
VERTEX
  8
NOTE
  6
CONTINUOUS
 62
     4
 10
144.914586
 20
-29.128002
  0
SEQEND
  8
NOTE
  6
CONTINUOUS
 62
     4
  0
ENDSEC
  0
EOF
