  0
SECTION
  2
HEADER
  9
$ACADVER
  1
AC1006
  9
$INSBASE
 10
0.0
 20
0.0
 30
0.0
  9
$EXTMIN
 10
-1717.476038
 20
-1960.830671
  9
$EXTMAX
 10
1837.667732
 20
920.811889
  9
$LIMMIN
 10
-2970.0
 20
-2100.0
  9
$LIMMAX
 10
2970.0
 20
2100.0
  9
$ORTHOMODE
 70
     0
  9
$REGENMODE
 70
     0
  9
$FILLMODE
 70
     1
  9
$QTEXTMODE
 70
     0
  9
$MIRRTEXT
 70
     0
  9
$DRAGMODE
 70
     2
  9
$LTSCALE
 40
20.0
  9
$OSMODE
 70
     0
  9
$ATTMODE
 70
     1
  9
$TEXTSIZE
 40
64.0
  9
$TRACEWID
 40
0.05
  9
$TEXTSTYLE
  7
STANDARD
  9
$CLAYER
  8
0
  9
$CELTYPE
  6
CONTINUOUS
  9
$CECOLOR
 62
     8
  9
$DIMSCALE
 40
1.0
  9
$DIMASZ
 40
2.0
  9
$DIMEXO
 40
20.0
  9
$DIMDLI
 40
200.0
  9
$DIMRND
 40
0.0
  9
$DIMDLE
 40
0.0
  9
$DIMEXE
 40
30.0
  9
$DIMTP
 40
0.0
  9
$DIMTM
 40
0.0
  9
$DIMTXT
 40
64.0
  9
$DIMCEN
 40
0.09
  9
$DIMTSZ
 40
0.0
  9
$DIMTOL
 70
     0
  9
$DIMLIM
 70
     0
  9
$DIMTIH
 70
     0
  9
$DIMTOH
 70
     0
  9
$DIMSE1
 70
     0
  9
$DIMSE2
 70
     0
  9
$DIMTAD
 70
     1
  9
$DIMZIN
 70
     8
  9
$DIMBLK
  1
DOT1
  9
$DIMASO
 70
     1
  9
$DIMSHO
 70
     0
  9
$DIMPOST
  1

  9
$DIMAPOST
  1

  9
$DIMALT
 70
     0
  9
$DIMALTD
 70
     2
  9
$DIMALTF
 40
25.4
  9
$DIMLFAC
 40
1.0
  9
$DIMTOFL
 70
     1
  9
$DIMTVP
 40
0.0
  9
$DIMTIX
 70
     1
  9
$DIMSOXD
 70
     0
  9
$DIMSAH
 70
     0
  9
$DIMBLK1
  1

  9
$DIMBLK2
  1

  9
$LUNITS
 70
     2
  9
$LUPREC
 70
     4
  9
$AXISMODE
 70
     0
  9
$AXISUNIT
 10
0.0
 20
0.0
  9
$SKETCHINC
 40
0.1
  9
$FILLETRAD
 40
10.0
  9
$AUNITS
 70
     1
  9
$AUPREC
 70
     3
  9
$MENU
  1
ACAD
  9
$ELEVATION
 40
0.0
  9
$THICKNESS
 40
0.0
  9
$LIMCHECK
 70
     0
  9
$BLIPMODE
 70
     0
  9
$CHAMFERA
 40
0.0
  9
$CHAMFERB
 40
0.0
  9
$SKPOLY
 70
     0
  9
$TDCREATE
 40
2451359.5886111110
  9
$TDUPDATE
 40
2451452.3994444446
  9
$TDINDWG
 40
0.0292476852
  9
$TDUSRTIMER
 40
0.0292476852
  9
$USRTIMER
 70
     1
  9
$ANGBASE
 50
0.0
  9
$ANGDIR
 70
     0
  9
$PDMODE
 70
     3
  9
$PDSIZE
 40
-2.0
  9
$PLINEWID
 40
0.0
  9
$COORDS
 70
     2
  9
$SPLFRAME
 70
     0
  9
$SPLINETYPE
 70
     6
  9
$SPLINESEGS
 70
     8
  9
$ATTDIA
 70
     0
  9
$ATTREQ
 70
     1
  9
$HANDLING
 70
     0
  9
$HANDSEED
  5
0
  9
$SURFTAB1
 70
     6
  9
$SURFTAB2
 70
     6
  9
$SURFTYPE
 70
     6
  9
$SURFU
 70
     6
  9
$SURFV
 70
     6
  9
$FLATLAND
 70
     1
  9
$UCSNAME
  2

  9
$UCSORG
 10
0.0
 20
0.0
 30
0.0
  9
$UCSXDIR
 10
1.0
 20
0.0
 30
0.0
  9
$UCSYDIR
 10
0.0
 20
1.0
 30
0.0
  9
$USERI1
 70
     0
  9
$USERI2
 70
     0
  9
$USERI3
 70
     0
  9
$USERI4
 70
     0
  9
$USERI5
 70
     0
  9
$USERR1
 40
20.0
  9
$USERR2
 40
0.0
  9
$USERR3
 40
0.0
  9
$USERR4
 40
0.0
  9
$USERR5
 40
0.0
  9
$WORLDVIEW
 70
     1
  9
$VIEWCTR
 10
-87.510728
 20
264.655653
  9
$VIEWSIZE
 40
4282.619808
  9
$SNAPMODE
 70
     0
  9
$SNAPUNIT
 10
50.0
 20
50.0
  9
$SNAPBASE
 10
0.0
 20
0.0
  9
$SNAPANG
 50
0.0
  9
$SNAPSTYLE
 70
     0
  9
$SNAPISOPAIR
 70
     0
  9
$GRIDMODE
 70
     0
  9
$GRIDUNIT
 10
400.0
 20
400.0
  9
$FASTZOOM
 70
     1
  9
$VIEWDIR
 10
0.0
 20
0.0
 30
1.0
  0
ENDSEC
  0
SECTION
  2
TABLES
  0
TABLE
  2
VPORT
 70
     2
  0
VPORT
  2
*ACTIVE
 70
     0
 10
0.0
 20
0.0
 11
1.0
 21
1.0
 12
-87.510728
 22
264.655653
 13
0.0
 23
0.0
 14
50.0
 24
50.0
 15
400.0
 25
400.0
 16
0.0
 26
0.0
 36
1.0
 17
0.0
 27
0.0
 37
0.0
 40
2154.989632
 41
1.387001
 42
50.0
 43
0.0
 44
0.0
 50
0.0
 51
0.0
 71
     0
 72
   500
 73
     1
 74
     0
 75
     0
 76
     0
 77
     0
 78
     0
  0
ENDTAB
  0
TABLE
  2
LTYPE
 70
     8
  0
LTYPE
  2
CONTINUOUS
 70
    64
  3
実線
 72
    65
 73
     0
 40
0.0
  0
LTYPE
  2
DASHDOT
 70
    64
  3
____ _ ____ _ ____ _ ____ _ ____ _ ____ _ ____
 72
    65
 73
     4
 40
5.5
 49
4.0
 49
-0.6
 49
0.3
 49
-0.6
  0
LTYPE
  2
CONTINOUS
 70
    64
  3
Solid line
 72
    65
 73
     0
 40
0.0
  0
LTYPE
  2
DASHED
 70
    64
  3
_ _ _ _ _ _ _ _ _ _ _ _ _ _ _ _ _ _ _ _ _ _ _
 72
    65
 73
     2
 40
2.0
 49
1.2
 49
-0.8
  0
LTYPE
  2
DOT
 70
    64
  3
...............................................
 72
    65
 73
     2
 40
0.8
 49
0.5
 49
-0.3
  0
LTYPE
  2
DASHDOT1
 70
    64
  3
____ _ ____ _ ____ _ ____ _ ____ _ ____ _ ____
 72
    65
 73
     4
 40
2.0
 49
1.5
 49
-0.2
 49
0.1
 49
-0.2
  0
LTYPE
  2
DIVIDE
 70
    64
  3
_____ _ _ _____ _ _ _____ _ _ _____ _ _ ____
 72
    65
 73
     6
 40
6.4
 49
4.0
 49
-0.6
 49
0.3
 49
-0.6
 49
0.3
 49
-0.6
  0
LTYPE
  2
DIVIDE1
 70
    64
  3
_____ _ _ _____ _ _ _____ _ _ _____ _ _ ____
 72
    65
 73
     6
 40
3.2
 49
2.0
 49
-0.3
 49
0.15
 49
-0.3
 49
0.15
 49
-0.3
  0
ENDTAB
  0
TABLE
  2
LAYER
 70
    12
  0
LAYER
  2
0
 70
     0
 62
     2
  6
CONTINUOUS
  0
LAYER
  2
OUTLINE
 70
    64
 62
     4
  6
CONTINUOUS
  0
LAYER
  2
DETAIL
 70
    64
 62
     1
  6
CONTINUOUS
  0
LAYER
  2
BASIS
 70
    64
 62
     1
  6
CONTINUOUS
  0
LAYER
  2
NOTE
 70
    64
 62
     1
  6
CONTINUOUS
  0
LAYER
  2
DEFPOINTS
 70
     0
 62
     7
  6
CONTINUOUS
  0
LAYER
  2
SIZE
 70
    64
 62
     7
  6
CONTINUOUS
  0
LAYER
  2
FIX
 70
    64
 62
     7
  6
CONTINUOUS
  0
LAYER
  2
ARRANGE
 70
    64
 62
     7
  6
CONTINUOUS
  0
LAYER
  2
ETC
 70
    64
 62
     7
  6
CONTINUOUS
  0
LAYER
  2
SERVICESPACE
 70
     0
 62
     7
  6
CONTINUOUS
  0
LAYER
  2
SYMBOLLINE
 70
     0
 62
     7
  6
CONTINUOUS
  0
ENDTAB
  0
TABLE
  2
STYLE
 70
     1
  0
STYLE
  2
STANDARD
 70
    64
 40
0.0
 41
0.9
 50
0.0
 71
     0
 42
64.0
  3
SIMPLEX
  4
BIGFONT
  0
ENDTAB
  0
TABLE
  2
VIEW
 70
     1
  0
VIEW
  2
ALL
 70
     0
 40
4282.619808
 10
-0.0
 20
41.309904
 41
5940.0
 11
0.0
 21
0.0
 31
1.0
 12
0.0
 22
0.0
 32
0.0
 42
50.0
 43
0.0
 44
0.0
 50
0.0
 71
     0
  0
ENDTAB
  0
TABLE
  2
UCS
 70
     0
  0
ENDTAB
  0
TABLE
  2
DWGMGR
 70
     0
  0
ENDTAB
  0
ENDSEC
  0
SECTION
  2
BLOCKS
  0
ENDSEC
  0
SECTION
  2
ENTITIES
  0
TEXT
  8
ETC
  6
CONTINUOUS
 62
    10
 10
315.212096
 20
691.076657
 40
64.0
  1
換気扇
 41
0.9
  0
LINE
  8
DETAIL
  6
CONTINUOUS
 62
     5
 10
-101.5
 20
179.0
 11
-101.5
 21
0.0
  0
LINE
  8
DETAIL
  6
CONTINUOUS
 62
     5
 10
-128.0
 20
186.0
 11
-128.0
 21
182.0
  0
LINE
  8
DETAIL
  6
CONTINUOUS
 62
     5
 10
-128.0
 20
186.0
 11
-102.5
 21
186.0
  0
LINE
  8
DETAIL
  6
CONTINUOUS
 62
     5
 10
128.0
 20
186.0
 11
128.0
 21
182.0
  0
LINE
  8
DETAIL
  6
CONTINUOUS
 62
     5
 10
101.5
 20
179.0
 11
101.5
 21
0.0
  0
LINE
  8
DETAIL
  6
CONTINUOUS
 62
     5
 10
128.0
 20
186.0
 11
102.5
 21
186.0
  0
CIRCLE
  8
FIX
  6
CONTINUOUS
 62
     9
 10
-114.5
 20
186.0
 40
7.5
  0
CIRCLE
  8
FIX
  6
CONTINUOUS
 62
     9
 10
114.5
 20
186.0
 40
7.5
  0
LINE
  8
NOTE
  6
CONTINUOUS
 62
     4
 10
134.5
 20
186.0
 11
94.5
 21
186.0
  0
LINE
  8
NOTE
  6
CONTINUOUS
 62
     4
 10
114.5
 20
206.0
 11
114.5
 21
166.0
  0
LINE
  8
DETAIL
  6
CONTINOUS
 62
     5
 10
-42.5
 20
189.0
 11
18.5
 21
189.0
  0
LINE
  8
NOTE
  6
CONTINUOUS
 62
     4
 10
-114.5
 20
206.0
 11
-114.5
 21
166.0
  0
LINE
  8
NOTE
  6
CONTINUOUS
 62
     4
 10
-134.5
 20
186.0
 11
-94.5
 21
186.0
  0
LINE
  8
DETAIL
  6
CONTINOUS
 62
     5
 10
18.5
 20
157.0
 11
18.5
 21
189.0
  0
LINE
  8
DETAIL
  6
CONTINOUS
 62
     5
 10
-42.5
 20
157.0
 11
-42.5
 21
189.0
  0
LINE
  8
BASIS
  6
DASHDOT
 62
     6
 10
-12.0
 20
148.382624
 11
-12.0
 21
205.272759
  0
LINE
  8
BASIS
  6
DASHDOT
 62
     6
 10
-0.0
 20
-49.328414
 11
0.0
 21
223.192157
  0
LINE
  8
NOTE
  6
CONTINUOUS
 62
     4
 10
250.693734
 20
-311.528618
 11
678.533234
 21
-311.528618
  0
LINE
  8
NOTE
  6
CONTINUOUS
 62
     4
 10
-313.177163
 20
408.075766
 11
-1268.293043
 21
408.075766
  0
TEXT
  8
NOTE
  6
CONTINUOUS
 62
     4
 10
-1257.509645
 20
460.538814
 40
64.0
  1
AH 2-φ15×22
 41
0.9
  0
LINE
  8
DETAIL
  6
CONTINUOUS
 62
     5
 10
101.5
 20
-0.0
 11
101.5
 21
149.0
  0
LINE
  8
DETAIL
  6
CONTINUOUS
 62
     5
 10
-101.5
 20
-0.0
 11
-101.5
 21
149.0
  0
ARC
  8
DETAIL
  6
CONTINUOUS
 62
     5
 10
95.5
 20
134.0
 40
35.0
 50
86.724171
 51
90.0
  0
LINE
  8
DETAIL
  6
CONTINUOUS
 62
     5
 10
95.5
 20
169.0
 11
18.5
 21
169.0
  0
LINE
  8
DETAIL
  6
CONTINUOUS
 62
     5
 10
130.5
 20
70.0
 11
130.5
 21
134.0
  0
ARC
  8
DETAIL
  6
CONTINUOUS
 62
     5
 10
95.5
 20
70.0
 40
35.0
 50
279.87089
 51
0.0
  0
LINE
  8
DETAIL
  6
CONTINUOUS
 62
     5
 10
128.0
 20
182.0
 11
104.5
 21
182.0
  0
LINE
  8
DETAIL
  6
CONTINUOUS
 62
     5
 10
97.5
 20
181.0
 11
97.5
 21
0.0
  0
LINE
  8
DETAIL
  6
CONTINUOUS
 62
     5
 10
-128.0
 20
182.0
 11
-104.5
 21
182.0
  0
LINE
  8
DETAIL
  6
CONTINUOUS
 62
     5
 10
-97.5
 20
181.0
 11
-97.5
 21
0.0
  0
ARC
  8
DETAIL
  6
CONTINUOUS
 62
     5
 10
102.5
 20
181.0
 40
5.0
 50
90.0
 51
180.0
  0
ARC
  8
DETAIL
  6
CONTINUOUS
 62
     5
 10
-102.5
 20
181.0
 40
5.0
 50
0.0
 51
90.0
  0
ARC
  8
DETAIL
  6
CONTINUOUS
 62
     5
 10
104.5
 20
179.0
 40
3.0
 50
90.0
 51
180.0
  0
ARC
  8
DETAIL
  6
CONTINUOUS
 62
     5
 10
-104.5
 20
179.0
 40
3.0
 50
0.0
 51
90.0
  0
LINE
  8
SIZE
  6
CONTINUOUS
 62
     8
 10
-10.0
 20
376.122073
 11
-232.635604
 21
376.122073
  0
LINE
  8
SIZE
  6
CONTINUOUS
 62
     8
 10
-44.5
 20
504.675348
 11
-287.59696
 21
504.675348
  0
LINE
  8
NOTE
  6
CONTINUOUS
 62
     4
 10
106.0
 20
0.0
 11
250.693734
 21
-311.528618
  0
CIRCLE
  8
FIX
  6
CONTINUOUS
 62
     9
 10
-75.0
 20
0.0
 40
2.5
  0
CIRCLE
  8
FIX
  6
CONTINUOUS
 62
     9
 10
75.0
 20
0.0
 40
2.5
  0
LINE
  8
NOTE
  6
CONTINUOUS
 62
     4
 10
-302.854915
 20
266.685904
 11
-421.387635
 21
266.685904
  0
TEXT
  8
NOTE
  6
CONTINUOUS
 62
     4
 10
-411.240456
 20
290.937667
 40
64.0
  1
EL
 41
0.9
  0
LINE
  8
SIZE
  6
CONTINUOUS
 62
     8
 10
-79.0
 20
-185.663093
 11
-273.01709
 21
-185.663093
  0
LINE
  8
DETAIL
  6
CONTINUOUS
 62
     5
 10
-104.5
 20
-20.0
 11
-104.5
 21
0.0
  0
LINE
  8
DETAIL
  6
CONTINUOUS
 62
     5
 10
104.5
 20
-20.0
 11
104.5
 21
0.0
  0
LINE
  8
DETAIL
  6
CONTINUOUS
 62
     5
 10
-143.0
 20
-6.0
 11
143.0
 21
-6.0
  0
POLYLINE
  8
DETAIL
  6
CONTINUOUS
 62
     5
 66
     1
  0
VERTEX
  8
DETAIL
  6
CONTINUOUS
 62
     5
 10
-143.0
 20
-8.553879
 42
0.242297
  0
VERTEX
  8
DETAIL
  6
CONTINUOUS
 62
     5
 10
-141.178581
 20
-12.091872
 42
0.083306
  0
VERTEX
  8
DETAIL
  6
CONTINUOUS
 62
     5
 10
-131.284271
 20
-16.916687
 42
0.041428
 70
     2
 50
343.528638
  0
VERTEX
  8
DETAIL
  6
CONTINUOUS
 62
     5
 10
-119.423522
 20
-19.37872
 42
0.011695
  0
VERTEX
  8
DETAIL
  6
CONTINUOUS
 62
     5
 10
-113.134913
 20
-20.0
 42
0.030475
  0
SEQEND
  8
DETAIL
  6
CONTINUOUS
 62
     5
  0
LINE
  8
DETAIL
  6
CONTINUOUS
 62
     5
 10
-143.0
 20
-8.553879
 11
-143.0
 21
0.0
  0
POLYLINE
  8
DETAIL
  6
CONTINUOUS
 62
     5
 66
     1
  0
VERTEX
  8
DETAIL
  6
CONTINUOUS
 62
     5
 10
143.0
 20
-8.553879
 42
-0.242297
  0
VERTEX
  8
DETAIL
  6
CONTINUOUS
 62
     5
 10
141.178581
 20
-12.091872
 42
-0.083306
  0
VERTEX
  8
DETAIL
  6
CONTINUOUS
 62
     5
 10
131.284271
 20
-16.916687
 42
-0.041428
 70
     2
 50
343.528638
  0
VERTEX
  8
DETAIL
  6
CONTINUOUS
 62
     5
 10
119.423522
 20
-19.37872
 42
-0.011695
  0
VERTEX
  8
DETAIL
  6
CONTINUOUS
 62
     5
 10
113.134913
 20
-20.0
 42
-0.030475
  0
SEQEND
  8
DETAIL
  6
CONTINUOUS
 62
     5
  0
LINE
  8
DETAIL
  6
CONTINUOUS
 62
     5
 10
143.0
 20
-8.553879
 11
143.0
 21
0.0
  0
LINE
  8
DETAIL
  6
CONTINUOUS
 62
     5
 10
-143.0
 20
0.0
 11
143.0
 21
0.0
  0
LINE
  8
DETAIL
  6
CONTINUOUS
 62
     5
 10
-113.134913
 20
-20.0
 11
113.134913
 21
-20.0
  0
CIRCLE
  8
FIX
  6
CONTINUOUS
 62
     9
 10
106.0
 20
0.0
 40
2.5
  0
CIRCLE
  8
FIX
  6
CONTINUOUS
 62
     9
 10
-106.0
 20
0.0
 40
2.5
  0
LINE
  8
NOTE
  6
CONTINUOUS
 62
     4
 10
-114.5
 20
186.0
 11
-313.177163
 21
408.075766
  0
LINE
  8
DETAIL
  6
CONTINUOUS
 62
     5
 10
97.5
 20
155.0
 11
-97.5
 21
155.0
  0
LINE
  8
SIZE
  6
CONTINUOUS
 62
     8
 10
486.797846
 20
-22.0
 11
486.797846
 21
-136.46384
  0
POINT
  8
ARRANGE
  6
CONTINUOUS
 62
     1
 10
0.0
 20
0.0
  0
CIRCLE
  8
ARRANGE
  6
CONTINUOUS
 62
     1
 10
0.0
 20
0.0
 40
40.0
  0
LINE
  8
OUTLINE
  6
CONTINUOUS
 62
     3
 10
-143.0
 20
0.0
 11
143.0
 21
0.0
  0
LINE
  8
DETAIL
  6
DASHDOT
 62
     5
 10
-59.5
 20
155.0
 11
-59.5
 21
157.0
  0
LINE
  8
DETAIL
  6
CONTINUOUS
 62
     5
 10
-12.0
 20
157.0
 11
-59.5
 21
157.0
  0
LINE
  8
DETAIL
  6
CONTINUOUS
 62
     5
 10
115.52761
 20
168.270725
 11
102.607559
 21
168.270725
  0
LINE
  8
DETAIL
  6
CONTINUOUS
 62
     5
 10
129.52761
 20
142.192787
 11
129.52761
 21
154.270725
  0
ARC
  8
DETAIL
  6
CONTINUOUS
 62
     5
 10
115.52761
 20
154.270725
 40
14.0
 50
0.0
 51
90.0
  0
ARC
  8
DETAIL
  6
CONTINUOUS
 62
     5
 10
115.52761
 20
49.729275
 40
14.0
 50
270.0
 51
360.0
  0
LINE
  8
DETAIL
  6
CONTINUOUS
 62
     5
 10
115.52761
 20
35.729275
 11
102.607559
 21
35.729275
  0
LINE
  8
DETAIL
  6
CONTINUOUS
 62
     5
 10
129.52761
 20
61.807213
 11
129.52761
 21
49.729275
  0
LINE
  8
SIZE
  6
CONTINUOUS
 62
     8
 10
-607.809088
 20
161.0
 11
-607.809088
 21
277.843101
  0
LINE
  8
SIZE
  6
CONTINUOUS
 62
     8
 10
-470.778696
 20
186.0
 11
-470.778696
 21
293.098237
  0
LINE
  8
OUTLINE
  6
CONTINUOUS
 62
     3
 10
-97.5
 20
155.0
 11
-97.5
 21
0.0
  0
LINE
  8
OUTLINE
  6
CONTINUOUS
 62
     3
 10
97.5
 20
155.0
 11
-97.5
 21
155.0
  0
LINE
  8
OUTLINE
  6
CONTINUOUS
 62
     3
 10
97.5
 20
155.0
 11
97.5
 21
0.0
  0
TEXT
  8
ETC
  6
CONTINUOUS
 62
    10
 10
317.443047
 20
808.796936
 40
64.0
  1
NVD0243
 41
0.9
  0
LINE
  8
DETAIL
  6
CONTINUOUS
 62
     5
 10
-12.0
 20
157.0
 11
35.5
 21
157.0
  0
LINE
  8
DETAIL
  6
DASHDOT
 62
     5
 10
35.5
 20
155.0
 11
35.5
 21
157.0
  0
ARC
  8
DETAIL
  6
CONTINUOUS
 62
     5
 10
95.5
 20
134.0
 40
35.0
 50
0.0
 51
80.12911
  0
TEXT
  8
NOTE
  6
CONTINUOUS
 62
     4
 10
285.059079
 20
-279.710219
 40
64.0
  1
8-φ5×8
 41
0.9
  0
LINE
  8
NOTE
  6
CONTINUOUS
 62
     4
 10
-79.0
 20
155.0
 11
-302.854915
 21
266.685904
  0
TEXT
  8
NOTE
  6
CONTINUOUS
 62
     4
 10
-641.987367
 20
457.837759
 40
64.0
  1
(2点吊り)
 41
0.9
  0
LINE
  8
SIZE
  6
BYBLOCK
 62
     8
 10
-0.0
 20
-69.328414
 11
-0.0
 21
-215.663093
  0
LINE
  8
SIZE
  6
BYBLOCK
 62
     8
 10
-79.0
 20
115.0
 11
-79.0
 21
-215.663093
  0
LINE
  8
SIZE
  6
BYBLOCK
 62
     8
 10
-81.0
 20
-185.663093
 11
-83.0
 21
-185.663093
  0
LINE
  8
SIZE
  6
BYBLOCK
 62
     8
 10
2.0
 20
-185.663093
 11
4.0
 21
-185.663093
  0
LINE
  8
SIZE
  6
BYBLOCK
 62
     8
 10
-79.0
 20
-185.663093
 11
-0.0
 21
-185.663093
  0
TEXT
  8
SIZE
  6
BYBLOCK
 62
     8
 10
-249.700286
 20
-154.808459
 40
64.0
  1
79
 41
0.9
  0
LINE
  8
SIZE
  6
BYBLOCK
 62
     8
 10
-117.5
 20
155.0
 11
-500.778696
 21
155.0
  0
LINE
  8
SIZE
  6
BYBLOCK
 62
     8
 10
-154.5
 20
186.0
 11
-500.778696
 21
186.0
  0
LINE
  8
SIZE
  6
BYBLOCK
 62
     8
 10
-470.778696
 20
188.0
 11
-470.778696
 21
190.0
  0
LINE
  8
SIZE
  6
BYBLOCK
 62
     8
 10
-470.778696
 20
153.0
 11
-470.778696
 21
151.0
  0
LINE
  8
SIZE
  6
BYBLOCK
 62
     8
 10
-470.778696
 20
186.0
 11
-470.778696
 21
155.0
  0
TEXT
  8
SIZE
  6
BYBLOCK
 62
     8
 10
-502.778696
 20
214.719368
 40
64.0
  1
31
 50
90.0
 41
0.9
  0
LINE
  8
SIZE
  6
BYBLOCK
 62
     8
 10
-117.5
 20
155.0
 11
-637.809088
 21
155.0
  0
LINE
  8
SIZE
  6
BYBLOCK
 62
     8
 10
-79.5
 20
157.0
 11
-637.809088
 21
157.0
  0
LINE
  8
SIZE
  6
BYBLOCK
 62
     8
 10
-607.809088
 20
159.0
 11
-607.809088
 21
161.0
  0
LINE
  8
SIZE
  6
BYBLOCK
 62
     8
 10
-607.809088
 20
153.0
 11
-607.809088
 21
151.0
  0
LINE
  8
SIZE
  6
BYBLOCK
 62
     8
 10
-607.809088
 20
157.0
 11
-607.809088
 21
155.0
  0
TEXT
  8
SIZE
  6
BYBLOCK
 62
     8
 10
-639.809088
 20
200.668541
 40
64.0
  1
2
 50
90.0
 41
0.9
  0
LINE
  8
SIZE
  6
BYBLOCK
 62
     8
 10
-163.0
 20
0.0
 11
-637.809088
 21
0.0
  0
LINE
  8
SIZE
  6
BYBLOCK
 62
     8
 10
-117.5
 20
155.0
 11
-637.809088
 21
155.0
  0
LINE
  8
SIZE
  6
BYBLOCK
 62
     8
 10
-607.809088
 20
2.0
 11
-607.809088
 21
77.5
  0
LINE
  8
SIZE
  6
BYBLOCK
 62
     8
 10
-607.809088
 20
153.0
 11
-607.809088
 21
77.5
  0
TEXT
  8
SIZE
  6
BYBLOCK
 62
     8
 10
-639.809088
 20
8.928571
 40
64.0
  1
155
 50
90.0
 41
0.9
  0
LINE
  8
SIZE
  6
BYBLOCK
 62
     8
 10
163.0
 20
-0.0
 11
371.828926
 21
-0.0
  0
LINE
  8
SIZE
  6
BYBLOCK
 62
     8
 10
115.5
 20
169.0
 11
371.828926
 21
169.0
  0
LINE
  8
SIZE
  6
BYBLOCK
 62
     8
 10
341.828926
 20
2.0
 11
341.828926
 21
84.5
  0
LINE
  8
SIZE
  6
BYBLOCK
 62
     8
 10
341.828926
 20
167.0
 11
341.828926
 21
84.5
  0
TEXT
  8
SIZE
  6
BYBLOCK
 62
     8
 10
309.828926
 20
17.3
 40
64.0
  1
169
 50
90.0
 41
0.9
  0
LINE
  8
SIZE
  6
BYBLOCK
 62
     8
 10
163.0
 20
-0.0
 11
516.797846
 21
-0.0
  0
LINE
  8
SIZE
  6
BYBLOCK
 62
     8
 10
38.5
 20
189.0
 11
516.797846
 21
189.0
  0
LINE
  8
SIZE
  6
BYBLOCK
 62
     8
 10
486.797846
 20
2.0
 11
486.797846
 21
94.5
  0
LINE
  8
SIZE
  6
BYBLOCK
 62
     8
 10
486.797846
 20
187.0
 11
486.797846
 21
94.5
  0
TEXT
  8
SIZE
  6
BYBLOCK
 62
     8
 10
454.797846
 20
27.3
 40
64.0
  1
189
 50
90.0
 41
0.9
  0
LINE
  8
SIZE
  6
BYBLOCK
 62
     8
 10
124.5
 20
-20.0
 11
516.797846
 21
-20.0
  0
LINE
  8
SIZE
  6
BYBLOCK
 62
     8
 10
163.0
 20
-0.0
 11
516.797846
 21
-0.0
  0
LINE
  8
SIZE
  6
BYBLOCK
 62
     8
 10
486.797846
 20
2.0
 11
486.797846
 21
4.0
  0
LINE
  8
SIZE
  6
BYBLOCK
 62
     8
 10
486.797846
 20
-22.0
 11
486.797846
 21
-24.0
  0
LINE
  8
SIZE
  6
BYBLOCK
 62
     8
 10
486.797846
 20
-0.0
 11
486.797846
 21
-20.0
  0
TEXT
  8
SIZE
  6
BYBLOCK
 62
     8
 10
454.797846
 20
-135.19388
 40
64.0
  1
20
 50
90.0
 41
0.9
  0
LINE
  8
SIZE
  6
BYBLOCK
 62
     8
 10
-106.0
 20
-40.0
 11
-106.0
 21
-510.47377
  0
LINE
  8
SIZE
  6
BYBLOCK
 62
     8
 10
106.0
 20
-40.0
 11
106.0
 21
-510.47377
  0
LINE
  8
SIZE
  6
BYBLOCK
 62
     8
 10
-104.0
 20
-480.47377
 11
104.0
 21
-480.47377
  0
TEXT
  8
SIZE
  6
BYBLOCK
 62
     8
 10
-68.571429
 20
-448.47377
 40
64.0
  1
212
 41
0.9
  0
LINE
  8
SIZE
  6
BYBLOCK
 62
     8
 10
-75.0
 20
-40.0
 11
-75.0
 21
-362.486867
  0
LINE
  8
SIZE
  6
BYBLOCK
 62
     8
 10
75.0
 20
-40.0
 11
75.0
 21
-362.486867
  0
LINE
  8
SIZE
  6
BYBLOCK
 62
     8
 10
-73.0
 20
-332.486867
 11
73.0
 21
-332.486867
  0
TEXT
  8
SIZE
  6
BYBLOCK
 62
     8
 10
-68.571429
 20
-300.486867
 40
64.0
  1
150
 41
0.9
  0
LINE
  8
SIZE
  6
BYBLOCK
 62
     8
 10
-114.5
 20
226.0
 11
-114.5
 21
804.955608
  0
LINE
  8
SIZE
  6
BYBLOCK
 62
     8
 10
114.5
 20
226.0
 11
114.5
 21
804.955608
  0
LINE
  8
SIZE
  6
BYBLOCK
 62
     8
 10
-112.5
 20
774.955608
 11
0.0
 21
774.955608
  0
LINE
  8
SIZE
  6
BYBLOCK
 62
     8
 10
112.5
 20
774.955608
 11
0.0
 21
774.955608
  0
TEXT
  8
SIZE
  6
BYBLOCK
 62
     8
 10
-72.685714
 20
806.955608
 40
64.0
  1
229
 41
0.9
  0
LINE
  8
SIZE
  6
BYBLOCK
 62
     8
 10
-97.5
 20
175.0
 11
-97.5
 21
672.303664
  0
LINE
  8
SIZE
  6
BYBLOCK
 62
     8
 10
97.5
 20
175.0
 11
97.5
 21
672.303664
  0
LINE
  8
SIZE
  6
BYBLOCK
 62
     8
 10
99.5
 20
642.303664
 11
101.5
 21
642.303664
  0
LINE
  8
SIZE
  6
BYBLOCK
 62
     8
 10
-99.5
 20
642.303664
 11
-101.5
 21
642.303664
  0
LINE
  8
SIZE
  6
BYBLOCK
 62
     8
 10
97.5
 20
642.303664
 11
-97.5
 21
642.303664
  0
TEXT
  8
SIZE
  6
BYBLOCK
 62
     8
 10
-101.211429
 20
674.303664
 40
64.0
  1
□195
 41
0.9
  0
LINE
  8
SIZE
  6
BYBLOCK
 62
     8
 10
-42.5
 20
209.0
 11
-42.5
 21
534.675348
  0
LINE
  8
SIZE
  6
BYBLOCK
 62
     8
 10
18.5
 20
209.0
 11
18.5
 21
534.675348
  0
LINE
  8
SIZE
  6
BYBLOCK
 62
     8
 10
20.5
 20
504.675348
 11
22.5
 21
504.675348
  0
LINE
  8
SIZE
  6
BYBLOCK
 62
     8
 10
-44.5
 20
504.675348
 11
-46.5
 21
504.675348
  0
LINE
  8
SIZE
  6
BYBLOCK
 62
     8
 10
18.5
 20
504.675348
 11
-42.5
 21
504.675348
  0
TEXT
  8
SIZE
  6
BYBLOCK
 62
     8
 10
-288.658928
 20
536.675348
 40
64.0
  1
φ61
 41
0.9
  0
LINE
  8
SIZE
  6
BYBLOCK
 62
     8
 10
0.0
 20
243.192157
 11
0.0
 21
406.122073
  0
LINE
  8
SIZE
  6
BYBLOCK
 62
     8
 10
-12.0
 20
225.272759
 11
-12.0
 21
406.122073
  0
LINE
  8
SIZE
  6
BYBLOCK
 62
     8
 10
-14.0
 20
376.122073
 11
-16.0
 21
376.122073
  0
LINE
  8
SIZE
  6
BYBLOCK
 62
     8
 10
2.0
 20
376.122073
 11
4.0
 21
376.122073
  0
LINE
  8
SIZE
  6
BYBLOCK
 62
     8
 10
-12.0
 20
376.122073
 11
0.0
 21
376.122073
  0
TEXT
  8
SIZE
  6
BYBLOCK
 62
     8
 10
-217.957613
 20
408.122073
 40
64.0
  1
12
 41
0.9
  0
LINE
  8
SIZE
  6
BYBLOCK
 62
     8
 10
-143.0
 20
-20.0
 11
-143.0
 21
-661.428539
  0
LINE
  8
SIZE
  6
BYBLOCK
 62
     8
 10
143.0
 20
-20.0
 11
143.0
 21
-661.428539
  0
LINE
  8
SIZE
  6
BYBLOCK
 62
     8
 10
-141.0
 20
-631.428539
 11
0.0
 21
-631.428539
  0
LINE
  8
SIZE
  6
BYBLOCK
 62
     8
 10
141.0
 20
-631.428539
 11
0.0
 21
-631.428539
  0
TEXT
  8
SIZE
  6
BYBLOCK
 62
     8
 10
-105.325714
 20
-599.428539
 40
64.0
  1
□286
 41
0.9
  0
CIRCLE
  8
SIZE
  6
CONTINUOUS
 62
     8
 10
143.0
 20
-631.428539
 40
6.0
  0
CIRCLE
  8
SIZE
  6
CONTINUOUS
 62
     8
 10
-143.0
 20
-631.428539
 40
6.0
  0
CIRCLE
  8
SIZE
  6
CONTINUOUS
 62
     8
 10
0.0
 20
376.122073
 40
6.0
  0
CIRCLE
  8
SIZE
  6
CONTINUOUS
 62
     8
 10
-12.0
 20
376.122073
 40
6.0
  0
CIRCLE
  8
SIZE
  6
CONTINUOUS
 62
     8
 10
-42.5
 20
504.675348
 40
6.0
  0
CIRCLE
  8
SIZE
  6
CONTINUOUS
 62
     8
 10
18.5
 20
504.675348
 40
6.0
  0
CIRCLE
  8
SIZE
  6
CONTINUOUS
 62
     8
 10
-97.5
 20
642.303664
 40
6.0
  0
CIRCLE
  8
SIZE
  6
CONTINUOUS
 62
     8
 10
97.5
 20
642.303664
 40
6.0
  0
CIRCLE
  8
SIZE
  6
CONTINUOUS
 62
     8
 10
114.5
 20
774.955608
 40
6.0
  0
CIRCLE
  8
SIZE
  6
CONTINUOUS
 62
     8
 10
-114.5
 20
774.955608
 40
6.0
  0
CIRCLE
  8
SIZE
  6
CONTINUOUS
 62
     8
 10
75.0
 20
-332.486867
 40
6.0
  0
CIRCLE
  8
SIZE
  6
CONTINUOUS
 62
     8
 10
-75.0
 20
-332.486867
 40
6.0
  0
CIRCLE
  8
SIZE
  6
CONTINUOUS
 62
     8
 10
106.0
 20
-480.47377
 40
6.0
  0
CIRCLE
  8
SIZE
  6
CONTINUOUS
 62
     8
 10
-106.0
 20
-480.47377
 40
6.0
  0
CIRCLE
  8
SIZE
  6
CONTINUOUS
 62
     8
 10
486.797846
 20
-20.0
 40
6.0
  0
CIRCLE
  8
SIZE
  6
CONTINUOUS
 62
     8
 10
486.797846
 20
-0.0
 40
6.0
  0
CIRCLE
  8
SIZE
  6
CONTINUOUS
 62
     8
 10
486.797846
 20
189.0
 40
6.0
  0
CIRCLE
  8
SIZE
  6
CONTINUOUS
 62
     8
 10
486.797846
 20
-0.0
 40
6.0
  0
CIRCLE
  8
SIZE
  6
CONTINUOUS
 62
     8
 10
341.828926
 20
169.0
 40
6.0
  0
CIRCLE
  8
SIZE
  6
CONTINUOUS
 62
     8
 10
341.828926
 20
-0.0
 40
6.0
  0
CIRCLE
  8
SIZE
  6
CONTINUOUS
 62
     8
 10
-607.809088
 20
155.0
 40
6.0
  0
CIRCLE
  8
SIZE
  6
CONTINUOUS
 62
     8
 10
-607.809088
 20
0.0
 40
6.0
  0
CIRCLE
  8
SIZE
  6
CONTINUOUS
 62
     8
 10
-607.809088
 20
155.0
 40
6.0
  0
CIRCLE
  8
SIZE
  6
CONTINUOUS
 62
     8
 10
-607.809088
 20
157.0
 40
6.0
  0
CIRCLE
  8
SIZE
  6
CONTINUOUS
 62
     8
 10
-470.778696
 20
155.0
 40
6.0
  0
CIRCLE
  8
SIZE
  6
CONTINUOUS
 62
     8
 10
-470.778696
 20
186.0
 40
6.0
  0
CIRCLE
  8
SIZE
  6
CONTINUOUS
 62
     8
 10
-0.0
 20
-185.663093
 40
6.0
  0
CIRCLE
  8
SIZE
  6
CONTINUOUS
 62
     8
 10
-79.0
 20
-185.663093
 40
6.0
  0
POLYLINE
  8
NOTE
  6
CONTINUOUS
 62
     4
 66
     1
  0
VERTEX
  8
NOTE
  6
CONTINUOUS
 62
     4
 10
-117.624526
 20
165.399326
 50
329.930938
  0
VERTEX
  8
NOTE
  6
CONTINUOUS
 62
     4
 10
-79.0
 20
155.0
 50
329.930938
  0
VERTEX
  8
NOTE
  6
CONTINUOUS
 62
     4
 10
-107.250158
 20
183.318344
 50
329.930938
  0
SEQEND
  8
NOTE
  6
CONTINUOUS
 62
     4
  0
LINE
  8
NOTE
  6
CONTINUOUS
 62
     4
 10
-79.0
 20
135.0
 11
-79.0
 21
175.0
  0
LINE
  8
NOTE
  6
CONTINUOUS
 62
     4
 10
-99.0
 20
155.0
 11
-59.0
 21
155.0
  0
POLYLINE
  8
NOTE
  6
CONTINUOUS
 62
     4
 66
     1
  0
VERTEX
  8
NOTE
  6
CONTINUOUS
 62
     4
 10
-132.273369
 20
221.834444
  0
VERTEX
  8
NOTE
  6
CONTINUOUS
 62
     4
 10
-114.5
 20
186.0
  0
VERTEX
  8
NOTE
  6
CONTINUOUS
 62
     4
 10
-147.809411
 20
208.146854
  0
SEQEND
  8
NOTE
  6
CONTINUOUS
 62
     4
  0
LINE
  8
NOTE
  6
CONTINUOUS
 62
     4
 10
75.0
 20
-20.0
 11
75.0
 21
20.0
  0
LINE
  8
NOTE
  6
CONTINUOUS
 62
     4
 10
95.0
 20
0.0
 11
55.0
 21
0.0
  0
LINE
  8
NOTE
  6
CONTINUOUS
 62
     4
 10
106.0
 20
-20.0
 11
106.0
 21
20.0
  0
LINE
  8
NOTE
  6
CONTINUOUS
 62
     4
 10
126.0
 20
0.0
 11
86.0
 21
0.0
  0
LINE
  8
NOTE
  6
CONTINUOUS
 62
     4
 10
-75.0
 20
-20.0
 11
-75.0
 21
20.0
  0
LINE
  8
NOTE
  6
CONTINUOUS
 62
     4
 10
-55.0
 20
0.0
 11
-95.0
 21
0.0
  0
LINE
  8
NOTE
  6
CONTINUOUS
 62
     4
 10
-106.0
 20
-20.0
 11
-106.0
 21
20.0
  0
LINE
  8
NOTE
  6
CONTINUOUS
 62
     4
 10
-86.0
 20
0.0
 11
-126.0
 21
0.0
  0
POLYLINE
  8
NOTE
  6
CONTINUOUS
 62
     4
 66
     1
  0
VERTEX
  8
NOTE
  6
CONTINUOUS
 62
     4
 10
112.839678
 20
-39.410897
  0
VERTEX
  8
NOTE
  6
CONTINUOUS
 62
     4
 10
106.0
 20
0.0
  0
VERTEX
  8
NOTE
  6
CONTINUOUS
 62
     4
 10
131.628783
 20
-30.710999
  0
SEQEND
  8
NOTE
  6
CONTINUOUS
 62
     4
  0
ENDSEC
  0
EOF
