  0
SECTION
  2
HEADER
  9
$ACADVER
  1
AC1006
  9
$INSBASE
 10
0.0
 20
0.0
 30
0.0
  9
$EXTMIN
 10
-829.841945
 20
-648.199144
  9
$EXTMAX
 10
761.055403
 20
670.753448
  9
$LIMMIN
 10
-2970.0
 20
-2100.0
  9
$LIMMAX
 10
2970.0
 20
2100.0
  9
$ORTHOMODE
 70
     1
  9
$REGENMODE
 70
     0
  9
$FILLMODE
 70
     1
  9
$QTEXTMODE
 70
     0
  9
$MIRRTEXT
 70
     0
  9
$DRAGMODE
 70
     2
  9
$LTSCALE
 40
20.0
  9
$OSMODE
 70
     0
  9
$ATTMODE
 70
     1
  9
$TEXTSIZE
 40
64.0
  9
$TRACEWID
 40
0.05
  9
$TEXTSTYLE
  7
STANDARD
  9
$CLAYER
  8
0
  9
$CELTYPE
  6
CONTINUOUS
  9
$CECOLOR
 62
     8
  9
$DIMSCALE
 40
1.0
  9
$DIMASZ
 40
2.0
  9
$DIMEXO
 40
20.0
  9
$DIMDLI
 40
200.0
  9
$DIMRND
 40
0.0
  9
$DIMDLE
 40
0.0
  9
$DIMEXE
 40
30.0
  9
$DIMTP
 40
0.0
  9
$DIMTM
 40
0.0
  9
$DIMTXT
 40
64.0
  9
$DIMCEN
 40
0.09
  9
$DIMTSZ
 40
0.0
  9
$DIMTOL
 70
     0
  9
$DIMLIM
 70
     0
  9
$DIMTIH
 70
     0
  9
$DIMTOH
 70
     0
  9
$DIMSE1
 70
     0
  9
$DIMSE2
 70
     0
  9
$DIMTAD
 70
     1
  9
$DIMZIN
 70
     8
  9
$DIMBLK
  1
DOT1
  9
$DIMASO
 70
     1
  9
$DIMSHO
 70
     0
  9
$DIMPOST
  1

  9
$DIMAPOST
  1

  9
$DIMALT
 70
     0
  9
$DIMALTD
 70
     2
  9
$DIMALTF
 40
25.4
  9
$DIMLFAC
 40
1.0
  9
$DIMTOFL
 70
     1
  9
$DIMTVP
 40
0.0
  9
$DIMTIX
 70
     1
  9
$DIMSOXD
 70
     0
  9
$DIMSAH
 70
     0
  9
$DIMBLK1
  1

  9
$DIMBLK2
  1

  9
$LUNITS
 70
     2
  9
$LUPREC
 70
     4
  9
$AXISMODE
 70
     0
  9
$AXISUNIT
 10
0.0
 20
0.0
  9
$SKETCHINC
 40
0.1
  9
$FILLETRAD
 40
10.0
  9
$AUNITS
 70
     1
  9
$AUPREC
 70
     3
  9
$MENU
  1
ACAD
  9
$ELEVATION
 40
0.0
  9
$THICKNESS
 40
0.0
  9
$LIMCHECK
 70
     0
  9
$BLIPMODE
 70
     0
  9
$CHAMFERA
 40
0.0
  9
$CHAMFERB
 40
0.0
  9
$SKPOLY
 70
     0
  9
$TDCREATE
 40
2451331.6906018518
  9
$TDUPDATE
 40
2451451.6250925926
  9
$TDINDWG
 40
0.0349652778
  9
$TDUSRTIMER
 40
0.0349652778
  9
$USRTIMER
 70
     1
  9
$ANGBASE
 50
0.0
  9
$ANGDIR
 70
     0
  9
$PDMODE
 70
     3
  9
$PDSIZE
 40
-2.0
  9
$PLINEWID
 40
0.0
  9
$COORDS
 70
     2
  9
$SPLFRAME
 70
     0
  9
$SPLINETYPE
 70
     6
  9
$SPLINESEGS
 70
     8
  9
$ATTDIA
 70
     0
  9
$ATTREQ
 70
     1
  9
$HANDLING
 70
     0
  9
$HANDSEED
  5
0
  9
$SURFTAB1
 70
     6
  9
$SURFTAB2
 70
     6
  9
$SURFTYPE
 70
     6
  9
$SURFU
 70
     6
  9
$SURFV
 70
     6
  9
$FLATLAND
 70
     1
  9
$UCSNAME
  2

  9
$UCSORG
 10
0.0
 20
0.0
 30
0.0
  9
$UCSXDIR
 10
1.0
 20
0.0
 30
0.0
  9
$UCSYDIR
 10
0.0
 20
1.0
 30
0.0
  9
$USERI1
 70
     0
  9
$USERI2
 70
     0
  9
$USERI3
 70
     0
  9
$USERI4
 70
     0
  9
$USERI5
 70
     0
  9
$USERR1
 40
20.0
  9
$USERR2
 40
0.0
  9
$USERR3
 40
0.0
  9
$USERR4
 40
0.0
  9
$USERR5
 40
0.0
  9
$WORLDVIEW
 70
     1
  9
$VIEWCTR
 10
12.253493
 20
126.171901
  9
$VIEWSIZE
 40
4282.619808
  9
$SNAPMODE
 70
     0
  9
$SNAPUNIT
 10
50.0
 20
50.0
  9
$SNAPBASE
 10
0.0
 20
0.0
  9
$SNAPANG
 50
0.0
  9
$SNAPSTYLE
 70
     0
  9
$SNAPISOPAIR
 70
     1
  9
$GRIDMODE
 70
     0
  9
$GRIDUNIT
 10
400.0
 20
400.0
  9
$FASTZOOM
 70
     1
  9
$VIEWDIR
 10
0.0
 20
0.0
 30
1.0
  0
ENDSEC
  0
SECTION
  2
TABLES
  0
TABLE
  2
VPORT
 70
     2
  0
VPORT
  2
*ACTIVE
 70
     0
 10
0.0
 20
0.0
 11
1.0
 21
1.0
 12
12.253493
 22
126.171901
 13
0.0
 23
0.0
 14
50.0
 24
50.0
 15
400.0
 25
400.0
 16
0.0
 26
0.0
 36
1.0
 17
0.0
 27
0.0
 37
0.0
 40
1740.153205
 41
1.387001
 42
50.0
 43
0.0
 44
0.0
 50
0.0
 51
0.0
 71
     0
 72
   500
 73
     1
 74
     0
 75
     0
 76
     0
 77
     0
 78
     1
  0
ENDTAB
  0
TABLE
  2
LTYPE
 70
     7
  0
LTYPE
  2
CONTINUOUS
 70
    64
  3
Ä└É³
 72
    65
 73
     0
 40
0.0
  0
LTYPE
  2
DASHDOT
 70
    64
  3
____ _ ____ _ ____ _ ____ _ ____ _ ____ _ ____
 72
    65
 73
     4
 40
5.5
 49
4.0
 49
-0.6
 49
0.3
 49
-0.6
  0
LTYPE
  2
DASHED
 70
    64
  3
_ _ _ _ _ _ _ _ _ _ _ _ _ _ _ _ _ _ _ _ _ _ _
 72
    65
 73
     2
 40
2.0
 49
1.2
 49
-0.8
  0
LTYPE
  2
DOT
 70
    64
  3
...............................................
 72
    65
 73
     2
 40
0.8
 49
0.5
 49
-0.3
  0
LTYPE
  2
DASHDOT1
 70
    64
  3
____ _ ____ _ ____ _ ____ _ ____ _ ____ _ ____
 72
    65
 73
     4
 40
2.0
 49
1.5
 49
-0.2
 49
0.1
 49
-0.2
  0
LTYPE
  2
DIVIDE
 70
    64
  3
_____ _ _ _____ _ _ _____ _ _ _____ _ _ ____
 72
    65
 73
     6
 40
6.4
 49
4.0
 49
-0.6
 49
0.3
 49
-0.6
 49
0.3
 49
-0.6
  0
LTYPE
  2
DIVIDE1
 70
    64
  3
_____ _ _ _____ _ _ _____ _ _ _____ _ _ ____
 72
    65
 73
     6
 40
3.2
 49
2.0
 49
-0.3
 49
0.15
 49
-0.3
 49
0.15
 49
-0.3
  0
ENDTAB
  0
TABLE
  2
LAYER
 70
    12
  0
LAYER
  2
0
 70
     0
 62
     2
  6
CONTINUOUS
  0
LAYER
  2
OUTLINE
 70
    64
 62
     4
  6
CONTINUOUS
  0
LAYER
  2
DETAIL
 70
    64
 62
     1
  6
CONTINUOUS
  0
LAYER
  2
BASIS
 70
    64
 62
     1
  6
CONTINUOUS
  0
LAYER
  2
NOTE
 70
    64
 62
     1
  6
CONTINUOUS
  0
LAYER
  2
DEFPOINTS
 70
     0
 62
     7
  6
CONTINUOUS
  0
LAYER
  2
SIZE
 70
    64
 62
     7
  6
CONTINUOUS
  0
LAYER
  2
FIX
 70
    64
 62
     7
  6
CONTINUOUS
  0
LAYER
  2
ARRANGE
 70
    64
 62
     7
  6
CONTINUOUS
  0
LAYER
  2
ETC
 70
    64
 62
     7
  6
CONTINUOUS
  0
LAYER
  2
SERVICESPACE
 70
     0
 62
     7
  6
CONTINUOUS
  0
LAYER
  2
SYMBOLLINE
 70
     0
 62
     7
  6
CONTINUOUS
  0
ENDTAB
  0
TABLE
  2
STYLE
 70
     1
  0
STYLE
  2
STANDARD
 70
    64
 40
0.0
 41
0.9
 50
0.0
 71
     0
 42
64.0
  3
SIMPLEX
  4
BIGFONT
  0
ENDTAB
  0
TABLE
  2
VIEW
 70
     1
  0
VIEW
  2
ALL
 70
     0
 40
4282.619808
 10
-0.0
 20
41.309904
 41
5940.0
 11
0.0
 21
0.0
 31
1.0
 12
0.0
 22
0.0
 32
0.0
 42
50.0
 43
0.0
 44
0.0
 50
0.0
 71
     0
  0
ENDTAB
  0
TABLE
  2
UCS
 70
     0
  0
ENDTAB
  0
TABLE
  2
DWGMGR
 70
     0
  0
ENDTAB
  0
ENDSEC
  0
SECTION
  2
BLOCKS
  0
ENDSEC
  0
SECTION
  2
ENTITIES
  0
TEXT
  8
ETC
  6
CONTINUOUS
 62
    10
 10
382.541117
 20
606.753448
 40
64.0
  1
NVD0074
 41
0.9
  0
LINE
  8
NOTE
  6
CONTINUOUS
 62
     4
 10
20.0
 20
120.0
 11
-20.0
 21
120.0
  0
LINE
  8
NOTE
  6
CONTINUOUS
 62
     4
 10
-0.0
 20
100.0
 11
-0.0
 21
140.0
  0
LINE
  8
BASIS
  6
DASHDOT
 62
     6
 10
-0.0
 20
-49.143899
 11
-0.0
 21
212.087076
  0
LINE
  8
BASIS
  6
DASHDOT
 62
     6
 10
-257.826395
 20
102.0
 11
-58.582368
 21
102.0
  0
LINE
  8
DETAIL
  6
CONTINUOUS
 62
     5
 10
-125.0
 20
0.0
 11
125.0
 21
0.0
  0
LINE
  8
DETAIL
  6
CONTINUOUS
 62
     5
 10
125.0
 20
-8.0
 11
125.0
 21
0.0
  0
LINE
  8
DETAIL
  6
CONTINUOUS
 62
     5
 10
-88.341749
 20
-20.0
 11
88.341749
 21
-20.0
  0
LINE
  8
DETAIL
  6
CONTINUOUS
 62
     5
 10
-125.0
 20
-8.0
 11
-125.0
 21
0.0
  0
LINE
  8
DETAIL
  6
CONTINUOUS
 62
     5
 10
87.0
 20
-20.0
 11
87.0
 21
0.0
  0
LINE
  8
DETAIL
  6
CONTINUOUS
 62
     5
 10
-87.0
 20
-20.0
 11
-87.0
 21
0.0
  0
POLYLINE
  8
DETAIL
  6
CONTINUOUS
 62
     5
 66
     1
  0
VERTEX
  8
DETAIL
  6
CONTINUOUS
 62
     5
 10
125.0
 20
-8.0
 42
-0.240033
  0
VERTEX
  8
DETAIL
  6
CONTINUOUS
 62
     5
 10
123.1569
 20
-11.618055
 42
-0.084215
  0
VERTEX
  8
DETAIL
  6
CONTINUOUS
 62
     5
 10
113.284271
 20
-16.515043
 42
-0.042115
 70
     2
 50
343.245461
  0
VERTEX
  8
DETAIL
  6
CONTINUOUS
 62
     5
 10
101.418374
 20
-19.022353
 42
-0.024723
  0
VERTEX
  8
DETAIL
  6
CONTINUOUS
 62
     5
 10
88.341749
 20
-20.0
 42
-0.006297
  0
SEQEND
  8
DETAIL
  6
CONTINUOUS
 62
     5
  0
POLYLINE
  8
DETAIL
  6
CONTINUOUS
 62
     5
 66
     1
  0
VERTEX
  8
DETAIL
  6
CONTINUOUS
 62
     5
 10
-125.0
 20
-8.0
 42
0.240033
  0
VERTEX
  8
DETAIL
  6
CONTINUOUS
 62
     5
 10
-123.1569
 20
-11.618055
 42
0.084215
  0
VERTEX
  8
DETAIL
  6
CONTINUOUS
 62
     5
 10
-113.284271
 20
-16.515043
 42
0.042115
 70
     2
 50
343.245461
  0
VERTEX
  8
DETAIL
  6
CONTINUOUS
 62
     5
 10
-101.418374
 20
-19.022353
 42
0.024723
  0
VERTEX
  8
DETAIL
  6
CONTINUOUS
 62
     5
 10
-88.341749
 20
-20.0
 42
0.006297
  0
SEQEND
  8
DETAIL
  6
CONTINUOUS
 62
     5
  0
CIRCLE
  8
FIX
  6
CONTINUOUS
 62
     9
 10
-0.0
 20
120.0
 40
7.5
  0
LINE
  8
DETAIL
  6
CONTINUOUS
 62
     5
 10
50.0
 20
120.0
 11
50.0
 21
150.0
  0
LINE
  8
DETAIL
  6
CONTINUOUS
 62
     5
 10
-40.0
 20
120.0
 11
-40.0
 21
150.0
  0
LINE
  8
DETAIL
  6
CONTINUOUS
 62
     5
 10
-53.990626
 20
120.0
 11
84.0
 21
120.0
  0
LINE
  8
NOTE
  6
CONTINUOUS
 62
     4
 10
-0.0
 20
120.0
 11
-298.531223
 21
270.816323
  0
LINE
  8
BASIS
  6
DASHDOT
 62
     6
 10
5.0
 20
97.429126
 11
5.0
 21
200.508514
  0
LINE
  8
DETAIL
  6
CONTINUOUS
 62
     5
 10
87.0
 20
0.0
 11
84.0
 21
120.0
  0
LINE
  8
DETAIL
  6
CONTINUOUS
 62
     5
 10
-40.0
 20
150.0
 11
50.0
 21
150.0
  0
LINE
  8
DETAIL
  6
CONTINUOUS
 62
     5
 10
-25.5
 20
181.0
 11
35.5
 21
181.0
  0
LINE
  8
DETAIL
  6
CONTINUOUS
 62
     5
 10
-226.0
 20
53.0
 11
-226.0
 21
151.0
  0
LINE
  8
DETAIL
  6
CONTINUOUS
 62
     5
 10
-196.0
 20
49.5
 11
-196.0
 21
154.5
  0
LINE
  8
DETAIL
  6
CONTINUOUS
 62
     5
 10
-84.0
 20
180.0
 11
-58.990626
 21
180.0
  0
LINE
  8
DETAIL
  6
CONTINUOUS
 62
     5
 10
-53.990626
 20
120.0
 11
-58.990626
 21
180.0
  0
LINE
  8
DETAIL
  6
CONTINUOUS
 62
     5
 10
-226.0
 20
53.0
 11
-196.0
 21
53.0
  0
LINE
  8
DETAIL
  6
CONTINUOUS
 62
     5
 10
-226.0
 20
151.0
 11
-196.0
 21
151.0
  0
LINE
  8
DETAIL
  6
CONTINUOUS
 62
     5
 10
-20.0
 20
120.0
 11
20.0
 21
120.0
  0
LINE
  8
DETAIL
  6
CONTINUOUS
 62
     5
 10
-87.0
 20
0.0
 11
-84.0
 21
180.0
  0
LINE
  8
SIZE
  6
CONTINUOUS
 62
     8
 10
-226.0
 20
449.053851
 11
-361.861091
 21
449.053851
  0
LINE
  8
SIZE
  6
CONTINUOUS
 62
     8
 10
36.5
 20
449.053851
 11
284.82271
 21
449.053851
  0
LINE
  8
SIZE
  6
CONTINUOUS
 62
     8
 10
7.0
 20
323.434585
 11
159.197601
 21
323.434585
  0
LINE
  8
SIZE
  6
CONTINUOUS
 62
     8
 10
330.008431
 20
0.0
 11
330.008431
 21
-182.735491
  0
LINE
  8
SIZE
  6
CONTINUOUS
 62
     8
 10
330.008431
 20
154.0
 11
330.008431
 21
294.080185
  0
LINE
  8
SIZE
  6
CONTINUOUS
 62
     8
 10
472.488392
 20
-24.0
 11
472.488392
 21
-135.24389
  0
LINE
  8
SIZE
  6
CONTINUOUS
 62
     8
 10
-663.506847
 20
47.5
 11
-663.506847
 21
-220.728772
  0
LINE
  8
SIZE
  6
CONTINUOUS
 62
     8
 10
-550.244738
 20
50.68946
 11
-550.244738
 21
-179.347038
  0
LINE
  8
NOTE
  6
CONTINUOUS
 62
     4
 10
-47.0
 20
120.0
 11
-146.325695
 21
-124.144182
  0
LINE
  8
NOTE
  6
CONTINUOUS
 62
     4
 10
-146.325695
 20
-124.144182
 11
-264.453666
 21
-124.144182
  0
TEXT
  8
NOTE
  6
CONTINUOUS
 62
     4
 10
-246.063255
 20
-97.682822
 40
64.0
  1
EL
 41
0.9
  0
LINE
  8
SIZE
  6
CONTINUOUS
 62
     8
 10
-431.809972
 20
-2.31054
 11
-431.809972
 21
-181.310944
  0
LINE
  8
SIZE
  6
CONTINUOUS
 62
     8
 10
-384.337765
 20
-308.37751
 11
-85.0
 21
-308.37751
  0
LINE
  8
NOTE
  6
CONTINUOUS
 62
     4
 10
98.5
 20
-0.0
 11
237.875471
 21
-322.016892
  0
LINE
  8
NOTE
  6
CONTINUOUS
 62
     4
 10
237.875471
 20
-322.016892
 11
511.120093
 21
-322.016892
  0
TEXT
  8
NOTE
  6
CONTINUOUS
 62
     4
 10
265.081526
 20
-301.610776
 40
64.0
  1
8-âË5
 41
0.9
  0
LINE
  8
OUTLINE
  6
CONTINUOUS
 62
     3
 10
-87.0
 20
0.0
 11
-84.0
 21
180.0
  0
LINE
  8
OUTLINE
  6
CONTINUOUS
 62
     3
 10
-53.990626
 20
120.0
 11
-58.990626
 21
180.0
  0
LINE
  8
OUTLINE
  6
CONTINUOUS
 62
     3
 10
-84.0
 20
180.0
 11
-58.990626
 21
180.0
  0
LINE
  8
OUTLINE
  6
CONTINUOUS
 62
     3
 10
87.0
 20
0.0
 11
84.0
 21
120.0
  0
LINE
  8
OUTLINE
  6
CONTINUOUS
 62
     3
 10
-53.990626
 20
120.0
 11
84.0
 21
120.0
  0
LINE
  8
OUTLINE
  6
CONTINUOUS
 62
     3
 10
-125.0
 20
0.0
 11
125.0
 21
0.0
  0
LINE
  8
DETAIL
  6
CONTINUOUS
 62
     5
 10
-153.0
 20
49.5
 11
-153.0
 21
154.5
  0
LINE
  8
DETAIL
  6
CONTINUOUS
 62
     5
 10
-133.0
 20
80.85955
 11
-133.0
 21
150.85955
  0
LINE
  8
DETAIL
  6
CONTINUOUS
 62
     5
 10
-196.0
 20
154.5
 11
-133.0
 21
154.5
  0
LINE
  8
DETAIL
  6
CONTINUOUS
 62
     5
 10
-196.0
 20
49.5
 11
-133.0
 21
49.5
  0
LINE
  8
DETAIL
  6
CONTINUOUS
 62
     5
 10
20.0
 20
120.0
 11
20.0
 21
0.0
  0
LINE
  8
DETAIL
  6
CONTINUOUS
 62
     5
 10
-20.0
 20
120.0
 11
-20.0
 21
0.0
  0
CIRCLE
  8
FIX
  6
CONTINUOUS
 62
     9
 10
-98.5
 20
0.0
 40
2.5
  0
CIRCLE
  8
FIX
  6
CONTINUOUS
 62
     9
 10
-65.0
 20
0.0
 40
2.5
  0
CIRCLE
  8
FIX
  6
CONTINUOUS
 62
     9
 10
98.5
 20
0.0
 40
2.5
  0
CIRCLE
  8
FIX
  6
CONTINUOUS
 62
     9
 10
65.0
 20
0.0
 40
2.5
  0
LINE
  8
DETAIL
  6
CONTINUOUS
 62
     5
 10
-133.0
 20
80.85955
 11
-85.652341
 21
80.85955
  0
LINE
  8
DETAIL
  6
CONTINUOUS
 62
     5
 10
-133.0
 20
150.85955
 11
-84.485674
 21
150.85955
  0
LINE
  8
DETAIL
  6
CONTINUOUS
 62
     5
 10
-133.0
 20
49.5
 11
-133.0
 21
154.5
  0
TEXT
  8
NOTE
  6
CONTINUOUS
 62
     4
 10
-562.28573
 20
303.314969
 40
64.0
  1
AH-2
 41
0.9
  0
LINE
  8
NOTE
  6
CONTINUOUS
 62
     4
 10
-591.339439
 20
270.816323
 11
-298.531223
 21
270.816323
  0
TEXT
  8
NOTE
  6
CONTINUOUS
 62
     4
 10
-387.58898
 20
76.618248
 40
64.0
  1
EA
 41
0.9
  0
POINT
  8
ARRANGE
  6
CONTINUOUS
 62
     1
 10
0.0
 20
0.0
  0
CIRCLE
  8
ARRANGE
  6
CONTINUOUS
 62
     1
 10
0.0
 20
0.0
 40
40.0
  0
LINE
  8
DETAIL
  6
CONTINUOUS
 62
     5
 10
-133.0
 20
154.5
 11
-84.35
 21
159.0
  0
LINE
  8
DETAIL
  6
CONTINUOUS
 62
     5
 10
-133.0
 20
49.5
 11
-86.25
 21
45.0
  0
LINE
  8
SIZE
  6
CONTINUOUS
 62
     8
 10
-313.199299
 20
0.0
 11
-313.199299
 21
-143.456518
  0
LINE
  8
DETAIL
  6
CONTINUOUS
 62
     5
 10
35.5
 20
150.0
 11
35.5
 21
181.0
  0
LINE
  8
DETAIL
  6
CONTINUOUS
 62
     5
 10
-25.5
 20
150.0
 11
-25.5
 21
181.0
  0
LINE
  8
SIZE
  6
CONTINUOUS
 62
     8
 10
-47.0
 20
323.434585
 11
-184.576202
 21
323.434585
  0
LINE
  8
SIZE
  6
BYBLOCK
 62
     8
 10
-0.0
 20
232.087076
 11
-0.0
 21
353.434585
  0
LINE
  8
SIZE
  6
BYBLOCK
 62
     8
 10
-47.0
 20
160.0
 11
-47.0
 21
353.434585
  0
LINE
  8
SIZE
  6
BYBLOCK
 62
     8
 10
-49.0
 20
323.434585
 11
-51.0
 21
323.434585
  0
LINE
  8
SIZE
  6
BYBLOCK
 62
     8
 10
2.0
 20
323.434585
 11
4.0
 21
323.434585
  0
LINE
  8
SIZE
  6
BYBLOCK
 62
     8
 10
-47.0
 20
323.434585
 11
-0.0
 21
323.434585
  0
TEXT
  8
SIZE
  6
BYBLOCK
 62
     8
 10
-183.146843
 20
355.434585
 40
64.0
  1
47
 41
0.9
  0
LINE
  8
SIZE
  6
BYBLOCK
 62
     8
 10
35.5
 20
201.0
 11
35.5
 21
479.053851
  0
LINE
  8
SIZE
  6
BYBLOCK
 62
     8
 10
-25.5
 20
201.0
 11
-25.5
 21
479.053851
  0
LINE
  8
SIZE
  6
BYBLOCK
 62
     8
 10
-27.5
 20
449.053851
 11
-29.5
 21
449.053851
  0
LINE
  8
SIZE
  6
BYBLOCK
 62
     8
 10
37.5
 20
449.053851
 11
39.5
 21
449.053851
  0
LINE
  8
SIZE
  6
BYBLOCK
 62
     8
 10
-25.5
 20
449.053851
 11
35.5
 21
449.053851
  0
TEXT
  8
SIZE
  6
BYBLOCK
 62
     8
 10
110.005116
 20
481.053851
 40
64.0
  1
âË61
 41
0.9
  0
LINE
  8
SIZE
  6
BYBLOCK
 62
     8
 10
-106.25
 20
45.0
 11
-343.199299
 21
45.0
  0
LINE
  8
SIZE
  6
BYBLOCK
 62
     8
 10
-145.0
 20
0.0
 11
-343.199299
 21
0.0
  0
LINE
  8
SIZE
  6
BYBLOCK
 62
     8
 10
-313.199299
 20
-2.0
 11
-313.199299
 21
-4.0
  0
LINE
  8
SIZE
  6
BYBLOCK
 62
     8
 10
-313.199299
 20
47.0
 11
-313.199299
 21
49.0
  0
LINE
  8
SIZE
  6
BYBLOCK
 62
     8
 10
-313.199299
 20
0.0
 11
-313.199299
 21
45.0
  0
TEXT
  8
SIZE
  6
BYBLOCK
 62
     8
 10
-345.199299
 20
-123.129789
 40
64.0
  1
45
 50
90.0
 41
0.9
  0
LINE
  8
SIZE
  6
BYBLOCK
 62
     8
 10
145.0
 20
-0.0
 11
502.488392
 21
-0.0
  0
LINE
  8
SIZE
  6
BYBLOCK
 62
     8
 10
56.5
 20
181.0
 11
502.488392
 21
181.0
  0
LINE
  8
SIZE
  6
BYBLOCK
 62
     8
 10
472.488392
 20
2.0
 11
472.488392
 21
179.0
  0
TEXT
  8
SIZE
  6
BYBLOCK
 62
     8
 10
440.488392
 20
34.271429
 40
64.0
  1
181
 50
90.0
 41
0.9
  0
LINE
  8
SIZE
  6
BYBLOCK
 62
     8
 10
-87.0
 20
-40.0
 11
-87.0
 21
-338.37751
  0
LINE
  8
SIZE
  6
BYBLOCK
 62
     8
 10
87.0
 20
-40.0
 11
87.0
 21
-338.37751
  0
LINE
  8
SIZE
  6
BYBLOCK
 62
     8
 10
89.0
 20
-308.37751
 11
91.0
 21
-308.37751
  0
LINE
  8
SIZE
  6
BYBLOCK
 62
     8
 10
-89.0
 20
-308.37751
 11
-91.0
 21
-308.37751
  0
LINE
  8
SIZE
  6
BYBLOCK
 62
     8
 10
87.0
 20
-308.37751
 11
-87.0
 21
-308.37751
  0
TEXT
  8
SIZE
  6
BYBLOCK
 62
     8
 10
-370.595193
 20
-276.37751
 40
64.0
  1
üá174
 41
0.9
  0
LINE
  8
SIZE
  6
BYBLOCK
 62
     8
 10
-277.826395
 20
102.0
 11
-461.809972
 21
102.0
  0
LINE
  8
SIZE
  6
BYBLOCK
 62
     8
 10
-138.5
 20
0.0
 11
-461.809972
 21
0.0
  0
LINE
  8
SIZE
  6
BYBLOCK
 62
     8
 10
-431.809972
 20
-2.0
 11
-431.809972
 21
-4.0
  0
LINE
  8
SIZE
  6
BYBLOCK
 62
     8
 10
-431.809972
 20
104.0
 11
-431.809972
 21
106.0
  0
LINE
  8
SIZE
  6
BYBLOCK
 62
     8
 10
-431.809972
 20
0.0
 11
-431.809972
 21
102.0
  0
TEXT
  8
SIZE
  6
BYBLOCK
 62
     8
 10
-463.809972
 20
-160.457108
 40
64.0
  1
102
 50
90.0
 41
0.9
  0
LINE
  8
SIZE
  6
BYBLOCK
 62
     8
 10
-98.5
 20
-40.0
 11
-98.5
 21
-489.4095
  0
LINE
  8
SIZE
  6
BYBLOCK
 62
     8
 10
98.5
 20
-40.0
 11
98.5
 21
-489.4095
  0
LINE
  8
SIZE
  6
BYBLOCK
 62
     8
 10
-96.5
 20
-459.4095
 11
-0.0
 21
-459.4095
  0
LINE
  8
SIZE
  6
BYBLOCK
 62
     8
 10
96.5
 20
-459.4095
 11
-0.0
 21
-459.4095
  0
TEXT
  8
SIZE
  6
BYBLOCK
 62
     8
 10
-68.571429
 20
-427.4095
 40
64.0
  1
197
 41
0.9
  0
LINE
  8
SIZE
  6
BYBLOCK
 62
     8
 10
-65.0
 20
-40.0
 11
-65.0
 21
-233.696036
  0
LINE
  8
SIZE
  6
BYBLOCK
 62
     8
 10
65.0
 20
-40.0
 11
65.0
 21
-233.696036
  0
LINE
  8
SIZE
  6
BYBLOCK
 62
     8
 10
67.0
 20
-203.696036
 11
69.0
 21
-203.696036
  0
LINE
  8
SIZE
  6
BYBLOCK
 62
     8
 10
-67.0
 20
-203.696036
 11
-69.0
 21
-203.696036
  0
LINE
  8
SIZE
  6
BYBLOCK
 62
     8
 10
65.0
 20
-203.696036
 11
-65.0
 21
-203.696036
  0
TEXT
  8
SIZE
  6
BYBLOCK
 62
     8
 10
-68.571429
 20
-171.696036
 40
64.0
  1
130
 41
0.9
  0
LINE
  8
SIZE
  6
BYBLOCK
 62
     8
 10
-78.990626
 20
180.0
 11
-763.841945
 21
180.0
  0
LINE
  8
SIZE
  6
BYBLOCK
 62
     8
 10
-145.0
 20
0.0
 11
-763.841945
 21
0.0
  0
LINE
  8
SIZE
  6
BYBLOCK
 62
     8
 10
-733.841945
 20
178.0
 11
-733.841945
 21
90.0
  0
LINE
  8
SIZE
  6
BYBLOCK
 62
     8
 10
-733.841945
 20
2.0
 11
-733.841945
 21
90.0
  0
TEXT
  8
SIZE
  6
BYBLOCK
 62
     8
 10
-765.841945
 20
21.428571
 40
64.0
  1
180
 50
90.0
 41
0.9
  0
LINE
  8
SIZE
  6
BYBLOCK
 62
     8
 10
-216.0
 20
154.5
 11
-693.506847
 21
154.5
  0
LINE
  8
SIZE
  6
BYBLOCK
 62
     8
 10
-216.0
 20
49.5
 11
-693.506847
 21
49.5
  0
LINE
  8
SIZE
  6
BYBLOCK
 62
     8
 10
-663.506847
 20
47.5
 11
-663.506847
 21
45.5
  0
LINE
  8
SIZE
  6
BYBLOCK
 62
     8
 10
-663.506847
 20
156.5
 11
-663.506847
 21
158.5
  0
LINE
  8
SIZE
  6
BYBLOCK
 62
     8
 10
-663.506847
 20
49.5
 11
-663.506847
 21
154.5
  0
TEXT
  8
SIZE
  6
BYBLOCK
 62
     8
 10
-695.506847
 20
-227.130442
 40
64.0
  1
âË105
 50
90.0
 41
0.9
  0
LINE
  8
SIZE
  6
BYBLOCK
 62
     8
 10
-246.0
 20
151.0
 11
-580.244738
 21
151.0
  0
LINE
  8
SIZE
  6
BYBLOCK
 62
     8
 10
-246.0
 20
53.0
 11
-580.244738
 21
53.0
  0
LINE
  8
SIZE
  6
BYBLOCK
 62
     8
 10
-550.244738
 20
51.0
 11
-550.244738
 21
49.0
  0
LINE
  8
SIZE
  6
BYBLOCK
 62
     8
 10
-550.244738
 20
153.0
 11
-550.244738
 21
155.0
  0
LINE
  8
SIZE
  6
BYBLOCK
 62
     8
 10
-550.244738
 20
53.0
 11
-550.244738
 21
151.0
  0
TEXT
  8
SIZE
  6
BYBLOCK
 62
     8
 10
-582.244738
 20
-184.702156
 40
64.0
  1
âË98
 50
90.0
 41
0.9
  0
LINE
  8
SIZE
  6
BYBLOCK
 62
     8
 10
145.0
 20
-0.0
 11
502.488392
 21
-0.0
  0
LINE
  8
SIZE
  6
BYBLOCK
 62
     8
 10
108.341749
 20
-20.0
 11
502.488392
 21
-20.0
  0
LINE
  8
SIZE
  6
BYBLOCK
 62
     8
 10
472.488392
 20
-2.0
 11
472.488392
 21
-10.0
  0
LINE
  8
SIZE
  6
BYBLOCK
 62
     8
 10
472.488392
 20
-18.0
 11
472.488392
 21
-10.0
  0
TEXT
  8
SIZE
  6
BYBLOCK
 62
     8
 10
440.488392
 20
-130.715469
 40
64.0
  1
20
 50
90.0
 41
0.9
  0
LINE
  8
SIZE
  6
BYBLOCK
 62
     8
 10
104.0
 20
120.0
 11
360.008431
 21
120.0
  0
LINE
  8
SIZE
  6
BYBLOCK
 62
     8
 10
145.0
 20
-0.0
 11
360.008431
 21
-0.0
  0
LINE
  8
SIZE
  6
BYBLOCK
 62
     8
 10
330.008431
 20
118.0
 11
330.008431
 21
60.0
  0
LINE
  8
SIZE
  6
BYBLOCK
 62
     8
 10
330.008431
 20
2.0
 11
330.008431
 21
60.0
  0
TEXT
  8
SIZE
  6
BYBLOCK
 62
     8
 10
298.008431
 20
-175.741865
 40
64.0
  1
120
 50
90.0
 41
0.9
  0
LINE
  8
SIZE
  6
BYBLOCK
 62
     8
 10
70.0
 20
150.0
 11
360.008431
 21
150.0
  0
LINE
  8
SIZE
  6
BYBLOCK
 62
     8
 10
104.0
 20
120.0
 11
360.008431
 21
120.0
  0
LINE
  8
SIZE
  6
BYBLOCK
 62
     8
 10
330.008431
 20
148.0
 11
330.008431
 21
135.0
  0
LINE
  8
SIZE
  6
BYBLOCK
 62
     8
 10
330.008431
 20
122.0
 11
330.008431
 21
135.0
  0
TEXT
  8
SIZE
  6
BYBLOCK
 62
     8
 10
298.008431
 20
200.451607
 40
64.0
  1
30
 50
90.0
 41
0.9
  0
LINE
  8
SIZE
  6
BYBLOCK
 62
     8
 10
-125.0
 20
-28.0
 11
-125.0
 21
-648.199144
  0
LINE
  8
SIZE
  6
BYBLOCK
 62
     8
 10
125.0
 20
-28.0
 11
125.0
 21
-648.199144
  0
LINE
  8
SIZE
  6
BYBLOCK
 62
     8
 10
-123.0
 20
-618.199144
 11
-0.0
 21
-618.199144
  0
LINE
  8
SIZE
  6
BYBLOCK
 62
     8
 10
123.0
 20
-618.199144
 11
-0.0
 21
-618.199144
  0
TEXT
  8
SIZE
  6
BYBLOCK
 62
     8
 10
-106.697143
 20
-586.199144
 40
64.0
  1
üá250
 41
0.9
  0
LINE
  8
SIZE
  6
BYBLOCK
 62
     8
 10
-226.0
 20
171.0
 11
-226.0
 21
479.053851
  0
LINE
  8
SIZE
  6
BYBLOCK
 62
     8
 10
-196.0
 20
174.5
 11
-196.0
 21
479.053851
  0
LINE
  8
SIZE
  6
BYBLOCK
 62
     8
 10
-224.0
 20
449.053851
 11
-211.0
 21
449.053851
  0
LINE
  8
SIZE
  6
BYBLOCK
 62
     8
 10
-198.0
 20
449.053851
 11
-211.0
 21
449.053851
  0
TEXT
  8
SIZE
  6
BYBLOCK
 62
     8
 10
-350.419845
 20
481.053851
 40
64.0
  1
30
 41
0.9
  0
LINE
  8
SIZE
  6
BYBLOCK
 62
     8
 10
-84.0
 20
200.0
 11
-84.0
 21
603.304752
  0
LINE
  8
SIZE
  6
BYBLOCK
 62
     8
 10
-226.0
 20
171.0
 11
-226.0
 21
603.304752
  0
LINE
  8
SIZE
  6
BYBLOCK
 62
     8
 10
-86.0
 20
573.304752
 11
-155.0
 21
573.304752
  0
LINE
  8
SIZE
  6
BYBLOCK
 62
     8
 10
-224.0
 20
573.304752
 11
-155.0
 21
573.304752
  0
TEXT
  8
SIZE
  6
BYBLOCK
 62
     8
 10
-230.709219
 20
605.304752
 40
64.0
  1
142
 41
0.9
  0
LINE
  8
SIZE
  6
BYBLOCK
 62
     8
 10
-84.0
 20
200.0
 11
-84.0
 21
603.304752
  0
LINE
  8
SIZE
  6
BYBLOCK
 62
     8
 10
84.0
 20
140.0
 11
84.0
 21
603.304752
  0
LINE
  8
SIZE
  6
BYBLOCK
 62
     8
 10
-82.0
 20
573.304752
 11
-0.0
 21
573.304752
  0
LINE
  8
SIZE
  6
BYBLOCK
 62
     8
 10
82.0
 20
573.304752
 11
-0.0
 21
573.304752
  0
TEXT
  8
SIZE
  6
BYBLOCK
 62
     8
 10
-68.571429
 20
605.304752
 40
64.0
  1
168
 41
0.9
  0
LINE
  8
SIZE
  6
BYBLOCK
 62
     8
 10
-0.0
 20
232.087076
 11
-0.0
 21
353.434585
  0
LINE
  8
SIZE
  6
BYBLOCK
 62
     8
 10
5.0
 20
220.508514
 11
5.0
 21
353.434585
  0
LINE
  8
SIZE
  6
BYBLOCK
 62
     8
 10
2.0
 20
323.434585
 11
2.5
 21
323.434585
  0
LINE
  8
SIZE
  6
BYBLOCK
 62
     8
 10
3.0
 20
323.434585
 11
2.5
 21
323.434585
  0
TEXT
  8
SIZE
  6
BYBLOCK
 62
     8
 10
110.352667
 20
355.434585
 40
64.0
  1
5
 41
0.9
  0
CIRCLE
  8
SIZE
  6
CONTINUOUS
 62
     8
 10
5.0
 20
323.434585
 40
6.0
  0
CIRCLE
  8
SIZE
  6
CONTINUOUS
 62
     8
 10
-0.0
 20
323.434585
 40
6.0
  0
CIRCLE
  8
SIZE
  6
CONTINUOUS
 62
     8
 10
84.0
 20
573.304752
 40
6.0
  0
CIRCLE
  8
SIZE
  6
CONTINUOUS
 62
     8
 10
-84.0
 20
573.304752
 40
6.0
  0
CIRCLE
  8
SIZE
  6
CONTINUOUS
 62
     8
 10
-226.0
 20
573.304752
 40
6.0
  0
CIRCLE
  8
SIZE
  6
CONTINUOUS
 62
     8
 10
-84.0
 20
573.304752
 40
6.0
  0
CIRCLE
  8
SIZE
  6
CONTINUOUS
 62
     8
 10
-196.0
 20
449.053851
 40
6.0
  0
CIRCLE
  8
SIZE
  6
CONTINUOUS
 62
     8
 10
-226.0
 20
449.053851
 40
6.0
  0
CIRCLE
  8
SIZE
  6
CONTINUOUS
 62
     8
 10
125.0
 20
-618.199144
 40
6.0
  0
CIRCLE
  8
SIZE
  6
CONTINUOUS
 62
     8
 10
-125.0
 20
-618.199144
 40
6.0
  0
CIRCLE
  8
SIZE
  6
CONTINUOUS
 62
     8
 10
330.008431
 20
120.0
 40
6.0
  0
CIRCLE
  8
SIZE
  6
CONTINUOUS
 62
     8
 10
330.008431
 20
150.0
 40
6.0
  0
CIRCLE
  8
SIZE
  6
CONTINUOUS
 62
     8
 10
330.008431
 20
-0.0
 40
6.0
  0
CIRCLE
  8
SIZE
  6
CONTINUOUS
 62
     8
 10
330.008431
 20
120.0
 40
6.0
  0
CIRCLE
  8
SIZE
  6
CONTINUOUS
 62
     8
 10
472.488392
 20
-20.0
 40
6.0
  0
CIRCLE
  8
SIZE
  6
CONTINUOUS
 62
     8
 10
472.488392
 20
-0.0
 40
6.0
  0
CIRCLE
  8
SIZE
  6
CONTINUOUS
 62
     8
 10
-550.244738
 20
151.0
 40
6.0
  0
CIRCLE
  8
SIZE
  6
CONTINUOUS
 62
     8
 10
-550.244738
 20
53.0
 40
6.0
  0
CIRCLE
  8
SIZE
  6
CONTINUOUS
 62
     8
 10
-663.506847
 20
154.5
 40
6.0
  0
CIRCLE
  8
SIZE
  6
CONTINUOUS
 62
     8
 10
-663.506847
 20
49.5
 40
6.0
  0
CIRCLE
  8
SIZE
  6
CONTINUOUS
 62
     8
 10
-733.841945
 20
0.0
 40
6.0
  0
CIRCLE
  8
SIZE
  6
CONTINUOUS
 62
     8
 10
-733.841945
 20
180.0
 40
6.0
  0
CIRCLE
  8
SIZE
  6
CONTINUOUS
 62
     8
 10
-65.0
 20
-203.696036
 40
6.0
  0
CIRCLE
  8
SIZE
  6
CONTINUOUS
 62
     8
 10
65.0
 20
-203.696036
 40
6.0
  0
CIRCLE
  8
SIZE
  6
CONTINUOUS
 62
     8
 10
98.5
 20
-459.4095
 40
6.0
  0
CIRCLE
  8
SIZE
  6
CONTINUOUS
 62
     8
 10
-98.5
 20
-459.4095
 40
6.0
  0
CIRCLE
  8
SIZE
  6
CONTINUOUS
 62
     8
 10
-431.809972
 20
102.0
 40
6.0
  0
CIRCLE
  8
SIZE
  6
CONTINUOUS
 62
     8
 10
-431.809972
 20
0.0
 40
6.0
  0
CIRCLE
  8
SIZE
  6
CONTINUOUS
 62
     8
 10
-87.0
 20
-308.37751
 40
6.0
  0
CIRCLE
  8
SIZE
  6
CONTINUOUS
 62
     8
 10
87.0
 20
-308.37751
 40
6.0
  0
CIRCLE
  8
SIZE
  6
CONTINUOUS
 62
     8
 10
472.488392
 20
181.0
 40
6.0
  0
CIRCLE
  8
SIZE
  6
CONTINUOUS
 62
     8
 10
472.488392
 20
-0.0
 40
6.0
  0
CIRCLE
  8
SIZE
  6
CONTINUOUS
 62
     8
 10
-313.199299
 20
45.0
 40
6.0
  0
CIRCLE
  8
SIZE
  6
CONTINUOUS
 62
     8
 10
-313.199299
 20
0.0
 40
6.0
  0
CIRCLE
  8
SIZE
  6
CONTINUOUS
 62
     8
 10
35.5
 20
449.053851
 40
6.0
  0
CIRCLE
  8
SIZE
  6
CONTINUOUS
 62
     8
 10
-25.5
 20
449.053851
 40
6.0
  0
CIRCLE
  8
SIZE
  6
CONTINUOUS
 62
     8
 10
-0.0
 20
323.434585
 40
6.0
  0
CIRCLE
  8
SIZE
  6
CONTINUOUS
 62
     8
 10
-47.0
 20
323.434585
 40
6.0
  0
POLYLINE
  8
NOTE
  6
CONTINUOUS
 62
     4
 66
     1
  0
VERTEX
  8
NOTE
  6
CONTINUOUS
 62
     4
 10
103.34077
 20
-39.706006
  0
VERTEX
  8
NOTE
  6
CONTINUOUS
 62
     4
 10
98.5
 20
-0.0
  0
VERTEX
  8
NOTE
  6
CONTINUOUS
 62
     4
 10
122.545233
 20
-31.966025
  0
SEQEND
  8
NOTE
  6
CONTINUOUS
 62
     4
  0
POLYLINE
  8
NOTE
  6
CONTINUOUS
 62
     4
 66
     1
  0
VERTEX
  8
NOTE
  6
CONTINUOUS
 62
     4
 10
-71.950319
 20
88.735298
  0
VERTEX
  8
NOTE
  6
CONTINUOUS
 62
     4
 10
-47.0
 20
120.0
  0
VERTEX
  8
NOTE
  6
CONTINUOUS
 62
     4
 10
-52.975259
 20
80.448814
  0
SEQEND
  8
NOTE
  6
CONTINUOUS
 62
     4
  0
LINE
  8
NOTE
  6
CONTINUOUS
 62
     4
 10
-47.0
 20
100.0
 11
-47.0
 21
140.0
  0
LINE
  8
NOTE
  6
CONTINUOUS
 62
     4
 10
-67.0
 20
120.0
 11
-27.0
 21
120.0
  0
LINE
  8
NOTE
  6
CONTINUOUS
 62
     4
 10
98.5
 20
-20.0
 11
98.5
 21
20.0
  0
LINE
  8
NOTE
  6
CONTINUOUS
 62
     4
 10
78.5
 20
0.0
 11
118.5
 21
0.0
  0
LINE
  8
NOTE
  6
CONTINUOUS
 62
     4
 10
-98.5
 20
-20.0
 11
-98.5
 21
20.0
  0
LINE
  8
NOTE
  6
CONTINUOUS
 62
     4
 10
-118.5
 20
0.0
 11
-78.5
 21
0.0
  0
LINE
  8
NOTE
  6
CONTINUOUS
 62
     4
 10
-65.0
 20
-20.0
 11
-65.0
 21
20.0
  0
LINE
  8
NOTE
  6
CONTINUOUS
 62
     4
 10
-85.0
 20
0.0
 11
-45.0
 21
0.0
  0
LINE
  8
NOTE
  6
CONTINUOUS
 62
     4
 10
65.0
 20
-20.0
 11
65.0
 21
20.0
  0
LINE
  8
NOTE
  6
CONTINUOUS
 62
     4
 10
45.0
 20
0.0
 11
85.0
 21
0.0
  0
POLYLINE
  8
NOTE
  6
CONTINUOUS
 62
     4
 66
     1
  0
VERTEX
  8
NOTE
  6
CONTINUOUS
 62
     4
 10
-29.132128
 20
147.410201
  0
VERTEX
  8
NOTE
  6
CONTINUOUS
 62
     4
 10
-0.0
 20
120.0
  0
VERTEX
  8
NOTE
  6
CONTINUOUS
 62
     4
 10
-38.934263
 20
129.171866
  0
SEQEND
  8
NOTE
  6
CONTINUOUS
 62
     4
  0
TEXT
  8
ETC
  6
CONTINUOUS
 62
    10
 10
388.285025
 20
490.427113
 40
64.0
  1
èÀïCÉ¯
 41
0.9
  0
ENDSEC
  0
EOF
