  0
SECTION
  2
HEADER
  9
$ACADVER
  1
AC1006
  9
$INSBASE
 10
0.0
 20
0.0
 30
0.0
  9
$EXTMIN
 10
-2185.728931
 20
-1796.518875
  9
$EXTMAX
 10
974.379695
 20
872.299882
  9
$LIMMIN
 10
-2970.0
 20
-2100.0
  9
$LIMMAX
 10
2970.0
 20
2100.0
  9
$ORTHOMODE
 70
     1
  9
$REGENMODE
 70
     0
  9
$FILLMODE
 70
     1
  9
$QTEXTMODE
 70
     0
  9
$MIRRTEXT
 70
     0
  9
$DRAGMODE
 70
     2
  9
$LTSCALE
 40
20.0
  9
$OSMODE
 70
     0
  9
$ATTMODE
 70
     1
  9
$TEXTSIZE
 40
64.0
  9
$TRACEWID
 40
0.05
  9
$TEXTSTYLE
  7
STANDARD
  9
$CLAYER
  8
0
  9
$CELTYPE
  6
CONTINUOUS
  9
$CECOLOR
 62
     8
  9
$DIMSCALE
 40
1.0
  9
$DIMASZ
 40
2.0
  9
$DIMEXO
 40
20.0
  9
$DIMDLI
 40
200.0
  9
$DIMRND
 40
0.0
  9
$DIMDLE
 40
0.0
  9
$DIMEXE
 40
30.0
  9
$DIMTP
 40
0.0
  9
$DIMTM
 40
0.0
  9
$DIMTXT
 40
64.0
  9
$DIMCEN
 40
0.09
  9
$DIMTSZ
 40
0.0
  9
$DIMTOL
 70
     0
  9
$DIMLIM
 70
     0
  9
$DIMTIH
 70
     0
  9
$DIMTOH
 70
     0
  9
$DIMSE1
 70
     0
  9
$DIMSE2
 70
     0
  9
$DIMTAD
 70
     1
  9
$DIMZIN
 70
     8
  9
$DIMBLK
  1
DOT1
  9
$DIMASO
 70
     1
  9
$DIMSHO
 70
     0
  9
$DIMPOST
  1

  9
$DIMAPOST
  1

  9
$DIMALT
 70
     0
  9
$DIMALTD
 70
     2
  9
$DIMALTF
 40
25.4
  9
$DIMLFAC
 40
1.0
  9
$DIMTOFL
 70
     1
  9
$DIMTVP
 40
0.0
  9
$DIMTIX
 70
     1
  9
$DIMSOXD
 70
     0
  9
$DIMSAH
 70
     0
  9
$DIMBLK1
  1

  9
$DIMBLK2
  1

  9
$LUNITS
 70
     2
  9
$LUPREC
 70
     4
  9
$AXISMODE
 70
     0
  9
$AXISUNIT
 10
0.0
 20
0.0
  9
$SKETCHINC
 40
0.1
  9
$FILLETRAD
 40
2.0
  9
$AUNITS
 70
     1
  9
$AUPREC
 70
     3
  9
$MENU
  1
ACAD
  9
$ELEVATION
 40
0.0
  9
$THICKNESS
 40
0.0
  9
$LIMCHECK
 70
     0
  9
$BLIPMODE
 70
     0
  9
$CHAMFERA
 40
0.0
  9
$CHAMFERB
 40
0.0
  9
$SKPOLY
 70
     0
  9
$TDCREATE
 40
2451344.4869097224
  9
$TDUPDATE
 40
2451451.6790972222
  9
$TDINDWG
 40
0.0203240741
  9
$TDUSRTIMER
 40
0.0203240741
  9
$USRTIMER
 70
     1
  9
$ANGBASE
 50
0.0
  9
$ANGDIR
 70
     0
  9
$PDMODE
 70
     3
  9
$PDSIZE
 40
-2.0
  9
$PLINEWID
 40
0.0
  9
$COORDS
 70
     2
  9
$SPLFRAME
 70
     0
  9
$SPLINETYPE
 70
     6
  9
$SPLINESEGS
 70
     8
  9
$ATTDIA
 70
     0
  9
$ATTREQ
 70
     1
  9
$HANDLING
 70
     0
  9
$HANDSEED
  5
0
  9
$SURFTAB1
 70
     6
  9
$SURFTAB2
 70
     6
  9
$SURFTYPE
 70
     6
  9
$SURFU
 70
     6
  9
$SURFV
 70
     6
  9
$FLATLAND
 70
     1
  9
$UCSNAME
  2

  9
$UCSORG
 10
0.0
 20
0.0
 30
0.0
  9
$UCSXDIR
 10
1.0
 20
0.0
 30
0.0
  9
$UCSYDIR
 10
0.0
 20
1.0
 30
0.0
  9
$USERI1
 70
     0
  9
$USERI2
 70
     0
  9
$USERI3
 70
     0
  9
$USERI4
 70
     0
  9
$USERI5
 70
     0
  9
$USERR1
 40
20.0
  9
$USERR2
 40
0.0
  9
$USERR3
 40
0.0
  9
$USERR4
 40
0.0
  9
$USERR5
 40
0.0
  9
$WORLDVIEW
 70
     1
  9
$VIEWCTR
 10
-10.314704
 20
146.707886
  9
$VIEWSIZE
 40
4282.619808
  9
$SNAPMODE
 70
     0
  9
$SNAPUNIT
 10
50.0
 20
50.0
  9
$SNAPBASE
 10
0.0
 20
0.0
  9
$SNAPANG
 50
0.0
  9
$SNAPSTYLE
 70
     0
  9
$SNAPISOPAIR
 70
     1
  9
$GRIDMODE
 70
     0
  9
$GRIDUNIT
 10
400.0
 20
400.0
  9
$FASTZOOM
 70
     1
  9
$VIEWDIR
 10
0.0
 20
0.0
 30
1.0
  0
ENDSEC
  0
SECTION
  2
TABLES
  0
TABLE
  2
VPORT
 70
     2
  0
VPORT
  2
*ACTIVE
 70
     0
 10
0.0
 20
0.0
 11
1.0
 21
1.0
 12
-10.314704
 22
146.707886
 13
0.0
 23
0.0
 14
50.0
 24
50.0
 15
400.0
 25
400.0
 16
0.0
 26
0.0
 36
1.0
 17
0.0
 27
0.0
 37
0.0
 40
2115.338865
 41
1.387001
 42
50.0
 43
0.0
 44
0.0
 50
0.0
 51
0.0
 71
     0
 72
   500
 73
     1
 74
     0
 75
     0
 76
     0
 77
     0
 78
     1
  0
ENDTAB
  0
TABLE
  2
LTYPE
 70
     8
  0
LTYPE
  2
CONTINUOUS
 70
    64
  3
Ä└É³
 72
    65
 73
     0
 40
0.0
  0
LTYPE
  2
DASHDOT
 70
    64
  3
____ _ ____ _ ____ _ ____ _ ____ _ ____ _ ____
 72
    65
 73
     4
 40
5.5
 49
4.0
 49
-0.6
 49
0.3
 49
-0.6
  0
LTYPE
  2
DASHED
 70
    64
  3
_ _ _ _ _ _ _ _ _ _ _ _ _ _ _ _ _ _ _ _ _ _ _
 72
    65
 73
     2
 40
2.0
 49
1.2
 49
-0.8
  0
LTYPE
  2
DIVIDE
 70
    64
  3
_____ _ _ _____ _ _ _____ _ _ _____ _ _ ____
 72
    65
 73
     6
 40
6.4
 49
4.0
 49
-0.6
 49
0.3
 49
-0.6
 49
0.3
 49
-0.6
  0
LTYPE
  2
CONTINOUS
 70
    64
  3
Solid line
 72
    65
 73
     0
 40
0.0
  0
LTYPE
  2
DOT
 70
    64
  3
...............................................
 72
    65
 73
     2
 40
0.8
 49
0.5
 49
-0.3
  0
LTYPE
  2
DASHDOT1
 70
    64
  3
____ _ ____ _ ____ _ ____ _ ____ _ ____ _ ____
 72
    65
 73
     4
 40
2.0
 49
1.5
 49
-0.2
 49
0.1
 49
-0.2
  0
LTYPE
  2
DIVIDE1
 70
    64
  3
_____ _ _ _____ _ _ _____ _ _ _____ _ _ ____
 72
    65
 73
     6
 40
3.2
 49
2.0
 49
-0.3
 49
0.15
 49
-0.3
 49
0.15
 49
-0.3
  0
ENDTAB
  0
TABLE
  2
LAYER
 70
    12
  0
LAYER
  2
0
 70
     0
 62
     2
  6
CONTINUOUS
  0
LAYER
  2
OUTLINE
 70
    64
 62
     4
  6
CONTINUOUS
  0
LAYER
  2
DETAIL
 70
    64
 62
     1
  6
CONTINUOUS
  0
LAYER
  2
BASIS
 70
    64
 62
     1
  6
CONTINUOUS
  0
LAYER
  2
NOTE
 70
    64
 62
     1
  6
CONTINUOUS
  0
LAYER
  2
DEFPOINTS
 70
     0
 62
     7
  6
CONTINUOUS
  0
LAYER
  2
SIZE
 70
    64
 62
     7
  6
CONTINUOUS
  0
LAYER
  2
FIX
 70
    64
 62
     7
  6
CONTINUOUS
  0
LAYER
  2
ARRANGE
 70
    64
 62
     7
  6
CONTINUOUS
  0
LAYER
  2
ETC
 70
    64
 62
     7
  6
CONTINUOUS
  0
LAYER
  2
SERVICESPACE
 70
     0
 62
     7
  6
CONTINUOUS
  0
LAYER
  2
SYMBOLLINE
 70
     0
 62
     7
  6
CONTINUOUS
  0
ENDTAB
  0
TABLE
  2
STYLE
 70
     1
  0
STYLE
  2
STANDARD
 70
    64
 40
0.0
 41
0.9
 50
0.0
 71
     0
 42
64.0
  3
SIMPLEX
  4
BIGFONT
  0
ENDTAB
  0
TABLE
  2
VIEW
 70
     1
  0
VIEW
  2
ALL
 70
     0
 40
4282.619808
 10
-0.0
 20
41.309904
 41
5940.0
 11
0.0
 21
0.0
 31
1.0
 12
0.0
 22
0.0
 32
0.0
 42
50.0
 43
0.0
 44
0.0
 50
0.0
 71
     0
  0
ENDTAB
  0
TABLE
  2
UCS
 70
     0
  0
ENDTAB
  0
TABLE
  2
DWGMGR
 70
     0
  0
ENDTAB
  0
ENDSEC
  0
SECTION
  2
BLOCKS
  0
ENDSEC
  0
SECTION
  2
ENTITIES
  0
TEXT
  8
ETC
  6
CONTINUOUS
 62
    10
 10
603.53036
 20
714.537609
 40
64.0
  1
èÀïCÉ¯
 41
0.9
  0
LINE
  8
DETAIL
  6
CONTINOUS
 62
     5
 10
36.5
 20
189.0
 11
-24.5
 21
189.0
  0
LINE
  8
DETAIL
  6
CONTINOUS
 62
     5
 10
-24.5
 20
157.0
 11
-24.5
 21
189.0
  0
LINE
  8
DETAIL
  6
CONTINOUS
 62
     5
 10
36.5
 20
157.0
 11
36.5
 21
189.0
  0
LINE
  8
BASIS
  6
DASHDOT
 62
     6
 10
6.0
 20
148.382624
 11
6.0
 21
205.272759
  0
LINE
  8
BASIS
  6
DASHDOT
 62
     6
 10
0.0
 20
-49.328414
 11
-0.0
 21
223.192157
  0
LINE
  8
NOTE
  6
CONTINUOUS
 62
     4
 10
313.830891
 20
398.706617
 11
930.04203
 21
398.706617
  0
TEXT
  8
NOTE
  6
CONTINUOUS
 62
     4
 10
328.604066
 20
430.7632
 40
64.0
  1
AH 2-âË15ü~22
 41
0.9
  0
LINE
  8
DETAIL
  6
CONTINUOUS
 62
     5
 10
-101.5
 20
-0.0
 11
-101.5
 21
172.0
  0
LINE
  8
DETAIL
  6
CONTINUOUS
 62
     5
 10
101.5
 20
-0.0
 11
101.5
 21
155.0
  0
LINE
  8
SIZE
  6
CONTINUOUS
 62
     8
 10
44.5
 20
657.07719
 11
287.59696
 21
657.07719
  0
CIRCLE
  8
FIX
  6
CONTINUOUS
 62
     9
 10
65.0
 20
0.0
 40
2.5
  0
CIRCLE
  8
FIX
  6
CONTINUOUS
 62
     9
 10
-65.0
 20
0.0
 40
2.5
  0
LINE
  8
DETAIL
  6
CONTINUOUS
 62
     5
 10
104.5
 20
-20.0
 11
104.5
 21
0.0
  0
LINE
  8
DETAIL
  6
CONTINUOUS
 62
     5
 10
-104.5
 20
-20.0
 11
-104.5
 21
0.0
  0
LINE
  8
DETAIL
  6
CONTINUOUS
 62
     5
 10
143.0
 20
-6.0
 11
-143.0
 21
-6.0
  0
POLYLINE
  8
DETAIL
  6
CONTINUOUS
 62
     5
 66
     1
  0
VERTEX
  8
DETAIL
  6
CONTINUOUS
 62
     5
 10
143.0
 20
-8.553879
 42
-0.242297
  0
VERTEX
  8
DETAIL
  6
CONTINUOUS
 62
     5
 10
141.178581
 20
-12.091872
 42
-0.083306
  0
VERTEX
  8
DETAIL
  6
CONTINUOUS
 62
     5
 10
131.284271
 20
-16.916687
 42
-0.041428
 70
     2
 50
343.528638
  0
VERTEX
  8
DETAIL
  6
CONTINUOUS
 62
     5
 10
119.423522
 20
-19.37872
 42
-0.011695
  0
VERTEX
  8
DETAIL
  6
CONTINUOUS
 62
     5
 10
113.134913
 20
-20.0
 42
-0.030475
  0
SEQEND
  8
DETAIL
  6
CONTINUOUS
 62
     5
  0
LINE
  8
DETAIL
  6
CONTINUOUS
 62
     5
 10
143.0
 20
-8.553879
 11
143.0
 21
0.0
  0
POLYLINE
  8
DETAIL
  6
CONTINUOUS
 62
     5
 66
     1
  0
VERTEX
  8
DETAIL
  6
CONTINUOUS
 62
     5
 10
-143.0
 20
-8.553879
 42
0.242297
  0
VERTEX
  8
DETAIL
  6
CONTINUOUS
 62
     5
 10
-141.178581
 20
-12.091872
 42
0.083306
  0
VERTEX
  8
DETAIL
  6
CONTINUOUS
 62
     5
 10
-131.284271
 20
-16.916687
 42
0.041428
 70
     2
 50
343.528638
  0
VERTEX
  8
DETAIL
  6
CONTINUOUS
 62
     5
 10
-119.423522
 20
-19.37872
 42
0.011695
  0
VERTEX
  8
DETAIL
  6
CONTINUOUS
 62
     5
 10
-113.134913
 20
-20.0
 42
0.030475
  0
SEQEND
  8
DETAIL
  6
CONTINUOUS
 62
     5
  0
LINE
  8
DETAIL
  6
CONTINUOUS
 62
     5
 10
-143.0
 20
-8.553879
 11
-143.0
 21
0.0
  0
LINE
  8
DETAIL
  6
CONTINUOUS
 62
     5
 10
143.0
 20
0.0
 11
-143.0
 21
0.0
  0
LINE
  8
DETAIL
  6
CONTINUOUS
 62
     5
 10
113.134913
 20
-20.0
 11
-113.134913
 21
-20.0
  0
CIRCLE
  8
FIX
  6
CONTINUOUS
 62
     9
 10
-117.5
 20
0.0
 40
2.5
  0
LINE
  8
DETAIL
  6
CONTINUOUS
 62
     5
 10
-17.5
 20
155.0
 11
-101.5
 21
155.0
  0
CIRCLE
  8
FIX
  6
CONTINUOUS
 62
     9
 10
117.5
 20
0.0
 40
2.5
  0
LINE
  8
DETAIL
  6
CONTINUOUS
 62
     5
 10
70.679246
 20
155.0
 11
101.5
 21
155.0
  0
LINE
  8
SIZE
  6
CONTINUOUS
 62
     8
 10
660.272422
 20
-22.0
 11
660.272422
 21
-136.46384
  0
POINT
  8
ARRANGE
  6
CONTINUOUS
 62
     1
 10
0.0
 20
0.0
  0
CIRCLE
  8
ARRANGE
  6
CONTINUOUS
 62
     1
 10
0.0
 20
0.0
 40
40.0
  0
LINE
  8
OUTLINE
  6
CONTINUOUS
 62
     3
 10
-143.0
 20
0.0
 11
143.0
 21
0.0
  0
LINE
  8
OUTLINE
  6
CONTINUOUS
 62
     3
 10
-75.0
 20
155.0
 11
-101.5
 21
155.0
  0
LINE
  8
OUTLINE
  6
CONTINUOUS
 62
     3
 10
0.0
 20
155.0
 11
101.5
 21
155.0
  0
LINE
  8
OUTLINE
  6
CONTINUOUS
 62
     3
 10
101.5
 20
155.0
 11
101.5
 21
-0.0
  0
LINE
  8
OUTLINE
  6
CONTINUOUS
 62
     3
 10
-101.5
 20
155.0
 11
-101.5
 21
-0.0
  0
LINE
  8
OUTLINE
  6
CONTINUOUS
 62
     3
 10
0.0
 20
155.0
 11
-101.5
 21
155.0
  0
LINE
  8
BASIS
  6
DASHDOT
 62
     6
 10
-0.0
 20
-49.328414
 11
-0.0
 21
223.192157
  0
LINE
  8
DETAIL
  6
CONTINUOUS
 62
     5
 10
17.5
 20
155.0
 11
101.5
 21
155.0
  0
LINE
  8
DETAIL
  6
CONTINUOUS
 62
     5
 10
17.5
 20
157.0
 11
51.5
 21
157.0
  0
LINE
  8
DETAIL
  6
CONTINUOUS
 62
     5
 10
-17.5
 20
157.0
 11
-39.5
 21
157.0
  0
LINE
  8
DETAIL
  6
CONTINUOUS
 62
     5
 10
53.5
 20
155.0
 11
53.5
 21
155.0
  0
LINE
  8
DETAIL
  6
CONTINUOUS
 62
     5
 10
-41.5
 20
155.0
 11
-41.5
 21
155.0
  0
LINE
  8
DETAIL
  6
CONTINUOUS
 62
     5
 10
-99.5
 20
155.0
 11
-99.5
 21
172.0
  0
LINE
  8
DETAIL
  6
CONTINUOUS
 62
     5
 10
-104.5
 20
2.5
 11
-104.5
 21
172.0
  0
LINE
  8
DETAIL
  6
CONTINUOUS
 62
     5
 10
-99.5
 20
172.0
 11
-104.5
 21
172.0
  0
LINE
  8
DETAIL
  6
CONTINUOUS
 62
     5
 10
-218.5
 20
58.0
 11
-188.5
 21
58.0
  0
LINE
  8
DETAIL
  6
CONTINUOUS
 62
     5
 10
-218.5
 20
156.0
 11
-188.5
 21
156.0
  0
LINE
  8
DETAIL
  6
CONTINUOUS
 62
     5
 10
-188.5
 20
54.5
 11
-163.5
 21
54.5
  0
LINE
  8
DETAIL
  6
CONTINUOUS
 62
     5
 10
-188.5
 20
159.5
 11
-163.5
 21
159.5
  0
LINE
  8
DETAIL
  6
CONTINUOUS
 62
     5
 10
-163.5
 20
53.5
 11
-163.5
 21
160.5
  0
LINE
  8
DETAIL
  6
CONTINUOUS
 62
     5
 10
-188.5
 20
54.5
 11
-188.5
 21
159.5
  0
LINE
  8
DETAIL
  6
CONTINUOUS
 62
     5
 10
-218.5
 20
58.0
 11
-218.5
 21
156.0
  0
LINE
  8
BASIS
  6
DASHDOT
 62
     6
 10
-255.682607
 20
107.0
 11
-61.800595
 21
107.0
  0
LINE
  8
SIZE
  6
CONTINUOUS
 62
     8
 10
-677.192571
 20
153.837679
 11
-677.192571
 21
369.928457
  0
LINE
  8
DETAIL
  6
CONTINUOUS
 62
     5
 10
17.5
 20
182.0
 11
-17.5
 21
182.0
  0
LINE
  8
DETAIL
  6
CONTINUOUS
 62
     5
 10
17.5
 20
186.0
 11
-17.5
 21
186.0
  0
LINE
  8
NOTE
  6
CONTINUOUS
 62
     4
 10
-0.0
 20
206.0
 11
-0.0
 21
166.0
  0
CIRCLE
  8
FIX
  6
CONTINUOUS
 62
     9
 10
-0.0
 20
186.0
 40
7.5
  0
LINE
  8
DETAIL
  6
CONTINUOUS
 62
     5
 10
17.5
 20
0.0
 11
17.5
 21
186.0
  0
LINE
  8
DETAIL
  6
CONTINUOUS
 62
     5
 10
-17.5
 20
0.0
 11
-17.5
 21
186.0
  0
LINE
  8
NOTE
  6
CONTINUOUS
 62
     4
 10
-0.0
 20
186.0
 11
313.830891
 21
398.706617
  0
ARC
  8
DETAIL
  6
CONTINUOUS
 62
     5
 10
51.5
 20
155.0
 40
2.0
 50
360.0
 51
90.0
  0
ARC
  8
DETAIL
  6
CONTINUOUS
 62
     5
 10
-39.5
 20
155.0
 40
2.0
 50
90.0
 51
180.0
  0
LINE
  8
SIZE
  6
CONTINUOUS
 62
     8
 10
385.77802
 20
182.0
 11
385.77802
 21
288.722866
  0
LINE
  8
SIZE
  6
CONTINUOUS
 62
     8
 10
524.83016
 20
153.0
 11
524.83016
 21
263.866363
  0
TEXT
  8
NOTE
  6
CONTINUOUS
 62
     4
 10
-487.568336
 20
287.689197
 40
64.0
  1
EL
 41
0.9
  0
LINE
  8
NOTE
  6
CONTINUOUS
 62
     4
 10
-493.593248
 20
268.744823
 11
-393.417435
 21
268.744823
  0
LINE
  8
SIZE
  6
CONTINUOUS
 62
     8
 10
-78.999996
 20
-308.272044
 11
-278.370127
 21
-308.272044
  0
LINE
  8
SIZE
  6
CONTINUOUS
 62
     8
 10
-499.398623
 20
-6.831161
 11
-499.398623
 21
-190.510808
  0
LINE
  8
SIZE
  6
CONTINUOUS
 62
     8
 10
-222.5
 20
655.728362
 11
-360.850194
 21
655.728362
  0
LINE
  8
SIZE
  6
CONTINUOUS
 62
     8
 10
-220.5
 20
537.213094
 11
-360.850194
 21
537.213094
  0
LINE
  8
SIZE
  6
CONTINUOUS
 62
     8
 10
-220.5
 20
765.111483
 11
-412.052047
 21
765.111483
  0
TEXT
  8
ETC
  6
CONTINUOUS
 62
    10
 10
606.836838
 20
808.299882
 40
64.0
  1
NVD0154
 41
0.9
  0
LINE
  8
SIZE
  6
CONTINUOUS
 62
     8
 10
-561.271415
 20
152.337679
 11
-561.271415
 21
349.891702
  0
TEXT
  8
NOTE
  6
CONTINUOUS
 62
     4
 10
-357.486072
 20
67.397178
 40
64.0
  1
EA
 41
0.9
  0
LINE
  8
DETAIL
  6
CONTINUOUS
 62
     5
 10
-104.5
 20
53.5
 11
-163.5
 21
53.5
  0
LINE
  8
DETAIL
  6
CONTINUOUS
 62
     5
 10
-104.5
 20
160.5
 11
-163.5
 21
160.5
  0
LINE
  8
DETAIL
  6
CONTINUOUS
 62
     5
 10
-104.5
 20
2.5
 11
-129.5
 21
2.5
  0
LINE
  8
DETAIL
  6
CONTINUOUS
 62
     5
 10
-129.5
 20
0.0
 11
-129.5
 21
2.5
  0
LINE
  8
SIZE
  6
CONTINUOUS
 62
     8
 10
-375.59687
 20
2.5
 11
-375.59687
 21
-116.316574
  0
LINE
  8
SIZE
  6
CONTINUOUS
 62
     8
 10
-218.5
 20
402.456094
 11
-477.026321
 21
402.456094
  0
LINE
  8
SIZE
  6
CONTINUOUS
 62
     8
 10
6.0
 20
402.456094
 11
209.368768
 21
402.456094
  0
LINE
  8
NOTE
  6
CONTINUOUS
 62
     4
 10
-80.999996
 20
155.0
 11
-393.417435
 21
268.744823
  0
TEXT
  8
NOTE
  6
CONTINUOUS
 62
     4
 10
-846.81675
 20
-277.529091
 40
64.0
  1
8-âË5ü~10
 41
0.9
  0
LINE
  8
NOTE
  6
CONTINUOUS
 62
     4
 10
-426.848969
 20
-301.130018
 11
-860.871684
 21
-301.130018
  0
LINE
  8
NOTE
  6
CONTINUOUS
 62
     4
 10
-117.5
 20
0.0
 11
-426.848969
 21
-301.130018
  0
LINE
  8
SIZE
  6
CONTINUOUS
 62
     8
 10
141.0
 20
-155.958677
 11
417.69899
 21
-155.958677
  0
LINE
  8
SIZE
  6
BYBLOCK
 62
     8
 10
143.0
 20
-28.553879
 11
143.0
 21
-185.958677
  0
LINE
  8
SIZE
  6
BYBLOCK
 62
     8
 10
-218.5
 20
38.0
 11
-218.5
 21
-185.958677
  0
LINE
  8
SIZE
  6
BYBLOCK
 62
     8
 10
141.0
 20
-155.958677
 11
-37.75
 21
-155.958677
  0
LINE
  8
SIZE
  6
BYBLOCK
 62
     8
 10
-216.5
 20
-155.958677
 11
-37.75
 21
-155.958677
  0
TEXT
  8
SIZE
  6
BYBLOCK
 62
     8
 10
182.237819
 20
-123.958677
 40
64.0
  1
361.5
 41
0.9
  0
LINE
  8
SIZE
  6
BYBLOCK
 62
     8
 10
-0.0
 20
243.192157
 11
-0.0
 21
432.456094
  0
LINE
  8
SIZE
  6
BYBLOCK
 62
     8
 10
-218.5
 20
176.0
 11
-218.5
 21
432.456094
  0
LINE
  8
SIZE
  6
BYBLOCK
 62
     8
 10
-220.5
 20
402.456094
 11
-222.5
 21
402.456094
  0
LINE
  8
SIZE
  6
BYBLOCK
 62
     8
 10
2.0
 20
402.456094
 11
4.0
 21
402.456094
  0
LINE
  8
SIZE
  6
BYBLOCK
 62
     8
 10
-218.5
 20
402.456094
 11
-0.0
 21
402.456094
  0
TEXT
  8
SIZE
  6
BYBLOCK
 62
     8
 10
-469.281113
 20
434.456094
 40
64.0
  1
218.5
 41
0.9
  0
LINE
  8
SIZE
  6
BYBLOCK
 62
     8
 10
0.0
 20
-69.328414
 11
0.0
 21
-338.272044
  0
LINE
  8
SIZE
  6
BYBLOCK
 62
     8
 10
-80.999996
 20
115.000003
 11
-80.999996
 21
-338.272044
  0
LINE
  8
SIZE
  6
BYBLOCK
 62
     8
 10
-2.0
 20
-308.272044
 11
-40.499998
 21
-308.272044
  0
LINE
  8
SIZE
  6
BYBLOCK
 62
     8
 10
-78.999996
 20
-308.272044
 11
-40.499998
 21
-308.272044
  0
TEXT
  8
SIZE
  6
BYBLOCK
 62
     8
 10
-249.09701
 20
-275.373472
 40
64.0
  1
81
 41
0.9
  0
LINE
  8
SIZE
  6
BYBLOCK
 62
     8
 10
-149.5
 20
2.5
 11
-405.59687
 21
2.5
  0
LINE
  8
SIZE
  6
BYBLOCK
 62
     8
 10
-183.5
 20
53.5
 11
-405.59687
 21
53.5
  0
LINE
  8
SIZE
  6
BYBLOCK
 62
     8
 10
-375.59687
 20
55.5
 11
-375.59687
 21
57.5
  0
LINE
  8
SIZE
  6
BYBLOCK
 62
     8
 10
-375.59687
 20
0.5
 11
-375.59687
 21
-1.5
  0
LINE
  8
SIZE
  6
BYBLOCK
 62
     8
 10
-375.59687
 20
53.5
 11
-375.59687
 21
2.5
  0
TEXT
  8
SIZE
  6
BYBLOCK
 62
     8
 10
-407.59687
 20
-106.92749
 40
64.0
  1
51
 50
90.0
 41
0.9
  0
LINE
  8
SIZE
  6
BYBLOCK
 62
     8
 10
-0.0
 20
243.192157
 11
-0.0
 21
432.456094
  0
LINE
  8
SIZE
  6
BYBLOCK
 62
     8
 10
6.0
 20
225.272759
 11
6.0
 21
432.456094
  0
LINE
  8
SIZE
  6
BYBLOCK
 62
     8
 10
8.0
 20
402.456094
 11
10.0
 21
402.456094
  0
LINE
  8
SIZE
  6
BYBLOCK
 62
     8
 10
-2.0
 20
402.456094
 11
-4.0
 21
402.456094
  0
LINE
  8
SIZE
  6
BYBLOCK
 62
     8
 10
6.0
 20
402.456094
 11
-0.0
 21
402.456094
  0
TEXT
  8
SIZE
  6
BYBLOCK
 62
     8
 10
153.067845
 20
434.456094
 40
64.0
  1
6
 41
0.9
  0
LINE
  8
SIZE
  6
BYBLOCK
 62
     8
 10
-163.0
 20
0.0
 11
-529.398623
 21
0.0
  0
LINE
  8
SIZE
  6
BYBLOCK
 62
     8
 10
-275.682607
 20
107.0
 11
-529.398623
 21
107.0
  0
LINE
  8
SIZE
  6
BYBLOCK
 62
     8
 10
-499.398623
 20
109.0
 11
-499.398623
 21
111.0
  0
LINE
  8
SIZE
  6
BYBLOCK
 62
     8
 10
-499.398623
 20
-2.0
 11
-499.398623
 21
-4.0
  0
LINE
  8
SIZE
  6
BYBLOCK
 62
     8
 10
-499.398623
 20
107.0
 11
-499.398623
 21
0.0
  0
TEXT
  8
SIZE
  6
BYBLOCK
 62
     8
 10
-531.398623
 20
-164.8906
 40
64.0
  1
107
 50
90.0
 41
0.9
  0
LINE
  8
SIZE
  6
BYBLOCK
 62
     8
 10
-238.5
 20
156.0
 11
-591.271415
 21
156.0
  0
LINE
  8
SIZE
  6
BYBLOCK
 62
     8
 10
-238.5
 20
58.0
 11
-591.271415
 21
58.0
  0
LINE
  8
SIZE
  6
BYBLOCK
 62
     8
 10
-561.271415
 20
56.0
 11
-561.271415
 21
54.0
  0
LINE
  8
SIZE
  6
BYBLOCK
 62
     8
 10
-561.271415
 20
158.0
 11
-561.271415
 21
160.0
  0
LINE
  8
SIZE
  6
BYBLOCK
 62
     8
 10
-561.271415
 20
58.0
 11
-561.271415
 21
156.0
  0
TEXT
  8
SIZE
  6
BYBLOCK
 62
     8
 10
-593.271415
 20
178.14669
 40
64.0
  1
âË98
 50
90.0
 41
0.9
  0
LINE
  8
SIZE
  6
BYBLOCK
 62
     8
 10
-208.5
 20
159.5
 11
-707.192571
 21
159.5
  0
LINE
  8
SIZE
  6
BYBLOCK
 62
     8
 10
-208.5
 20
54.5
 11
-707.192571
 21
54.5
  0
LINE
  8
SIZE
  6
BYBLOCK
 62
     8
 10
-677.192571
 20
52.5
 11
-677.192571
 21
50.5
  0
LINE
  8
SIZE
  6
BYBLOCK
 62
     8
 10
-677.192571
 20
161.5
 11
-677.192571
 21
163.5
  0
LINE
  8
SIZE
  6
BYBLOCK
 62
     8
 10
-677.192571
 20
54.5
 11
-677.192571
 21
159.5
  0
TEXT
  8
SIZE
  6
BYBLOCK
 62
     8
 10
-709.192571
 20
181.139299
 40
64.0
  1
âË105
 50
90.0
 41
0.9
  0
LINE
  8
SIZE
  6
BYBLOCK
 62
     8
 10
-163.0
 20
0.0
 11
-820.651989
 21
0.0
  0
LINE
  8
SIZE
  6
BYBLOCK
 62
     8
 10
-124.5
 20
172.0
 11
-820.651989
 21
172.0
  0
LINE
  8
SIZE
  6
BYBLOCK
 62
     8
 10
-790.651989
 20
2.0
 11
-790.651989
 21
86.0
  0
LINE
  8
SIZE
  6
BYBLOCK
 62
     8
 10
-790.651989
 20
170.0
 11
-790.651989
 21
86.0
  0
TEXT
  8
SIZE
  6
BYBLOCK
 62
     8
 10
-822.651989
 20
17.428571
 40
64.0
  1
172
 50
90.0
 41
0.9
  0
LINE
  8
SIZE
  6
BYBLOCK
 62
     8
 10
121.5
 20
155.0
 11
415.77802
 21
155.0
  0
LINE
  8
SIZE
  6
BYBLOCK
 62
     8
 10
37.5
 20
186.0
 11
415.77802
 21
186.0
  0
LINE
  8
SIZE
  6
BYBLOCK
 62
     8
 10
385.77802
 20
188.0
 11
385.77802
 21
190.0
  0
LINE
  8
SIZE
  6
BYBLOCK
 62
     8
 10
385.77802
 20
153.0
 11
385.77802
 21
151.0
  0
LINE
  8
SIZE
  6
BYBLOCK
 62
     8
 10
385.77802
 20
186.0
 11
385.77802
 21
155.0
  0
TEXT
  8
SIZE
  6
BYBLOCK
 62
     8
 10
353.77802
 20
209.967665
 40
64.0
  1
31
 50
90.0
 41
0.9
  0
LINE
  8
SIZE
  6
BYBLOCK
 62
     8
 10
121.5
 20
155.0
 11
554.83016
 21
155.0
  0
LINE
  8
SIZE
  6
BYBLOCK
 62
     8
 10
71.5
 20
157.0
 11
554.83016
 21
157.0
  0
LINE
  8
SIZE
  6
BYBLOCK
 62
     8
 10
524.83016
 20
159.0
 11
524.83016
 21
161.0
  0
LINE
  8
SIZE
  6
BYBLOCK
 62
     8
 10
524.83016
 20
153.0
 11
524.83016
 21
151.0
  0
LINE
  8
SIZE
  6
BYBLOCK
 62
     8
 10
524.83016
 20
157.0
 11
524.83016
 21
155.0
  0
TEXT
  8
SIZE
  6
BYBLOCK
 62
     8
 10
492.83016
 20
220.225954
 40
64.0
  1
2
 50
90.0
 41
0.9
  0
LINE
  8
SIZE
  6
BYBLOCK
 62
     8
 10
157.5
 20
-0.0
 11
554.83016
 21
-0.0
  0
LINE
  8
SIZE
  6
BYBLOCK
 62
     8
 10
121.5
 20
155.0
 11
554.83016
 21
155.0
  0
LINE
  8
SIZE
  6
BYBLOCK
 62
     8
 10
524.83016
 20
2.0
 11
524.83016
 21
77.5
  0
LINE
  8
SIZE
  6
BYBLOCK
 62
     8
 10
524.83016
 20
153.0
 11
524.83016
 21
77.5
  0
TEXT
  8
SIZE
  6
BYBLOCK
 62
     8
 10
492.83016
 20
8.928571
 40
64.0
  1
155
 50
90.0
 41
0.9
  0
LINE
  8
SIZE
  6
BYBLOCK
 62
     8
 10
157.5
 20
-0.0
 11
690.272422
 21
-0.0
  0
LINE
  8
SIZE
  6
BYBLOCK
 62
     8
 10
56.5
 20
189.0
 11
690.272422
 21
189.0
  0
LINE
  8
SIZE
  6
BYBLOCK
 62
     8
 10
660.272422
 20
2.0
 11
660.272422
 21
94.5
  0
LINE
  8
SIZE
  6
BYBLOCK
 62
     8
 10
660.272422
 20
187.0
 11
660.272422
 21
94.5
  0
TEXT
  8
SIZE
  6
BYBLOCK
 62
     8
 10
628.272422
 20
27.3
 40
64.0
  1
189
 50
90.0
 41
0.9
  0
LINE
  8
SIZE
  6
BYBLOCK
 62
     8
 10
133.134913
 20
-20.0
 11
690.272422
 21
-20.0
  0
LINE
  8
SIZE
  6
BYBLOCK
 62
     8
 10
163.0
 20
-0.0
 11
690.272422
 21
-0.0
  0
LINE
  8
SIZE
  6
BYBLOCK
 62
     8
 10
660.272422
 20
2.0
 11
660.272422
 21
4.0
  0
LINE
  8
SIZE
  6
BYBLOCK
 62
     8
 10
660.272422
 20
-22.0
 11
660.272422
 21
-24.0
  0
LINE
  8
SIZE
  6
BYBLOCK
 62
     8
 10
660.272422
 20
-0.0
 11
660.272422
 21
-20.0
  0
TEXT
  8
SIZE
  6
BYBLOCK
 62
     8
 10
628.272422
 20
-135.218238
 40
64.0
  1
20
 50
90.0
 41
0.9
  0
LINE
  8
SIZE
  6
BYBLOCK
 62
     8
 10
-218.5
 20
176.0
 11
-218.5
 21
567.213094
  0
LINE
  8
SIZE
  6
BYBLOCK
 62
     8
 10
-188.5
 20
179.5
 11
-188.5
 21
567.213094
  0
LINE
  8
SIZE
  6
BYBLOCK
 62
     8
 10
-186.5
 20
537.213094
 11
-184.5
 21
537.213094
  0
LINE
  8
SIZE
  6
BYBLOCK
 62
     8
 10
-220.5
 20
537.213094
 11
-222.5
 21
537.213094
  0
LINE
  8
SIZE
  6
BYBLOCK
 62
     8
 10
-188.5
 20
537.213094
 11
-218.5
 21
537.213094
  0
TEXT
  8
SIZE
  6
BYBLOCK
 62
     8
 10
-344.658813
 20
569.213094
 40
64.0
  1
30
 41
0.9
  0
LINE
  8
SIZE
  6
BYBLOCK
 62
     8
 10
-218.5
 20
176.0
 11
-218.5
 21
685.728362
  0
LINE
  8
SIZE
  6
BYBLOCK
 62
     8
 10
-163.5
 20
179.5
 11
-163.5
 21
685.728362
  0
LINE
  8
SIZE
  6
BYBLOCK
 62
     8
 10
-161.5
 20
655.728362
 11
-159.5
 21
655.728362
  0
LINE
  8
SIZE
  6
BYBLOCK
 62
     8
 10
-220.5
 20
655.728362
 11
-222.5
 21
655.728362
  0
LINE
  8
SIZE
  6
BYBLOCK
 62
     8
 10
-163.5
 20
655.728362
 11
-218.5
 21
655.728362
  0
TEXT
  8
SIZE
  6
BYBLOCK
 62
     8
 10
-344.856905
 20
687.728362
 40
64.0
  1
55
 41
0.9
  0
LINE
  8
SIZE
  6
BYBLOCK
 62
     8
 10
-101.5
 20
192.0
 11
-101.5
 21
795.111483
  0
LINE
  8
SIZE
  6
BYBLOCK
 62
     8
 10
-218.5
 20
176.0
 11
-218.5
 21
795.111483
  0
LINE
  8
SIZE
  6
BYBLOCK
 62
     8
 10
-220.5
 20
765.111483
 11
-222.5
 21
765.111483
  0
LINE
  8
SIZE
  6
BYBLOCK
 62
     8
 10
-99.5
 20
765.111483
 11
-97.5
 21
765.111483
  0
LINE
  8
SIZE
  6
BYBLOCK
 62
     8
 10
-218.5
 20
765.111483
 11
-101.5
 21
765.111483
  0
TEXT
  8
SIZE
  6
BYBLOCK
 62
     8
 10
-382.119993
 20
797.111483
 40
64.0
  1
117
 41
0.9
  0
LINE
  8
SIZE
  6
BYBLOCK
 62
     8
 10
36.5
 20
209.0
 11
36.5
 21
687.07719
  0
LINE
  8
SIZE
  6
BYBLOCK
 62
     8
 10
-24.5
 20
209.0
 11
-24.5
 21
687.07719
  0
LINE
  8
SIZE
  6
BYBLOCK
 62
     8
 10
-26.5
 20
657.07719
 11
-28.5
 21
657.07719
  0
LINE
  8
SIZE
  6
BYBLOCK
 62
     8
 10
38.5
 20
657.07719
 11
40.5
 21
657.07719
  0
LINE
  8
SIZE
  6
BYBLOCK
 62
     8
 10
-24.5
 20
657.07719
 11
36.5
 21
657.07719
  0
TEXT
  8
SIZE
  6
BYBLOCK
 62
     8
 10
158.172934
 20
689.07719
 40
64.0
  1
âË61
 41
0.9
  0
LINE
  8
SIZE
  6
BYBLOCK
 62
     8
 10
117.5
 20
-40.0
 11
117.5
 21
-616.478741
  0
LINE
  8
SIZE
  6
BYBLOCK
 62
     8
 10
-117.5
 20
-40.0
 11
-117.5
 21
-616.478741
  0
LINE
  8
SIZE
  6
BYBLOCK
 62
     8
 10
115.5
 20
-586.478741
 11
0.0
 21
-586.478741
  0
LINE
  8
SIZE
  6
BYBLOCK
 62
     8
 10
-115.5
 20
-586.478741
 11
0.0
 21
-586.478741
  0
TEXT
  8
SIZE
  6
BYBLOCK
 62
     8
 10
-71.197891
 20
-554.478741
 40
64.0
  1
235
 41
0.9
  0
LINE
  8
SIZE
  6
BYBLOCK
 62
     8
 10
101.5
 20
178.0
 11
101.5
 21
795.111483
  0
LINE
  8
SIZE
  6
BYBLOCK
 62
     8
 10
-101.5
 20
178.0
 11
-101.5
 21
795.111483
  0
LINE
  8
SIZE
  6
BYBLOCK
 62
     8
 10
-103.5
 20
765.111483
 11
-105.5
 21
765.111483
  0
LINE
  8
SIZE
  6
BYBLOCK
 62
     8
 10
103.5
 20
765.111483
 11
105.5
 21
765.111483
  0
LINE
  8
SIZE
  6
BYBLOCK
 62
     8
 10
-101.5
 20
765.111483
 11
101.5
 21
765.111483
  0
TEXT
  8
SIZE
  6
BYBLOCK
 62
     8
 10
-106.697143
 20
797.111483
 40
64.0
  1
üá203
 41
0.9
  0
LINE
  8
SIZE
  6
BYBLOCK
 62
     8
 10
65.0
 20
-40.0
 11
65.0
 21
-476.307375
  0
LINE
  8
SIZE
  6
BYBLOCK
 62
     8
 10
-65.0
 20
-40.0
 11
-65.0
 21
-476.307375
  0
LINE
  8
SIZE
  6
BYBLOCK
 62
     8
 10
-67.0
 20
-446.307375
 11
-69.0
 21
-446.307375
  0
LINE
  8
SIZE
  6
BYBLOCK
 62
     8
 10
67.0
 20
-446.307375
 11
69.0
 21
-446.307375
  0
LINE
  8
SIZE
  6
BYBLOCK
 62
     8
 10
-65.0
 20
-446.307375
 11
65.0
 21
-446.307375
  0
TEXT
  8
SIZE
  6
BYBLOCK
 62
     8
 10
-54.555107
 20
-414.307375
 40
64.0
  1
130
 41
0.9
  0
LINE
  8
SIZE
  6
BYBLOCK
 62
     8
 10
143.0
 20
-20.0
 11
143.0
 21
-757.452737
  0
LINE
  8
SIZE
  6
BYBLOCK
 62
     8
 10
-143.0
 20
-20.0
 11
-143.0
 21
-757.452737
  0
LINE
  8
SIZE
  6
BYBLOCK
 62
     8
 10
141.0
 20
-727.452737
 11
-0.0
 21
-727.452737
  0
LINE
  8
SIZE
  6
BYBLOCK
 62
     8
 10
-141.0
 20
-727.452737
 11
-0.0
 21
-727.452737
  0
TEXT
  8
SIZE
  6
BYBLOCK
 62
     8
 10
-105.325714
 20
-695.452737
 40
64.0
  1
üá286
 41
0.9
  0
CIRCLE
  8
SIZE
  6
CONTINUOUS
 62
     8
 10
-143.0
 20
-727.452737
 40
6.0
  0
CIRCLE
  8
SIZE
  6
CONTINUOUS
 62
     8
 10
143.0
 20
-727.452737
 40
6.0
  0
CIRCLE
  8
SIZE
  6
CONTINUOUS
 62
     8
 10
65.0
 20
-446.307375
 40
6.0
  0
CIRCLE
  8
SIZE
  6
CONTINUOUS
 62
     8
 10
-65.0
 20
-446.307375
 40
6.0
  0
CIRCLE
  8
SIZE
  6
CONTINUOUS
 62
     8
 10
101.5
 20
765.111483
 40
6.0
  0
CIRCLE
  8
SIZE
  6
CONTINUOUS
 62
     8
 10
-101.5
 20
765.111483
 40
6.0
  0
CIRCLE
  8
SIZE
  6
CONTINUOUS
 62
     8
 10
-117.5
 20
-586.478741
 40
6.0
  0
CIRCLE
  8
SIZE
  6
CONTINUOUS
 62
     8
 10
117.5
 20
-586.478741
 40
6.0
  0
CIRCLE
  8
SIZE
  6
CONTINUOUS
 62
     8
 10
36.5
 20
657.07719
 40
6.0
  0
CIRCLE
  8
SIZE
  6
CONTINUOUS
 62
     8
 10
-24.5
 20
657.07719
 40
6.0
  0
CIRCLE
  8
SIZE
  6
CONTINUOUS
 62
     8
 10
-101.5
 20
765.111483
 40
6.0
  0
CIRCLE
  8
SIZE
  6
CONTINUOUS
 62
     8
 10
-218.5
 20
765.111483
 40
6.0
  0
CIRCLE
  8
SIZE
  6
CONTINUOUS
 62
     8
 10
-218.5
 20
655.728362
 40
6.0
  0
CIRCLE
  8
SIZE
  6
CONTINUOUS
 62
     8
 10
-163.5
 20
655.728362
 40
6.0
  0
CIRCLE
  8
SIZE
  6
CONTINUOUS
 62
     8
 10
-218.5
 20
537.213094
 40
6.0
  0
CIRCLE
  8
SIZE
  6
CONTINUOUS
 62
     8
 10
-188.5
 20
537.213094
 40
6.0
  0
CIRCLE
  8
SIZE
  6
CONTINUOUS
 62
     8
 10
660.272422
 20
-20.0
 40
6.0
  0
CIRCLE
  8
SIZE
  6
CONTINUOUS
 62
     8
 10
660.272422
 20
-0.0
 40
6.0
  0
CIRCLE
  8
SIZE
  6
CONTINUOUS
 62
     8
 10
660.272422
 20
189.0
 40
6.0
  0
CIRCLE
  8
SIZE
  6
CONTINUOUS
 62
     8
 10
660.272422
 20
-0.0
 40
6.0
  0
CIRCLE
  8
SIZE
  6
CONTINUOUS
 62
     8
 10
524.83016
 20
155.0
 40
6.0
  0
CIRCLE
  8
SIZE
  6
CONTINUOUS
 62
     8
 10
524.83016
 20
-0.0
 40
6.0
  0
CIRCLE
  8
SIZE
  6
CONTINUOUS
 62
     8
 10
524.83016
 20
155.0
 40
6.0
  0
CIRCLE
  8
SIZE
  6
CONTINUOUS
 62
     8
 10
524.83016
 20
157.0
 40
6.0
  0
CIRCLE
  8
SIZE
  6
CONTINUOUS
 62
     8
 10
385.77802
 20
155.0
 40
6.0
  0
CIRCLE
  8
SIZE
  6
CONTINUOUS
 62
     8
 10
385.77802
 20
186.0
 40
6.0
  0
CIRCLE
  8
SIZE
  6
CONTINUOUS
 62
     8
 10
-790.651989
 20
172.0
 40
6.0
  0
CIRCLE
  8
SIZE
  6
CONTINUOUS
 62
     8
 10
-790.651989
 20
0.0
 40
6.0
  0
CIRCLE
  8
SIZE
  6
CONTINUOUS
 62
     8
 10
-677.192571
 20
159.5
 40
6.0
  0
CIRCLE
  8
SIZE
  6
CONTINUOUS
 62
     8
 10
-677.192571
 20
54.5
 40
6.0
  0
CIRCLE
  8
SIZE
  6
CONTINUOUS
 62
     8
 10
-561.271415
 20
156.0
 40
6.0
  0
CIRCLE
  8
SIZE
  6
CONTINUOUS
 62
     8
 10
-561.271415
 20
58.0
 40
6.0
  0
CIRCLE
  8
SIZE
  6
CONTINUOUS
 62
     8
 10
-499.398623
 20
0.0
 40
6.0
  0
CIRCLE
  8
SIZE
  6
CONTINUOUS
 62
     8
 10
-499.398623
 20
107.0
 40
6.0
  0
CIRCLE
  8
SIZE
  6
CONTINUOUS
 62
     8
 10
-0.0
 20
402.456094
 40
6.0
  0
CIRCLE
  8
SIZE
  6
CONTINUOUS
 62
     8
 10
6.0
 20
402.456094
 40
6.0
  0
CIRCLE
  8
SIZE
  6
CONTINUOUS
 62
     8
 10
-375.59687
 20
2.5
 40
6.0
  0
CIRCLE
  8
SIZE
  6
CONTINUOUS
 62
     8
 10
-375.59687
 20
53.5
 40
6.0
  0
CIRCLE
  8
SIZE
  6
CONTINUOUS
 62
     8
 10
-80.999996
 20
-308.272044
 40
6.0
  0
CIRCLE
  8
SIZE
  6
CONTINUOUS
 62
     8
 10
0.0
 20
-308.272044
 40
6.0
  0
CIRCLE
  8
SIZE
  6
CONTINUOUS
 62
     8
 10
-0.0
 20
402.456094
 40
6.0
  0
CIRCLE
  8
SIZE
  6
CONTINUOUS
 62
     8
 10
-218.5
 20
402.456094
 40
6.0
  0
CIRCLE
  8
SIZE
  6
CONTINUOUS
 62
     8
 10
-218.5
 20
-155.958677
 40
6.0
  0
CIRCLE
  8
SIZE
  6
CONTINUOUS
 62
     8
 10
143.0
 20
-155.958677
 40
6.0
  0
POLYLINE
  8
NOTE
  6
CONTINUOUS
 62
     4
 66
     1
  0
VERTEX
  8
NOTE
  6
CONTINUOUS
 62
     4
 10
-137.074296
 20
-34.883333
 50
45.701645
  0
VERTEX
  8
NOTE
  6
CONTINUOUS
 62
     4
 10
-117.5
 20
0.0
 50
45.701645
  0
VERTEX
  8
NOTE
  6
CONTINUOUS
 62
     4
 10
-151.893504
 20
-20.422704
 50
45.701645
  0
SEQEND
  8
NOTE
  6
CONTINUOUS
 62
     4
  0
POLYLINE
  8
NOTE
  6
CONTINUOUS
 62
     4
 66
     1
  0
VERTEX
  8
NOTE
  6
CONTINUOUS
 62
     4
 10
-120.529123
 20
161.11949
 50
336.199919
  0
VERTEX
  8
NOTE
  6
CONTINUOUS
 62
     4
 10
-80.999996
 20
155.0
 50
336.199919
  0
VERTEX
  8
NOTE
  6
CONTINUOUS
 62
     4
 10
-112.173479
 20
180.064197
 50
336.199919
  0
SEQEND
  8
NOTE
  6
CONTINUOUS
 62
     4
  0
LINE
  8
NOTE
  6
CONTINUOUS
 62
     4
 10
-80.999996
 20
135.000003
 11
-80.999996
 21
175.000003
  0
LINE
  8
NOTE
  6
CONTINUOUS
 62
     4
 10
-60.999996
 20
155.000003
 11
-100.999996
 21
155.000003
  0
POLYLINE
  8
NOTE
  6
CONTINUOUS
 62
     4
 66
     1
  0
VERTEX
  8
NOTE
  6
CONTINUOUS
 62
     4
 10
37.23721
 20
200.607882
  0
VERTEX
  8
NOTE
  6
CONTINUOUS
 62
     4
 10
-0.0
 20
186.0
  0
VERTEX
  8
NOTE
  6
CONTINUOUS
 62
     4
 10
24.944429
 20
217.269401
  0
SEQEND
  8
NOTE
  6
CONTINUOUS
 62
     4
  0
LINE
  8
NOTE
  6
CONTINUOUS
 62
     4
 10
-65.0
 20
-20.0
 11
-65.0
 21
20.0
  0
LINE
  8
NOTE
  6
CONTINUOUS
 62
     4
 10
-85.0
 20
0.0
 11
-45.0
 21
0.0
  0
LINE
  8
NOTE
  6
CONTINUOUS
 62
     4
 10
-117.5
 20
-20.0
 11
-117.5
 21
20.0
  0
LINE
  8
NOTE
  6
CONTINUOUS
 62
     4
 10
-137.5
 20
0.0
 11
-97.5
 21
0.0
  0
LINE
  8
NOTE
  6
CONTINUOUS
 62
     4
 10
65.0
 20
-20.0
 11
65.0
 21
20.0
  0
LINE
  8
NOTE
  6
CONTINUOUS
 62
     4
 10
45.0
 20
0.0
 11
85.0
 21
0.0
  0
LINE
  8
NOTE
  6
CONTINUOUS
 62
     4
 10
117.5
 20
-20.0
 11
117.5
 21
20.0
  0
LINE
  8
NOTE
  6
CONTINUOUS
 62
     4
 10
97.5
 20
0.0
 11
137.5
 21
0.0
  0
ENDSEC
  0
EOF
