  0
SECTION
  2
HEADER
  9
$ACADVER
  1
AC1009
  9
$INSBASE
 10
0.0
 20
0.0
 30
0.0
  9
$EXTMIN
 10
-1184.0146973522269
 20
-2456.0542134951829
 30
0.0
  9
$EXTMAX
 10
1733.0821183116359
 20
2169.7307632750721
 30
0.0
  9
$LIMMIN
 10
-1754.0531148353759
 20
-3131.1599051619992
  9
$LIMMAX
 10
2317.8371704418382
 20
2431.020269817825
  9
$ORTHOMODE
 70
     0
  9
$REGENMODE
 70
     1
  9
$FILLMODE
 70
     1
  9
$QTEXTMODE
 70
     0
  9
$MIRRTEXT
 70
     0
  9
$DRAGMODE
 70
     2
  9
$LTSCALE
 40
20.0
  9
$OSMODE
 70
    55
  9
$ATTMODE
 70
     1
  9
$TEXTSIZE
 40
64.0
  9
$TRACEWID
 40
0.05
  9
$TEXTSTYLE
  7
STANDARD
  9
$CLAYER
  8
SIZE
  9
$CELTYPE
  6
BYLAYER
  9
$CECOLOR
 62
   256
  9
$DIMSCALE
 40
1.0
  9
$DIMASZ
 40
12.0
  9
$DIMEXO
 40
5.0
  9
$DIMDLI
 40
10.0
  9
$DIMRND
 40
0.0
  9
$DIMDLE
 40
0.0
  9
$DIMEXE
 40
20.0
  9
$DIMTP
 40
0.0
  9
$DIMTM
 40
0.0
  9
$DIMTXT
 40
50.0
  9
$DIMCEN
 40
0.0
  9
$DIMTSZ
 40
0.0
  9
$DIMTOL
 70
     0
  9
$DIMLIM
 70
     0
  9
$DIMTIH
 70
     0
  9
$DIMTOH
 70
     0
  9
$DIMSE1
 70
     0
  9
$DIMSE2
 70
     0
  9
$DIMTAD
 70
     1
  9
$DIMZIN
 70
     0
  9
$DIMBLK
  1
DOTBLANK
  9
$DIMASO
 70
     1
  9
$DIMSHO
 70
     0
  9
$DIMPOST
  1

  9
$DIMAPOST
  1

  9
$DIMALT
 70
     0
  9
$DIMALTD
 70
     2
  9
$DIMALTF
 40
25.399999999999999
  9
$DIMLFAC
 40
1.0
  9
$DIMTOFL
 70
     1
  9
$DIMTVP
 40
0.0
  9
$DIMTIX
 70
     0
  9
$DIMSOXD
 70
     0
  9
$DIMSAH
 70
     0
  9
$DIMBLK1
  1

  9
$DIMBLK2
  1

  9
$DIMSTYLE
  2
STANDARD
  9
$DIMCLRD
 70
     0
  9
$DIMCLRE
 70
     0
  9
$DIMCLRT
 70
     0
  9
$DIMTFAC
 40
1.0
  9
$DIMGAP
 40
10.0
  9
$LUNITS
 70
     2
  9
$LUPREC
 70
     4
  9
$SKETCHINC
 40
0.1
  9
$FILLETRAD
 40
10.0
  9
$AUNITS
 70
     1
  9
$AUPREC
 70
     3
  9
$MENU
  1
ACAD
  9
$ELEVATION
 40
0.0
  9
$PELEVATION
 40
0.0
  9
$THICKNESS
 40
0.0
  9
$LIMCHECK
 70
     0
  9
$BLIPMODE
 70
     0
  9
$CHAMFERA
 40
0.0
  9
$CHAMFERB
 40
0.0
  9
$SKPOLY
 70
     0
  9
$TDCREATE
 40
2449761.4936226849
  9
$TDUPDATE
 40
2453516.454321099
  9
$TDINDWG
 40
8.1558290045999993
  9
$TDUSRTIMER
 40
8.1558235880000005
  9
$USRTIMER
 70
     1
  9
$ANGBASE
 50
0.0
  9
$ANGDIR
 70
     0
  9
$PDMODE
 70
    35
  9
$PDSIZE
 40
20.0
  9
$PLINEWID
 40
0.0
  9
$COORDS
 70
     0
  9
$SPLFRAME
 70
     0
  9
$SPLINETYPE
 70
     6
  9
$SPLINESEGS
 70
     8
  9
$ATTDIA
 70
     0
  9
$ATTREQ
 70
     1
  9
$HANDLING
 70
-16383
  9
$HANDSEED
  5
34C83
  9
$SURFTAB1
 70
     6
  9
$SURFTAB2
 70
     6
  9
$SURFTYPE
 70
     6
  9
$SURFU
 70
     6
  9
$SURFV
 70
     6
  9
$UCSNAME
  2

  9
$UCSORG
 10
0.0
 20
0.0
 30
0.0
  9
$UCSXDIR
 10
1.0
 20
0.0
 30
0.0
  9
$UCSYDIR
 10
0.0
 20
1.0
 30
0.0
  9
$PUCSNAME
  2

  9
$PUCSORG
 10
0.0
 20
0.0
 30
0.0
  9
$PUCSXDIR
 10
1.0
 20
0.0
 30
0.0
  9
$PUCSYDIR
 10
0.0
 20
1.0
 30
0.0
  9
$USERI1
 70
     0
  9
$USERI2
 70
     0
  9
$USERI3
 70
     0
  9
$USERI4
 70
     0
  9
$USERI5
 70
     0
  9
$USERR1
 40
20.0
  9
$USERR2
 40
0.0
  9
$USERR3
 40
0.0
  9
$USERR4
 40
0.0
  9
$USERR5
 40
0.0
  9
$WORLDVIEW
 70
     1
  9
$SHADEDGE
 70
     3
  9
$SHADEDIF
 70
    70
  9
$TILEMODE
 70
     1
  9
$MAXACTVP
 70
    64
  9
$PLIMCHECK
 70
     0
  9
$PEXTMIN
 10
1.0000000000000000E+020
 20
1.0000000000000000E+020
 30
1.0000000000000000E+020
  9
$PEXTMAX
 10
-1.0000000000000000E+020
 20
-1.0000000000000000E+020
 30
-1.0000000000000000E+020
  9
$PLIMMIN
 10
0.0
 20
0.0
  9
$PLIMMAX
 10
12.0
 20
9.0
  9
$UNITMODE
 70
     0
  9
$VISRETAIN
 70
     1
  9
$PLINEGEN
 70
     0
  9
$PSLTSCALE
 70
     1
  0
ENDSEC
  0
SECTION
  2
TABLES
  0
TABLE
  2
VPORT
 70
     2
  0
VPORT
  2
*ACTIVE
 70
     0
 10
0.0
 20
0.0
 11
1.0
 21
1.0
 12
2711.556824234397
 22
-510.61692464114401
 13
0.0
 23
0.0
 14
50.0
 24
50.0
 15
100.0
 25
100.0
 16
0.0
 26
0.0
 36
1.0
 17
0.0
 27
0.0
 37
0.0
 40
8110.5785955713882
 41
1.314578005115089
 42
50.0
 43
0.0
 44
0.0
 50
0.0
 51
0.0
 71
     0
 72
  1000
 73
     1
 74
     0
 75
     0
 76
     0
 77
     0
 78
     0
  0
ENDTAB
  0
TABLE
  2
LTYPE
 70
     3
  0
LTYPE
  2
CONTINUOUS
 70
     0
  3
実線
 72
    65
 73
     0
 40
0.0
  0
LTYPE
  2
DASHDOT
 70
     0
  3
____ _ ____ _ ____ _ ____ _ ____ _ ____ _ ____
 72
    65
 73
     4
 40
5.5
 49
4.0
 49
-0.6
 49
0.3
 49
-0.6
  0
LTYPE
  2
DASHED
 70
     0
  3
Dashed __ __ __ __ __ __ __ __ __ __ __ __ __ _
 72
    65
 73
     2
 40
0.75
 49
0.5
 49
-0.25
  0
ENDTAB
  0
TABLE
  2
LAYER
 70
    11
  0
LAYER
  2
0
 70
     0
 62
     7
  6
CONTINUOUS
  0
LAYER
  2
SIZE
 70
     0
 62
    30
  6
CONTINUOUS
  0
LAYER
  2
DETAIL
 70
     0
 62
     5
  6
CONTINUOUS
  0
LAYER
  2
BASIS
 70
     0
 62
     6
  6
DASHDOT
  0
LAYER
  2
NOTE
 70
     0
 62
     4
  6
CONTINUOUS
  0
LAYER
  2
ARRANGE
 70
     0
 62
     1
  6
CONTINUOUS
  0
LAYER
  2
FIX
 70
     0
 62
    11
  6
CONTINUOUS
  0
LAYER
  2
ETC
 70
     0
 62
    61
  6
CONTINUOUS
  0
LAYER
  2
DEFPOINTS
 70
     0
 62
     7
  6
CONTINUOUS
  0
LAYER
  2
OUTLINE
 70
     0
 62
     3
  6
CONTINUOUS
  0
LAYER
  2
SERVICESPACE
 70
     0
 62
     2
  6
DASHDOT
  0
ENDTAB
  0
TABLE
  2
STYLE
 70
     1
  0
STYLE
  2
STANDARD
 70
     0
 40
0.0
 41
0.9
 50
0.0
 71
     0
 42
64.0
  3
SIMPLEX
  4
BIGFONT
  0
ENDTAB
  0
TABLE
  2
VIEW
 70
     1
  0
VIEW
  2
ALL
 70
     0
 40
6056.2300320000013
 10
0.0
 20
58.11501599999999
 41
8400.0
 11
0.0
 21
0.0
 31
1.0
 12
0.0
 22
0.0
 32
0.0
 42
50.0
 43
0.0
 44
0.0
 50
0.0
 71
     0
  0
ENDTAB
  0
TABLE
  2
UCS
 70
     0
  0
ENDTAB
  0
TABLE
  2
APPID
 70
     1
  0
APPID
  2
ACAD
 70
     0
  0
ENDTAB
  0
TABLE
  2
DIMSTYLE
 70
     1
  0
DIMSTYLE
  2
STANDARD
 70
     0
  3

  4

  5

  6

  7

 40
1.0
 41
0.18
 42
0.0625
 43
0.38
 44
0.18
 45
0.0
 46
0.0
 47
0.0
 48
0.0
140
0.18
141
0.09
142
0.0
143
25.399999999999999
144
1.0
145
0.0
146
1.0
147
0.09
 71
     0
 72
     0
 73
     1
 74
     1
 75
     0
 76
     0
 77
     0
 78
     0
170
     0
171
     2
172
     0
173
     0
174
     0
175
     0
176
     0
177
     0
178
     0
  0
ENDTAB
  0
ENDSEC
  0
SECTION
  2
BLOCKS
  0
BLOCK
  8
0
  2
$MODEL_SPACE
 70
     0
 10
0.0
 20
0.0
 30
0.0
  3
$MODEL_SPACE
  1

  0
ENDBLK
  5
20
  8
0
  0
BLOCK
 67
     1
  8
0
  2
$PAPER_SPACE
 70
     0
 10
0.0
 20
0.0
 30
0.0
  3
$PAPER_SPACE
  1

  0
ENDBLK
  5
1C
 67
     1
  8
0
  0
BLOCK
  8
0
  2
_DOTBLANK
 70
     0
 10
0.0
 20
0.0
 30
0.0
  3
_DOTBLANK
  1

  0
CIRCLE
  5
53E7
  8
0
  6
BYBLOCK
 62
     0
 10
0.0
 20
0.0
 30
0.0
 40
0.5
  0
LINE
  5
53E8
  8
0
  6
BYBLOCK
 62
     0
 10
-0.5
 20
0.0
 30
0.0
 11
-1.0
 21
0.0
 31
0.0
  0
ENDBLK
  5
53EA
  8
0
  0
ENDSEC
  0
SECTION
  2
ENTITIES
  0
LINE
  5
346EF
  8
NOTE
 10
-350.0
 20
675.0
 30
0.0
 11
-820.54560569404566
 21
971.67279369909738
 31
0.0
  0
TEXT
  5
346FD
  8
NOTE
 10
-1184.0146973522269
 20
987.14883846227895
 30
0.0
 40
50.0
  1
AH 4-%%c24
 50
0.0000000000006247
 41
0.9
  0
LINE
  5
346FE
  8
NOTE
 10
-1179.3393712395221
 20
971.67279369909363
 30
0.0
 11
-820.54560569404566
 21
971.67279369909738
 31
0.0
  0
TEXT
  5
34704
  8
NOTE
 10
1153.2709027147639
 20
-1112.851638151518
 30
0.0
 40
50.0
  1
B JIS10K-125A
 50
0.0000000000006247
 41
0.9
  0
LINE
  5
34705
  8
NOTE
 10
1126.6845946654789
 20
-1136.6114548681601
 30
0.0
 11
1690.1695132242239
 21
-1136.611454868156
 31
0.0
  0
TEXT
  5
34706
  8
NOTE
 10
1153.0018968914439
 20
1091.3306710558079
 30
0.0
 40
50.0
  1
BR JIS10K-125A
 50
0.0000000000006247
 41
0.9
  0
LINE
  5
34707
  8
NOTE
 10
1126.1473602751059
 20
1067.5708543391661
 30
0.0
 11
1689.900507400896
 21
1067.57085433917
 31
0.0
  0
LINE
  5
34708
  8
NOTE
 10
449.9851447302899
 20
-908.99910670788449
 30
0.0
 11
1126.6845946654789
 21
-1136.6114548681601
 31
0.0
  0
LINE
  5
3470F
  8
BASIS
 10
0.0
 20
-1637.675068136057
 30
0.0
 11
0.0
 21
1931.853836942624
 31
0.0
  0
LINE
  5
34710
  8
DETAIL
 10
575.0
 20
-1525.0
 30
0.0
 11
575.0
 21
1780.0
 31
0.0
  0
LINE
  5
34711
  8
DETAIL
 10
-400.0
 20
-1525.0
 30
0.0
 11
-400.0
 21
1780.0
 31
0.0
  0
LINE
  5
34713
  8
NOTE
 10
-0.0012378127539705
 20
-1249.99584170301
 30
0.0
 11
717.21559422323105
 21
-1885.950500356651
 31
0.0
  0
LINE
  5
34714
  8
NOTE
 10
-0.0009871999718598
 20
-1124.998315704971
 30
0.0
 11
705.88045066627092
 21
-1757.479571692325
 31
0.0
  0
LINE
  5
3471A
  8
DETAIL
 10
575.0
 20
-1525.0
 30
0.0
 11
-400.0
 21
-1525.0
 31
0.0
  0
LINE
  5
3471D
  8
BASIS
 10
-76.318810117401881
 20
-1125.0
 30
0.0
 11
76.318810117401881
 21
-1125.0
 31
0.0
  0
LINE
  5
3471E
  8
BASIS
 10
-75.904817140799423
 20
-1250.0
 30
0.0
 11
75.904817140799423
 21
-1250.0
 31
0.0
  0
LINE
  5
3471F
  8
NOTE
 10
-0.0011920283759537
 20
-1249.9960818780401
 30
0.0
 11
26.533069582448661
 21
-1290.1814250102391
 31
0.0
  0
LINE
  5
34720
  8
NOTE
 10
-0.0008145350693667
 20
-1249.9960099167849
 30
0.0
 11
43.071201656664918
 21
-1271.530407123664
 31
0.0
  0
LINE
  5
34721
  8
NOTE
 10
-0.0009426633623661
 20
-1124.9985561144931
 30
0.0
 11
26.324291435012121
 21
-1165.3211414923021
 31
0.0
  0
LINE
  5
34722
  8
NOTE
 10
-0.0005648014703183
 20
-1124.9984861144219
 30
0.0
 11
42.959049377182957
 21
-1146.756252348677
 31
0.0
  0
LINE
  5
34723
  8
NOTE
 10
54.0
 20
-1249.9996549828611
 30
0.0
 11
-54.0
 21
-1249.9996549828611
 31
0.0
  0
LINE
  5
34724
  8
NOTE
 10
0.0
 20
-1303.9996549828611
 30
0.0
 11
0.0
 21
-1195.9996549828611
 31
0.0
  0
LINE
  5
34725
  8
NOTE
 10
54.0
 20
-1124.9996549828611
 30
0.0
 11
-54.0
 21
-1124.9996549828611
 31
0.0
  0
LINE
  5
34726
  8
NOTE
 10
0.0
 20
-1178.9996549828611
 30
0.0
 11
0.0
 21
-1070.9996549828611
 31
0.0
  0
LINE
  5
34727
  8
NOTE
 10
717.21559422323105
 20
-1885.950500356651
 30
0.0
 11
1330.4129235861469
 21
-1885.950500356648
 31
0.0
  0
LINE
  5
34728
  8
NOTE
 10
705.88045066627092
 20
-1757.479571692325
 30
0.0
 11
1305.1865955108369
 21
-1757.4795716923211
 31
0.0
  0
TEXT
  5
34729
  8
NOTE
 10
723.6527401432395
 20
-1738.696164073566
 30
0.0
 40
50.0
  1
CD JIS10K-125A
 50
0.0000000000006247
 41
0.9
  0
TEXT
  5
3472A
  8
NOTE
 10
725.40852864265605
 20
-1869.5767682376661
 30
0.0
 40
50.0
  1
CDR JIS10K-125A
 50
0.0000000000006247
 41
0.9
  0
CIRCLE
  5
3472B
  8
FIX
 10
350.0
 20
675.0
 30
0.0
 40
8.0
  0
LINE
  5
3472C
  8
NOTE
 10
404.0
 20
675.0003450171389
 30
0.0
 11
296.0
 21
675.0003450171389
 31
0.0
  0
CIRCLE
  5
3472D
  8
FIX
 10
350.0
 20
-675.0
 30
0.0
 40
8.0
  0
LINE
  5
3472E
  8
NOTE
 10
404.0
 20
-674.9996549828611
 30
0.0
 11
296.0
 21
-674.9996549828611
 31
0.0
  0
LINE
  5
3472F
  8
BASIS
 10
297.58412316593598
 20
675.0
 30
0.0
 11
402.41587683406391
 21
675.0
 31
0.0
  0
LINE
  5
34730
  8
BASIS
 10
260.54080670707481
 20
-675.0
 30
0.0
 11
439.45919329292519
 21
-675.0
 31
0.0
  0
LINE
  5
34731
  8
BASIS
 10
-491.98133431153832
 20
0.0
 30
0.0
 11
681.25718291390513
 21
0.0
 31
0.0
  0
LINE
  5
34732
  8
DETAIL
 10
575.0
 20
1780.0
 30
0.0
 11
-400.0
 21
1780.0
 31
0.0
  0
LINE
  5
34734
  8
BASIS
 10
-350.0
 20
-771.57356845850882
 30
0.0
 11
-350.0
 21
-578.42643154149118
 31
0.0
  0
CIRCLE
  5
34735
  8
FIX
 10
-350.0
 20
-675.0003450171389
 30
0.0
 40
8.0
  0
LINE
  5
34736
  8
NOTE
 10
-296.0
 20
-675.0
 30
0.0
 11
-404.0
 21
-675.0
 31
0.0
  0
LINE
  5
34737
  8
BASIS
 10
-461.46197771230072
 20
-675.0
 30
0.0
 11
-238.53802228769919
 21
-675.0
 31
0.0
  0
LINE
  5
34738
  8
NOTE
 10
-350.0
 20
-729.0
 30
0.0
 11
-350.0
 21
-621.0
 31
0.0
  0
POINT
  5
34739
  8
ARRANGE
  6
CONTINUOUS
 10
0.0
 20
0.0
 30
0.0
  0
LINE
  5
3473A
  8
NOTE
 10
-350.0004449531807
 20
675.00009734746891
 30
0.0
 11
-395.99443672219053
 21
689.26479373528116
 31
0.0
  0
LINE
  5
3473B
  8
NOTE
 10
-350.00008412578973
 20
675.00022957155659
 30
0.0
 11
-382.69970122530498
 21
710.35081490518132
 31
0.0
  0
CIRCLE
  5
3473C
  8
FIX
 10
-350.0
 20
675.0
 30
0.0
 40
8.0
  0
LINE
  5
3473D
  8
NOTE
 10
-296.0
 20
675.0003450171389
 30
0.0
 11
-404.0
 21
675.0003450171389
 31
0.0
  0
LINE
  5
3473E
  8
BASIS
 10
-410.75623894380988
 20
675.0
 30
0.0
 11
-289.24376105619012
 21
675.0
 31
0.0
  0
LINE
  5
3473F
  8
NOTE
 10
-350.0
 20
621.0003450171389
 30
0.0
 11
-350.0
 21
729.0003450171389
 31
0.0
  0
LINE
  5
34740
  8
BASIS
 10
-350.0
 20
629.6869937891679
 30
0.0
 11
-350.0
 21
720.31300621083199
 31
0.0
  0
LINE
  5
34743
  8
BASIS
 10
350.0
 20
-752.97118842697807
 30
0.0
 11
350.0
 21
-597.02881157302181
 31
0.0
  0
LINE
  5
34744
  8
NOTE
 10
449.9852806218114
 20
-908.9993099657222
 30
0.0
 11
490.0991392094474
 21
-935.64151691438735
 31
0.0
  0
LINE
  5
34745
  8
NOTE
 10
449.98560009080018
 20
-908.99909637924065
 30
0.0
 11
498.0463241458383
 21
-912.01499511585996
 31
0.0
  0
LINE
  5
34746
  8
NOTE
 10
504.0
 20
-908.99965498286099
 30
0.0
 11
396.0
 21
-908.99965498286099
 31
0.0
  0
LINE
  5
34747
  8
BASIS
 10
377.80959145470109
 20
-909.0
 30
0.0
 11
522.19040854529885
 21
-909.0
 31
0.0
  0
LINE
  5
34748
  8
NOTE
 10
450.0
 20
-962.9996549828611
 30
0.0
 11
450.0
 21
-854.9996549828611
 31
0.0
  0
LINE
  5
34749
  8
NOTE
 10
350.0
 20
-728.9996549828611
 30
0.0
 11
350.0
 21
-620.9996549828611
 31
0.0
  0
LINE
  5
3474A
  8
BASIS
 10
450.0
 20
-967.27180299084284
 30
0.0
 11
450.0
 21
-850.72819700915716
 31
0.0
  0
LINE
  5
3474B
  8
NOTE
 10
449.99101764250003
 20
1295.000524756083
 30
0.0
 11
1126.1473602751059
 21
1067.5708543391661
 31
0.0
  0
LINE
  5
3474E
  8
NOTE
 10
350.0
 20
621.0003450171389
 30
0.0
 11
350.0
 21
729.0003450171389
 31
0.0
  0
LINE
  5
3474F
  8
BASIS
 10
350.0
 20
619.61879902033979
 30
0.0
 11
350.0
 21
730.38120097966021
 31
0.0
  0
LINE
  5
34750
  8
NOTE
 10
449.99147300301053
 20
1295.0005350847271
 30
0.0
 11
498.05219705804842
 21
1291.9846363481081
 31
0.0
  0
LINE
  5
34751
  8
NOTE
 10
449.99115353402152
 20
1295.000321498246
 30
0.0
 11
490.10501212165758
 21
1268.3581145495809
 31
0.0
  0
LINE
  5
34752
  8
NOTE
 10
504.0
 20
1295.0003450171389
 30
0.0
 11
396.0
 21
1295.0003450171389
 31
0.0
  0
LINE
  5
34753
  8
BASIS
 10
369.2795455875239
 20
1295.0
 30
0.0
 11
530.72045441247599
 21
1295.0
 31
0.0
  0
LINE
  5
34754
  8
NOTE
 10
450.0
 20
1241.000345017138
 30
0.0
 11
450.0
 21
1349.0003450171389
 31
0.0
  0
LINE
  5
34755
  8
BASIS
 10
450.0
 20
1229.9165975441349
 30
0.0
 11
450.0
 21
1360.083402455864
 31
0.0
  0
TEXT
  5
34756
  8
ETC
  6
CONTINUOUS
 10
1324.3964040259229
 20
2105.7307632750721
 30
0.0
 40
64.0
  1
CBCL3616
 41
0.9
  0
LINE
  5
34BCC
  8
SIZE
 10
-410.0
 20
-675.0
 30
0.0
 11
-897.94183141016435
 21
-674.99999999999989
 31
0.0
  0
LINE
  5
34BCD
  8
SIZE
 10
-415.75623894380988
 20
675.0
 30
0.0
 11
-897.9418314101639
 21
675.0
 31
0.0
  0
LINE
  5
34BCE
  8
SIZE
 10
-877.94183141016424
 20
-662.99999999999989
 30
0.0
 11
-877.94183141016401
 21
663.00000000000011
 31
0.0
  0
LINE
  5
34BD2
  8
SIZE
 10
-405.0
 20
-675.0
 30
0.0
 11
-671.25437036577205
 21
-675.0
 31
0.0
  0
LINE
  5
34BD3
  8
SIZE
 10
-496.98133431153832
 20
0.0000000000000014
 30
0.0
 11
-671.25437036577205
 21
0.0000000000000508
 31
0.0
  0
LINE
  5
34BD4
  8
SIZE
 10
-651.25437036577205
 20
-663.0
 30
0.0
 11
-651.25437036577205
 21
-11.99999999999995
 31
0.0
  0
LINE
  5
34BD8
  8
SIZE
 10
-405.0
 20
1780.0
 30
0.0
 11
-1113.540314587472
 21
1780.0
 31
0.0
  0
LINE
  5
34BD9
  8
SIZE
 10
-405.0
 20
-1525.0
 30
0.0
 11
-1113.5403145874729
 21
-1524.9999999999991
 31
0.0
  0
LINE
  5
34BDA
  8
SIZE
 10
-1093.540314587472
 20
1768.0
 30
0.0
 11
-1093.5403145874729
 21
-1512.9999999999991
 31
0.0
  0
LINE
  5
34BDE
  8
SIZE
 10
527.19040854529885
 20
-909.0
 30
0.0
 11
1005.69601612554
 21
-909.00000000000011
 31
0.0
  0
LINE
  5
34BDF
  8
SIZE
 10
535.7204544124761
 20
1295.0
 30
0.0
 11
1005.696016125541
 21
1295.0
 31
0.0
  0
LINE
  5
34BE0
  8
SIZE
 10
985.69601612554038
 20
-897.0
 30
0.0
 11
985.69601612554106
 21
1283.0
 31
0.0
  0
LINE
  5
34BE4
  8
SIZE
 10
444.45919329292519
 20
-675.0
 30
0.0
 11
818.58141073354648
 21
-675.0
 31
0.0
  0
LINE
  5
34BE5
  8
SIZE
 10
527.19040854529885
 20
-909.0
 30
0.0
 11
818.58141073354625
 21
-909.00000000000011
 31
0.0
  0
LINE
  5
34BE6
  8
SIZE
 10
798.58141073354648
 20
-687.0
 30
0.0
 11
798.58141073354625
 21
-897.0
 31
0.0
  0
LINE
  5
34BEA
  8
SIZE
 10
-405.0
 20
-1525.0
 30
0.0
 11
-897.76220416229637
 21
-1524.9999999999991
 31
0.0
  0
LINE
  5
34BEB
  8
SIZE
 10
-466.46197771230061
 20
-675.0
 30
0.0
 11
-897.76220416229626
 21
-674.99999999999989
 31
0.0
  0
LINE
  5
34BEC
  8
SIZE
 10
-877.76220416229648
 20
-1512.9999999999991
 30
0.0
 11
-877.76220416229614
 21
-686.99999999999989
 31
0.0
  0
LINE
  5
34BF0
  8
SIZE
 10
-466.46197771230061
 20
-675.0
 30
0.0
 11
-671.61910279760184
 21
-675.0
 31
0.0
  0
LINE
  5
34BF1
  8
SIZE
 10
-81.318810117401895
 20
-1125.0
 30
0.0
 11
-671.61910279760195
 21
-1124.9999999999991
 31
0.0
  0
LINE
  5
34BF2
  8
SIZE
 10
-651.61910279760184
 20
-687.0
 30
0.0
 11
-651.61910279760195
 21
-1112.9999999999991
 31
0.0
  0
LINE
  5
34BF6
  8
SIZE
 10
-81.318810117401895
 20
-1125.0
 30
0.0
 11
-672.35895121179055
 21
-1124.9999999999991
 31
0.0
  0
LINE
  5
34BF7
  8
SIZE
 10
-80.904817140799423
 20
-1250.0
 30
0.0
 11
-672.35895121179055
 21
-1250.0
 31
0.0
  0
LINE
  5
34BF8
  8
SIZE
 10
-652.35895121179055
 20
-1136.9999999999991
 30
0.0
 11
-652.35895121179055
 21
-1237.9999999999991
 31
0.0
  0
LINE
  5
34BF9
  8
SIZE
 10
-652.35895121179055
 20
-1250.0
 30
0.0
 11
-652.35895121179055
 21
-1389.1428571428571
 31
0.0
  0
LINE
  5
34BFD
  8
SIZE
 10
-350.0
 20
-776.57356845850882
 30
0.0
 11
-350.0
 21
-1827.246993713517
 31
0.0
  0
LINE
  5
34BFE
  8
SIZE
 10
350.0
 20
-757.97118842697819
 30
0.0
 11
349.99999999999989
 21
-1827.246993713517
 31
0.0
  0
LINE
  5
34BFF
  8
SIZE
 10
-338.0
 20
-1807.246993713517
 30
0.0
 11
337.99999999999989
 21
-1807.246993713517
 31
0.0
  0
LINE
  5
34C03
  8
SIZE
 10
-0.0000000000000003
 20
-1642.675068136057
 30
0.0
 11
-0.0000000000000249
 21
-2043.7326392737441
 31
0.0
  0
LINE
  5
34C04
  8
SIZE
 10
450.0
 20
-972.27180299084284
 30
0.0
 11
449.99999999999989
 21
-2043.7326392737441
 31
0.0
  0
LINE
  5
34C05
  8
SIZE
 10
11.99999999999997
 20
-2023.732639273745
 30
0.0
 11
437.99999999999989
 21
-2023.732639273745
 31
0.0
  0
LINE
  5
34C09
  8
SIZE
 10
-400.0
 20
-1530.0
 30
0.0
 11
-400.0
 21
-2456.0542134951829
 31
0.0
  0
LINE
  5
34C0A
  8
SIZE
 10
575.0
 20
-1535.0
 30
0.0
 11
575.0
 21
-2456.0542134951829
 31
0.0
  0
LINE
  5
34C0B
  8
SIZE
 10
-388.0
 20
-2436.054213495182
 30
0.0
 11
563.0
 21
-2436.054213495182
 31
0.0
  0
LINE
  5
34C0F
  8
SIZE
 10
-0.0000000000000003
 20
-1642.675068136057
 30
0.0
 11
-0.0000000000000383
 21
-2263.8320717365282
 31
0.0
  0
LINE
  5
34C10
  8
SIZE
 10
575.0
 20
-1530.0
 30
0.0
 11
575.0
 21
-2263.8320717365282
 31
0.0
  0
LINE
  5
34C11
  8
SIZE
 10
11.999999999999959
 20
-2243.8320717365282
 30
0.0
 11
563.0
 21
-2243.8320717365282
 31
0.0
  0
LINE
  5
34C15
  8
SIZE
 10
-400.0
 20
-1530.000000000002
 30
0.0
 11
-400.0
 21
-2263.089020164683
 31
0.0
  0
LINE
  5
34C16
  8
SIZE
 10
-0.0000000000000003
 20
-1642.675068136057
 30
0.0
 11
-0.0000000000000383
 21
-2263.089020164683
 31
0.0
  0
LINE
  5
34C17
  8
SIZE
 10
-388.0
 20
-2243.089020164683
 30
0.0
 11
-12.00000000000003
 21
-2243.089020164683
 31
0.0
  0
LINE
  5
34C1B
  8
SIZE
 10
407.41587683406391
 20
675.0
 30
0.0
 11
839.59640881013149
 21
674.99999999999989
 31
0.0
  0
LINE
  5
34C1C
  8
SIZE
 10
540.7204544124761
 20
1295.0
 30
0.0
 11
839.59640881013195
 21
1295.0
 31
0.0
  0
LINE
  5
34C1D
  8
SIZE
 10
819.59640881013161
 20
686.99999999999989
 30
0.0
 11
819.59640881013183
 21
1283.0
 31
0.0
  0
LINE
  5
34C21
  8
SIZE
 10
-420.75623894380982
 20
675.0
 30
0.0
 11
-899.52716246896341
 21
675.0
 31
0.0
  0
LINE
  5
34C22
  8
SIZE
 10
-405.00000000000358
 20
1780.000000000002
 30
0.0
 11
-899.52716246896296
 21
1780.000000000002
 31
0.0
  0
LINE
  5
34C23
  8
SIZE
 10
-879.52716246896318
 20
687.0
 30
0.0
 11
-879.52716246896307
 21
1768.000000000002
 31
0.0
  0
CIRCLE
  5
34C27
  8
SIZE
 10
-1093.5403145874729
 20
-1524.9999999999991
 30
0.0
 40
6.0
  0
LINE
  5
34C28
  8
SIZE
 10
-1093.5403145874729
 20
-1518.9999999999991
 30
0.0
 11
-1093.5403145874729
 21
-1512.9999999999991
 31
0.0
  0
TEXT
  5
34C29
  8
SIZE
 10
-661.61910279760173
 20
-957.85714285714289
 30
0.0
 40
50.0
  1
450
 50
90.0
 41
0.9
  0
CIRCLE
  5
34C2A
  8
SIZE
 10
-877.76220416229648
 20
-1524.9999999999991
 30
0.0
 40
6.0
  0
LINE
  5
34C2B
  8
SIZE
 10
-877.76220416229648
 20
-1518.9999999999991
 30
0.0
 11
-877.76220416229648
 21
-1512.9999999999991
 31
0.0
  0
TEXT
  5
34C2C
  8
SIZE
 10
-887.76220416229626
 20
-1157.857142857142
 30
0.0
 40
50.0
  1
850
 50
90.0
 41
0.9
  0
TEXT
  5
34C2D
  8
SIZE
 10
-662.35895121179044
 20
-1379.1428571428571
 30
0.0
 40
50.0
  1
125
 50
90.0
 41
0.9
  0
CIRCLE
  5
34C2E
  8
SIZE
 10
-652.35895121179055
 20
-1250.0
 30
0.0
 40
6.0
  0
LINE
  5
34C2F
  8
SIZE
 10
-652.35895121179055
 20
-1243.9999999999991
 30
0.0
 11
-652.35895121179055
 21
-1237.9999999999991
 31
0.0
  0
CIRCLE
  5
34C30
  8
SIZE
 10
-652.35895121179055
 20
-1124.9999999999991
 30
0.0
 40
6.0
  0
LINE
  5
34C31
  8
SIZE
 10
-652.35895121179055
 20
-1131.0
 30
0.0
 11
-652.35895121179055
 21
-1136.9999999999991
 31
0.0
  0
CIRCLE
  5
34C32
  8
SIZE
 10
-651.61910279760195
 20
-1124.9999999999991
 30
0.0
 40
6.0
  0
LINE
  5
34C33
  8
SIZE
 10
-651.61910279760195
 20
-1118.9999999999991
 30
0.0
 11
-651.61910279760195
 21
-1112.9999999999991
 31
0.0
  0
CIRCLE
  5
34C34
  8
SIZE
 10
-877.76220416229614
 20
-674.99999999999989
 30
0.0
 40
6.0
  0
LINE
  5
34C35
  8
SIZE
 10
-877.76220416229614
 20
-680.99999999999977
 30
0.0
 11
-877.76220416229614
 21
-686.99999999999989
 31
0.0
  0
CIRCLE
  5
34C36
  8
SIZE
 10
-877.94183141016424
 20
-674.99999999999989
 30
0.0
 40
6.0
  0
LINE
  5
34C37
  8
SIZE
 10
-877.94183141016424
 20
-668.99999999999977
 30
0.0
 11
-877.94183141016424
 21
-662.99999999999989
 31
0.0
  0
CIRCLE
  5
34C38
  8
SIZE
 10
-651.61910279760184
 20
-675.0
 30
0.0
 40
6.0
  0
LINE
  5
34C39
  8
SIZE
 10
-651.61910279760184
 20
-681.0
 30
0.0
 11
-651.61910279760184
 21
-687.0
 31
0.0
  0
CIRCLE
  5
34C3A
  8
SIZE
 10
-651.25437036577205
 20
-675.0
 30
0.0
 40
6.0
  0
LINE
  5
34C3B
  8
SIZE
 10
-651.25437036577205
 20
-669.0
 30
0.0
 11
-651.25437036577205
 21
-663.0
 31
0.0
  0
TEXT
  5
34C3C
  8
SIZE
 10
-661.25437036577205
 20
-395.35714285714289
 30
0.0
 40
50.0
  1
675
 50
90.0
 41
0.9
  0
TEXT
  5
34C3D
  8
SIZE
 10
29.642857142857121
 20
-2426.0542134951829
 30
0.0
 40
50.0
  1
975
 41
0.9
  0
TEXT
  5
34C3E
  8
SIZE
 10
-257.85714285714278
 20
-2233.089020164683
 30
0.0
 40
50.0
  1
400
 41
0.9
  0
CIRCLE
  5
34C3F
  8
SIZE
 10
-400.0
 20
-2243.089020164683
 30
0.0
 40
6.0
  0
LINE
  5
34C40
  8
SIZE
 10
-394.0
 20
-2243.089020164683
 30
0.0
 11
-388.0
 21
-2243.089020164683
 31
0.0
  0
CIRCLE
  5
34C41
  8
SIZE
 10
-400.0
 20
-2436.054213495182
 30
0.0
 40
6.0
  0
LINE
  5
34C42
  8
SIZE
 10
-394.0
 20
-2436.054213495182
 30
0.0
 11
-388.0
 21
-2436.054213495182
 31
0.0
  0
CIRCLE
  5
34C43
  8
SIZE
 10
-350.0
 20
-1807.246993713517
 30
0.0
 40
6.0
  0
LINE
  5
34C44
  8
SIZE
 10
-344.0
 20
-1807.246993713517
 30
0.0
 11
-338.0
 21
-1807.246993713517
 31
0.0
  0
CIRCLE
  5
34C45
  8
SIZE
 10
-0.0000000000000371
 20
-2243.089020164683
 30
0.0
 40
6.0
  0
LINE
  5
34C46
  8
SIZE
 10
-6.0000000000000373
 20
-2243.089020164683
 30
0.0
 11
-12.00000000000003
 21
-2243.089020164683
 31
0.0
  0
CIRCLE
  5
34C47
  8
SIZE
 10
-0.0000000000000371
 20
-2243.8320717365282
 30
0.0
 40
6.0
  0
LINE
  5
34C48
  8
SIZE
 10
5.9999999999999618
 20
-2243.8320717365282
 30
0.0
 11
11.999999999999959
 21
-2243.8320717365282
 31
0.0
  0
TEXT
  5
34C49
  8
SIZE
 10
-57.857142857142911
 20
-1797.246993713517
 30
0.0
 40
50.0
  1
700
 41
0.9
  0
CIRCLE
  5
34C4A
  8
SIZE
 10
-0.0000000000000236
 20
-2023.732639273745
 30
0.0
 40
6.0
  0
LINE
  5
34C4B
  8
SIZE
 10
5.999999999999976
 20
-2023.732639273745
 30
0.0
 11
11.99999999999997
 21
-2023.732639273745
 31
0.0
  0
TEXT
  5
34C4C
  8
SIZE
 10
229.64285714285711
 20
-2233.8320717365268
 30
0.0
 40
50.0
  1
575
 41
0.9
  0
TEXT
  5
34C4D
  8
SIZE
 10
167.142857142857
 20
-2013.732639273745
 30
0.0
 40
50.0
  1
450
 41
0.9
  0
CIRCLE
  5
34C4E
  8
SIZE
 10
349.99999999999989
 20
-1807.246993713517
 30
0.0
 40
6.0
  0
LINE
  5
34C4F
  8
SIZE
 10
343.99999999999989
 20
-1807.246993713517
 30
0.0
 11
337.99999999999989
 21
-1807.246993713517
 31
0.0
  0
CIRCLE
  5
34C50
  8
SIZE
 10
575.0
 20
-2243.8320717365282
 30
0.0
 40
6.0
  0
LINE
  5
34C51
  8
SIZE
 10
569.0
 20
-2243.8320717365282
 30
0.0
 11
563.0
 21
-2243.8320717365282
 31
0.0
  0
CIRCLE
  5
34C52
  8
SIZE
 10
575.0
 20
-2436.054213495182
 30
0.0
 40
6.0
  0
LINE
  5
34C53
  8
SIZE
 10
569.0
 20
-2436.054213495182
 30
0.0
 11
563.0
 21
-2436.054213495182
 31
0.0
  0
CIRCLE
  5
34C54
  8
SIZE
 10
449.99999999999989
 20
-2023.732639273745
 30
0.0
 40
6.0
  0
LINE
  5
34C55
  8
SIZE
 10
443.99999999999989
 20
-2023.732639273745
 30
0.0
 11
437.99999999999989
 21
-2023.732639273745
 31
0.0
  0
TEXT
  5
34C56
  8
SIZE
 10
788.58141073354648
 20
-850.92857142857133
 30
0.0
 40
50.0
  1
234
 50
90.0
 41
0.9
  0
CIRCLE
  5
34C57
  8
SIZE
 10
798.58141073354625
 20
-909.00000000000011
 30
0.0
 40
6.0
  0
LINE
  5
34C58
  8
SIZE
 10
798.58141073354625
 20
-903.00000000000011
 30
0.0
 11
798.58141073354625
 21
-897.0
 31
0.0
  0
CIRCLE
  5
34C59
  8
SIZE
 10
798.58141073354648
 20
-675.0
 30
0.0
 40
6.0
  0
LINE
  5
34C5A
  8
SIZE
 10
798.58141073354648
 20
-681.00000000000011
 30
0.0
 11
798.58141073354648
 21
-687.0
 31
0.0
  0
CIRCLE
  5
34C5B
  8
SIZE
 10
985.69601612554038
 20
-909.00000000000011
 30
0.0
 40
6.0
  0
LINE
  5
34C5C
  8
SIZE
 10
985.69601612554038
 20
-903.00000000000011
 30
0.0
 11
985.69601612554038
 21
-897.0
 31
0.0
  0
TEXT
  5
34C5D
  8
SIZE
 10
-1103.5403145874729
 20
48.214285714285772
 30
0.0
 40
50.0
  1
3305
 50
90.0
 41
0.9
  0
TEXT
  5
34C5E
  8
SIZE
 10
-887.94183141016413
 20
-75.000000000000057
 30
0.0
 40
50.0
  1
1350
 50
90.0
 41
0.9
  0
CIRCLE
  5
34C5F
  8
SIZE
 10
-651.25437036577205
 20
0.0000000000000451
 30
0.0
 40
6.0
  0
LINE
  5
34C60
  8
SIZE
 10
-651.25437036577205
 20
-5.9999999999999538
 30
0.0
 11
-651.25437036577205
 21
-11.99999999999995
 31
0.0
  0
CIRCLE
  5
34C61
  8
SIZE
 10
-879.52716246896318
 20
675.0
 30
0.0
 40
6.0
  0
LINE
  5
34C62
  8
SIZE
 10
-879.52716246896318
 20
681.00000000000011
 30
0.0
 11
-879.52716246896318
 21
687.0
 31
0.0
  0
CIRCLE
  5
34C63
  8
SIZE
 10
-877.94183141016401
 20
675.0
 30
0.0
 40
6.0
  0
LINE
  5
34C64
  8
SIZE
 10
-877.94183141016401
 20
669.00000000000011
 30
0.0
 11
-877.94183141016401
 21
663.00000000000011
 31
0.0
  0
TEXT
  5
34C65
  8
SIZE
 10
-889.52716246896318
 20
1156.7857142857149
 30
0.0
 40
50.0
  1
1105
 50
90.0
 41
0.9
  0
CIRCLE
  5
34C66
  8
SIZE
 10
-1093.540314587472
 20
1780.0
 30
0.0
 40
6.0
  0
LINE
  5
34C67
  8
SIZE
 10
-1093.540314587472
 20
1774.0
 30
0.0
 11
-1093.540314587472
 21
1768.0
 31
0.0
  0
CIRCLE
  5
34C68
  8
SIZE
 10
-879.52716246896307
 20
1780.000000000002
 30
0.0
 40
6.0
  0
LINE
  5
34C69
  8
SIZE
 10
-879.52716246896307
 20
1774.0000000000009
 30
0.0
 11
-879.52716246896307
 21
1768.000000000002
 31
0.0
  0
TEXT
  5
34C6A
  8
SIZE
 10
975.69601612554061
 20
112.6428571428572
 30
0.0
 40
50.0
  1
2204
 50
90.0
 41
0.9
  0
TEXT
  5
34C6B
  8
SIZE
 10
809.59640881013161
 20
927.14285714285745
 30
0.0
 40
50.0
  1
620
 50
90.0
 41
0.9
  0
CIRCLE
  5
34C6C
  8
SIZE
 10
819.59640881013161
 20
674.99999999999989
 30
0.0
 40
6.0
  0
LINE
  5
34C6D
  8
SIZE
 10
819.59640881013161
 20
680.99999999999977
 30
0.0
 11
819.59640881013161
 21
686.99999999999989
 31
0.0
  0
CIRCLE
  5
34C6E
  8
SIZE
 10
819.59640881013183
 20
1295.0
 30
0.0
 40
6.0
  0
LINE
  5
34C6F
  8
SIZE
 10
819.59640881013183
 20
1289.0
 30
0.0
 11
819.59640881013183
 21
1283.0
 31
0.0
  0
CIRCLE
  5
34C70
  8
SIZE
 10
985.69601612554106
 20
1295.0
 30
0.0
 40
6.0
  0
LINE
  5
34C71
  8
SIZE
 10
985.69601612554106
 20
1289.0
 30
0.0
 11
985.69601612554106
 21
1283.0
 31
0.0
  0
LINE
  5
34C72
  8
OUTLINE
 10
575.0
 20
-1525.0
 30
0.0
 11
575.0
 21
1780.0
 31
0.0
  0
LINE
  5
34C73
  8
OUTLINE
 10
-400.0
 20
-1525.0
 30
0.0
 11
-400.0
 21
1780.0
 31
0.0
  0
LINE
  5
34C74
  8
OUTLINE
 10
575.0
 20
-1525.0
 30
0.0
 11
-400.0
 21
-1525.0
 31
0.0
  0
LINE
  5
34C75
  8
OUTLINE
 10
575.0
 20
1780.0
 30
0.0
 11
-400.0
 21
1780.0
 31
0.0
  0
ENDSEC
  0
EOF
