  0
SECTION
  2
HEADER
  9
$ACADVER
  1
AC1009
  9
$INSBASE
 10
0.0
 20
0.0
 30
0.0
  9
$EXTMIN
 10
-1548.3002375267631
 20
-3168.5048851848992
 30
0.0
  9
$EXTMAX
 10
2495.1730418085731
 20
2727.5869583574081
 30
0.0
  9
$LIMMIN
 10
-2084.0376673229621
 20
-3754.1069414672738
  9
$LIMMAX
 10
2781.8651733312581
 20
3089.4072625224071
  9
$ORTHOMODE
 70
     0
  9
$REGENMODE
 70
     1
  9
$FILLMODE
 70
     1
  9
$QTEXTMODE
 70
     0
  9
$MIRRTEXT
 70
     0
  9
$DRAGMODE
 70
     2
  9
$LTSCALE
 40
20.0
  9
$OSMODE
 70
    55
  9
$ATTMODE
 70
     1
  9
$TEXTSIZE
 40
64.0
  9
$TRACEWID
 40
0.05
  9
$TEXTSTYLE
  7
STANDARD
  9
$CLAYER
  8
SIZE
  9
$CELTYPE
  6
BYLAYER
  9
$CECOLOR
 62
   256
  9
$DIMSCALE
 40
1.0
  9
$DIMASZ
 40
12.0
  9
$DIMEXO
 40
5.0
  9
$DIMDLI
 40
10.0
  9
$DIMRND
 40
0.0
  9
$DIMDLE
 40
0.0
  9
$DIMEXE
 40
20.0
  9
$DIMTP
 40
0.0
  9
$DIMTM
 40
0.0
  9
$DIMTXT
 40
50.0
  9
$DIMCEN
 40
0.0
  9
$DIMTSZ
 40
0.0
  9
$DIMTOL
 70
     0
  9
$DIMLIM
 70
     0
  9
$DIMTIH
 70
     0
  9
$DIMTOH
 70
     0
  9
$DIMSE1
 70
     0
  9
$DIMSE2
 70
     0
  9
$DIMTAD
 70
     1
  9
$DIMZIN
 70
     0
  9
$DIMBLK
  1
DOTBLANK
  9
$DIMASO
 70
     1
  9
$DIMSHO
 70
     0
  9
$DIMPOST
  1

  9
$DIMAPOST
  1

  9
$DIMALT
 70
     0
  9
$DIMALTD
 70
     2
  9
$DIMALTF
 40
25.399999999999999
  9
$DIMLFAC
 40
1.0
  9
$DIMTOFL
 70
     1
  9
$DIMTVP
 40
0.0
  9
$DIMTIX
 70
     0
  9
$DIMSOXD
 70
     0
  9
$DIMSAH
 70
     0
  9
$DIMBLK1
  1

  9
$DIMBLK2
  1

  9
$DIMSTYLE
  2
STANDARD
  9
$DIMCLRD
 70
     0
  9
$DIMCLRE
 70
     0
  9
$DIMCLRT
 70
     0
  9
$DIMTFAC
 40
1.0
  9
$DIMGAP
 40
10.0
  9
$LUNITS
 70
     2
  9
$LUPREC
 70
     4
  9
$SKETCHINC
 40
0.1
  9
$FILLETRAD
 40
10.0
  9
$AUNITS
 70
     1
  9
$AUPREC
 70
     3
  9
$MENU
  1
ACAD
  9
$ELEVATION
 40
0.0
  9
$PELEVATION
 40
0.0
  9
$THICKNESS
 40
0.0
  9
$LIMCHECK
 70
     0
  9
$BLIPMODE
 70
     0
  9
$CHAMFERA
 40
0.0
  9
$CHAMFERB
 40
0.0
  9
$SKPOLY
 70
     0
  9
$TDCREATE
 40
2449761.4936226849
  9
$TDUPDATE
 40
2453516.4398800922
  9
$TDINDWG
 40
8.0145034144
  9
$TDUSRTIMER
 40
8.0144979976999995
  9
$USRTIMER
 70
     1
  9
$ANGBASE
 50
0.0
  9
$ANGDIR
 70
     0
  9
$PDMODE
 70
    35
  9
$PDSIZE
 40
20.0
  9
$PLINEWID
 40
0.0
  9
$COORDS
 70
     0
  9
$SPLFRAME
 70
     0
  9
$SPLINETYPE
 70
     6
  9
$SPLINESEGS
 70
     8
  9
$ATTDIA
 70
     0
  9
$ATTREQ
 70
     1
  9
$HANDLING
 70
-16383
  9
$HANDSEED
  5
3A82F
  9
$SURFTAB1
 70
     6
  9
$SURFTAB2
 70
     6
  9
$SURFTYPE
 70
     6
  9
$SURFU
 70
     6
  9
$SURFV
 70
     6
  9
$UCSNAME
  2

  9
$UCSORG
 10
0.0
 20
0.0
 30
0.0
  9
$UCSXDIR
 10
1.0
 20
0.0
 30
0.0
  9
$UCSYDIR
 10
0.0
 20
1.0
 30
0.0
  9
$PUCSNAME
  2

  9
$PUCSORG
 10
0.0
 20
0.0
 30
0.0
  9
$PUCSXDIR
 10
1.0
 20
0.0
 30
0.0
  9
$PUCSYDIR
 10
0.0
 20
1.0
 30
0.0
  9
$USERI1
 70
     0
  9
$USERI2
 70
     0
  9
$USERI3
 70
     0
  9
$USERI4
 70
     0
  9
$USERI5
 70
     0
  9
$USERR1
 40
20.0
  9
$USERR2
 40
0.0
  9
$USERR3
 40
0.0
  9
$USERR4
 40
0.0
  9
$USERR5
 40
0.0
  9
$WORLDVIEW
 70
     1
  9
$SHADEDGE
 70
     3
  9
$SHADEDIF
 70
    70
  9
$TILEMODE
 70
     1
  9
$MAXACTVP
 70
    64
  9
$PLIMCHECK
 70
     0
  9
$PEXTMIN
 10
1.0000000000000000E+020
 20
1.0000000000000000E+020
 30
1.0000000000000000E+020
  9
$PEXTMAX
 10
-1.0000000000000000E+020
 20
-1.0000000000000000E+020
 30
-1.0000000000000000E+020
  9
$PLIMMIN
 10
0.0
 20
0.0
  9
$PLIMMAX
 10
12.0
 20
9.0
  9
$UNITMODE
 70
     0
  9
$VISRETAIN
 70
     1
  9
$PLINEGEN
 70
     0
  9
$PSLTSCALE
 70
     1
  0
ENDSEC
  0
SECTION
  2
TABLES
  0
TABLE
  2
VPORT
 70
     2
  0
VPORT
  2
*ACTIVE
 70
     0
 10
0.0
 20
0.0
 11
1.0
 21
1.0
 12
1896.2083268384949
 22
-118.8155261795013
 13
0.0
 23
0.0
 14
50.0
 24
50.0
 15
100.0
 25
100.0
 16
0.0
 26
0.0
 36
1.0
 17
0.0
 27
0.0
 37
0.0
 40
8156.6326405784648
 41
1.314578005115089
 42
50.0
 43
0.0
 44
0.0
 50
0.0
 51
0.0
 71
     0
 72
  1000
 73
     1
 74
     0
 75
     0
 76
     0
 77
     0
 78
     0
  0
ENDTAB
  0
TABLE
  2
LTYPE
 70
     3
  0
LTYPE
  2
CONTINUOUS
 70
     0
  3
実線
 72
    65
 73
     0
 40
0.0
  0
LTYPE
  2
DASHDOT
 70
     0
  3
____ _ ____ _ ____ _ ____ _ ____ _ ____ _ ____
 72
    65
 73
     4
 40
5.5
 49
4.0
 49
-0.6
 49
0.3
 49
-0.6
  0
LTYPE
  2
DASHED
 70
     0
  3
Dashed __ __ __ __ __ __ __ __ __ __ __ __ __ _
 72
    65
 73
     2
 40
0.75
 49
0.5
 49
-0.25
  0
ENDTAB
  0
TABLE
  2
LAYER
 70
    11
  0
LAYER
  2
0
 70
     0
 62
     7
  6
CONTINUOUS
  0
LAYER
  2
SIZE
 70
     0
 62
    30
  6
CONTINUOUS
  0
LAYER
  2
DETAIL
 70
     0
 62
     5
  6
CONTINUOUS
  0
LAYER
  2
BASIS
 70
     0
 62
     6
  6
DASHDOT
  0
LAYER
  2
NOTE
 70
     0
 62
     4
  6
CONTINUOUS
  0
LAYER
  2
ARRANGE
 70
     0
 62
     1
  6
CONTINUOUS
  0
LAYER
  2
FIX
 70
     0
 62
    11
  6
CONTINUOUS
  0
LAYER
  2
ETC
 70
     0
 62
    61
  6
CONTINUOUS
  0
LAYER
  2
DEFPOINTS
 70
     0
 62
     7
  6
CONTINUOUS
  0
LAYER
  2
OUTLINE
 70
     0
 62
     3
  6
CONTINUOUS
  0
LAYER
  2
SERVICESPACE
 70
     0
 62
     2
  6
DASHDOT
  0
ENDTAB
  0
TABLE
  2
STYLE
 70
     2
  0
STYLE
  2
STANDARD
 70
     0
 40
0.0
 41
0.9
 50
0.0
 71
     0
 42
64.0
  3
SIMPLEX
  4
BIGFONT
  0
STYLE
  2
EXTFONT
 70
     0
 40
0.0
 41
1.0
 50
0.0
 71
     0
 42
3.5
  3
txt
  4
EXTFONT
  0
ENDTAB
  0
TABLE
  2
VIEW
 70
     1
  0
VIEW
  2
ALL
 70
     0
 40
6056.2300320000013
 10
0.0
 20
58.11501599999999
 41
8400.0
 11
0.0
 21
0.0
 31
1.0
 12
0.0
 22
0.0
 32
0.0
 42
50.0
 43
0.0
 44
0.0
 50
0.0
 71
     0
  0
ENDTAB
  0
TABLE
  2
UCS
 70
     0
  0
ENDTAB
  0
TABLE
  2
APPID
 70
     1
  0
APPID
  2
ACAD
 70
     0
  0
ENDTAB
  0
TABLE
  2
DIMSTYLE
 70
     1
  0
DIMSTYLE
  2
STANDARD
 70
     0
  3

  4

  5

  6

  7

 40
1.0
 41
0.18
 42
0.0625
 43
0.38
 44
0.18
 45
0.0
 46
0.0
 47
0.0
 48
0.0
140
0.18
141
0.09
142
0.0
143
25.399999999999999
144
1.0
145
0.0
146
1.0
147
0.09
 71
     0
 72
     0
 73
     1
 74
     1
 75
     0
 76
     0
 77
     0
 78
     0
170
     0
171
     2
172
     0
173
     0
174
     0
175
     0
176
     0
177
     0
178
     0
  0
ENDTAB
  0
ENDSEC
  0
SECTION
  2
BLOCKS
  0
BLOCK
  8
0
  2
$MODEL_SPACE
 70
     0
 10
0.0
 20
0.0
 30
0.0
  3
$MODEL_SPACE
  1

  0
ENDBLK
  5
20
  8
0
  0
BLOCK
 67
     1
  8
0
  2
$PAPER_SPACE
 70
     0
 10
0.0
 20
0.0
 30
0.0
  3
$PAPER_SPACE
  1

  0
ENDBLK
  5
1C
 67
     1
  8
0
  0
BLOCK
  8
0
  2
_DOTBLANK
 70
     0
 10
0.0
 20
0.0
 30
0.0
  3
_DOTBLANK
  1

  0
CIRCLE
  5
53E7
  8
0
  6
BYBLOCK
 62
     0
 10
0.0
 20
0.0
 30
0.0
 40
0.5
  0
LINE
  5
53E8
  8
0
  6
BYBLOCK
 62
     0
 10
-0.5
 20
0.0
 30
0.0
 11
-1.0
 21
0.0
 31
0.0
  0
ENDBLK
  5
53EA
  8
0
  0
ENDSEC
  0
SECTION
  2
ENTITIES
  0
LINE
  5
3A284
  8
NOTE
 10
-400.0
 20
800.0003450171389
 30
0.0
 11
-870.54560569404566
 21
1096.6731387162361
 31
0.0
  0
LINE
  5
3A285
  8
NOTE
 10
549.99938004440617
 20
1267.0
 30
0.0
 11
1226.155722677009
 21
1039.5703295830799
 31
0.0
  0
TEXT
  5
3A286
  8
NOTE
 10
1263.7345816985689
 20
1063.3301462997219
 30
0.0
 40
50.0
  1
BR JIS10K-150A
 50
0.0000000000006247
 41
0.9
  0
LINE
  5
3A28D
  8
BASIS
 10
0.0
 20
-2201.3416467169009
 30
0.0
 11
0.0
 21
2085.9267509641941
 31
0.0
  0
LINE
  5
3A28E
  8
DETAIL
 10
-775.00000000000182
 20
-1922.0
 30
0.0
 11
-775.00000000000182
 21
1922.0
 31
0.0
  0
LINE
  5
3A28F
  8
DETAIL
 10
679.99999999999625
 20
-1922.0
 30
0.0
 11
679.99999999999625
 21
1922.0
 31
0.0
  0
TEXT
  5
3A290
  8
NOTE
 10
723.65368280660914
 20
-2398.697607959074
 30
0.0
 40
50.0
  1
CD JIS10K-150A
 50
0.0000000000006247
 41
0.9
  0
LINE
  5
3A291
  8
NOTE
 10
717.21653688659717
 20
-2545.9519442421579
 30
0.0
 11
1330.413866249517
 21
-2545.9519442421552
 31
0.0
  0
LINE
  5
3A292
  8
NOTE
 10
705.88139332964056
 20
-2417.4810155778318
 30
0.0
 11
1305.1875381742061
 21
-2417.4810155778291
 31
0.0
  0
TEXT
  5
3A293
  8
NOTE
 10
725.40947130602581
 20
-2529.578212123175
 30
0.0
 40
50.0
  1
CDR JIS10K-150A
 50
0.0000000000006247
 41
0.9
  0
LINE
  5
3A294
  8
NOTE
 10
550.0
 20
-1267.0
 30
0.0
 11
1226.6994499351849
 21
-1494.6123481602749
 31
0.0
  0
LINE
  5
3A296
  8
NOTE
 10
550.00013589151774
 20
-1267.000203257837
 30
0.0
 11
590.11399447915755
 21
-1293.642410206503
 31
0.0
  0
LINE
  5
3A29A
  8
NOTE
 10
550.0
 20
-1320.9996549828611
 30
0.0
 11
550.0
 21
-1212.9996549828611
 31
0.0
  0
LINE
  5
3A29B
  8
BASIS
 10
550.0
 20
-1347.493447554283
 30
0.0
 11
550.0
 21
-1186.506552445717
 31
0.0
  0
LINE
  5
3A29F
  8
DETAIL
 10
-775.00000000000182
 20
-1922.0
 30
0.0
 11
679.99999999999625
 21
-1922.0
 31
0.0
  0
LINE
  5
3A2A0
  8
NOTE
 10
-0.0002951493879664
 20
-1909.9972855885169
 30
0.0
 11
717.21653688659717
 21
-2545.9519442421579
 31
0.0
  0
LINE
  5
3A2A3
  8
NOTE
 10
-0.0000445366022177
 20
-1784.9997595904781
 30
0.0
 11
705.88139332964056
 21
-2417.4810155778318
 31
0.0
  0
LINE
  5
3A2A4
  8
NOTE
 10
0.0
 20
-1963.9996549828611
 30
0.0
 11
0.0
 21
-1855.9996549828611
 31
0.0
  0
LINE
  5
3A2A5
  8
NOTE
 10
0.0001281282966374
 20
-1909.9974538022921
 30
0.0
 11
43.072144320030922
 21
-1931.5318510091711
 31
0.0
  0
LINE
  5
3A2A6
  8
NOTE
 10
-0.0002493650099495
 20
-1909.9975257635469
 30
0.0
 11
26.534012245814662
 21
-1950.182868895746
 31
0.0
  0
LINE
  5
3A2A7
  8
NOTE
 10
54.0
 20
-1909.9996549828611
 30
0.0
 11
-54.0
 21
-1909.9996549828611
 31
0.0
  0
LINE
  5
3A2A8
  8
BASIS
 10
-74.265568769013043
 20
-1910.0
 30
0.0
 11
74.265568769013043
 21
-1910.0
 31
0.0
  0
LINE
  5
3A2A9
  8
NOTE
 10
0.0003778618920478
 20
-1784.999929999929
 30
0.0
 11
42.959992040552599
 21
-1806.7576962341841
 31
0.0
  0
LINE
  5
3A2AA
  8
NOTE
 10
0.0
 20
-1785.0
 30
0.0
 11
26.325234098374491
 21
-1825.322585377809
 31
0.0
  0
LINE
  5
3A2AB
  8
NOTE
 10
54.0
 20
-1784.9996549828611
 30
0.0
 11
-54.0
 21
-1784.9996549828611
 31
0.0
  0
LINE
  5
3A2AC
  8
BASIS
 10
-68.940388054121286
 20
-1785.0
 30
0.0
 11
68.940388054121286
 21
-1785.0
 31
0.0
  0
LINE
  5
3A2AD
  8
NOTE
 10
0.0
 20
-1838.9996549828611
 30
0.0
 11
0.0
 21
-1730.9996549828611
 31
0.0
  0
LINE
  5
3A2AE
  8
BASIS
 10
-929.19097110844086
 20
0.0
 30
0.0
 11
859.62974186096483
 21
0.0
 31
0.0
  0
LINE
  5
3A2B1
  8
NOTE
 10
-400.0
 20
-853.9996549828611
 30
0.0
 11
-400.0
 21
-745.9996549828611
 31
0.0
  0
CIRCLE
  5
3A2B2
  8
FIX
 10
-400.0
 20
-800.0
 30
0.0
 40
8.0
  0
LINE
  5
3A2B3
  8
NOTE
 10
-346.0
 20
-799.9996549828611
 30
0.0
 11
-454.0
 21
-799.9996549828611
 31
0.0
  0
LINE
  5
3A2B4
  8
BASIS
 10
-400.0
 20
-909.64452778162376
 30
0.0
 11
-400.0
 21
-690.35547221837624
 31
0.0
  0
LINE
  5
3A2B5
  8
BASIS
 10
-487.7133923387737
 20
-800.0
 30
0.0
 11
-312.28660766122618
 21
-800.0
 31
0.0
  0
LINE
  5
3A2B6
  8
NOTE
 10
-400.0004449531807
 20
800.00044236460963
 30
0.0
 11
-445.99443672219058
 21
814.26513875242006
 31
0.0
  0
LINE
  5
3A2B7
  8
NOTE
 10
-400.00008412578973
 20
800.00057458869549
 30
0.0
 11
-432.69970122530498
 21
835.35115992232011
 31
0.0
  0
LINE
  5
3A2B8
  8
NOTE
 10
-400.0
 20
746.0
 30
0.0
 11
-400.0
 21
854.0
 31
0.0
  0
CIRCLE
  5
3A2B9
  8
FIX
 10
-400.0
 20
799.9996549828611
 30
0.0
 40
8.0
  0
LINE
  5
3A2BA
  8
NOTE
 10
-346.0
 20
800.0
 30
0.0
 11
-454.0
 21
800.0
 31
0.0
  0
LINE
  5
3A2BB
  8
BASIS
 10
-509.27238031386509
 20
800.0
 30
0.0
 11
-290.7276196861348
 21
800.0
 31
0.0
  0
LINE
  5
3A2BC
  8
BASIS
 10
-400.0
 20
670.30895173059253
 30
0.0
 11
-400.0
 21
929.69104826940747
 31
0.0
  0
LINE
  5
3A2BD
  8
BASIS
 10
295.37037924400641
 20
-800.0
 30
0.0
 11
504.62962075599353
 21
-800.0
 31
0.0
  0
LINE
  5
3A2BE
  8
NOTE
 10
550.00045536051027
 20
-1266.9999896713559
 30
0.0
 11
598.06117941554839
 21
-1270.0158884079769
 31
0.0
  0
LINE
  5
3A2BF
  8
NOTE
 10
604.0
 20
-1266.9996549828611
 30
0.0
 11
496.0
 21
-1266.9996549828611
 31
0.0
  0
LINE
  5
3A2C0
  8
BASIS
 10
467.16631521392259
 20
-1267.0
 30
0.0
 11
632.83368478607736
 21
-1267.0
 31
0.0
  0
LINE
  5
3A2C1
  8
NOTE
 10
400.0
 20
-853.9996549828611
 30
0.0
 11
400.0
 21
-745.9996549828611
 31
0.0
  0
CIRCLE
  5
3A2C2
  8
FIX
 10
400.0
 20
-800.0
 30
0.0
 40
8.0
  0
LINE
  5
3A2C3
  8
NOTE
 10
454.0
 20
-799.9996549828611
 30
0.0
 11
346.0
 21
-799.9996549828611
 31
0.0
  0
LINE
  5
3A2C4
  8
BASIS
 10
400.0
 20
-887.06359959008103
 30
0.0
 11
400.0
 21
-712.93640040991875
 31
0.0
  0
LINE
  5
3A2C5
  8
BASIS
 10
283.575452413439
 20
800.0
 30
0.0
 11
516.42454758656095
 21
800.0
 31
0.0
  0
POINT
  5
3A2C6
  8
ARRANGE
  6
CONTINUOUS
 10
0.0
 20
0.0
 30
0.0
  0
LINE
  5
3A2C7
  8
NOTE
 10
400.0
 20
746.0
 30
0.0
 11
400.0
 21
854.0
 31
0.0
  0
CIRCLE
  5
3A2C8
  8
FIX
 10
400.0
 20
799.9996549828611
 30
0.0
 40
8.0
  0
LINE
  5
3A2C9
  8
NOTE
 10
454.0
 20
800.0
 30
0.0
 11
346.0
 21
800.0
 31
0.0
  0
LINE
  5
3A2CA
  8
BASIS
 10
400.0
 20
676.36354466633929
 30
0.0
 11
400.0
 21
923.63645533366059
 31
0.0
  0
LINE
  5
3A2CB
  8
NOTE
 10
1226.6994499351849
 20
-1494.6123481602749
 30
0.0
 11
1790.1843684939299
 21
-1494.612348160271
 31
0.0
  0
TEXT
  5
3A2CC
  8
NOTE
 10
1291.476598050489
 20
-1470.8525314436331
 30
0.0
 40
50.0
  1
B JIS10K-150A
 50
0.0000000000006247
 41
0.9
  0
LINE
  5
3A2CD
  8
NOTE
 10
1226.155722677009
 20
1039.5703295830799
 30
0.0
 11
1842.0045811578891
 21
1039.570329583084
 31
0.0
  0
LINE
  5
3A2D3
  8
DETAIL
 10
-775.00000000000182
 20
1922.0
 30
0.0
 11
679.99999999999625
 21
1922.0
 31
0.0
  0
TEXT
  5
3A2D4
  8
NOTE
 10
-1244.5472776608869
 20
1112.1491834794169
 30
0.0
 40
50.0
  1
AH 4-%%c28
 50
0.0000000000006247
 41
0.9
  0
LINE
  5
3A2D5
  8
NOTE
 10
-1265.1665655840879
 20
1096.673138716232
 30
0.0
 11
-870.54560569404566
 21
1096.6731387162361
 31
0.0
  0
LINE
  5
3A2D6
  8
NOTE
 10
549.99983540491655
 20
1267.0000103286441
 30
0.0
 11
598.06055945995467
 21
1263.984111592024
 31
0.0
  0
LINE
  5
3A2D7
  8
NOTE
 10
604.0
 20
1267.0
 30
0.0
 11
496.0
 21
1267.0
 31
0.0
  0
LINE
  5
3A2D8
  8
BASIS
 10
456.48056189794443
 20
1267.0
 30
0.0
 11
643.51943810205546
 21
1267.0
 31
0.0
  0
LINE
  5
3A2D9
  8
NOTE
 10
549.99951593593141
 20
1266.9997967421621
 30
0.0
 11
590.11337452356383
 21
1240.357589793497
 31
0.0
  0
LINE
  5
3A2DA
  8
NOTE
 10
550.0
 20
1213.0
 30
0.0
 11
550.0
 21
1321.0
 31
0.0
  0
LINE
  5
3A2DB
  8
BASIS
 10
550.0
 20
1194.173286460587
 30
0.0
 11
550.0
 21
1339.8267135394119
 31
0.0
  0
TEXT
  5
3A2DD
  8
ETC
  6
CONTINUOUS
 10
2075.5158989514312
 20
2663.5869583574081
 30
0.0
 40
64.0
  1
CBCL3556
 41
0.9
  0
LINE
  5
3A773
  8
SIZE
 10
-780.0
 20
1922.0
 30
0.0
 11
-1508.3002375267631
 21
1922.0
 31
0.0
  0
LINE
  5
3A774
  8
SIZE
 10
-780.00000000000182
 20
-1922.000000000002
 30
0.0
 11
-1508.300237526764
 21
-1922.000000000002
 31
0.0
  0
LINE
  5
3A775
  8
SIZE
 10
-1488.3002375267631
 20
1910.0
 30
0.0
 11
-1488.300237526764
 21
-1910.0000000000009
 31
0.0
  0
LINE
  5
3A779
  8
SIZE
 10
609.0
 20
-1266.9996549828611
 30
0.0
 11
1115.5222659507449
 21
-1266.9996549828611
 31
0.0
  0
LINE
  5
3A77A
  8
SIZE
 10
648.51943810205546
 20
1267.0
 30
0.0
 11
1115.5222659507449
 21
1267.0
 31
0.0
  0
LINE
  5
3A77B
  8
SIZE
 10
1095.522265950744
 20
-1254.9996549828611
 30
0.0
 11
1095.5222659507449
 21
1255.0
 31
0.0
  0
LINE
  5
3A77F
  8
SIZE
 10
-459.0
 20
-799.9996549828611
 30
0.0
 11
-1303.1396224033051
 21
-799.99965498286076
 31
0.0
  0
LINE
  5
3A780
  8
SIZE
 10
-514.27238031386514
 20
800.0
 30
0.0
 11
-1303.1396224033051
 21
800.00000000000011
 31
0.0
  0
LINE
  5
3A781
  8
SIZE
 10
-1283.1396224033051
 20
-787.99965498286076
 30
0.0
 11
-1283.1396224033051
 21
788.00000000000023
 31
0.0
  0
LINE
  5
3A785
  8
SIZE
 10
-459.0
 20
-799.9996549828611
 30
0.0
 11
-1117.8061158507439
 21
-799.99965498286087
 31
0.0
  0
LINE
  5
3A786
  8
SIZE
 10
-934.19097110844075
 20
0.0000000000000014
 30
0.0
 11
-1117.8061158507439
 21
0.0000000000000534
 31
0.0
  0
LINE
  5
3A787
  8
SIZE
 10
-1097.8061158507439
 20
-787.99965498286099
 30
0.0
 11
-1097.8061158507439
 21
-11.99999999999995
 31
0.0
  0
LINE
  5
3A78B
  8
SIZE
 10
509.62962075599353
 20
-800.0
 30
0.0
 11
927.7452161201544
 21
-800.00000000000011
 31
0.0
  0
LINE
  5
3A78C
  8
SIZE
 10
637.83368478607736
 20
-1267.0
 30
0.0
 11
927.7452161201544
 21
-1267.0
 31
0.0
  0
LINE
  5
3A78D
  8
SIZE
 10
907.74521612015451
 20
-812.0
 30
0.0
 11
907.74521612015451
 21
-1255.0
 31
0.0
  0
LINE
  5
3A791
  8
SIZE
 10
-459.0
 20
-799.9996549828611
 30
0.0
 11
-1307.1212779247389
 21
-799.99965498286076
 31
0.0
  0
LINE
  5
3A792
  8
SIZE
 10
-780.00000000000182
 20
-1922.000000000002
 30
0.0
 11
-1307.1212779247389
 21
-1922.000000000002
 31
0.0
  0
LINE
  5
3A793
  8
SIZE
 10
-1287.1212779247389
 20
-811.99965498286087
 30
0.0
 11
-1287.1212779247401
 21
-1910.0000000000009
 31
0.0
  0
LINE
  5
3A797
  8
SIZE
 10
-492.7133923387737
 20
-800.0
 30
0.0
 11
-1118.4573812161059
 21
-799.99999999999989
 31
0.0
  0
LINE
  5
3A798
  8
SIZE
 10
-73.940388054121286
 20
-1785.0
 30
0.0
 11
-1118.457381216107
 21
-1784.9999999999991
 31
0.0
  0
LINE
  5
3A799
  8
SIZE
 10
-1098.4573812161059
 20
-811.99999999999989
 30
0.0
 11
-1098.457381216107
 21
-1772.9999999999991
 31
0.0
  0
LINE
  5
3A79D
  8
SIZE
 10
-78.940388054121286
 20
-1785.0
 30
0.0
 11
-1117.9209003465321
 21
-1784.9999999999991
 31
0.0
  0
LINE
  5
3A79E
  8
SIZE
 10
-79.265568769013043
 20
-1910.0
 30
0.0
 11
-1117.9209003465321
 21
-1909.9999999999991
 31
0.0
  0
LINE
  5
3A79F
  8
SIZE
 10
-1097.920900346533
 20
-1796.9999999999991
 30
0.0
 11
-1097.920900346533
 21
-1897.9999999999991
 31
0.0
  0
LINE
  5
3A7A0
  8
SIZE
 10
-1097.920900346533
 20
-1909.9999999999991
 30
0.0
 11
-1097.920900346533
 21
-2049.142857142856
 31
0.0
  0
LINE
  5
3A7A4
  8
SIZE
 10
-775.00000000000182
 20
-1932.0000000000009
 30
0.0
 11
-775.00000000000193
 21
-3168.5048851848992
 31
0.0
  0
LINE
  5
3A7A5
  8
SIZE
 10
679.99999999999625
 20
-1927.0000000000291
 30
0.0
 11
679.99999999999625
 21
-3168.5048851848992
 31
0.0
  0
LINE
  5
3A7A6
  8
SIZE
 10
-763.00000000000193
 20
-3148.5048851848978
 30
0.0
 11
667.99999999999625
 21
-3148.5048851848978
 31
0.0
  0
LINE
  5
3A7AA
  8
SIZE
 10
-775.00000000000182
 20
-1927.0000000000009
 30
0.0
 11
-775.00000000000193
 21
-2946.1080407251138
 31
0.0
  0
LINE
  5
3A7AB
  8
SIZE
 10
-0.0000000000000003
 20
-1968.9996549828611
 30
0.0
 11
-0.0000000000000601
 21
-2946.1080407251138
 31
0.0
  0
LINE
  5
3A7AC
  8
SIZE
 10
-763.00000000000193
 20
-2926.1080407251138
 30
0.0
 11
-12.00000000000005
 21
-2926.1080407251138
 31
0.0
  0
LINE
  5
3A7B0
  8
SIZE
 10
-400.0
 20
-914.64452778162365
 30
0.0
 11
-400.0
 21
-2352.300620552996
 31
0.0
  0
LINE
  5
3A7B1
  8
SIZE
 10
400.0
 20
-892.06359959008114
 30
0.0
 11
399.99999999999989
 21
-2352.300620552996
 31
0.0
  0
LINE
  5
3A7B2
  8
SIZE
 10
-388.00000000000011
 20
-2332.300620552996
 30
0.0
 11
387.99999999999989
 21
-2332.300620552996
 31
0.0
  0
LINE
  5
3A7B6
  8
SIZE
 10
-0.0000000000000003
 20
-1973.9996549828611
 30
0.0
 11
-0.0000000000000598
 21
-2945.9336404630162
 31
0.0
  0
LINE
  5
3A7B7
  8
SIZE
 10
679.99999999999625
 20
-1927.0000000000291
 30
0.0
 11
679.99999999999625
 21
-2945.9336404630162
 31
0.0
  0
LINE
  5
3A7B8
  8
SIZE
 10
11.99999999999994
 20
-2925.9336404630162
 30
0.0
 11
667.99999999999625
 21
-2925.9336404630162
 31
0.0
  0
LINE
  5
3A7BC
  8
SIZE
 10
-0.0000000000000003
 20
-2206.3416467169009
 30
0.0
 11
-0.0000000000000241
 21
-2594.4486767801859
 31
0.0
  0
LINE
  5
3A7BD
  8
SIZE
 10
550.0
 20
-1325.9996549828611
 30
0.0
 11
549.99999999999989
 21
-2594.4486767801859
 31
0.0
  0
LINE
  5
3A7BE
  8
SIZE
 10
11.99999999999997
 20
-2574.4486767801859
 30
0.0
 11
537.99999999999989
 21
-2574.4486767801859
 31
0.0
  0
LINE
  5
3A7C2
  8
SIZE
 10
521.42454758656095
 20
800.0
 30
0.0
 11
930.80941556464313
 21
799.99999999999989
 31
0.0
  0
LINE
  5
3A7C3
  8
SIZE
 10
609.0
 20
1267.0
 30
0.0
 11
930.80941556464313
 21
1267.0
 31
0.0
  0
LINE
  5
3A7C4
  8
SIZE
 10
910.80941556464325
 20
811.99999999999989
 30
0.0
 11
910.80941556464325
 21
1255.0
 31
0.0
  0
LINE
  5
3A7C8
  8
SIZE
 10
-514.27238031386514
 20
800.0
 30
0.0
 11
-1302.28447790979
 21
800.00000000000011
 31
0.0
  0
LINE
  5
3A7C9
  8
SIZE
 10
-780.0
 20
1922.0
 30
0.0
 11
-1302.28447790979
 21
1922.0
 31
0.0
  0
LINE
  5
3A7CA
  8
SIZE
 10
-1282.28447790979
 20
812.00000000000023
 30
0.0
 11
-1282.28447790979
 21
1910.0
 31
0.0
  0
CIRCLE
  5
3A7CE
  8
SIZE
 10
-775.00000000000193
 20
-2926.1080407251138
 30
0.0
 40
6.0
  0
LINE
  5
3A7CF
  8
SIZE
 10
-769.00000000000193
 20
-2926.1080407251138
 30
0.0
 11
-763.00000000000193
 21
-2926.1080407251138
 31
0.0
  0
CIRCLE
  5
3A7D0
  8
SIZE
 10
-775.00000000000193
 20
-3148.5048851848978
 30
0.0
 40
6.0
  0
LINE
  5
3A7D1
  8
SIZE
 10
-769.00000000000193
 20
-3148.5048851848978
 30
0.0
 11
-763.00000000000193
 21
-3148.5048851848978
 31
0.0
  0
TEXT
  5
3A7D2
  8
SIZE
 10
-1297.1212779247389
 20
-1431.714113205717
 30
0.0
 40
50.0
  1
1122
 50
90.0
 41
0.9
  0
CIRCLE
  5
3A7D3
  8
SIZE
 10
-1488.300237526764
 20
-1922.000000000002
 30
0.0
 40
6.0
  0
LINE
  5
3A7D4
  8
SIZE
 10
-1488.300237526764
 20
-1916.0000000000009
 30
0.0
 11
-1488.300237526764
 21
-1910.0000000000009
 31
0.0
  0
CIRCLE
  5
3A7D5
  8
SIZE
 10
-1287.1212779247401
 20
-1922.000000000002
 30
0.0
 40
6.0
  0
LINE
  5
3A7D6
  8
SIZE
 10
-1287.1212779247401
 20
-1916.0000000000009
 30
0.0
 11
-1287.1212779247401
 21
-1910.0000000000009
 31
0.0
  0
TEXT
  5
3A7D7
  8
SIZE
 10
-1107.9209003465321
 20
-2039.1428571428571
 30
0.0
 40
50.0
  1
125
 50
90.0
 41
0.9
  0
CIRCLE
  5
3A7D8
  8
SIZE
 10
-1097.920900346533
 20
-1909.9999999999991
 30
0.0
 40
6.0
  0
LINE
  5
3A7D9
  8
SIZE
 10
-1097.920900346533
 20
-1903.9999999999991
 30
0.0
 11
-1097.920900346533
 21
-1897.9999999999991
 31
0.0
  0
CIRCLE
  5
3A7DA
  8
SIZE
 10
-1097.920900346533
 20
-1784.9999999999991
 30
0.0
 40
6.0
  0
LINE
  5
3A7DB
  8
SIZE
 10
-1097.920900346533
 20
-1790.9999999999991
 30
0.0
 11
-1097.920900346533
 21
-1796.9999999999991
 31
0.0
  0
CIRCLE
  5
3A7DC
  8
SIZE
 10
-1098.457381216107
 20
-1784.9999999999991
 30
0.0
 40
6.0
  0
LINE
  5
3A7DD
  8
SIZE
 10
-1098.457381216107
 20
-1778.9999999999991
 30
0.0
 11
-1098.457381216107
 21
-1772.9999999999991
 31
0.0
  0
TEXT
  5
3A7DE
  8
SIZE
 10
-1108.4573812161059
 20
-1350.3571428571429
 30
0.0
 40
50.0
  1
985
 50
90.0
 41
0.9
  0
CIRCLE
  5
3A7DF
  8
SIZE
 10
-1283.1396224033051
 20
-799.99965498286076
 30
0.0
 40
6.0
  0
LINE
  5
3A7E0
  8
SIZE
 10
-1283.1396224033051
 20
-793.99965498286087
 30
0.0
 11
-1283.1396224033051
 21
-787.99965498286076
 31
0.0
  0
CIRCLE
  5
3A7E1
  8
SIZE
 10
-1287.1212779247389
 20
-799.99965498286076
 30
0.0
 40
6.0
  0
LINE
  5
3A7E2
  8
SIZE
 10
-1287.1212779247389
 20
-805.99965498286087
 30
0.0
 11
-1287.1212779247389
 21
-811.99965498286087
 31
0.0
  0
CIRCLE
  5
3A7E3
  8
SIZE
 10
-1098.4573812161059
 20
-799.99999999999989
 30
0.0
 40
6.0
  0
LINE
  5
3A7E4
  8
SIZE
 10
-1098.4573812161059
 20
-805.99999999999977
 30
0.0
 11
-1098.4573812161059
 21
-811.99999999999989
 31
0.0
  0
CIRCLE
  5
3A7E5
  8
SIZE
 10
-1097.8061158507439
 20
-799.99965498286087
 30
0.0
 40
6.0
  0
LINE
  5
3A7E6
  8
SIZE
 10
-1097.8061158507439
 20
-793.99965498286099
 30
0.0
 11
-1097.8061158507439
 21
-787.99965498286099
 31
0.0
  0
TEXT
  5
3A7E7
  8
SIZE
 10
-57.857142857142982
 20
-2322.300620552996
 30
0.0
 40
50.0
  1
800
 41
0.9
  0
TEXT
  5
3A7E8
  8
SIZE
 10
-445.3571428571438
 20
-2916.1080407251129
 30
0.0
 40
50.0
  1
775
 41
0.9
  0
CIRCLE
  5
3A7E9
  8
SIZE
 10
-400.0
 20
-2332.300620552996
 30
0.0
 40
6.0
  0
LINE
  5
3A7EA
  8
SIZE
 10
-394.00000000000011
 20
-2332.300620552996
 30
0.0
 11
-388.00000000000011
 21
-2332.300620552996
 31
0.0
  0
TEXT
  5
3A7EB
  8
SIZE
 10
-122.5000000000028
 20
-3138.5048851848978
 30
0.0
 40
50.0
  1
1455
 41
0.9
  0
CIRCLE
  5
3A7EC
  8
SIZE
 10
-0.0000000000000586
 20
-2925.9336404630162
 30
0.0
 40
6.0
  0
LINE
  5
3A7ED
  8
SIZE
 10
5.9999999999999414
 20
-2925.9336404630162
 30
0.0
 11
11.99999999999994
 21
-2925.9336404630162
 31
0.0
  0
CIRCLE
  5
3A7EE
  8
SIZE
 10
-0.0000000000000589
 20
-2926.1080407251138
 30
0.0
 40
6.0
  0
LINE
  5
3A7EF
  8
SIZE
 10
-6.0000000000000577
 20
-2926.1080407251138
 30
0.0
 11
-12.00000000000005
 21
-2926.1080407251138
 31
0.0
  0
CIRCLE
  5
3A7F0
  8
SIZE
 10
-0.0000000000000228
 20
-2574.4486767801859
 30
0.0
 40
6.0
  0
LINE
  5
3A7F1
  8
SIZE
 10
5.999999999999976
 20
-2574.4486767801859
 30
0.0
 11
11.99999999999997
 21
-2574.4486767801859
 31
0.0
  0
TEXT
  5
3A7F2
  8
SIZE
 10
282.14285714285518
 20
-2915.9336404630149
 30
0.0
 40
50.0
  1
680
 41
0.9
  0
TEXT
  5
3A7F3
  8
SIZE
 10
217.14285714285711
 20
-2564.4486767801859
 30
0.0
 40
50.0
  1
550
 41
0.9
  0
CIRCLE
  5
3A7F4
  8
SIZE
 10
399.99999999999989
 20
-2332.300620552996
 30
0.0
 40
6.0
  0
LINE
  5
3A7F5
  8
SIZE
 10
393.99999999999989
 20
-2332.300620552996
 30
0.0
 11
387.99999999999989
 21
-2332.300620552996
 31
0.0
  0
CIRCLE
  5
3A7F6
  8
SIZE
 10
679.99999999999625
 20
-2925.9336404630162
 30
0.0
 40
6.0
  0
LINE
  5
3A7F7
  8
SIZE
 10
673.99999999999625
 20
-2925.9336404630162
 30
0.0
 11
667.99999999999625
 21
-2925.9336404630162
 31
0.0
  0
CIRCLE
  5
3A7F8
  8
SIZE
 10
679.99999999999625
 20
-3148.5048851848978
 30
0.0
 40
6.0
  0
LINE
  5
3A7F9
  8
SIZE
 10
673.99999999999625
 20
-3148.5048851848978
 30
0.0
 11
667.99999999999625
 21
-3148.5048851848978
 31
0.0
  0
CIRCLE
  5
3A7FA
  8
SIZE
 10
549.99999999999989
 20
-2574.4486767801859
 30
0.0
 40
6.0
  0
LINE
  5
3A7FB
  8
SIZE
 10
543.99999999999977
 20
-2574.4486767801859
 30
0.0
 11
537.99999999999989
 21
-2574.4486767801859
 31
0.0
  0
TEXT
  5
3A7FC
  8
SIZE
 10
897.74521612015451
 20
-1091.357142857142
 30
0.0
 40
50.0
  1
467
 50
90.0
 41
0.9
  0
CIRCLE
  5
3A7FD
  8
SIZE
 10
907.74521612015451
 20
-1267.0
 30
0.0
 40
6.0
  0
LINE
  5
3A7FE
  8
SIZE
 10
907.74521612015451
 20
-1261.0
 30
0.0
 11
907.74521612015451
 21
-1255.0
 31
0.0
  0
CIRCLE
  5
3A7FF
  8
SIZE
 10
907.74521612015451
 20
-800.00000000000011
 30
0.0
 40
6.0
  0
LINE
  5
3A800
  8
SIZE
 10
907.74521612015451
 20
-806.0
 30
0.0
 11
907.74521612015451
 21
-812.0
 31
0.0
  0
CIRCLE
  5
3A801
  8
SIZE
 10
1095.522265950744
 20
-1266.9996549828611
 30
0.0
 40
6.0
  0
LINE
  5
3A802
  8
SIZE
 10
1095.522265950744
 20
-1260.9996549828611
 30
0.0
 11
1095.522265950744
 21
-1254.9996549828611
 31
0.0
  0
TEXT
  5
3A803
  8
SIZE
 10
-1498.300237526764
 20
-80.35714285714387
 30
0.0
 40
50.0
  1
3844
 50
90.0
 41
0.9
  0
TEXT
  5
3A804
  8
SIZE
 10
-1107.8061158507439
 20
-457.8569703485735
 30
0.0
 40
50.0
  1
800
 50
90.0
 41
0.9
  0
TEXT
  5
3A805
  8
SIZE
 10
-1293.1396224033051
 20
-74.999827491430565
 30
0.0
 40
50.0
  1
1600
 50
90.0
 41
0.9
  0
CIRCLE
  5
3A806
  8
SIZE
 10
-1097.8061158507439
 20
0.0000000000000478
 30
0.0
 40
6.0
  0
LINE
  5
3A807
  8
SIZE
 10
-1097.8061158507439
 20
-5.999999999999952
 30
0.0
 11
-1097.8061158507439
 21
-11.99999999999995
 31
0.0
  0
CIRCLE
  5
3A808
  8
SIZE
 10
-1283.1396224033051
 20
800.00000000000011
 30
0.0
 40
6.0
  0
LINE
  5
3A809
  8
SIZE
 10
-1283.1396224033051
 20
794.00000000000023
 30
0.0
 11
-1283.1396224033051
 21
788.00000000000023
 31
0.0
  0
CIRCLE
  5
3A80A
  8
SIZE
 10
-1282.28447790979
 20
800.00000000000011
 30
0.0
 40
6.0
  0
LINE
  5
3A80B
  8
SIZE
 10
-1282.28447790979
 20
806.00000000000023
 30
0.0
 11
-1282.28447790979
 21
812.00000000000023
 31
0.0
  0
CIRCLE
  5
3A80C
  8
SIZE
 10
-1488.3002375267631
 20
1922.0
 30
0.0
 40
6.0
  0
LINE
  5
3A80D
  8
SIZE
 10
-1488.3002375267631
 20
1916.0
 30
0.0
 11
-1488.3002375267631
 21
1910.0
 31
0.0
  0
TEXT
  5
3A80E
  8
SIZE
 10
-1292.2844779097909
 20
1290.285714285714
 30
0.0
 40
50.0
  1
1122
 50
90.0
 41
0.9
  0
CIRCLE
  5
3A80F
  8
SIZE
 10
-1282.28447790979
 20
1922.0
 30
0.0
 40
6.0
  0
LINE
  5
3A810
  8
SIZE
 10
-1282.28447790979
 20
1916.0
 30
0.0
 11
-1282.28447790979
 21
1910.0
 31
0.0
  0
TEXT
  5
3A811
  8
SIZE
 10
1085.5222659507449
 20
-80.356970348573213
 30
0.0
 40
50.0
  1
2534
 50
90.0
 41
0.9
  0
TEXT
  5
3A812
  8
SIZE
 10
900.80941556464302
 20
975.64285714285734
 30
0.0
 40
50.0
  1
467
 50
90.0
 41
0.9
  0
CIRCLE
  5
3A813
  8
SIZE
 10
910.80941556464325
 20
799.99999999999989
 30
0.0
 40
6.0
  0
LINE
  5
3A814
  8
SIZE
 10
910.80941556464325
 20
805.99999999999977
 30
0.0
 11
910.80941556464325
 21
811.99999999999989
 31
0.0
  0
CIRCLE
  5
3A815
  8
SIZE
 10
910.80941556464325
 20
1267.0
 30
0.0
 40
6.0
  0
LINE
  5
3A816
  8
SIZE
 10
910.80941556464325
 20
1261.0
 30
0.0
 11
910.80941556464325
 21
1255.0
 31
0.0
  0
CIRCLE
  5
3A817
  8
SIZE
 10
1095.5222659507449
 20
1267.0
 30
0.0
 40
6.0
  0
LINE
  5
3A818
  8
SIZE
 10
1095.5222659507449
 20
1261.0
 30
0.0
 11
1095.5222659507449
 21
1255.0
 31
0.0
  0
LINE
  5
3A819
  8
OUTLINE
 10
-775.00000000000182
 20
-1922.0
 30
0.0
 11
-775.00000000000182
 21
1922.0
 31
0.0
  0
LINE
  5
3A81A
  8
OUTLINE
 10
679.99999999999625
 20
-1922.0
 30
0.0
 11
679.99999999999625
 21
1922.0
 31
0.0
  0
LINE
  5
3A81B
  8
OUTLINE
 10
-775.00000000000182
 20
-1922.0
 30
0.0
 11
679.99999999999625
 21
-1922.0
 31
0.0
  0
LINE
  5
3A81C
  8
OUTLINE
 10
-775.00000000000182
 20
1922.0
 30
0.0
 11
679.99999999999625
 21
1922.0
 31
0.0
  0
ENDSEC
  0
EOF
