  0
SECTION
  2
HEADER
  9
$ACADVER
  1
AC1009
  9
$INSBASE
 10
0.0
 20
0.0
 30
0.0
  9
$EXTMIN
 10
-1179.775912835029
 20
-466.69155004753691
 30
-0.0015258207003583
  9
$EXTMAX
 10
1329.817814678652
 20
2068.3644975217612
 30
0.0000000349246037
  9
$LIMMIN
 10
-1365.3773266512869
 20
-1115.2737105922861
  9
$LIMMAX
 10
1520.8720260035909
 20
2386.2293827308381
  9
$ORTHOMODE
 70
     1
  9
$REGENMODE
 70
     1
  9
$FILLMODE
 70
     1
  9
$QTEXTMODE
 70
     0
  9
$MIRRTEXT
 70
     0
  9
$DRAGMODE
 70
     2
  9
$LTSCALE
 40
20.0
  9
$OSMODE
 70
   119
  9
$ATTMODE
 70
     1
  9
$TEXTSIZE
 40
64.0
  9
$TRACEWID
 40
0.05
  9
$TEXTSTYLE
  7
STANDARD
  9
$CLAYER
  8
SIZE
  9
$CELTYPE
  6
BYLAYER
  9
$CECOLOR
 62
   256
  9
$DIMSCALE
 40
1.0
  9
$DIMASZ
 40
12.0
  9
$DIMEXO
 40
5.0
  9
$DIMDLI
 40
10.0
  9
$DIMRND
 40
0.0
  9
$DIMDLE
 40
0.0
  9
$DIMEXE
 40
20.0
  9
$DIMTP
 40
0.0
  9
$DIMTM
 40
0.0
  9
$DIMTXT
 40
50.0
  9
$DIMCEN
 40
0.0
  9
$DIMTSZ
 40
0.0
  9
$DIMTOL
 70
     0
  9
$DIMLIM
 70
     0
  9
$DIMTIH
 70
     0
  9
$DIMTOH
 70
     0
  9
$DIMSE1
 70
     0
  9
$DIMSE2
 70
     0
  9
$DIMTAD
 70
     1
  9
$DIMZIN
 70
     0
  9
$DIMBLK
  1
DOTBLANK
  9
$DIMASO
 70
     1
  9
$DIMSHO
 70
     0
  9
$DIMPOST
  1

  9
$DIMAPOST
  1

  9
$DIMALT
 70
     0
  9
$DIMALTD
 70
     2
  9
$DIMALTF
 40
25.399999999999999
  9
$DIMLFAC
 40
1.0
  9
$DIMTOFL
 70
     1
  9
$DIMTVP
 40
0.0
  9
$DIMTIX
 70
     0
  9
$DIMSOXD
 70
     0
  9
$DIMSAH
 70
     0
  9
$DIMBLK1
  1

  9
$DIMBLK2
  1

  9
$DIMSTYLE
  2
STANDARD
  9
$DIMCLRD
 70
     0
  9
$DIMCLRE
 70
     0
  9
$DIMCLRT
 70
     0
  9
$DIMTFAC
 40
1.0
  9
$DIMGAP
 40
10.0
  9
$LUNITS
 70
     2
  9
$LUPREC
 70
     4
  9
$SKETCHINC
 40
0.1
  9
$FILLETRAD
 40
10.0
  9
$AUNITS
 70
     1
  9
$AUPREC
 70
     3
  9
$MENU
  1
ACAD
  9
$ELEVATION
 40
0.0
  9
$PELEVATION
 40
0.0
  9
$THICKNESS
 40
0.0
  9
$LIMCHECK
 70
     0
  9
$BLIPMODE
 70
     0
  9
$CHAMFERA
 40
0.0
  9
$CHAMFERB
 40
0.0
  9
$SKPOLY
 70
     0
  9
$TDCREATE
 40
2449761.4936226849
  9
$TDUPDATE
 40
2453822.583622315
  9
$TDINDWG
 40
10.1272873958
  9
$TDUSRTIMER
 40
10.127281979199999
  9
$USRTIMER
 70
     1
  9
$ANGBASE
 50
0.0
  9
$ANGDIR
 70
     0
  9
$PDMODE
 70
    35
  9
$PDSIZE
 40
20.0
  9
$PLINEWID
 40
0.0
  9
$COORDS
 70
     0
  9
$SPLFRAME
 70
     0
  9
$SPLINETYPE
 70
     6
  9
$SPLINESEGS
 70
     8
  9
$ATTDIA
 70
     0
  9
$ATTREQ
 70
     1
  9
$HANDLING
 70
-16383
  9
$HANDSEED
  5
A2A05
  9
$SURFTAB1
 70
     6
  9
$SURFTAB2
 70
     6
  9
$SURFTYPE
 70
     6
  9
$SURFU
 70
     6
  9
$SURFV
 70
     6
  9
$UCSNAME
  2

  9
$UCSORG
 10
0.0
 20
0.0
 30
0.0
  9
$UCSXDIR
 10
1.0
 20
0.0
 30
0.0
  9
$UCSYDIR
 10
0.0
 20
1.0
 30
0.0
  9
$PUCSNAME
  2

  9
$PUCSORG
 10
0.0
 20
0.0
 30
0.0
  9
$PUCSXDIR
 10
1.0
 20
0.0
 30
0.0
  9
$PUCSYDIR
 10
0.0
 20
1.0
 30
0.0
  9
$USERI1
 70
     0
  9
$USERI2
 70
     0
  9
$USERI3
 70
     0
  9
$USERI4
 70
     0
  9
$USERI5
 70
     0
  9
$USERR1
 40
20.0
  9
$USERR2
 40
0.0
  9
$USERR3
 40
0.0
  9
$USERR4
 40
0.0
  9
$USERR5
 40
0.0
  9
$WORLDVIEW
 70
     1
  9
$SHADEDGE
 70
     3
  9
$SHADEDIF
 70
    70
  9
$TILEMODE
 70
     1
  9
$MAXACTVP
 70
    64
  9
$PLIMCHECK
 70
     0
  9
$PEXTMIN
 10
1.0000000000000000E+020
 20
1.0000000000000000E+020
 30
1.0000000000000000E+020
  9
$PEXTMAX
 10
-1.0000000000000000E+020
 20
-1.0000000000000000E+020
 30
-1.0000000000000000E+020
  9
$PLIMMIN
 10
0.0
 20
0.0
  9
$PLIMMAX
 10
12.0
 20
9.0
  9
$UNITMODE
 70
     0
  9
$VISRETAIN
 70
     1
  9
$PLINEGEN
 70
     0
  9
$PSLTSCALE
 70
     1
  0
ENDSEC
  0
SECTION
  2
TABLES
  0
TABLE
  2
VPORT
 70
     3
  0
VPORT
  2
*ACTIVE
 70
     0
 10
0.0
 20
0.0
 11
1.0
 21
1.0
 12
1534.14212934735
 22
632.16201890688853
 13
0.0
 23
0.0
 14
50.0
 24
50.0
 15
100.0
 25
100.0
 16
0.0
 26
0.0
 36
1.0
 17
0.0
 27
0.0
 37
0.0
 40
4960.4627378169162
 41
1.6278447121820609
 42
50.0
 43
0.0
 44
0.0
 50
0.0
 51
0.0
 71
     0
 72
  1000
 73
     1
 74
     0
 75
     0
 76
     0
 77
     0
 78
     0
  0
ENDTAB
  0
TABLE
  2
LTYPE
 70
     2
  0
LTYPE
  2
CONTINUOUS
 70
     0
  3
実線
 72
    65
 73
     0
 40
0.0
  0
LTYPE
  2
DASHDOT
 70
     0
  3
____ _ ____ _ ____ _ ____ _ ____ _ ____ _ ____
 72
    65
 73
     4
 40
5.5
 49
4.0
 49
-0.6
 49
0.3
 49
-0.6
  0
ENDTAB
  0
TABLE
  2
LAYER
 70
    10
  0
LAYER
  2
0
 70
     0
 62
     7
  6
CONTINUOUS
  0
LAYER
  2
SIZE
 70
     0
 62
    30
  6
CONTINUOUS
  0
LAYER
  2
DETAIL
 70
     0
 62
     5
  6
CONTINUOUS
  0
LAYER
  2
BASIS
 70
     0
 62
     6
  6
DASHDOT
  0
LAYER
  2
NOTE
 70
     0
 62
     4
  6
CONTINUOUS
  0
LAYER
  2
ARRANGE
 70
     0
 62
     1
  6
CONTINUOUS
  0
LAYER
  2
FIX
 70
     0
 62
    11
  6
CONTINUOUS
  0
LAYER
  2
ETC
 70
     0
 62
    61
  6
CONTINUOUS
  0
LAYER
  2
DEFPOINTS
 70
     0
 62
     7
  6
CONTINUOUS
  0
LAYER
  2
OUTLINE
 70
     0
 62
     3
  6
CONTINUOUS
  0
ENDTAB
  0
TABLE
  2
STYLE
 70
     1
  0
STYLE
  2
STANDARD
 70
     0
 40
0.0
 41
0.9
 50
0.0
 71
     0
 42
64.0
  3
SIMPLEX
  4
BIGFONT
  0
ENDTAB
  0
TABLE
  2
VIEW
 70
     1
  0
VIEW
  2
ALL
 70
     0
 40
6056.2300320000013
 10
0.0
 20
58.11501599999999
 41
8400.0
 11
0.0
 21
0.0
 31
1.0
 12
0.0
 22
0.0
 32
0.0
 42
50.0
 43
0.0
 44
0.0
 50
0.0
 71
     0
  0
ENDTAB
  0
TABLE
  2
UCS
 70
     0
  0
ENDTAB
  0
TABLE
  2
APPID
 70
     1
  0
APPID
  2
ACAD
 70
     0
  0
ENDTAB
  0
TABLE
  2
DIMSTYLE
 70
     1
  0
DIMSTYLE
  2
STANDARD
 70
     0
  3

  4

  5

  6

  7

 40
1.0
 41
0.18
 42
0.0625
 43
0.38
 44
0.18
 45
0.0
 46
0.0
 47
0.0
 48
0.0
140
0.18
141
0.09
142
0.0
143
25.399999999999999
144
1.0
145
0.0
146
1.0
147
0.09
 71
     0
 72
     0
 73
     1
 74
     1
 75
     0
 76
     0
 77
     0
 78
     0
170
     0
171
     2
172
     0
173
     0
174
     0
175
     0
176
     0
177
     0
178
     0
  0
ENDTAB
  0
ENDSEC
  0
SECTION
  2
BLOCKS
  0
BLOCK
  8
0
  2
$MODEL_SPACE
 70
     0
 10
0.0
 20
0.0
 30
0.0
  3
$MODEL_SPACE
  1

  0
ENDBLK
  5
20
  8
0
  0
BLOCK
 67
     1
  8
0
  2
$PAPER_SPACE
 70
     0
 10
0.0
 20
0.0
 30
0.0
  3
$PAPER_SPACE
  1

  0
ENDBLK
  5
1C
 67
     1
  8
0
  0
BLOCK
  8
0
  2
_DOTBLANK
 70
     0
 10
0.0
 20
0.0
 30
0.0
  3
_DOTBLANK
  1

  0
CIRCLE
  5
53E7
  8
0
  6
BYBLOCK
 62
     0
 10
0.0
 20
0.0
 30
0.0
 40
0.5
  0
LINE
  5
53E8
  8
0
  6
BYBLOCK
 62
     0
 10
-0.5
 20
0.0
 30
0.0
 11
-1.0
 21
0.0
 31
0.0
  0
ENDBLK
  5
53EA
  8
0
  0
ENDSEC
  0
SECTION
  2
ENTITIES
  0
LINE
  5
94EAD
  8
BASIS
 10
0.0
 20
1804.0752326141819
 30
0.0
 11
0.0
 21
-19.999999999994539
 31
0.0
  0
TEXT
  5
94F09
  8
ETC
  6
CONTINUOUS
 10
503.87104443767203
 20
2003.8184017807141
 30
0.0
 40
64.0
  1
CBCL4973
 41
0.9
  0
POINT
  5
94F24
  8
ARRANGE
  6
CONTINUOUS
 10
-0.0000406227718486
 20
0.000036503195588
 30
0.0
  0
CIRCLE
  5
94F25
  8
FIX
 10
-347.0
 20
0.0
 30
0.0
 40
8.0
  0
LINE
  5
94F26
  8
NOTE
 10
-293.0
 20
0.0003450171352597
 30
0.0
 11
-401.0
 21
0.0003450171352597
 31
0.0
  0
LINE
  5
94F27
  8
NOTE
 10
-347.0
 20
-53.99965498286474
 30
0.0
 11
-347.0
 21
54.00034501713526
 31
0.0
  0
CIRCLE
  5
94F28
  8
FIX
 10
347.0
 20
-0.0003450171352597
 30
0.0
 40
8.0
  0
LINE
  5
94F29
  8
NOTE
 10
401.0
 20
0.0
 30
0.0
 11
293.0
 21
0.0
 31
0.0
  0
LINE
  5
94F2A
  8
NOTE
 10
347.0
 20
-54.0
 30
0.0
 11
347.0
 21
54.0
 31
0.0
  0
LINE
  5
94F2B
  8
BASIS
 10
-169.27945488118519
 20
781.55000000000473
 30
0.0
 11
50.679454881186757
 21
781.55000000000473
 31
0.0
  0
LINE
  5
94F2C
  8
BASIS
 10
-59.299999999999272
 20
668.98855628770605
 30
0.0
 11
-59.299999999999272
 21
894.11144371230512
 31
0.0
  0
LINE
  5
94F2D
  8
NOTE
 10
-113.2999999999992
 20
781.55000000000473
 30
0.0
 11
-5.2999999999992724
 21
781.55000000000473
 31
0.0
  0
LINE
  5
94F2E
  8
NOTE
 10
-59.299999999999272
 20
727.55000000000473
 30
0.0
 11
-59.299999999999272
 21
835.55000000000473
 31
0.0
  0
LINE
  5
94F30
  8
BASIS
 10
299.70000000000073
 20
894.1114361292166
 30
0.0
 11
299.70000000000073
 21
668.98854870461764
 31
0.0
  0
LINE
  5
94F31
  8
NOTE
 10
245.7000000000007
 20
781.55033743405329
 30
0.0
 11
353.70000000000073
 21
781.55033743405329
 31
0.0
  0
LINE
  5
94F32
  8
BASIS
 10
412.26144371230112
 20
781.55000000000473
 30
0.0
 11
187.13855628770389
 21
781.55000000000473
 31
0.0
  0
LINE
  5
94F33
  8
NOTE
 10
299.70000000000073
 20
727.55033743405329
 30
0.0
 11
299.70000000000073
 21
835.55033743405318
 31
0.0
  0
LINE
  5
94F34
  8
BASIS
 10
53.261443712302928
 20
184.5500000000047
 30
0.0
 11
-171.86144371229599
 21
184.5500000000047
 31
0.0
  0
LINE
  5
94F35
  8
NOTE
 10
-59.299999999995627
 20
130.5500000000047
 30
0.0
 11
-59.299999999995627
 21
238.5500000000047
 31
0.0
  0
LINE
  5
94F36
  8
BASIS
 10
-59.299999999999272
 20
71.98855628770616
 30
0.0
 11
-59.299999999999272
 21
297.11144371230512
 31
0.0
  0
LINE
  5
94F37
  8
NOTE
 10
-113.29999999999561
 20
184.5500000000047
 30
0.0
 11
-5.2999999999956344
 21
184.5500000000047
 31
0.0
  0
LINE
  5
94F38
  8
NOTE
 10
299.70000000000073
 20
130.549992416918
 30
0.0
 11
299.70000000000073
 21
238.549992416918
 31
0.0
  0
LINE
  5
94F39
  8
BASIS
 10
299.70000000000073
 20
297.11143612921649
 30
0.0
 11
299.70000000000073
 21
71.988548704617642
 31
0.0
  0
LINE
  5
94F3A
  8
NOTE
 10
245.7000000000007
 20
184.549992416918
 30
0.0
 11
353.70000000000073
 21
184.549992416918
 31
0.0
  0
LINE
  5
94F3B
  8
BASIS
 10
412.26144371230112
 20
184.5500000000047
 30
0.0
 11
187.13855628770389
 21
184.5500000000047
 31
0.0
  0
LINE
  5
9516D
  8
NOTE
 10
-59.292767313367222
 20
184.5583206385254
 30
0.0
 11
-575.64394387371055
 21
404.50464179055598
 31
0.0
  0
LINE
  5
9516E
  8
NOTE
 10
-59.293297173304381
 20
781.55088129239084
 30
0.0
 11
-595.21813529533017
 21
556.45811514091838
 31
0.0
  0
LINE
  5
9516F
  8
NOTE
 10
-575.64394387371055
 20
404.50464179055598
 30
0.0
 11
-1179.4487530644581
 21
404.50464179056689
 31
0.0
  0
LINE
  5
95170
  8
NOTE
 10
-595.21813529533017
 20
556.45811514091838
 30
0.0
 11
-1161.0999928098261
 21
556.45811514092202
 31
0.0
  0
TEXT
  5
95171
  8
NOTE
 10
-1111.9099027769171
 20
575.70429216538457
 30
0.0
 40
50.0
  1
B JIS 10K-80A
 50
359.99999999999932
 41
0.9
  0
TEXT
  5
95172
  8
NOTE
 10
-1155.8195245042989
 20
422.16696184272757
 30
0.0
 40
50.0
  1
BR JIS 10K-80A
 50
359.99999999999932
 41
0.9
  0
LINE
  5
95173
  8
NOTE
 10
-59.293874971705009
 20
781.55095100654398
 30
0.0
 11
-107.2823376238666
 21
777.54641680560053
 31
0.0
  0
LINE
  5
95174
  8
NOTE
 10
-59.294075447223797
 20
781.55016591407355
 30
0.0
 11
-95.803904950154916
 21
750.15014694033562
 31
0.0
  0
LINE
  5
95176
  8
NOTE
 10
299.69998986599961
 20
781.5498748782029
 30
0.0
 11
702.09496124832003
 21
506.73377661511222
 31
0.0
  0
LINE
  5
95178
  8
NOTE
 10
299.70010019170871
 20
781.55019111032379
 30
0.0
 11
327.73444785964779
 21
742.39659366746673
 31
0.0
  0
LINE
  5
95179
  8
NOTE
 10
299.70023371759987
 20
781.54989267307417
 30
0.0
 11
345.37494704642808
 21
766.29376589681476
 31
0.0
  0
LINE
  5
9517A
  8
NOTE
 10
1298.789598621735
 20
364.24035433342391
 30
0.0
 11
708.07645406839765
 21
364.24035433342942
 31
0.0
  0
LINE
  5
9517B
  8
NOTE
 10
1329.5736736152121
 20
506.73377661510852
 30
0.0
 11
702.09496124832003
 21
506.73377661511222
 31
0.0
  0
TEXT
  5
9517C
  8
NOTE
 10
730.39280458466055
 20
525.97995363957853
 30
0.0
 40
50.0
  1
CDR JIS 10K-80A
 50
359.99999999999932
 41
0.9
  0
TEXT
  5
9517D
  8
NOTE
 10
730.91110551325983
 20
381.9026743855938
 30
0.0
 40
50.0
  1
CD JIS 10K-80A
 50
359.99999999999932
 41
0.9
  0
LINE
  5
9517E
  8
NOTE
 10
299.69999243308109
 20
184.54999192200739
 30
0.0
 11
708.07645406839765
 21
364.24035433342942
 31
0.0
  0
TEXT
  5
95183
  8
NOTE
 10
491.44227074081391
 20
-123.3291848024236
 30
0.0
 40
50.0
  1
AH 4-%%c24
 50
359.99999999999932
 41
0.9
  0
LINE
  5
95184
  8
NOTE
 10
848.46450040498894
 20
-139.32230364114
 30
0.0
 11
479.05574633988181
 21
-139.3223036411309
 31
0.0
  0
LINE
  5
95185
  8
NOTE
 10
346.99981782444229
 20
0.0004174589030299
 30
0.0
 11
479.05574633988181
 21
-139.3223036411309
 31
0.0
  0
LINE
  5
9518A
  8
NOTE
 10
-59.307314320300073
 20
184.54302568374979
 30
0.0
 11
-95.494890007392314
 21
216.31389611209491
 31
0.0
  0
LINE
  5
9518B
  8
NOTE
 10
-59.307512082814348
 20
184.5432860372475
 30
0.0
 11
-107.25262154743901
 21
189.03720640916251
 31
0.0
  0
LINE
  5
9518C
  8
NOTE
 10
347.0
 20
0.000000000005457
 30
0.0
 11
369.95268885403851
 21
-42.333236543559913
 31
0.0
  0
LINE
  5
9518D
  8
NOTE
 10
347.00005938725371
 20
0.0003796745659201
 30
0.0
 11
388.04428929179988
 21
-25.18493416955971
 31
0.0
  0
LINE
  5
9518E
  8
NOTE
 10
299.70078104710592
 20
184.55040575618659
 30
0.0
 11
333.92157685232269
 21
218.43057659905571
 31
0.0
  0
LINE
  5
9518F
  8
NOTE
 10
299.70044685781971
 20
184.55002287409471
 30
0.0
 11
347.29055613105987
 21
191.90599604191809
 31
0.0
  0
LINE
  5
99E6B
  8
BASIS
 10
347.0
 20
23.0
 30
0.0
 11
347.0
 21
-20.0
 31
0.0
  0
LINE
  5
99E6E
  8
BASIS
 10
-347.00067813873278
 20
23.000345017133441
 30
0.0
 11
-347.00067813873278
 21
-19.999654982866549
 31
0.0
  0
LINE
  5
9E138
  8
DETAIL
 10
2.000678138731018
 20
1164.999999999998
 30
0.0
 11
2.000678138731018
 21
567.49999999999989
 31
0.0
  0
LINE
  5
9E13B
  8
DETAIL
 10
-2.1993218612697092
 20
567.49999999999989
 30
0.0
 11
-2.1993218612697092
 21
1164.999999999998
 31
0.0
  0
CIRCLE
  5
A0BE3
  8
DETAIL
 10
-222.0
 20
968.30678499999885
 30
0.0
 40
10.0
  0
CIRCLE
  5
A0BE4
  8
DETAIL
 10
-222.0
 20
968.30678499999885
 30
0.0
 40
15.0
  0
LINE
  5
A0BE5
  8
DETAIL
 10
-205.0
 20
968.30678499999885
 30
0.0
 11
-205.0
 21
992.30678499999885
 31
0.0
  0
LINE
  5
A0BE6
  8
DETAIL
 10
-239.0
 20
992.30678499999885
 30
0.0
 11
-239.0
 21
968.30678499999885
 31
0.0
  0
CIRCLE
  5
A0BE7
  8
DETAIL
 10
-272.0
 20
968.30678499999885
 30
0.0
 40
10.0
  0
CIRCLE
  5
A0BE8
  8
DETAIL
 10
-272.0
 20
968.30678499999885
 30
0.0
 40
15.0
  0
LINE
  5
A0BE9
  8
DETAIL
 10
-255.0
 20
968.30678499999885
 30
0.0
 11
-255.0
 21
992.30678499999885
 31
0.0
  0
LINE
  5
A0BEA
  8
DETAIL
 10
-289.0
 20
992.30678499999885
 30
0.0
 11
-289.0
 21
968.30678499999885
 31
0.0
  0
LINE
  5
A0BEB
  8
DETAIL
 10
400.0
 20
1747.999999999998
 30
0.0
 11
400.0
 21
550.0
 31
0.0
  0
LINE
  5
A0BEC
  8
DETAIL
 10
-400.0
 20
1747.999999999998
 30
0.0
 11
-400.0
 21
550.0
 31
0.0
  0
LINE
  5
A0BED
  8
DETAIL
 10
2.0
 20
1164.999999999998
 30
0.0
 11
2.0
 21
567.49999999999989
 31
0.0
  0
LINE
  5
A0BEE
  8
DETAIL
 10
397.0
 20
567.49999999999989
 30
0.0
 11
397.0
 21
1164.999999999998
 31
0.0
  0
LINE
  5
A0BEF
  8
DETAIL
 10
-397.20000000000073
 20
1164.999999999998
 30
0.0
 11
-397.20000000000073
 21
567.49999999999989
 31
0.0
  0
LINE
  5
A0BF0
  8
DETAIL
 10
-2.2000000000007272
 20
567.49999999999989
 30
0.0
 11
-2.2000000000007272
 21
1164.999999999998
 31
0.0
  0
LINE
  5
A0BF8
  8
DETAIL
 10
25.800000000001091
 20
116.5
 30
0.0
 11
50.800000000001091
 21
116.5
 31
0.0
  0
LINE
  5
A0BF9
  8
DETAIL
 10
397.0
 20
3.0
 30
0.0
 11
-397.0
 21
3.0
 31
0.0
  0
LINE
  5
A0BFA
  8
DETAIL
 10
297.0
 20
80.0
 30
0.0
 11
-297.0
 21
80.0
 31
0.0
  0
LINE
  5
A0BFB
  8
DETAIL
 10
-397.0
 20
0.0
 30
0.0
 11
397.0
 21
0.0
 31
0.0
  0
LINE
  5
A0BFC
  8
DETAIL
 10
297.0
 20
347.20000000000073
 30
0.0
 11
-297.0
 21
347.20000000000073
 31
0.0
  0
LINE
  5
A0BFD
  8
DETAIL
 10
297.0
 20
377.20000000000073
 30
0.0
 11
-297.0
 21
377.20000000000073
 31
0.0
  0
LINE
  5
A0BFE
  8
DETAIL
 10
297.0
 20
380.20000000000073
 30
0.0
 11
-297.0
 21
380.20000000000073
 31
0.0
  0
LINE
  5
A0BFF
  8
DETAIL
 10
-297.0
 20
83.0
 30
0.0
 11
297.00000000000182
 21
83.0
 31
0.0
  0
LINE
  5
A0C00
  8
DETAIL
 10
2.0
 20
567.49999999999989
 30
0.0
 11
397.0
 21
567.49999999999989
 31
0.0
  0
LINE
  5
A0C01
  8
DETAIL
 10
-112.5945287076938
 20
430.20000000000073
 30
0.0
 11
297.0
 21
430.20000000000073
 31
0.0
  0
LINE
  5
A0C02
  8
DETAIL
 10
-109.8999999999978
 20
433.20000000000061
 30
0.0
 11
297.0
 21
433.20000000000061
 31
0.0
  0
LINE
  5
A0C03
  8
DETAIL
 10
400.0
 20
550.0
 30
0.0
 11
-400.0
 21
550.0
 31
0.0
  0
LINE
  5
A0C04
  8
DETAIL
 10
-42.099999999998538
 20
463.20000000000073
 30
0.0
 11
297.0
 21
463.20000000000073
 31
0.0
  0
LINE
  5
A0C05
  8
DETAIL
 10
400.0
 20
3.0
 30
0.0
 11
400.0
 21
83.0
 31
0.0
  0
LINE
  5
A0C06
  8
DETAIL
 10
397.0
 20
550.0
 30
0.0
 11
397.0
 21
0.0
 31
0.0
  0
ARC
  5
A0C07
  8
DETAIL
 10
397.00000000000182
 20
3.0
 30
0.0
 40
2.9999999999988631
 50
270.0
 51
0.000000000000007
  0
LINE
  5
A0C09
  8
DETAIL
 10
300.0
 20
80.0
 30
0.0
 11
300.0
 21
550.0
 31
0.0
  0
LINE
  5
A0C0A
  8
DETAIL
 10
274.80000000000467
 20
550.0
 30
0.0
 11
274.80000000000467
 21
463.20000000000073
 31
0.0
  0
LINE
  5
A0C0B
  8
DETAIL
 10
50.800000000001091
 20
550.0
 30
0.0
 11
50.800000000001091
 21
463.20000000000073
 31
0.0
  0
LINE
  5
A0C0C
  8
DETAIL
 10
297.0
 20
550.0
 30
0.0
 11
297.0
 21
80.0
 31
0.0
  0
LINE
  5
A0C0D
  8
DETAIL
 10
347.0
 20
350.0
 30
0.0
 11
347.0
 21
550.0
 31
0.0
  0
LINE
  5
A0C0E
  8
DETAIL
 10
394.0
 20
349.99999999999812
 30
0.0
 11
394.0
 21
547.0
 31
0.0
  0
LINE
  5
A0C0F
  8
DETAIL
 10
397.0
 20
80.0
 30
0.0
 11
297.0
 21
80.0
 31
0.0
  0
LINE
  5
A0C10
  8
DETAIL
 10
397.0
 20
350.0
 30
0.0
 11
347.0
 21
350.0
 31
0.0
  0
LINE
  5
A0C11
  8
DETAIL
 10
394.0
 20
350.0
 30
0.0
 11
394.0
 21
83.0
 31
0.0
  0
LINE
  5
A0C12
  8
DETAIL
 10
400.0
 20
83.0
 30
0.0
 11
397.0
 21
83.0
 31
0.0
  0
LINE
  5
A0C13
  8
DETAIL
 10
274.80000000000467
 20
83.0
 30
0.0
 11
274.80000000000467
 21
347.20000000000073
 31
0.0
  0
LINE
  5
A0C14
  8
DETAIL
 10
50.800000000001091
 20
83.0
 30
0.0
 11
50.800000000001091
 21
347.20000000000073
 31
0.0
  0
CIRCLE
  5
A0C15
  8
DETAIL
 10
289.8000000000028
 20
405.0
 30
0.0
 40
5.0
  0
LINE
  5
A0C16
  8
DETAIL
 10
347.0
 20
547.0
 30
0.0
 11
394.0
 21
547.0
 31
0.0
  0
LINE
  5
A0C1A
  8
DETAIL
 10
-400.0
 20
3.0
 30
0.0
 11
-400.0
 21
83.0
 31
0.0
  0
LINE
  5
A0C1B
  8
DETAIL
 10
-397.0
 20
550.0
 30
0.0
 11
-397.0
 21
0.0
 31
0.0
  0
ARC
  5
A0C1D
  8
DETAIL
 10
-396.99999999999812
 20
3.0
 30
0.0
 40
3.000000000001136
 50
180.0
 51
270.0
  0
LINE
  5
A0C1E
  8
DETAIL
 10
-67.099999999998545
 20
437.0
 30
0.0
 11
-67.099999999998545
 21
547.0
 31
0.0
  0
LINE
  5
A0C1F
  8
DETAIL
 10
-269.39999999999782
 20
457.0
 30
0.0
 11
-269.39999999999782
 21
547.0
 31
0.0
  0
LINE
  5
A0C20
  8
DETAIL
 10
-69.399999999997803
 20
457.0
 30
0.0
 11
-69.399999999997803
 21
547.0
 31
0.0
  0
CIRCLE
  5
A0C21
  8
DETAIL
 10
-219.39999999999779
 20
492.0
 30
0.0
 40
30.0
  0
CIRCLE
  5
A0C22
  8
DETAIL
 10
-219.39999999999779
 20
492.0
 30
0.0
 40
32.5
  0
CIRCLE
  5
A0C23
  8
DETAIL
 10
-219.39999999999779
 20
492.0
 30
0.0
 40
40.0
  0
CIRCLE
  5
A0C24
  8
DETAIL
 10
-119.3999999999978
 20
491.0
 30
0.0
 40
30.0
  0
CIRCLE
  5
A0C25
  8
DETAIL
 10
-119.3999999999978
 20
491.0
 30
0.0
 40
32.5
  0
CIRCLE
  5
A0C26
  8
DETAIL
 10
-119.3999999999978
 20
491.0
 30
0.0
 40
40.0
  0
LINE
  5
A0C27
  8
DETAIL
 10
-271.70000000000073
 20
457.0
 30
0.0
 11
-271.70000000000073
 21
547.0
 31
0.0
  0
LINE
  5
A0C28
  8
DETAIL
 10
-391.70000000000073
 20
457.0
 30
0.0
 11
-391.70000000000073
 21
546.99999999999807
 31
0.0
  0
LINE
  5
A0C29
  8
DETAIL
 10
-302.70000000000073
 20
525.375
 30
0.0
 11
-302.70000000000073
 21
468.625
 31
0.0
  0
LINE
  5
A0C2A
  8
DETAIL
 10
-280.20000000000073
 20
513.50000000000182
 30
0.0
 11
-280.20000000000073
 21
500.49999999999989
 31
0.0
  0
LINE
  5
A0C2B
  8
DETAIL
 10
-300.70000000000073
 20
527.0
 30
0.0
 11
-300.70000000000073
 21
467.0
 31
0.0
  0
LINE
  5
A0C2C
  8
DETAIL
 10
-376.20000000000073
 20
525.39999999999964
 30
0.0
 11
-376.20000000000073
 21
467.20000000000073
 31
0.0
  0
LINE
  5
A0C2D
  8
DETAIL
 10
-317.20000000000073
 20
525.39999999999964
 30
0.0
 11
-317.20000000000073
 21
467.20000000000073
 31
0.0
  0
LINE
  5
A0C2E
  8
DETAIL
 10
30.799999999999269
 20
550.0
 30
0.0
 11
30.799999999999269
 21
463.20000000000073
 31
0.0
  0
LINE
  5
A0C2F
  8
DETAIL
 10
-394.0
 20
349.99999999999812
 30
0.0
 11
-394.0
 21
546.99999999999807
 31
0.0
  0
LINE
  5
A0C30
  8
DETAIL
 10
-354.0
 20
394.60000000000031
 30
0.0
 11
-234.89999999999779
 21
394.60000000000031
 31
0.0
  0
LINE
  5
A0C31
  8
DETAIL
 10
-354.0
 20
388.19999999999891
 30
0.0
 11
-134.89999999999779
 21
388.19999999999891
 31
0.0
  0
LINE
  5
A0C32
  8
DETAIL
 10
-297.0
 20
93.136868637375301
 30
0.0
 11
-250.98607613997771
 21
98.888609119887406
 31
0.0
  0
ARC
  5
A0C33
  8
DETAIL
 10
-250.0000000000436
 20
90.999999999947249
 30
0.0
 40
38.000000000074138
 50
347.84680253106791
 51
175.0489252567325
  0
LINE
  5
A0C34
  8
DETAIL
 10
-279.20000000000073
 20
380.79999999999922
 30
0.0
 11
-310.20000000000073
 21
380.79999999999922
 31
0.0
  0
LINE
  5
A0C35
  8
DETAIL
 10
-280.20000000000073
 20
500.49999999999989
 30
0.0
 11
-291.70000000000073
 21
500.49999999999989
 31
0.0
  0
LINE
  5
A0C36
  8
DETAIL
 10
-280.20000000000073
 20
493.5
 30
0.0
 11
-291.70000000000073
 21
493.5
 31
0.0
  0
LINE
  5
A0C37
  8
DETAIL
 10
-280.20000000000073
 20
473.5
 30
0.0
 11
-291.70000000000073
 21
473.5
 31
0.0
  0
LINE
  5
A0C38
  8
DETAIL
 10
-280.20000000000073
 20
480.49999999999989
 30
0.0
 11
-291.70000000000073
 21
480.49999999999989
 31
0.0
  0
LINE
  5
A0C39
  8
DETAIL
 10
-280.20000000000073
 20
467.0
 30
0.0
 11
-302.70000000000073
 21
467.0
 31
0.0
  0
LINE
  5
A0C3A
  8
DETAIL
 10
-226.2054712923017
 20
430.20000000000073
 30
0.0
 11
-297.0
 21
430.20000000000073
 31
0.0
  0
LINE
  5
A0C3B
  8
DETAIL
 10
-228.89999999999779
 20
433.20000000000061
 30
0.0
 11
-297.0
 21
433.20000000000061
 31
0.0
  0
LINE
  5
A0C3C
  8
DETAIL
 10
-349.92463718784518
 20
457.0
 30
0.0
 11
-238.7649167310355
 21
457.0
 31
0.0
  0
LINE
  5
A0C3D
  8
DETAIL
 10
-39.89999999999781
 20
290.61111465125032
 30
0.0
 11
-39.89999999999781
 21
261.20000000000073
 31
0.0
  0
LINE
  5
A0C3E
  8
DETAIL
 10
30.799999999999269
 20
83.0
 30
0.0
 11
30.799999999999269
 21
347.20000000000073
 31
0.0
  0
LINE
  5
A0C3F
  8
DETAIL
 10
-44.665297653975351
 20
284.79170452517241
 30
0.0
 11
-127.09170452517709
 21
202.36529765397239
 31
0.0
  0
LINE
  5
A0C40
  8
DETAIL
 10
-55.908295474842816
 20
296.0347023460381
 30
0.0
 11
-138.33470234604459
 21
213.60829547483621
 31
0.0
  0
ARC
  5
A0C41
  8
DETAIL
 10
-111.5000000000145
 20
128.99999999998721
 30
0.0
 40
37.949999999989593
 50
180.0
 51
269.99999999739441
  0
ARC
  5
A0C42
  8
DETAIL
 10
-111.5000000000236
 20
129.19999999998791
 30
0.0
 40
37.949999999990503
 50
180.0
 51
269.99351000360588
  0
ARC
  5
A0C43
  8
DETAIL
 10
-111.50000000002539
 20
129.19999999998609
 30
0.0
 40
22.049999999988358
 50
180.0
 51
269.99999987467493
  0
LINE
  5
A0C44
  8
DETAIL
 10
-68.5
 20
179.2000000000007
 30
0.0
 11
-68.5
 21
159.2000000000007
 31
0.0
  0
LINE
  5
A0C45
  8
DETAIL
 10
-39.89999999999781
 20
179.2000000000007
 30
0.0
 11
-39.89999999999781
 21
159.2000000000007
 31
0.0
  0
ARC
  5
A0C46
  8
DETAIL
 10
5.7999999999992724
 20
159.19999999999891
 30
0.0
 40
45.699999999999591
 50
180.0
 51
270.0
  0
LINE
  5
A0C47
  8
DETAIL
 10
-0.1999999999970896
 20
91.249999999998181
 30
0.0
 11
-111.5042986650369
 21
91.250000243455375
 31
0.0
  0
LINE
  5
A0C48
  8
DETAIL
 10
-0.1999999999970896
 20
107.1499999999978
 30
0.0
 11
-111.5000000482577
 21
107.15000000502729
 31
0.0
  0
ARC
  5
A0C49
  8
DETAIL
 10
5.7999999999992724
 20
159.1999999999916
 30
0.0
 40
74.299999999991556
 50
246.13987133298659
 51
270.0
  0
LINE
  5
A0C4A
  8
DETAIL
 10
25.800000000001091
 20
84.899999999999636
 30
0.0
 11
5.8000000000010914
 21
84.899999999999636
 31
0.0
  0
LINE
  5
A0C4B
  8
DETAIL
 10
25.800000000001091
 20
113.5
 30
0.0
 11
5.8000000000010914
 21
113.5
 31
0.0
  0
LINE
  5
A0C4C
  8
DETAIL
 10
25.800000000001091
 20
113.4999999999981
 30
0.0
 11
22.80000000000291
 21
113.4999999999981
 31
0.0
  0
LINE
  5
A0C4D
  8
DETAIL
 10
10.799999999999271
 20
109.1499999999978
 30
0.0
 11
22.80000000000291
 21
113.4999999999981
 31
0.0
  0
LINE
  5
A0C4E
  8
DETAIL
 10
-0.1999999999989086
 20
109.1499999999978
 30
0.0
 11
10.799999999999271
 21
109.1499999999978
 31
0.0
  0
LINE
  5
A0C4F
  8
DETAIL
 10
25.800000000001091
 20
83.0
 30
0.0
 11
25.800000000001091
 21
116.5
 31
0.0
  0
LINE
  5
A0C50
  8
DETAIL
 10
25.800000000001091
 20
84.899999999997803
 30
0.0
 11
22.800000000001091
 21
84.899999999997803
 31
0.0
  0
LINE
  5
A0C51
  8
DETAIL
 10
10.80000000000109
 20
89.249999999998167
 30
0.0
 11
-0.1999999999989086
 21
89.249999999998167
 31
0.0
  0
LINE
  5
A0C52
  8
DETAIL
 10
-0.1999999999989086
 20
109.1499999999978
 30
0.0
 11
-0.1999999999989086
 21
89.249999999998167
 31
0.0
  0
LINE
  5
A0C53
  8
DETAIL
 10
22.800000000001091
 20
84.899999999997803
 30
0.0
 11
10.80000000000109
 21
89.249999999998167
 31
0.0
  0
ARC
  5
A0C54
  8
DETAIL
 10
5.8000000000029104
 20
159.19999999999891
 30
0.0
 40
74.300000000000765
 50
180.0
 51
224.4702125124264
  0
LINE
  5
A0C55
  8
DETAIL
 10
-39.89999999999781
 20
202.2000000000007
 30
0.0
 11
-39.89999999999781
 21
238.2000000000007
 31
0.0
  0
LINE
  5
A0C56
  8
DETAIL
 10
-37.89999999999781
 20
240.2000000000007
 30
0.0
 11
-39.89999999999781
 21
238.2000000000007
 31
0.0
  0
LINE
  5
A0C57
  8
DETAIL
 10
-37.89999999999781
 20
240.2000000000007
 30
0.0
 11
-37.89999999999781
 21
261.20000000000073
 31
0.0
  0
LINE
  5
A0C58
  8
DETAIL
 10
-70.5
 20
240.2000000000007
 30
0.0
 11
-68.5
 21
238.2000000000007
 31
0.0
  0
LINE
  5
A0C59
  8
DETAIL
 10
-117.20700217914781
 20
212.25000000000179
 30
0.0
 11
-85.199999999991618
 21
212.25000000000179
 31
0.0
  0
LINE
  5
A0C5A
  8
DETAIL
 10
-101.30700217914629
 20
228.1500000000014
 30
0.0
 11
-85.199999999991618
 21
228.1500000000014
 31
0.0
  0
LINE
  5
A0C5B
  8
DETAIL
 10
-70.5
 20
258.95700217914958
 30
0.0
 11
-70.5
 21
240.2000000000007
 31
0.0
  0
LINE
  5
A0C5C
  8
DETAIL
 10
-68.257002179147094
 20
261.20000000000073
 30
0.0
 11
-37.89999999999781
 21
261.20000000000073
 31
0.0
  0
ARC
  5
A0C5D
  8
DETAIL
 10
-71.5
 20
207.75000000000179
 30
0.0
 40
2.9999999999995448
 50
0.000000000000007
 51
90.0
  0
LINE
  5
A0C5E
  8
DETAIL
 10
-68.5
 20
202.2000000000007
 30
0.0
 11
-68.5
 21
207.75000000000179
 31
0.0
  0
LINE
  5
A0C5F
  8
DETAIL
 10
-85.199999999989814
 20
210.75000000000179
 30
0.0
 11
-71.5
 21
210.75000000000179
 31
0.0
  0
ARC
  5
A0C60
  8
DETAIL
 10
-71.500000000001819
 20
232.65000000000319
 30
0.0
 40
3.000000000001136
 50
270.00000000005213
 51
0.000000000000007
  0
LINE
  5
A0C61
  8
DETAIL
 10
-85.199999999989814
 20
229.6500000000014
 30
0.0
 11
-71.5
 21
229.6500000000014
 31
0.0
  0
LINE
  5
A0C62
  8
DETAIL
 10
-68.5
 20
238.2000000000007
 30
0.0
 11
-68.5
 21
232.6500000000014
 31
0.0
  0
LINE
  5
A0C63
  8
DETAIL
 10
-85.199999999989814
 20
229.6500000000014
 30
0.0
 11
-85.199999999989814
 21
210.75000000000179
 31
0.0
  0
LINE
  5
A0C64
  8
DETAIL
 10
-70.5
 20
179.2000000000007
 30
0.0
 11
-37.89999999999781
 21
179.2000000000007
 31
0.0
  0
LINE
  5
A0C65
  8
DETAIL
 10
-70.5
 20
179.2000000000007
 30
0.0
 11
-70.5
 21
200.2000000000007
 31
0.0
  0
LINE
  5
A0C66
  8
DETAIL
 10
-70.5
 20
200.2000000000007
 30
0.0
 11
-68.5
 21
202.19999999999891
 31
0.0
  0
LINE
  5
A0C67
  8
DETAIL
 10
-37.89999999999781
 20
200.2000000000007
 30
0.0
 11
-39.89999999999781
 21
202.2000000000007
 31
0.0
  0
LINE
  5
A0C68
  8
DETAIL
 10
-37.89999999999781
 20
179.2000000000007
 30
0.0
 11
-37.89999999999781
 21
200.2000000000007
 31
0.0
  0
LINE
  5
A0C69
  8
DETAIL
 10
-177.95022873041299
 20
83.0
 30
0.0
 11
-177.95022873041299
 21
220.2000000000007
 31
0.0
  0
LINE
  5
A0C6A
  8
DETAIL
 10
-162.05022873041341
 20
83.0
 30
0.0
 11
-162.05022873041341
 21
212.25000000000179
 31
0.0
  0
LINE
  5
A0C6B
  8
DETAIL
 10
-133.55000000000831
 20
186.7735931288079
 30
0.0
 11
-133.55000000000831
 21
129.199999999997
 31
0.0
  0
LINE
  5
A0C6C
  8
DETAIL
 10
-149.450000000008
 20
186.77359312880981
 30
0.0
 11
-149.450000000008
 21
129.19999999998609
 31
0.0
  0
LINE
  5
A0C6D
  8
DETAIL
 10
-214.11393948451581
 20
78.502373798201006
 30
0.0
 11
-185.896599012005
 21
74.975206239132604
 31
0.0
  0
LINE
  5
A0C6E
  8
DETAIL
 10
-212.14178720454581
 20
94.279592037948547
 30
0.0
 11
-183.92444673139099
 21
90.752424478798275
 31
0.0
  0
LINE
  5
A0C6F
  8
DETAIL
 10
-162.05022873041341
 20
128.0
 30
0.0
 11
-156.49999999999091
 21
128.0
 31
0.0
  0
LINE
  5
A0C70
  8
DETAIL
 10
-183.49999999999091
 20
128.0
 30
0.0
 11
-177.95022873041299
 21
128.0
 31
0.0
  0
ARC
  5
A0C71
  8
DETAIL
 10
-169.999999999989
 20
80.999999999998181
 30
0.0
 40
10.702297591759979
 50
137.9749767254487
 51
169.229486999036
  0
ARC
  5
A0C72
  8
DETAIL
 10
-169.99999999999631
 20
80.999999999994543
 30
0.0
 40
10.70229759176978
 50
10.77051300096392
 51
42.028681434556617
  0
ARC
  5
A0C73
  8
DETAIL
 10
-169.999999999989
 20
80.999999999998181
 30
0.0
 40
17.000000000000949
 50
117.88254226115281
 51
173.24367296941921
  0
ARC
  5
A0C74
  8
DETAIL
 10
-169.99999999998539
 20
81.000000000001819
 30
0.0
 40
16.999999999995168
 50
6.7563270305807803
 51
62.119202022051439
  0
LINE
  5
A0C75
  8
DETAIL
 10
-156.49999999999091
 20
91.331989159889403
 30
0.0
 11
-156.49999999999091
 21
128.0
 31
0.0
  0
LINE
  5
A0C76
  8
DETAIL
 10
-183.49999999999091
 20
91.331989159882156
 30
0.0
 11
-183.49999999999091
 21
128.0
 31
0.0
  0
LINE
  5
A0C77
  8
DETAIL
 10
-149.44999999999891
 20
162.5502338987753
 30
0.0
 11
-149.44999999999891
 21
128.99999999998721
 31
0.0
  0
ARC
  5
A0C78
  8
DETAIL
 10
-249.999999999989
 20
91.000000000012733
 30
0.0
 40
12.00000000000378
 50
318.1896851041281
 51
143.8650081872463
  0
LINE
  5
A0C79
  8
DETAIL
 10
-239.03034488539561
 20
83.0
 30
0.0
 11
-234.41154273187021
 21
91.000000000014566
 31
0.0
  0
ARC
  5
A0C7A
  8
DETAIL
 10
-249.99999999999079
 20
91.000000000012733
 30
0.0
 40
7.9499999999998092
 50
277.1250163489018
 51
97.125016348901795
  0
LINE
  5
A0C7B
  8
DETAIL
 10
-261.60662304383908
 20
97.896739183770464
 30
0.0
 11
-257.79422863405119
 21
104.5000000000145
 31
0.0
  0
LINE
  5
A0C7C
  8
DETAIL
 10
-242.2057713659305
 20
104.5000000000145
 30
0.0
 11
-234.41154273187021
 21
91.000000000014566
 31
0.0
  0
LINE
  5
A0C7D
  8
DETAIL
 10
-242.2057713659305
 20
104.5000000000145
 30
0.0
 11
-257.79422863405119
 21
104.5000000000145
 31
0.0
  0
LINE
  5
A0C7E
  8
DETAIL
 10
-170.00022873041411
 20
212.25000000000179
 30
0.0
 11
-139.62748109828129
 21
212.25000000000179
 31
0.0
  0
LINE
  5
A0C7F
  8
DETAIL
 10
-170.0002287304159
 20
228.1500000000014
 30
0.0
 11
-123.79299782087941
 21
228.1500000000014
 31
0.0
  0
ARC
  5
A0C80
  8
DETAIL
 10
-170.00022873041229
 20
220.2000000000007
 30
0.0
 40
7.9499999999998172
 50
90.0
 51
270.0
  0
ARC
  5
A0C81
  8
DETAIL
 10
-111.5000000000109
 20
186.77359312880611
 30
0.0
 40
22.050000000002459
 50
135.0
 51
180.0
  0
ARC
  5
A0C82
  8
DETAIL
 10
-111.5000000000163
 20
186.7735931288079
 30
0.0
 40
37.94999999999753
 50
135.0
 51
180.0
  0
LINE
  5
A0C83
  8
DETAIL
 10
-130.00638999321009
 20
501.60621000016909
 30
0.0
 11
-101.72199999999791
 21
473.3222999999997
 31
0.0
  0
ARC
  5
A0C84
  8
DETAIL
 10
-119.3999999999978
 20
384.99999999999812
 30
0.0
 40
4.2000000000005651
 50
139.63240645582869
 51
40.367593544171257
  0
ARC
  5
A0C85
  8
DETAIL
 10
-119.3999999999978
 20
384.99999999999812
 30
0.0
 40
3.2000000000007272
 50
180.0
 51
0.000000000000007
  0
LINE
  5
A0C86
  8
DETAIL
 10
-103.8999999999978
 20
380.79999999999922
 30
0.0
 11
-134.89999999999779
 21
380.79999999999922
 31
0.0
  0
LINE
  5
A0C87
  8
DETAIL
 10
-110.3999999999978
 20
449.0
 30
0.0
 11
-128.39999999999779
 21
449.0
 31
0.0
  0
LINE
  5
A0C88
  8
DETAIL
 10
-115.3999999999978
 20
427.90461439720627
 30
0.0
 11
-123.3999999999978
 21
427.90461439720627
 31
0.0
  0
LINE
  5
A0C89
  8
DETAIL
 10
-128.89999999999779
 20
432.40461439720627
 30
0.0
 11
-109.8999999999978
 21
432.40461439720627
 31
0.0
  0
LINE
  5
A0C8A
  8
DETAIL
 10
-109.8999999999978
 20
443.40461439720627
 30
0.0
 11
-128.89999999999779
 21
443.40461439720627
 31
0.0
  0
LINE
  5
A0C8B
  8
DETAIL
 10
-48.299999999999272
 20
458.49999999999989
 30
0.0
 11
-48.299999999999272
 21
385.0
 31
0.0
  0
LINE
  5
A0C8C
  8
DETAIL
 10
-45.899999999997817
 20
458.49999999999989
 30
0.0
 11
-45.899999999997817
 21
385.0
 31
0.0
  0
ARC
  5
A0C8D
  8
DETAIL
 10
-57.099999999996733
 20
401.39999999999782
 30
0.0
 40
8.7999999999983611
 50
270.0
 51
0.000000000000007
  0
LINE
  5
A0C8E
  8
DETAIL
 10
-116.199999999997
 20
427.90461439720627
 30
0.0
 11
-116.199999999997
 21
385.0
 31
0.0
  0
ARC
  5
A0C8F
  8
DETAIL
 10
-71.5
 20
311.62640687119892
 30
0.0
 40
37.949999999995399
 50
315.0
 51
0.000000000000007
  0
LINE
  5
A0C90
  8
DETAIL
 10
-33.549999999999272
 20
311.62640687120069
 30
0.0
 11
-33.549999999999272
 21
347.20000000000073
 31
0.0
  0
LINE
  5
A0C91
  8
DETAIL
 10
-68.5
 20
283.44299782088092
 30
0.0
 11
-68.5
 21
347.20000000000073
 31
0.0
  0
LINE
  5
A0C92
  8
DETAIL
 10
-57.099999999998552
 20
392.60000000000031
 30
0.0
 11
-116.199999999997
 21
392.60000000000031
 31
0.0
  0
LINE
  5
A0C93
  8
DETAIL
 10
-57.099999999998552
 20
390.19999999999879
 30
0.0
 11
-116.199999999997
 21
390.19999999999879
 31
0.0
  0
ARC
  5
A0C94
  8
DETAIL
 10
-57.099999999998552
 20
401.39999999999782
 30
0.0
 40
11.19999999999831
 50
270.0
 51
321.78678929831062
  0
LINE
  5
A0C95
  8
DETAIL
 10
-47.099999999998538
 20
383.79999999999922
 30
0.0
 11
-59.89999999999781
 21
383.79999999999922
 31
0.0
  0
LINE
  5
A0C96
  8
DETAIL
 10
-48.299999999999272
 20
386.19999999999891
 30
0.0
 11
-59.89999999999781
 21
386.19999999999891
 31
0.0
  0
ARC
  5
A0C97
  8
DETAIL
 10
-47.099999999998538
 20
385.0
 30
0.0
 40
1.200000000000045
 50
180.0
 51
0.000000000000007
  0
LINE
  5
A0C98
  8
DETAIL
 10
-103.8999999999978
 20
381.79999999999922
 30
0.0
 11
-72.899999999997817
 21
381.79999999999922
 31
0.0
  0
LINE
  5
A0C99
  8
DETAIL
 10
-103.8999999999978
 20
388.19999999999891
 30
0.0
 11
-72.899999999997817
 21
388.19999999999891
 31
0.0
  0
LINE
  5
A0C9A
  8
DETAIL
 10
-69.899999999997803
 20
382.79999999999922
 30
0.0
 11
-59.89999999999781
 21
382.79999999999922
 31
0.0
  0
LINE
  5
A0C9B
  8
DETAIL
 10
-59.89999999999781
 20
387.19999999999891
 30
0.0
 11
-59.89999999999781
 21
382.79999999999922
 31
0.0
  0
LINE
  5
A0C9C
  8
DETAIL
 10
-69.899999999997803
 20
387.19999999999891
 30
0.0
 11
-59.89999999999781
 21
387.19999999999891
 31
0.0
  0
LINE
  5
A0C9D
  8
DETAIL
 10
-69.899999999997803
 20
382.79999999999922
 30
0.0
 11
-72.899999999997817
 21
381.79999999999922
 31
0.0
  0
LINE
  5
A0C9E
  8
DETAIL
 10
-72.899999999997817
 20
388.19999999999891
 30
0.0
 11
-69.899999999997803
 21
387.19999999999891
 31
0.0
  0
LINE
  5
A0C9F
  8
DETAIL
 10
-116.199999999997
 20
389.19999999999891
 30
0.0
 11
-103.8999999999978
 21
389.19999999999891
 31
0.0
  0
LINE
  5
A0CA0
  8
DETAIL
 10
-103.8999999999978
 20
389.19999999999891
 30
0.0
 11
-103.8999999999978
 21
380.79999999999922
 31
0.0
  0
LINE
  5
A0CA1
  8
DETAIL
 10
-49.449999999998909
 20
311.62640687120069
 30
0.0
 11
-49.449999999998909
 21
347.20000000000073
 31
0.0
  0
ARC
  5
A0CA2
  8
DETAIL
 10
-71.500000000007276
 20
311.62640687120251
 30
0.0
 40
22.050000000001539
 50
315.0
 51
0.000000000000007
  0
LINE
  5
A0CA3
  8
DETAIL
 10
-35.761539235656521
 20
510.55691854760869
 30
0.0
 11
-47.238460764339827
 21
510.55691854760869
 31
0.0
  0
LINE
  5
A0CA4
  8
DETAIL
 10
-33.0
 20
509.8136606355892
 30
0.0
 11
-50.0
 21
509.8136606355892
 31
0.0
  0
LINE
  5
A0CA5
  8
DETAIL
 10
-33.799999999997453
 20
480.29999999999922
 30
0.0
 11
-36.399999999997817
 21
482.89999999999958
 31
0.0
  0
LINE
  5
A0CA6
  8
DETAIL
 10
-60.399999999997817
 20
480.29999999999922
 30
0.0
 11
-33.799999999997453
 21
480.29999999999922
 31
0.0
  0
LINE
  5
A0CA7
  8
DETAIL
 10
-33.799999999997453
 20
473.29999999999922
 30
0.0
 11
-60.399999999997817
 21
473.29999999999922
 31
0.0
  0
LINE
  5
A0CA8
  8
DETAIL
 10
-24.0
 20
463.39999999999958
 30
0.0
 11
-24.0
 21
500.8136606355892
 31
0.0
  0
LINE
  5
A0CA9
  8
DETAIL
 10
-35.761539235656521
 20
509.81366063558562
 30
0.0
 11
-35.761539235656521
 21
510.55691854760869
 31
0.0
  0
ARC
  5
A0CAA
  8
DETAIL
 10
-32.999999999998181
 20
500.81366063559102
 30
0.0
 40
8.9999999999977263
 50
0.000000000000007
 51
90.0
  0
CIRCLE
  5
A0CAB
  8
DETAIL
 10
35.80000000000291
 20
405.0
 30
0.0
 40
5.0
  0
LINE
  5
A0CAC
  8
DETAIL
 10
-33.799999999997453
 20
473.29999999999922
 30
0.0
 11
-33.799999999997453
 21
480.29999999999922
 31
0.0
  0
LINE
  5
A0CAD
  8
DETAIL
 10
-59.0
 20
463.39999999999958
 30
0.0
 11
-59.0
 21
500.8136606355892
 31
0.0
  0
LINE
  5
A0CAE
  8
DETAIL
 10
-39.138530450705723
 20
511.64999999999958
 30
0.0
 11
-43.861469549290632
 21
511.64999999999958
 31
0.0
  0
LINE
  5
A0CAF
  8
DETAIL
 10
-43.861469549290632
 20
510.55691854760698
 30
0.0
 11
-43.861469549290632
 21
511.64999999999958
 31
0.0
  0
LINE
  5
A0CB0
  8
DETAIL
 10
-47.238460764339827
 20
509.81366063558562
 30
0.0
 11
-47.238460764339827
 21
510.55691854760869
 31
0.0
  0
LINE
  5
A0CB1
  8
DETAIL
 10
-39.138530450705723
 20
510.55691854760698
 30
0.0
 11
-39.138530450705723
 21
511.64999999999958
 31
0.0
  0
ARC
  5
A0CB2
  8
DETAIL
 10
-50.0
 20
500.8136606355892
 30
0.0
 40
9.0000000000009095
 50
90.0
 51
180.0
  0
LINE
  5
A0CB3
  8
DETAIL
 10
-67.099999999998545
 20
463.20000000000073
 30
0.0
 11
-52.099999999998552
 21
463.20000000000073
 31
0.0
  0
ARC
  5
A0CB4
  8
DETAIL
 10
-55.099999999998552
 20
470.49999999999818
 30
0.0
 40
1.9999999999990901
 50
180.0
 51
270.00000000005213
  0
LINE
  5
A0CB5
  8
DETAIL
 10
-57.099999999998552
 20
473.2999999999974
 30
0.0
 11
-57.099999999998552
 21
470.5
 31
0.0
  0
LINE
  5
A0CB6
  8
DETAIL
 10
-39.099999999998538
 20
468.5
 30
0.0
 11
-55.099999999998552
 21
468.5
 31
0.0
  0
ARC
  5
A0CB7
  8
DETAIL
 10
-39.099999999998538
 20
470.5
 30
0.0
 40
2.0000000000006808
 50
270.0
 51
0.000000000000007
  0
LINE
  5
A0CB8
  8
DETAIL
 10
-37.099999999998538
 20
473.2999999999974
 30
0.0
 11
-37.099999999998538
 21
470.5
 31
0.0
  0
LINE
  5
A0CB9
  8
DETAIL
 10
-36.399999999997817
 20
482.89999999999958
 30
0.0
 11
-57.799999999999272
 21
482.9000000000014
 31
0.0
  0
LINE
  5
A0CBA
  8
DETAIL
 10
-36.399999999997817
 20
482.89999999999958
 30
0.0
 11
-36.399999999997817
 21
502.0
 31
0.0
  0
LINE
  5
A0CBB
  8
DETAIL
 10
-57.799999999999272
 20
502.0
 30
0.0
 11
-36.399999999997817
 21
502.0
 31
0.0
  0
LINE
  5
A0CBC
  8
DETAIL
 10
-57.799999999999272
 20
482.9000000000014
 30
0.0
 11
-57.799999999999272
 21
502.0
 31
0.0
  0
LINE
  5
A0CBD
  8
DETAIL
 10
-60.399999999997817
 20
480.29999999999922
 30
0.0
 11
-57.799999999999272
 21
482.9000000000014
 31
0.0
  0
LINE
  5
A0CBE
  8
DETAIL
 10
-52.099999999998552
 20
468.5
 30
0.0
 11
-52.099999999998552
 21
458.49999999999989
 31
0.0
  0
LINE
  5
A0CBF
  8
DETAIL
 10
-42.099999999998538
 20
468.5
 30
0.0
 11
-42.099999999998538
 21
458.49999999999989
 31
0.0
  0
LINE
  5
A0CC0
  8
DETAIL
 10
-60.399999999997817
 20
473.29999999999922
 30
0.0
 11
-60.399999999997817
 21
480.29999999999922
 31
0.0
  0
LINE
  5
A0CC1
  8
DETAIL
 10
-52.099999999998552
 20
458.49999999999989
 30
0.0
 11
-42.099999999998538
 21
458.49999999999989
 31
0.0
  0
LINE
  5
A0CC2
  8
DETAIL
 10
-67.099999999998545
 20
437.0
 30
0.0
 11
-69.399999999997803
 21
437.0
 31
0.0
  0
LINE
  5
A0CC3
  8
DETAIL
 10
-69.399999999997803
 20
457.0
 30
0.0
 11
-69.399999999997803
 21
437.0
 31
0.0
  0
CIRCLE
  5
A0CC4
  8
DETAIL
 10
-88.223085464778706
 20
473.0000000005893
 30
0.0
 40
2.25
  0
LINE
  5
A0CC5
  8
DETAIL
 10
-101.72199999999791
 20
473.32220000000041
 30
0.0
 11
-104.22199999999791
 21
477.65229999999968
 31
0.0
  0
LINE
  5
A0CC6
  8
DETAIL
 10
-101.72199999999791
 20
473.3222999999997
 30
0.0
 11
-106.05199999999959
 21
475.82229999999981
 31
0.0
  0
LINE
  5
A0CC7
  8
DETAIL
 10
-110.3999999999978
 20
459.77149999999892
 30
0.0
 11
-110.3999999999978
 21
449.0
 31
0.0
  0
LINE
  5
A0CC8
  8
DETAIL
 10
-114.8999999999978
 20
443.40461439720627
 30
0.0
 11
-114.8999999999978
 21
449.0
 31
0.0
  0
LINE
  5
A0CC9
  8
DETAIL
 10
-109.8999999999978
 20
432.40461439720627
 30
0.0
 11
-115.3999999999978
 21
427.90461439720627
 31
0.0
  0
LINE
  5
A0CCA
  8
DETAIL
 10
-114.8999999999978
 20
443.40461439720627
 30
0.0
 11
-114.8999999999978
 21
432.40461439720627
 31
0.0
  0
LINE
  5
A0CCB
  8
DETAIL
 10
-109.8999999999978
 20
432.40461439720627
 30
0.0
 11
-109.8999999999978
 21
443.40461439720627
 31
0.0
  0
LINE
  5
A0CCC
  8
DETAIL
 10
-98.328692494293151
 20
457.0
 30
0.0
 11
-67.099999999998545
 21
457.0
 31
0.0
  0
LINE
  5
A0CCD
  8
DETAIL
 10
-122.5999999999985
 20
427.90461439720627
 30
0.0
 11
-122.5999999999985
 21
384.99999999999812
 31
0.0
  0
LINE
  5
A0CCE
  8
DETAIL
 10
-216.19999999999891
 20
427.90461439720627
 30
0.0
 11
-216.19999999999891
 21
391.39999999999958
 31
0.0
  0
LINE
  5
A0CCF
  8
DETAIL
 10
-222.59999999999849
 20
427.90461439720627
 30
0.0
 11
-222.59999999999849
 21
391.39999999999782
 31
0.0
  0
LINE
  5
A0CD0
  8
DETAIL
 10
-280.10000000000213
 20
381.79999999999922
 30
0.0
 11
-134.89999999999779
 21
381.79999999999922
 31
0.0
  0
LINE
  5
A0CD1
  8
DETAIL
 10
-203.89999999999779
 20
394.60000000000031
 30
0.0
 11
-172.89999999999779
 21
394.60000000000031
 31
0.0
  0
LINE
  5
A0CD2
  8
DETAIL
 10
-122.5999999999985
 20
392.60000000000031
 30
0.0
 11
-159.89999999999779
 21
392.60000000000031
 31
0.0
  0
LINE
  5
A0CD3
  8
DETAIL
 10
-122.5999999999985
 20
390.19999999999879
 30
0.0
 11
-159.89999999999779
 21
390.19999999999879
 31
0.0
  0
LINE
  5
A0CD4
  8
DETAIL
 10
-169.89999999999779
 20
389.19999999999891
 30
0.0
 11
-159.89999999999779
 21
389.19999999999891
 31
0.0
  0
LINE
  5
A0CD5
  8
DETAIL
 10
-159.89999999999779
 20
393.60000000000031
 30
0.0
 11
-159.89999999999779
 21
389.19999999999891
 31
0.0
  0
LINE
  5
A0CD6
  8
DETAIL
 10
-169.89999999999779
 20
393.60000000000031
 30
0.0
 11
-159.89999999999779
 21
393.60000000000031
 31
0.0
  0
LINE
  5
A0CD7
  8
DETAIL
 10
-169.89999999999779
 20
389.19999999999891
 30
0.0
 11
-172.89999999999779
 21
388.19999999999891
 31
0.0
  0
LINE
  5
A0CD8
  8
DETAIL
 10
-172.89999999999779
 20
394.60000000000031
 30
0.0
 11
-169.89999999999779
 21
393.60000000000031
 31
0.0
  0
LINE
  5
A0CD9
  8
DETAIL
 10
-134.89999999999779
 20
389.19999999999891
 30
0.0
 11
-122.5999999999985
 21
389.19999999999891
 31
0.0
  0
LINE
  5
A0CDA
  8
DETAIL
 10
-134.89999999999779
 20
389.19999999999891
 30
0.0
 11
-134.89999999999779
 21
380.79999999999922
 31
0.0
  0
ARC
  5
A0CDB
  8
DETAIL
 10
-219.39999999999779
 20
391.39999999999782
 30
0.0
 40
4.2000000000002613
 50
139.63240645582869
 51
229.63240645578901
  0
ARC
  5
A0CDC
  8
DETAIL
 10
-219.39999999999779
 20
391.39999999999782
 30
0.0
 40
4.2000000000005651
 50
310.36759354421088
 51
40.367593544171257
  0
LINE
  5
A0CDD
  8
DETAIL
 10
-234.89999999999779
 20
388.19999999999891
 30
0.0
 11
-234.89999999999779
 21
395.60000000000031
 31
0.0
  0
LINE
  5
A0CDE
  8
DETAIL
 10
-203.89999999999779
 20
388.19999999999891
 30
0.0
 11
-203.89999999999779
 21
395.60000000000031
 31
0.0
  0
LINE
  5
A0CDF
  8
DETAIL
 10
-234.89999999999779
 20
395.60000000000031
 30
0.0
 11
-222.59999999999849
 21
395.60000000000031
 31
0.0
  0
LINE
  5
A0CE0
  8
DETAIL
 10
-216.19999999999891
 20
395.60000000000031
 30
0.0
 11
-203.89999999999779
 21
395.60000000000031
 31
0.0
  0
ARC
  5
A0CE1
  8
DETAIL
 10
-219.39999999999779
 20
391.39999999999782
 30
0.0
 40
3.2000000000007272
 50
180.0
 51
0.000000000000007
  0
LINE
  5
A0CE2
  8
DETAIL
 10
-279.20000000000073
 20
388.20000000000073
 30
0.0
 11
-279.20000000000073
 21
380.79999999999922
 31
0.0
  0
LINE
  5
A0CE3
  8
DETAIL
 10
-212.5945287076938
 20
430.20000000000073
 30
0.0
 11
-126.20547129230179
 21
430.20000000000073
 31
0.0
  0
LINE
  5
A0CE4
  8
DETAIL
 10
-128.89999999999779
 20
433.20000000000061
 30
0.0
 11
-209.8999999999977
 21
433.20000000000061
 31
0.0
  0
CIRCLE
  5
A0CE5
  8
DETAIL
 10
-150.57691453555159
 20
473.00000000039648
 30
0.0
 40
2.25
  0
CIRCLE
  5
A0CE6
  8
DETAIL
 10
-150.57691453555159
 20
473.00000000039648
 30
0.0
 40
2.25
  0
CIRCLE
  5
A0CE7
  8
DETAIL
 10
-188.22308546477871
 20
474.0000000005893
 30
0.0
 40
2.25
  0
LINE
  5
A0CE8
  8
DETAIL
 10
-128.39999999999779
 20
459.77149999999892
 30
0.0
 11
-128.39999999999779
 21
449.0
 31
0.0
  0
LINE
  5
A0CE9
  8
DETAIL
 10
-123.8999999999978
 20
443.40461439720627
 30
0.0
 11
-123.8999999999978
 21
449.0
 31
0.0
  0
LINE
  5
A0CEA
  8
DETAIL
 10
-123.3999999999978
 20
427.90461439720627
 30
0.0
 11
-128.89999999999779
 21
432.40461439720627
 31
0.0
  0
LINE
  5
A0CEB
  8
DETAIL
 10
-123.8999999999978
 20
432.40461439720627
 30
0.0
 11
-123.8999999999978
 21
443.40461439720627
 31
0.0
  0
LINE
  5
A0CEC
  8
DETAIL
 10
-128.89999999999779
 20
443.40461439720627
 30
0.0
 11
-128.89999999999779
 21
432.40461439720627
 31
0.0
  0
LINE
  5
A0CED
  8
DETAIL
 10
-200.0350832689619
 20
457.0
 30
0.0
 11
-140.47130750570429
 21
457.0
 31
0.0
  0
LINE
  5
A0CEE
  8
DETAIL
 10
-230.00638999321009
 20
502.60621000016903
 30
0.0
 11
-201.72199999999791
 21
474.32229999999981
 31
0.0
  0
CIRCLE
  5
A0CEF
  8
DETAIL
 10
-250.57691453555159
 20
474.00000000039648
 30
0.0
 40
2.25
  0
CIRCLE
  5
A0CF0
  8
DETAIL
 10
-250.57691453555159
 20
474.00000000039648
 30
0.0
 40
2.25
  0
LINE
  5
A0CF1
  8
DETAIL
 10
-201.72199999999791
 20
474.32220000000052
 30
0.0
 11
-204.22199999999791
 21
478.65229999999968
 31
0.0
  0
LINE
  5
A0CF2
  8
DETAIL
 10
-201.72199999999791
 20
474.32229999999981
 30
0.0
 11
-206.05199999999959
 21
476.82229999999981
 31
0.0
  0
LINE
  5
A0CF3
  8
DETAIL
 10
-228.39999999999779
 20
450.0
 30
0.0
 11
-210.39999999999779
 21
450.0
 31
0.0
  0
LINE
  5
A0CF4
  8
DETAIL
 10
-210.39999999999779
 20
460.77149999999892
 30
0.0
 11
-210.39999999999779
 21
450.0
 31
0.0
  0
LINE
  5
A0CF5
  8
DETAIL
 10
-228.39999999999779
 20
460.77149999999892
 30
0.0
 11
-228.39999999999779
 21
450.0
 31
0.0
  0
LINE
  5
A0CF6
  8
DETAIL
 10
-280.20000000000073
 20
467.0
 30
0.0
 11
-280.20000000000073
 21
473.5
 31
0.0
  0
LINE
  5
A0CF7
  8
DETAIL
 10
-280.20000000000073
 20
493.5
 30
0.0
 11
-280.20000000000073
 21
480.49999999999989
 31
0.0
  0
LINE
  5
A0CF8
  8
DETAIL
 10
-214.89999999999779
 20
443.40461439720627
 30
0.0
 11
-214.89999999999779
 21
450.0
 31
0.0
  0
LINE
  5
A0CF9
  8
DETAIL
 10
-223.89999999999779
 20
443.40461439720627
 30
0.0
 11
-223.89999999999779
 21
450.0
 31
0.0
  0
LINE
  5
A0CFA
  8
DETAIL
 10
-223.39999999999779
 20
427.90461439720627
 30
0.0
 11
-228.89999999999779
 21
432.40461439720627
 31
0.0
  0
LINE
  5
A0CFB
  8
DETAIL
 10
-215.39999999999779
 20
427.90461439720627
 30
0.0
 11
-223.39999999999779
 21
427.90461439720627
 31
0.0
  0
LINE
  5
A0CFC
  8
DETAIL
 10
-209.8999999999977
 20
432.40461439720627
 30
0.0
 11
-215.39999999999779
 21
427.90461439720627
 31
0.0
  0
LINE
  5
A0CFD
  8
DETAIL
 10
-228.89999999999779
 20
432.40461439720627
 30
0.0
 11
-209.8999999999977
 21
432.40461439720627
 31
0.0
  0
LINE
  5
A0CFE
  8
DETAIL
 10
-209.8999999999977
 20
432.40461439720627
 30
0.0
 11
-209.8999999999977
 21
443.40461439720627
 31
0.0
  0
LINE
  5
A0CFF
  8
DETAIL
 10
-214.89999999999779
 20
443.40461439720627
 30
0.0
 11
-214.89999999999779
 21
432.40461439720627
 31
0.0
  0
LINE
  5
A0D00
  8
DETAIL
 10
-223.89999999999779
 20
432.40461439720627
 30
0.0
 11
-223.89999999999779
 21
443.40461439720627
 31
0.0
  0
LINE
  5
A0D01
  8
DETAIL
 10
-228.89999999999779
 20
443.40461439720627
 30
0.0
 11
-228.89999999999779
 21
432.40461439720627
 31
0.0
  0
LINE
  5
A0D02
  8
DETAIL
 10
-209.8999999999977
 20
443.40461439720627
 30
0.0
 11
-228.89999999999779
 21
443.40461439720627
 31
0.0
  0
LINE
  5
A0D03
  8
DETAIL
 10
-394.0
 20
80.0
 30
0.0
 11
-394.0
 21
350.0
 31
0.0
  0
LINE
  5
A0D04
  8
DETAIL
 10
-300.0
 20
80.0
 30
0.0
 11
-300.0
 21
380.79999999999922
 31
0.0
  0
LINE
  5
A0D05
  8
DETAIL
 10
-297.0
 20
380.79999999999922
 30
0.0
 11
-297.0
 21
80.0
 31
0.0
  0
LINE
  5
A0D06
  8
DETAIL
 10
-296.99999999998897
 20
166.1347259145295
 30
0.0
 11
-296.99999999998897
 21
93.136868637377134
 31
0.0
  0
LINE
  5
A0D07
  8
DETAIL
 10
-297.0
 20
80.0
 30
0.0
 11
-397.0
 21
80.0
 31
0.0
  0
LINE
  5
A0D08
  8
DETAIL
 10
-397.0
 20
83.0
 30
0.0
 11
-400.0
 21
83.0
 31
0.0
  0
LINE
  5
A0D09
  8
DETAIL
 10
-360.39999999999782
 20
385.0
 30
0.0
 11
-360.39999999999782
 21
430.71870884215411
 31
0.0
  0
LINE
  5
A0D0A
  8
DETAIL
 10
-354.0
 20
385.0
 30
0.0
 11
-354.0
 21
430.71870884215411
 31
0.0
  0
LINE
  5
A0D0B
  8
DETAIL
 10
-347.0
 20
457.0
 30
0.0
 11
-347.0
 21
394.60000000000031
 31
0.0
  0
LINE
  5
A0D0C
  8
DETAIL
 10
-300.0
 20
457.0
 30
0.0
 11
-300.0
 21
394.60000000000031
 31
0.0
  0
LINE
  5
A0D0D
  8
DETAIL
 10
-297.0
 20
457.0
 30
0.0
 11
-297.0
 21
394.60000000000031
 31
0.0
  0
LINE
  5
A0D0E
  8
DETAIL
 10
-397.0
 20
350.0
 30
0.0
 11
-347.0
 21
350.0
 31
0.0
  0
LINE
  5
A0D0F
  8
DETAIL
 10
-357.20000000000073
 20
381.79999999999922
 30
0.0
 11
-310.20000000000073
 21
381.79999999999922
 31
0.0
  0
LINE
  5
A0D10
  8
DETAIL
 10
-310.20000000000073
 20
388.20000000000073
 30
0.0
 11
-310.20000000000073
 21
380.79999999999922
 31
0.0
  0
ARC
  5
A0D11
  8
DETAIL
 10
-357.20000000000073
 20
385.0
 30
0.0
 40
3.1999999999998181
 50
180.0
 51
0.000000000000007
  0
LINE
  5
A0D12
  8
DETAIL
 10
-347.0
 20
381.79999999999922
 30
0.0
 11
-347.0
 21
350.0
 31
0.0
  0
LINE
  5
A0D13
  8
DETAIL
 10
-370.11584159893391
 20
460.78202073425012
 30
0.0
 11
-344.28415840106391
 21
460.78202073425012
 31
0.0
  0
LINE
  5
A0D14
  8
DETAIL
 10
-364.47536281215429
 20
457.5
 30
0.0
 11
-349.92463718784518
 21
457.5
 31
0.0
  0
LINE
  5
A0D15
  8
DETAIL
 10
-364.47536281215429
 20
450.469564625413
 30
0.0
 11
-349.92463718784518
 21
450.469564625413
 31
0.0
  0
LINE
  5
A0D16
  8
DETAIL
 10
-361.20000000000073
 20
430.71870884215411
 30
0.0
 11
-366.70000000000073
 21
435.21870884215417
 31
0.0
  0
LINE
  5
A0D17
  8
DETAIL
 10
-366.70000000000073
 20
435.21870884215417
 30
0.0
 11
-347.70000000000073
 21
435.21870884215417
 31
0.0
  0
LINE
  5
A0D18
  8
DETAIL
 10
-347.70000000000073
 20
446.21870884215417
 30
0.0
 11
-366.70000000000073
 21
446.21870884215417
 31
0.0
  0
LINE
  5
A0D19
  8
DETAIL
 10
-317.20000000000073
 20
467.20000000000073
 30
0.0
 11
-376.20000000000073
 21
467.20000000000073
 31
0.0
  0
LINE
  5
A0D1A
  8
DETAIL
 10
-300.70000000000073
 20
468.37499999999989
 30
0.0
 11
-317.20000000000073
 21
470.43749999999989
 31
0.0
  0
ARC
  5
A0D1B
  8
DETAIL
 10
-291.70000000000073
 20
497.0
 30
0.0
 40
3.5
 50
90.0
 51
270.0
  0
ARC
  5
A0D1C
  8
DETAIL
 10
-291.70000000000073
 20
477.0
 30
0.0
 40
3.5
 50
90.0
 51
270.0
  0
LINE
  5
A0D1D
  8
DETAIL
 10
-302.70000000000073
 20
468.625
 30
0.0
 11
-302.70000000000073
 21
467.0
 31
0.0
  0
LINE
  5
A0D1E
  8
DETAIL
 10
-351.92463718784518
 20
460.78202073425012
 30
0.0
 11
-351.92463718784518
 21
457.5
 31
0.0
  0
LINE
  5
A0D1F
  8
DETAIL
 10
-362.47536281215429
 20
460.78202073425012
 30
0.0
 11
-362.47536281215429
 21
457.5
 31
0.0
  0
LINE
  5
A0D20
  8
DETAIL
 10
-344.28415840106391
 20
467.20000000000073
 30
0.0
 11
-344.28415840106391
 21
460.78202073425012
 31
0.0
  0
LINE
  5
A0D21
  8
DETAIL
 10
-349.92463718784518
 20
450.469564625413
 30
0.0
 11
-349.92463718784518
 21
457.5
 31
0.0
  0
LINE
  5
A0D22
  8
DETAIL
 10
-351.92463718784518
 20
450.469564625413
 30
0.0
 11
-351.92463718784518
 21
446.21870884215417
 31
0.0
  0
LINE
  5
A0D23
  8
DETAIL
 10
-362.47536281215429
 20
450.469564625413
 30
0.0
 11
-362.47536281215429
 21
446.21870884215417
 31
0.0
  0
LINE
  5
A0D24
  8
DETAIL
 10
-354.20000000000073
 20
450.469564625413
 30
0.0
 11
-354.20000000000073
 21
457.5
 31
0.0
  0
LINE
  5
A0D25
  8
DETAIL
 10
-360.20000000000073
 20
450.469564625413
 30
0.0
 11
-360.20000000000073
 21
457.5
 31
0.0
  0
LINE
  5
A0D26
  8
DETAIL
 10
-352.70000000000073
 20
446.21870884215417
 30
0.0
 11
-352.70000000000073
 21
435.21870884215417
 31
0.0
  0
LINE
  5
A0D27
  8
DETAIL
 10
-361.70000000000073
 20
435.21870884215417
 30
0.0
 11
-361.70000000000073
 21
446.21870884215417
 31
0.0
  0
LINE
  5
A0D28
  8
DETAIL
 10
-353.20000000000073
 20
430.71870884215411
 30
0.0
 11
-361.20000000000073
 21
430.71870884215411
 31
0.0
  0
LINE
  5
A0D29
  8
DETAIL
 10
-347.70000000000073
 20
435.21870884215417
 30
0.0
 11
-353.20000000000073
 21
430.71870884215411
 31
0.0
  0
LINE
  5
A0D2A
  8
DETAIL
 10
-347.70000000000073
 20
435.21870884215417
 30
0.0
 11
-347.70000000000073
 21
446.21870884215417
 31
0.0
  0
LINE
  5
A0D2B
  8
DETAIL
 10
-370.11584159893391
 20
467.20000000000073
 30
0.0
 11
-370.11584159893391
 21
460.78202073425012
 31
0.0
  0
LINE
  5
A0D2C
  8
DETAIL
 10
-364.47536281215429
 20
457.5
 30
0.0
 11
-364.47536281215429
 21
450.469564625413
 31
0.0
  0
LINE
  5
A0D2D
  8
DETAIL
 10
-366.70000000000073
 20
446.21870884215417
 30
0.0
 11
-366.70000000000073
 21
435.21870884215417
 31
0.0
  0
LINE
  5
A0D2E
  8
DETAIL
 10
-394.0
 20
457.0
 30
0.0
 11
-364.47536281215429
 21
457.0
 31
0.0
  0
LINE
  5
A0D2F
  8
DETAIL
 10
-67.099999999998545
 20
547.0
 30
0.0
 11
-394.0
 21
547.0
 31
0.0
  0
LINE
  5
A0D30
  8
DETAIL
 10
-280.20000000000073
 20
513.49999999999989
 30
0.0
 11
-291.70000000000073
 21
513.49999999999989
 31
0.0
  0
LINE
  5
A0D31
  8
DETAIL
 10
-280.20000000000073
 20
520.5
 30
0.0
 11
-291.70000000000073
 21
520.5
 31
0.0
  0
LINE
  5
A0D32
  8
DETAIL
 10
-280.20000000000073
 20
527.0
 30
0.0
 11
-302.70000000000073
 21
527.0
 31
0.0
  0
LINE
  5
A0D33
  8
DETAIL
 10
-397.20000000000073
 20
567.49999999999989
 30
0.0
 11
-2.2000000000007272
 21
567.49999999999989
 31
0.0
  0
ARC
  5
A0D34
  8
DETAIL
 10
-272.0
 20
968.30678499999885
 30
0.0
 40
17.0
 50
180.0
 51
0.000000000000007
  0
LINE
  5
A0D35
  8
DETAIL
 10
-269.39999999999782
 20
549.29999999999927
 30
0.0
 11
-69.399999999997803
 21
549.29999999999927
 31
0.0
  0
CIRCLE
  5
A0D36
  8
DETAIL
 10
-119.3999999999978
 20
526.9999999999618
 30
0.0
 40
2.25
  0
LINE
  5
A0D37
  8
DETAIL
 10
-69.399999999997803
 20
547.0
 30
0.0
 11
-69.399999999997803
 21
549.29999999999927
 31
0.0
  0
LINE
  5
A0D38
  8
DETAIL
 10
-269.39999999999782
 20
547.0
 30
0.0
 11
-269.39999999999782
 21
549.29999999999927
 31
0.0
  0
CIRCLE
  5
A0D39
  8
DETAIL
 10
-219.39999999999779
 20
527.9999999999618
 30
0.0
 40
2.25
  0
LINE
  5
A0D3A
  8
DETAIL
 10
-280.20000000000073
 20
527.0
 30
0.0
 11
-280.20000000000073
 21
520.5
 31
0.0
  0
LINE
  5
A0D3B
  8
DETAIL
 10
-49.89999999999781
 20
880.54999999999927
 30
0.0
 11
-49.89999999999781
 21
778.54999999999916
 31
0.0
  0
LINE
  5
A0D3C
  8
DETAIL
 10
-84.899999999997803
 20
778.54999999999916
 30
0.0
 11
-84.899999999997803
 21
880.54999999999927
 31
0.0
  0
LINE
  5
A0D3D
  8
DETAIL
 10
-78.399999999997817
 20
867.54999999999916
 30
0.0
 11
-78.399999999997817
 21
799.54999999999916
 31
0.0
  0
LINE
  5
A0D3E
  8
DETAIL
 10
-56.399999999997817
 20
867.54999999999916
 30
0.0
 11
-56.399999999997817
 21
799.54999999999916
 31
0.0
  0
ARC
  5
A0D3F
  8
DETAIL
 10
-53.899999999999643
 20
778.55000000000109
 30
0.0
 40
4.0000000000006821
 50
270.0
 51
0.000000000000007
  0
ARC
  5
A0D40
  8
DETAIL
 10
-80.899999999997803
 20
778.55000000000109
 30
0.0
 40
4.0000000000009104
 50
180.0
 51
270.0
  0
LINE
  5
A0D41
  8
DETAIL
 10
-53.899999999997817
 20
774.54999999999916
 30
0.0
 11
-80.899999999997803
 21
774.54999999999916
 31
0.0
  0
LINE
  5
A0D42
  8
DETAIL
 10
-56.399999999997817
 20
786.54999999999916
 30
0.0
 11
-78.399999999997817
 21
786.54999999999916
 31
0.0
  0
LINE
  5
A0D43
  8
DETAIL
 10
-59.39999999999781
 20
796.54999999999916
 30
0.0
 11
-75.399999999997817
 21
796.54999999999916
 31
0.0
  0
ARC
  5
A0D44
  8
DETAIL
 10
-75.399999999997817
 20
782.55000000000109
 30
0.0
 40
3.0000000000013629
 50
180.0
 51
270.0
  0
LINE
  5
A0D45
  8
DETAIL
 10
-59.39999999999781
 20
779.54999999999916
 30
0.0
 11
-75.399999999997817
 21
779.54999999999916
 31
0.0
  0
ARC
  5
A0D46
  8
DETAIL
 10
-59.400000000001462
 20
782.55000000000109
 30
0.0
 40
3.000000000001136
 50
270.00000000005213
 51
0.000000000000007
  0
ARC
  5
A0D47
  8
DETAIL
 10
-75.399999999997817
 20
799.55000000000109
 30
0.0
 40
3.0000000000013629
 50
180.0
 51
270.0
  0
ARC
  5
A0D48
  8
DETAIL
 10
-59.400000000001462
 20
799.55000000000109
 30
0.0
 40
3.000000000001136
 50
270.00000000005213
 51
0.000000000000007
  0
LINE
  5
A0D49
  8
DETAIL
 10
-78.399999999997817
 20
782.54999999999916
 30
0.0
 11
-78.399999999997817
 21
799.54999999999916
 31
0.0
  0
LINE
  5
A0D4A
  8
DETAIL
 10
-56.399999999997817
 20
799.54999999999916
 30
0.0
 11
-56.399999999997817
 21
782.54999999999916
 31
0.0
  0
LINE
  5
A0D4B
  8
DETAIL
 10
-56.399999999997817
 20
796.54999999999916
 30
0.0
 11
-59.39999999999781
 21
796.54999999999916
 31
0.0
  0
LINE
  5
A0D4C
  8
DETAIL
 10
-75.399999999997817
 20
796.54999999999916
 30
0.0
 11
-78.399999999997817
 21
796.54999999999916
 31
0.0
  0
CIRCLE
  5
A0D4D
  8
DETAIL
 10
-67.399999999997803
 20
809.54999999999916
 30
0.0
 40
7.0
  0
ARC
  5
A0D4E
  8
DETAIL
 10
-53.899999999999643
 20
880.54999999999745
 30
0.0
 40
4.0000000000009104
 50
0.000000000000007
 51
90.0
  0
LINE
  5
A0D4F
  8
DETAIL
 10
-80.899999999997803
 20
884.54999999999916
 30
0.0
 11
-53.899999999997817
 21
884.54999999999916
 31
0.0
  0
ARC
  5
A0D50
  8
DETAIL
 10
-80.899999999997803
 20
880.54999999999745
 30
0.0
 40
4.0000000000006821
 50
90.0
 51
180.0
  0
ARC
  5
A0D51
  8
DETAIL
 10
-67.399999999997803
 20
867.54999999999916
 30
0.0
 40
11.0
 50
0.000000000000007
 51
180.0
  0
ARC
  5
A0D52
  8
DETAIL
 10
-222.0
 20
968.30678499999885
 30
0.0
 40
17.0
 50
180.0
 51
0.000000000000007
  0
LINE
  5
A0D53
  8
DETAIL
 10
-347.0
 20
546.99999999999807
 30
0.0
 11
-394.0
 21
546.99999999999807
 31
0.0
  0
LINE
  5
A0D54
  8
DETAIL
 10
-376.20000000000073
 20
525.39999999999964
 30
0.0
 11
-317.20000000000073
 21
525.39999999999964
 31
0.0
  0
LINE
  5
A0D55
  8
DETAIL
 10
-300.70000000000073
 20
525.625
 30
0.0
 11
-317.20000000000073
 21
523.56249999999989
 31
0.0
  0
ARC
  5
A0D56
  8
DETAIL
 10
-291.70000000000073
 20
517.0
 30
0.0
 40
3.5
 50
90.0
 51
270.0
  0
LINE
  5
A0D57
  8
DETAIL
 10
-302.70000000000073
 20
525.375
 30
0.0
 11
-302.70000000000073
 21
527.0
 31
0.0
  0
LINE
  5
A0D58
  8
DETAIL
 10
-312.5
 20
909.9067849999991
 30
0.0
 11
-331.49999999999989
 21
909.9067849999991
 31
0.0
  0
LINE
  5
A0D59
  8
DETAIL
 10
-312.5
 20
876.70678500000031
 30
0.0
 11
-312.5
 21
909.9067849999991
 31
0.0
  0
LINE
  5
A0D5A
  8
DETAIL
 10
-331.49999999999989
 20
876.70678500000031
 30
0.0
 11
-312.5
 21
876.70678500000031
 31
0.0
  0
LINE
  5
A0D5B
  8
DETAIL
 10
-331.49999999999989
 20
909.9067849999991
 30
0.0
 11
-331.49999999999989
 21
876.70678500000031
 31
0.0
  0
LINE
  5
A0D5C
  8
DETAIL
 10
-306.36680199999859
 20
936.99999999999807
 30
0.0
 11
-337.86680199999859
 21
936.99999999999807
 31
0.0
  0
LINE
  5
A0D5D
  8
DETAIL
 10
-306.36680199999859
 20
926.99999999999807
 30
0.0
 11
-306.36680199999859
 21
936.99999999999807
 31
0.0
  0
LINE
  5
A0D5E
  8
DETAIL
 10
-337.86680199999859
 20
926.99999999999807
 30
0.0
 11
-306.36680199999859
 21
926.99999999999807
 31
0.0
  0
LINE
  5
A0D5F
  8
DETAIL
 10
-337.86680199999859
 20
936.99999999999807
 30
0.0
 11
-337.86680199999859
 21
926.99999999999807
 31
0.0
  0
ARC
  5
A0D60
  8
DETAIL
 10
-321.95837699999902
 20
893.30678499999885
 30
0.0
 40
1.541623000000071
 50
180.0
 51
0.000000000000007
  0
LINE
  5
A0D61
  8
DETAIL
 10
-320.4167529999977
 20
893.30678499999885
 30
0.0
 11
-319.91675299999758
 21
900.23427899999842
 31
0.0
  0
LINE
  5
A0D62
  8
DETAIL
 10
-323.49999999999989
 20
893.30678499999885
 30
0.0
 11
-323.96035299999852
 21
900.20355100000063
 31
0.0
  0
ARC
  5
A0D63
  8
DETAIL
 10
-322.0
 20
893.30678499999885
 30
0.0
 40
3.999999999999706
 50
115.7916409999832
 51
62.619217000027781
  0
ARC
  5
A0D64
  8
DETAIL
 10
-322.0
 20
893.30678499999885
 30
0.0
 40
6.9999999999997904
 50
106.16449699999509
 51
72.834116999981958
  0
ARC
  5
A0D65
  8
DETAIL
 10
-321.95837699999902
 20
899.67345300000113
 30
0.0
 40
2.0699939999999959
 50
9.0244720000504337
 51
170.50312699996991
  0
CIRCLE
  5
A0D66
  8
DETAIL
 10
-322.0
 20
968.30678499999885
 30
0.0
 40
6.0
  0
LINE
  5
A0F2F
  8
DETAIL
 10
400.0
 20
1747.999999999998
 30
0.0
 11
-400.0
 21
1747.999999999998
 31
0.0
  0
LINE
  5
A0F30
  8
DETAIL
 10
402.0
 20
1749.999999999998
 30
0.0
 11
-402.0
 21
1749.999999999998
 31
0.0
  0
LINE
  5
A0F31
  8
DETAIL
 10
397.0
 20
1742.499999999998
 30
0.0
 11
-397.0
 21
1742.499999999998
 31
0.0
  0
LINE
  5
A0F32
  8
DETAIL
 10
397.0
 20
1164.999999999998
 30
0.0
 11
2.0
 21
1164.999999999998
 31
0.0
  0
LINE
  5
A0F33
  8
DETAIL
 10
-397.0
 20
1172.499999999998
 30
0.0
 11
397.0
 21
1172.499999999998
 31
0.0
  0
LINE
  5
A0F34
  8
DETAIL
 10
397.0
 20
1172.499999999998
 30
0.0
 11
397.0
 21
1742.499999999998
 31
0.0
  0
LINE
  5
A0F35
  8
DETAIL
 10
397.0
 20
1163.399999999999
 30
0.0
 11
397.0
 21
1063.399999999999
 31
0.0
  0
LINE
  5
A0F36
  8
DETAIL
 10
402.0
 20
1724.999999999998
 30
0.0
 11
400.4000000000014
 21
1724.999999999998
 31
0.0
  0
LINE
  5
A0F37
  8
DETAIL
 10
402.0
 20
1724.999999999998
 30
0.0
 11
402.0
 21
1749.999999999998
 31
0.0
  0
LINE
  5
A0F3D
  8
DETAIL
 10
-397.0
 20
1742.499999999998
 30
0.0
 11
-397.0
 21
1172.499999999998
 31
0.0
  0
LINE
  5
A0F3E
  8
DETAIL
 10
-297.0
 20
1030.999999999998
 30
0.0
 11
-167.0
 21
1030.999999999998
 31
0.0
  0
LINE
  5
A0F3F
  8
DETAIL
 10
-167.0
 20
1089.999999999998
 30
0.0
 11
-297.0
 21
1089.999999999998
 31
0.0
  0
LINE
  5
A0F40
  8
DETAIL
 10
-287.0
 20
1040.999999999998
 30
0.0
 11
-177.0
 21
1040.999999999998
 31
0.0
  0
LINE
  5
A0F41
  8
DETAIL
 10
-177.0
 20
1079.999999999998
 30
0.0
 11
-287.0
 21
1079.999999999998
 31
0.0
  0
LINE
  5
A0F42
  8
DETAIL
 10
-255.0
 20
992.30678499999885
 30
0.0
 11
-289.0
 21
992.30678499999885
 31
0.0
  0
LINE
  5
A0F43
  8
DETAIL
 10
-2.2000000000007272
 20
1164.999999999998
 30
0.0
 11
-397.20000000000073
 21
1164.999999999998
 31
0.0
  0
LINE
  5
A0F44
  8
DETAIL
 10
-167.0
 20
1030.999999999998
 30
0.0
 11
-167.0
 21
1089.999999999998
 31
0.0
  0
LINE
  5
A0F45
  8
DETAIL
 10
-177.0
 20
1040.999999999998
 30
0.0
 11
-177.0
 21
1079.999999999998
 31
0.0
  0
LINE
  5
A0F46
  8
DETAIL
 10
-205.0
 20
992.30678499999885
 30
0.0
 11
-239.0
 21
992.30678499999885
 31
0.0
  0
LINE
  5
A0F47
  8
DETAIL
 10
-253.783503999999
 20
1066.3720110000011
 30
0.0
 11
-253.783503999999
 21
1077.859972
 31
0.0
  0
LINE
  5
A0F48
  8
DETAIL
 10
-253.783503999999
 20
1077.859972
 30
0.0
 11
-276.93745699999999
 21
1077.859972
 31
0.0
  0
LINE
  5
A0F49
  8
DETAIL
 10
-276.93745699999999
 20
1077.859972
 30
0.0
 11
-276.93745699999999
 21
1066.3720110000011
 31
0.0
  0
LINE
  5
A0F4A
  8
DETAIL
 10
-276.93745699999999
 20
1066.3720110000011
 30
0.0
 11
-253.783503999999
 21
1066.3720110000011
 31
0.0
  0
LINE
  5
A0F4B
  8
DETAIL
 10
-337.74999999999989
 20
1039.999999999998
 30
0.0
 11
-306.25
 21
1039.999999999998
 31
0.0
  0
LINE
  5
A0F4C
  8
DETAIL
 10
-337.74999999999989
 20
1029.999999999998
 30
0.0
 11
-337.74999999999989
 21
1039.999999999998
 31
0.0
  0
LINE
  5
A0F4D
  8
DETAIL
 10
-306.25
 20
1029.999999999998
 30
0.0
 11
-337.74999999999989
 21
1029.999999999998
 31
0.0
  0
LINE
  5
A0F4E
  8
DETAIL
 10
-306.25
 20
1039.999999999998
 30
0.0
 11
-306.25
 21
1029.999999999998
 31
0.0
  0
LINE
  5
A0F4F
  8
DETAIL
 10
-337.74999999999989
 20
1089.999999999998
 30
0.0
 11
-306.25
 21
1089.999999999998
 31
0.0
  0
LINE
  5
A0F50
  8
DETAIL
 10
-337.74999999999989
 20
1079.999999999998
 30
0.0
 11
-337.74999999999989
 21
1089.999999999998
 31
0.0
  0
LINE
  5
A0F51
  8
DETAIL
 10
-306.25
 20
1079.999999999998
 30
0.0
 11
-337.74999999999989
 21
1079.999999999998
 31
0.0
  0
LINE
  5
A0F52
  8
DETAIL
 10
-306.25
 20
1089.999999999998
 30
0.0
 11
-306.25
 21
1079.999999999998
 31
0.0
  0
LINE
  5
A0F53
  8
DETAIL
 10
-297.0
 20
1089.999999999998
 30
0.0
 11
-297.0
 21
1030.999999999998
 31
0.0
  0
LINE
  5
A0F54
  8
DETAIL
 10
-287.0
 20
1079.999999999998
 30
0.0
 11
-287.0
 21
1040.999999999998
 31
0.0
  0
LINE
  5
A0F55
  8
DETAIL
 10
-337.74999999999989
 20
989.99999999999818
 30
0.0
 11
-306.25
 21
989.99999999999818
 31
0.0
  0
LINE
  5
A0F56
  8
DETAIL
 10
-337.74999999999989
 20
979.99999999999807
 30
0.0
 11
-337.74999999999989
 21
989.99999999999818
 31
0.0
  0
LINE
  5
A0F57
  8
DETAIL
 10
-306.25
 20
979.99999999999807
 30
0.0
 11
-337.74999999999989
 21
979.99999999999807
 31
0.0
  0
LINE
  5
A0F58
  8
DETAIL
 10
-306.25
 20
989.99999999999818
 30
0.0
 11
-306.25
 21
979.99999999999807
 31
0.0
  0
CIRCLE
  5
A0F59
  8
DETAIL
 10
-322.0
 20
1018.3067849999979
 30
0.0
 40
6.0
  0
CIRCLE
  5
A0F5A
  8
DETAIL
 10
-322.0
 20
1068.3067849999979
 30
0.0
 40
6.0
  0
LINE
  5
A0F5B
  8
DETAIL
 10
-402.0
 20
1724.999999999998
 30
0.0
 11
-402.0
 21
1749.999999999998
 31
0.0
  0
LINE
  5
A0F5C
  8
DETAIL
 10
-402.0
 20
1724.999999999998
 30
0.0
 11
-400.39999999999782
 21
1724.999999999998
 31
0.0
  0
LINE
  5
A27DB
  8
SIZE
 10
406.0
 20
0.0003450171407152
 30
0.0
 11
636.54565464804136
 21
0.0003450171406499
 31
0.0
  0
LINE
  5
A27DC
  8
SIZE
 10
405.0
 20
1750.000000000005
 30
0.0
 11
636.54565464804182
 21
1750.000000000005
 31
0.0
  0
LINE
  5
A27DD
  8
SIZE
 10
616.54565464804136
 20
12.000345017140649
 30
0.0
 11
616.54565464804182
 21
1738.000000000005
 31
0.0
  0
LINE
  5
A27E1
  8
SIZE
 10
-347.0
 20
-58.999999999996362
 30
0.0
 11
-347.0
 21
-351.9211603333224
 31
0.0
  0
LINE
  5
A27E2
  8
SIZE
 10
-400.00000000001268
 20
-1.999999999994543
 30
0.0
 11
-400.00000000001268
 21
-351.9211603333224
 31
0.0
  0
LINE
  5
A27E3
  8
SIZE
 10
-359.0
 20
-331.92116033332229
 30
0.0
 11
-388.00000000001268
 21
-331.92116033332229
 31
0.0
  0
LINE
  5
A27E4
  8
SIZE
 10
-400.00000000001268
 20
-331.92116033332229
 30
0.0
 11
-504.85714285715551
 21
-331.92116033332229
 31
0.0
  0
LINE
  5
A27E8
  8
SIZE
 10
299.70000000000073
 20
66.988548704617642
 30
0.0
 11
299.70000000000073
 21
-241.1300608084693
 31
0.0
  0
LINE
  5
A27E9
  8
SIZE
 10
-59.299999999999272
 20
66.98855628770616
 30
0.0
 11
-59.299999999999287
 21
-241.1300608084693
 31
0.0
  0
LINE
  5
A27EA
  8
SIZE
 10
287.70000000000073
 20
-221.1300608084693
 30
0.0
 11
-47.299999999999287
 21
-221.1300608084693
 31
0.0
  0
LINE
  5
A27EE
  8
SIZE
 10
347.0
 20
-59.0
 30
0.0
 11
347.0
 21
-138.28246756489349
 31
0.0
  0
LINE
  5
A27EF
  8
SIZE
 10
-0.0000000000000003
 20
-24.999999999994539
 30
0.0
 11
-0.0000000000000072
 21
-138.28246756489349
 31
0.0
  0
LINE
  5
A27F0
  8
SIZE
 10
335.0
 20
-118.28246756489349
 30
0.0
 11
11.999999999999989
 21
-118.28246756489349
 31
0.0
  0
LINE
  5
A27F4
  8
SIZE
 10
400.0
 20
-1.999999999994543
 30
0.0
 11
399.99999999999989
 21
-466.47048554844332
 31
0.0
  0
LINE
  5
A27F5
  8
SIZE
 10
-400.0
 20
-1.999999999994543
 30
0.0
 11
-400.0
 21
-466.47048554844332
 31
0.0
  0
LINE
  5
A27F6
  8
SIZE
 10
388.0
 20
-446.47048554844332
 30
0.0
 11
-388.0
 21
-446.47048554844332
 31
0.0
  0
LINE
  5
A27FA
  8
SIZE
 10
347.0
 20
-58.999654982859283
 30
0.0
 11
347.0
 21
-351.9211603333224
 31
0.0
  0
LINE
  5
A27FB
  8
SIZE
 10
-347.0
 20
-58.999999999996362
 30
0.0
 11
-347.0
 21
-351.9211603333224
 31
0.0
  0
LINE
  5
A27FC
  8
SIZE
 10
335.0
 20
-331.92116033332229
 30
0.0
 11
-335.0
 21
-331.92116033332229
 31
0.0
  0
LINE
  5
A2800
  8
SIZE
 10
-59.299999999999272
 20
66.98855628770616
 30
0.0
 11
-59.299999999999287
 21
-241.1300608084693
 31
0.0
  0
LINE
  5
A2801
  8
SIZE
 10
-400.00000000001268
 20
-1.999999999994543
 30
0.0
 11
-400.00000000001268
 21
-241.1300608084693
 31
0.0
  0
LINE
  5
A2802
  8
SIZE
 10
-71.299999999999301
 20
-221.1300608084693
 30
0.0
 11
-388.00000000001268
 21
-221.1300608084693
 31
0.0
  0
LINE
  5
A2806
  8
SIZE
 10
417.261443712301
 20
184.5500000000047
 30
0.0
 11
526.05048534030334
 21
184.5500000000047
 31
0.0
  0
LINE
  5
A2807
  8
SIZE
 10
417.261443712301
 20
781.55000000000473
 30
0.0
 11
526.05048534030345
 21
781.55000000000473
 31
0.0
  0
LINE
  5
A2808
  8
SIZE
 10
506.0504853403034
 20
196.5500000000047
 30
0.0
 11
506.05048534030362
 21
769.55000000000473
 31
0.0
  0
LINE
  5
A280C
  8
SIZE
 10
347.0
 20
-58.999654982859283
 30
0.0
 11
347.0
 21
-351.9211603333224
 31
0.0
  0
LINE
  5
A280D
  8
SIZE
 10
400.0
 20
-1.999999999994543
 30
0.0
 11
400.0
 21
-351.9211603333224
 31
0.0
  0
LINE
  5
A280E
  8
SIZE
 10
359.0
 20
-331.92116033332229
 30
0.0
 11
388.0
 21
-331.92116033332229
 31
0.0
  0
LINE
  5
A280F
  8
SIZE
 10
400.0
 20
-331.92116033332229
 30
0.0
 11
504.85714285714278
 21
-331.92116033332229
 31
0.0
  0
LINE
  5
A2813
  8
SIZE
 10
299.70000000000073
 20
66.988548704617642
 30
0.0
 11
299.70000000000073
 21
-241.1300608084693
 31
0.0
  0
LINE
  5
A2814
  8
SIZE
 10
400.0
 20
-1.999999999994543
 30
0.0
 11
400.0
 21
-241.1300608084693
 31
0.0
  0
LINE
  5
A2815
  8
SIZE
 10
311.70000000000073
 20
-221.1300608084693
 30
0.0
 11
388.0
 21
-221.1300608084693
 31
0.0
  0
LINE
  5
A2816
  8
SIZE
 10
400.0
 20
-221.1300608084693
 30
0.0
 11
539.14285714285711
 21
-221.1300608084693
 31
0.0
  0
LINE
  5
A281A
  8
SIZE
 10
402.04549707433029
 20
0.0003450171407152
 30
0.0
 11
526.05048534030345
 21
0.0003450171406801
 31
0.0
  0
LINE
  5
A281B
  8
SIZE
 10
417.261443712301
 20
184.5500000000047
 30
0.0
 11
526.05048534030345
 21
184.5500000000047
 31
0.0
  0
LINE
  5
A281C
  8
SIZE
 10
506.05048534030351
 20
12.000345017140679
 30
0.0
 11
506.05048534030362
 21
172.5500000000047
 31
0.0
  0
TEXT
  5
A2820
  8
SIZE
 10
-494.85714285715562
 20
-321.9211603333224
 30
0.0
 40
50.0
  1
53
 41
0.9
  0
TEXT
  5
A2821
  8
SIZE
 10
-277.86428571429173
 20
-211.1300608084693
 30
0.0
 40
50.0
  1
341
 41
0.9
  0
CIRCLE
  5
A2822
  8
SIZE
 10
-347.0
 20
-331.92116033332229
 30
0.0
 40
6.0
  0
LINE
  5
A2823
  8
SIZE
 10
-341.0
 20
-331.92116033332229
 30
0.0
 11
-335.0
 21
-331.92116033332229
 31
0.0
  0
CIRCLE
  5
A2824
  8
SIZE
 10
-400.00000000001268
 20
-331.92116033332229
 30
0.0
 40
6.0
  0
LINE
  5
A2825
  8
SIZE
 10
-394.00000000001268
 20
-331.92116033332229
 30
0.0
 11
-388.00000000001268
 21
-331.92116033332229
 31
0.0
  0
CIRCLE
  5
A2826
  8
SIZE
 10
-347.0
 20
-331.92116033332229
 30
0.0
 40
6.0
  0
LINE
  5
A2827
  8
SIZE
 10
-353.0
 20
-331.92116033332229
 30
0.0
 11
-359.0
 21
-331.92116033332229
 31
0.0
  0
CIRCLE
  5
A2828
  8
SIZE
 10
-400.0
 20
-446.47048554844332
 30
0.0
 40
6.0
  0
LINE
  5
A2829
  8
SIZE
 10
-394.0
 20
-446.47048554844332
 30
0.0
 11
-388.0
 21
-446.47048554844332
 31
0.0
  0
CIRCLE
  5
A282A
  8
SIZE
 10
-400.00000000001268
 20
-221.1300608084693
 30
0.0
 40
6.0
  0
LINE
  5
A282B
  8
SIZE
 10
-394.00000000001268
 20
-221.1300608084693
 30
0.0
 11
-388.00000000001268
 21
-221.1300608084693
 31
0.0
  0
TEXT
  5
A282C
  8
SIZE
 10
115.6428571428571
 20
-108.28246756489349
 30
0.0
 40
50.0
  1
347
 41
0.9
  0
TEXT
  5
A282D
  8
SIZE
 10
63.414285714286443
 20
-211.1300608084693
 30
0.0
 40
50.0
  1
359
 41
0.9
  0
TEXT
  5
A282E
  8
SIZE
 10
-57.857142857142868
 20
-436.47048554844332
 30
0.0
 40
50.0
  1
800
 41
0.9
  0
TEXT
  5
A282F
  8
SIZE
 10
-58.928571428571409
 20
-321.9211603333224
 30
0.0
 40
50.0
  1
694
 41
0.9
  0
CIRCLE
  5
A2830
  8
SIZE
 10
-0.000000000000006
 20
-118.28246756489349
 30
0.0
 40
6.0
  0
LINE
  5
A2831
  8
SIZE
 10
5.9999999999999929
 20
-118.28246756489349
 30
0.0
 11
11.999999999999989
 21
-118.28246756489349
 31
0.0
  0
CIRCLE
  5
A2832
  8
SIZE
 10
-59.299999999999287
 20
-221.1300608084693
 30
0.0
 40
6.0
  0
LINE
  5
A2833
  8
SIZE
 10
-65.299999999999301
 20
-221.1300608084693
 30
0.0
 11
-71.299999999999301
 21
-221.1300608084693
 31
0.0
  0
CIRCLE
  5
A2834
  8
SIZE
 10
-59.299999999999287
 20
-221.1300608084693
 30
0.0
 40
6.0
  0
LINE
  5
A2835
  8
SIZE
 10
-53.299999999999287
 20
-221.1300608084693
 30
0.0
 11
-47.299999999999287
 21
-221.1300608084693
 31
0.0
  0
CIRCLE
  5
A2836
  8
SIZE
 10
616.54565464804136
 20
0.0003450171406556
 30
0.0
 40
6.0
  0
LINE
  5
A2837
  8
SIZE
 10
616.54565464804136
 20
6.0003450171406554
 30
0.0
 11
616.54565464804136
 21
12.000345017140649
 31
0.0
  0
TEXT
  5
A2838
  8
SIZE
 10
422.0
 20
-211.1300608084693
 30
0.0
 40
50.0
  1
100
 41
0.9
  0
TEXT
  5
A2839
  8
SIZE
 10
422.0
 20
-321.9211603333224
 30
0.0
 40
50.0
  1
53
 41
0.9
  0
CIRCLE
  5
A283A
  8
SIZE
 10
400.0
 20
-331.92116033332229
 30
0.0
 40
6.0
  0
LINE
  5
A283B
  8
SIZE
 10
394.0
 20
-331.92116033332229
 30
0.0
 11
388.0
 21
-331.92116033332229
 31
0.0
  0
CIRCLE
  5
A283C
  8
SIZE
 10
347.0
 20
-331.92116033332229
 30
0.0
 40
6.0
  0
LINE
  5
A283D
  8
SIZE
 10
353.0
 20
-331.92116033332229
 30
0.0
 11
359.0
 21
-331.92116033332229
 31
0.0
  0
CIRCLE
  5
A283E
  8
SIZE
 10
347.0
 20
-331.92116033332229
 30
0.0
 40
6.0
  0
LINE
  5
A283F
  8
SIZE
 10
341.0
 20
-331.92116033332229
 30
0.0
 11
335.0
 21
-331.92116033332229
 31
0.0
  0
CIRCLE
  5
A2840
  8
SIZE
 10
400.0
 20
-446.47048554844332
 30
0.0
 40
6.0
  0
LINE
  5
A2841
  8
SIZE
 10
394.0
 20
-446.47048554844332
 30
0.0
 11
388.0
 21
-446.47048554844332
 31
0.0
  0
CIRCLE
  5
A2842
  8
SIZE
 10
299.70000000000073
 20
-221.1300608084693
 30
0.0
 40
6.0
  0
LINE
  5
A2843
  8
SIZE
 10
305.70000000000073
 20
-221.1300608084693
 30
0.0
 11
311.70000000000073
 21
-221.1300608084693
 31
0.0
  0
CIRCLE
  5
A2844
  8
SIZE
 10
347.0
 20
-118.28246756489349
 30
0.0
 40
6.0
  0
LINE
  5
A2845
  8
SIZE
 10
341.0
 20
-118.28246756489349
 30
0.0
 11
335.0
 21
-118.28246756489349
 31
0.0
  0
CIRCLE
  5
A2846
  8
SIZE
 10
299.70000000000073
 20
-221.1300608084693
 30
0.0
 40
6.0
  0
LINE
  5
A2847
  8
SIZE
 10
293.70000000000073
 20
-221.1300608084693
 30
0.0
 11
287.70000000000073
 21
-221.1300608084693
 31
0.0
  0
CIRCLE
  5
A2848
  8
SIZE
 10
400.0
 20
-221.1300608084693
 30
0.0
 40
6.0
  0
LINE
  5
A2849
  8
SIZE
 10
394.0
 20
-221.1300608084693
 30
0.0
 11
388.0
 21
-221.1300608084693
 31
0.0
  0
TEXT
  5
A284A
  8
SIZE
 10
496.05048534030351
 20
38.70374393714421
 30
0.0
 40
50.0
  1
185
 50
90.0
 41
0.9
  0
CIRCLE
  5
A284B
  8
SIZE
 10
506.05048534030351
 20
0.0003450171406858
 30
0.0
 40
6.0
  0
LINE
  5
A284C
  8
SIZE
 10
506.05048534030351
 20
6.0003450171406847
 30
0.0
 11
506.05048534030351
 21
12.000345017140679
 31
0.0
  0
CIRCLE
  5
A284D
  8
SIZE
 10
506.05048534030362
 20
184.5500000000047
 30
0.0
 40
6.0
  0
LINE
  5
A284E
  8
SIZE
 10
506.05048534030362
 20
178.55000000000459
 30
0.0
 11
506.05048534030362
 21
172.5500000000047
 31
0.0
  0
CIRCLE
  5
A284F
  8
SIZE
 10
506.0504853403034
 20
184.5500000000047
 30
0.0
 40
6.0
  0
LINE
  5
A2850
  8
SIZE
 10
506.0504853403034
 20
190.5500000000047
 30
0.0
 11
506.0504853403034
 21
196.5500000000047
 31
0.0
  0
TEXT
  5
A2851
  8
SIZE
 10
606.54565464804136
 20
800.00017250857309
 30
0.0
 40
50.0
  1
1750
 50
90.0
 41
0.9
  0
TEXT
  5
A2852
  8
SIZE
 10
496.0504853403034
 20
425.1928571428619
 30
0.0
 40
50.0
  1
597
 50
90.0
 41
0.9
  0
CIRCLE
  5
A2853
  8
SIZE
 10
506.05048534030362
 20
781.55000000000473
 30
0.0
 40
6.0
  0
LINE
  5
A2854
  8
SIZE
 10
506.05048534030362
 20
775.55000000000473
 30
0.0
 11
506.05048534030362
 21
769.55000000000473
 31
0.0
  0
CIRCLE
  5
A2855
  8
SIZE
 10
616.54565464804182
 20
1750.000000000005
 30
0.0
 40
6.0
  0
LINE
  5
A2856
  8
SIZE
 10
616.54565464804182
 20
1744.000000000005
 30
0.0
 11
616.54565464804182
 21
1738.000000000005
 31
0.0
  0
LINE
  5
A2857
  8
OUTLINE
 10
400.0
 20
1747.999999999998
 30
0.0
 11
400.0
 21
550.0
 31
0.0
  0
LINE
  5
A2858
  8
OUTLINE
 10
-400.0
 20
1747.999999999998
 30
0.0
 11
-400.0
 21
550.0
 31
0.0
  0
LINE
  5
A2859
  8
OUTLINE
 10
397.0
 20
1172.499999999998
 30
0.0
 11
397.0
 21
1742.499999999998
 31
0.0
  0
LINE
  5
A285A
  8
OUTLINE
 10
-397.0
 20
1742.499999999998
 30
0.0
 11
-397.0
 21
1172.499999999998
 31
0.0
  0
LINE
  5
A285B
  8
OUTLINE
 10
2.0
 20
567.49999999999989
 30
0.0
 11
397.0
 21
567.49999999999989
 31
0.0
  0
LINE
  5
A285C
  8
OUTLINE
 10
-112.5945287076938
 20
430.20000000000073
 30
0.0
 11
297.0
 21
430.20000000000073
 31
0.0
  0
LINE
  5
A285D
  8
OUTLINE
 10
-109.8999999999978
 20
433.20000000000061
 30
0.0
 11
297.0
 21
433.20000000000061
 31
0.0
  0
LINE
  5
A285E
  8
OUTLINE
 10
-42.099999999998538
 20
463.20000000000073
 30
0.0
 11
297.0
 21
463.20000000000073
 31
0.0
  0
LINE
  5
A285F
  8
OUTLINE
 10
397.0
 20
1164.999999999998
 30
0.0
 11
2.0
 21
1164.999999999998
 31
0.0
  0
LINE
  5
A2860
  8
OUTLINE
 10
397.0
 20
3.0
 30
0.0
 11
-397.0
 21
3.0
 31
0.0
  0
LINE
  5
A2861
  8
OUTLINE
 10
297.0
 20
80.0
 30
0.0
 11
-297.0
 21
80.0
 31
0.0
  0
LINE
  5
A2862
  8
OUTLINE
 10
-397.0
 20
0.0
 30
0.0
 11
397.0
 21
0.0
 31
0.0
  0
LINE
  5
A2863
  8
OUTLINE
 10
297.0
 20
347.20000000000073
 30
0.0
 11
-297.0
 21
347.20000000000073
 31
0.0
  0
LINE
  5
A2864
  8
OUTLINE
 10
297.0
 20
377.20000000000073
 30
0.0
 11
-297.0
 21
377.20000000000073
 31
0.0
  0
LINE
  5
A2865
  8
OUTLINE
 10
297.0
 20
380.20000000000073
 30
0.0
 11
-297.0
 21
380.20000000000073
 31
0.0
  0
LINE
  5
A2866
  8
OUTLINE
 10
-297.0
 20
83.0
 30
0.0
 11
297.00000000000182
 21
83.0
 31
0.0
  0
LINE
  5
A2867
  8
OUTLINE
 10
400.0
 20
550.0
 30
0.0
 11
-400.0
 21
550.0
 31
0.0
  0
LINE
  5
A2868
  8
OUTLINE
 10
-397.0
 20
1172.499999999998
 30
0.0
 11
397.0
 21
1172.499999999998
 31
0.0
  0
LINE
  5
A2869
  8
OUTLINE
 10
-347.0
 20
381.79999999999922
 30
0.0
 11
-347.0
 21
350.0
 31
0.0
  0
LINE
  5
A286A
  8
OUTLINE
 10
-300.0
 20
80.0
 30
0.0
 11
-300.0
 21
380.79999999999922
 31
0.0
  0
LINE
  5
A286B
  8
OUTLINE
 10
-297.0
 20
380.79999999999922
 30
0.0
 11
-297.0
 21
80.0
 31
0.0
  0
LINE
  5
A286C
  8
OUTLINE
 10
-397.0
 20
550.0
 30
0.0
 11
-397.0
 21
0.0
 31
0.0
  0
LINE
  5
A286D
  8
OUTLINE
 10
-394.0
 20
349.99999999999812
 30
0.0
 11
-394.0
 21
546.99999999999807
 31
0.0
  0
LINE
  5
A286E
  8
OUTLINE
 10
-101.30700217914629
 20
228.1500000000014
 30
0.0
 11
-85.199999999991618
 21
228.1500000000014
 31
0.0
  0
LINE
  5
A286F
  8
OUTLINE
 10
-0.1999999999970896
 20
91.249999999998181
 30
0.0
 11
-111.5042986650369
 21
91.250000243455375
 31
0.0
  0
LINE
  5
A2870
  8
OUTLINE
 10
-0.1999999999970896
 20
107.1499999999978
 30
0.0
 11
-111.5000000482577
 21
107.15000000502729
 31
0.0
  0
LINE
  5
A2871
  8
OUTLINE
 10
-44.665297653975351
 20
284.79170452517241
 30
0.0
 11
-127.09170452517709
 21
202.36529765397239
 31
0.0
  0
LINE
  5
A2872
  8
OUTLINE
 10
-55.908295474842816
 20
296.0347023460381
 30
0.0
 11
-138.33470234604459
 21
213.60829547483621
 31
0.0
  0
LINE
  5
A2873
  8
OUTLINE
 10
-117.20700217914781
 20
212.25000000000179
 30
0.0
 11
-85.199999999991618
 21
212.25000000000179
 31
0.0
  0
ARC
  5
A2874
  8
OUTLINE
 10
-250.0000000000436
 20
90.999999999947249
 30
0.0
 40
38.000000000074138
 50
347.84680253106791
 51
175.0489252567325
  0
LINE
  5
A2875
  8
OUTLINE
 10
-297.0
 20
93.136868637375301
 30
0.0
 11
-250.98607613997771
 21
98.888609119887406
 31
0.0
  0
LINE
  5
A2876
  8
OUTLINE
 10
-296.99999999998897
 20
166.1347259145295
 30
0.0
 11
-296.99999999998897
 21
93.136868637377134
 31
0.0
  0
LINE
  5
A2877
  8
OUTLINE
 10
-394.0
 20
80.0
 30
0.0
 11
-394.0
 21
350.0
 31
0.0
  0
LINE
  5
A2878
  8
OUTLINE
 10
-297.0
 20
80.0
 30
0.0
 11
-397.0
 21
80.0
 31
0.0
  0
LINE
  5
A2879
  8
OUTLINE
 10
-400.0
 20
3.0
 30
0.0
 11
-400.0
 21
83.0
 31
0.0
  0
ARC
  5
A287A
  8
OUTLINE
 10
-396.99999999999812
 20
3.0
 30
0.0
 40
3.000000000001136
 50
180.0
 51
270.0
  0
LINE
  5
A287B
  8
OUTLINE
 10
-397.0
 20
83.0
 30
0.0
 11
-400.0
 21
83.0
 31
0.0
  0
LINE
  5
A287C
  8
OUTLINE
 10
-397.0
 20
350.0
 30
0.0
 11
-347.0
 21
350.0
 31
0.0
  0
LINE
  5
A287D
  8
OUTLINE
 10
-149.44999999999891
 20
162.5502338987753
 30
0.0
 11
-149.44999999999891
 21
128.99999999998721
 31
0.0
  0
LINE
  5
A287E
  8
OUTLINE
 10
-177.95022873041299
 20
83.0
 30
0.0
 11
-177.95022873041299
 21
220.2000000000007
 31
0.0
  0
LINE
  5
A287F
  8
OUTLINE
 10
-162.05022873041341
 20
83.0
 30
0.0
 11
-162.05022873041341
 21
212.25000000000179
 31
0.0
  0
LINE
  5
A2880
  8
OUTLINE
 10
-133.55000000000831
 20
186.7735931288079
 30
0.0
 11
-133.55000000000831
 21
129.199999999997
 31
0.0
  0
LINE
  5
A2881
  8
OUTLINE
 10
-149.450000000008
 20
186.77359312880981
 30
0.0
 11
-149.450000000008
 21
129.19999999998609
 31
0.0
  0
LINE
  5
A2882
  8
OUTLINE
 10
-183.49999999999091
 20
128.0
 30
0.0
 11
-177.95022873041299
 21
128.0
 31
0.0
  0
ARC
  5
A2883
  8
OUTLINE
 10
-169.999999999989
 20
80.999999999998181
 30
0.0
 40
10.702297591759979
 50
137.9749767254487
 51
169.229486999036
  0
ARC
  5
A2884
  8
OUTLINE
 10
-169.999999999989
 20
80.999999999998181
 30
0.0
 40
17.000000000000949
 50
117.88254226115281
 51
173.24367296941921
  0
LINE
  5
A2885
  8
OUTLINE
 10
-183.49999999999091
 20
91.331989159882156
 30
0.0
 11
-183.49999999999091
 21
128.0
 31
0.0
  0
ARC
  5
A2886
  8
OUTLINE
 10
-249.999999999989
 20
91.000000000012733
 30
0.0
 40
12.00000000000378
 50
318.1896851041281
 51
143.8650081872463
  0
LINE
  5
A2887
  8
OUTLINE
 10
-239.03034488539561
 20
83.0
 30
0.0
 11
-234.41154273187021
 21
91.000000000014566
 31
0.0
  0
ARC
  5
A2888
  8
OUTLINE
 10
-249.99999999999079
 20
91.000000000012733
 30
0.0
 40
7.9499999999998092
 50
277.1250163489018
 51
97.125016348901795
  0
LINE
  5
A2889
  8
OUTLINE
 10
-261.60662304383908
 20
97.896739183770464
 30
0.0
 11
-257.79422863405119
 21
104.5000000000145
 31
0.0
  0
LINE
  5
A288A
  8
OUTLINE
 10
-242.2057713659305
 20
104.5000000000145
 30
0.0
 11
-234.41154273187021
 21
91.000000000014566
 31
0.0
  0
LINE
  5
A288B
  8
OUTLINE
 10
-242.2057713659305
 20
104.5000000000145
 30
0.0
 11
-257.79422863405119
 21
104.5000000000145
 31
0.0
  0
LINE
  5
A288C
  8
OUTLINE
 10
-214.11393948451581
 20
78.502373798201006
 30
0.0
 11
-185.896599012005
 21
74.975206239132604
 31
0.0
  0
LINE
  5
A288D
  8
OUTLINE
 10
-212.14178720454581
 20
94.279592037948547
 30
0.0
 11
-183.92444673139099
 21
90.752424478798275
 31
0.0
  0
LINE
  5
A288E
  8
OUTLINE
 10
-162.05022873041341
 20
128.0
 30
0.0
 11
-156.49999999999091
 21
128.0
 31
0.0
  0
ARC
  5
A288F
  8
OUTLINE
 10
-169.99999999999631
 20
80.999999999994543
 30
0.0
 40
10.70229759176978
 50
10.77051300096392
 51
42.028681434556617
  0
ARC
  5
A2890
  8
OUTLINE
 10
-169.99999999998539
 20
81.000000000001819
 30
0.0
 40
16.999999999995168
 50
6.7563270305807803
 51
62.119202022051439
  0
LINE
  5
A2891
  8
OUTLINE
 10
-156.49999999999091
 20
91.331989159889403
 30
0.0
 11
-156.49999999999091
 21
128.0
 31
0.0
  0
ARC
  5
A2892
  8
OUTLINE
 10
-111.5000000000145
 20
128.99999999998721
 30
0.0
 40
37.949999999989593
 50
180.0
 51
269.99999999739441
  0
ARC
  5
A2893
  8
OUTLINE
 10
-111.5000000000236
 20
129.19999999998791
 30
0.0
 40
37.949999999990503
 50
180.0
 51
269.99351000360588
  0
ARC
  5
A2894
  8
OUTLINE
 10
-111.50000000002539
 20
129.19999999998609
 30
0.0
 40
22.049999999988358
 50
180.0
 51
269.99999987467493
  0
ARC
  5
A2895
  8
OUTLINE
 10
-170.00022873041229
 20
220.2000000000007
 30
0.0
 40
7.9499999999998172
 50
90.0
 51
270.0
  0
LINE
  5
A2896
  8
OUTLINE
 10
-170.00022873041411
 20
212.25000000000179
 30
0.0
 11
-139.62748109828129
 21
212.25000000000179
 31
0.0
  0
LINE
  5
A2897
  8
OUTLINE
 10
-170.0002287304159
 20
228.1500000000014
 30
0.0
 11
-123.79299782087941
 21
228.1500000000014
 31
0.0
  0
ARC
  5
A2898
  8
OUTLINE
 10
-111.5000000000109
 20
186.77359312880611
 30
0.0
 40
22.050000000002459
 50
135.0
 51
180.0
  0
ARC
  5
A2899
  8
OUTLINE
 10
-111.5000000000163
 20
186.7735931288079
 30
0.0
 40
37.94999999999753
 50
135.0
 51
180.0
  0
ARC
  5
A289A
  8
OUTLINE
 10
5.8000000000029104
 20
159.19999999999891
 30
0.0
 40
74.300000000000765
 50
180.0
 51
224.4702125124264
  0
ARC
  5
A289B
  8
OUTLINE
 10
5.7999999999992724
 20
159.19999999999891
 30
0.0
 40
45.699999999999591
 50
180.0
 51
270.0
  0
LINE
  5
A289C
  8
OUTLINE
 10
50.800000000001091
 20
83.0
 30
0.0
 11
50.800000000001091
 21
347.20000000000073
 31
0.0
  0
LINE
  5
A289D
  8
OUTLINE
 10
30.799999999999269
 20
83.0
 30
0.0
 11
30.799999999999269
 21
347.20000000000073
 31
0.0
  0
ARC
  5
A289E
  8
OUTLINE
 10
5.7999999999992724
 20
159.1999999999916
 30
0.0
 40
74.299999999991556
 50
246.13987133298659
 51
270.0
  0
LINE
  5
A289F
  8
OUTLINE
 10
-0.1999999999989086
 20
109.1499999999978
 30
0.0
 11
10.799999999999271
 21
109.1499999999978
 31
0.0
  0
LINE
  5
A28A0
  8
OUTLINE
 10
10.80000000000109
 20
89.249999999998167
 30
0.0
 11
-0.1999999999989086
 21
89.249999999998167
 31
0.0
  0
LINE
  5
A28A1
  8
OUTLINE
 10
-0.1999999999989086
 20
109.1499999999978
 30
0.0
 11
-0.1999999999989086
 21
89.249999999998167
 31
0.0
  0
LINE
  5
A28A2
  8
OUTLINE
 10
25.800000000001091
 20
116.5
 30
0.0
 11
50.800000000001091
 21
116.5
 31
0.0
  0
LINE
  5
A28A3
  8
OUTLINE
 10
25.800000000001091
 20
84.899999999999636
 30
0.0
 11
5.8000000000010914
 21
84.899999999999636
 31
0.0
  0
LINE
  5
A28A4
  8
OUTLINE
 10
25.800000000001091
 20
113.5
 30
0.0
 11
5.8000000000010914
 21
113.5
 31
0.0
  0
LINE
  5
A28A5
  8
OUTLINE
 10
25.800000000001091
 20
113.4999999999981
 30
0.0
 11
22.80000000000291
 21
113.4999999999981
 31
0.0
  0
LINE
  5
A28A6
  8
OUTLINE
 10
10.799999999999271
 20
109.1499999999978
 30
0.0
 11
22.80000000000291
 21
113.4999999999981
 31
0.0
  0
LINE
  5
A28A7
  8
OUTLINE
 10
25.800000000001091
 20
83.0
 30
0.0
 11
25.800000000001091
 21
116.5
 31
0.0
  0
LINE
  5
A28A8
  8
OUTLINE
 10
25.800000000001091
 20
84.899999999997803
 30
0.0
 11
22.800000000001091
 21
84.899999999997803
 31
0.0
  0
LINE
  5
A28A9
  8
OUTLINE
 10
22.800000000001091
 20
84.899999999997803
 30
0.0
 11
10.80000000000109
 21
89.249999999998167
 31
0.0
  0
LINE
  5
A28AA
  8
OUTLINE
 10
-39.89999999999781
 20
290.61111465125032
 30
0.0
 11
-39.89999999999781
 21
261.20000000000073
 31
0.0
  0
LINE
  5
A28AB
  8
OUTLINE
 10
-39.89999999999781
 20
202.2000000000007
 30
0.0
 11
-39.89999999999781
 21
238.2000000000007
 31
0.0
  0
LINE
  5
A28AC
  8
OUTLINE
 10
-37.89999999999781
 20
240.2000000000007
 30
0.0
 11
-39.89999999999781
 21
238.2000000000007
 31
0.0
  0
LINE
  5
A28AD
  8
OUTLINE
 10
-37.89999999999781
 20
240.2000000000007
 30
0.0
 11
-37.89999999999781
 21
261.20000000000073
 31
0.0
  0
LINE
  5
A28AE
  8
OUTLINE
 10
-70.5
 20
240.2000000000007
 30
0.0
 11
-68.5
 21
238.2000000000007
 31
0.0
  0
LINE
  5
A28AF
  8
OUTLINE
 10
-70.5
 20
258.95700217914958
 30
0.0
 11
-70.5
 21
240.2000000000007
 31
0.0
  0
LINE
  5
A28B0
  8
OUTLINE
 10
-68.257002179147094
 20
261.20000000000073
 30
0.0
 11
-37.89999999999781
 21
261.20000000000073
 31
0.0
  0
ARC
  5
A28B1
  8
OUTLINE
 10
-71.5
 20
207.75000000000179
 30
0.0
 40
2.9999999999995448
 50
0.000000000000007
 51
90.0
  0
LINE
  5
A28B2
  8
OUTLINE
 10
-68.5
 20
202.2000000000007
 30
0.0
 11
-68.5
 21
207.75000000000179
 31
0.0
  0
LINE
  5
A28B3
  8
OUTLINE
 10
-85.199999999989814
 20
210.75000000000179
 30
0.0
 11
-71.5
 21
210.75000000000179
 31
0.0
  0
ARC
  5
A28B4
  8
OUTLINE
 10
-71.500000000001819
 20
232.65000000000319
 30
0.0
 40
3.000000000001136
 50
270.00000000005213
 51
0.000000000000007
  0
LINE
  5
A28B5
  8
OUTLINE
 10
-85.199999999989814
 20
229.6500000000014
 30
0.0
 11
-71.5
 21
229.6500000000014
 31
0.0
  0
LINE
  5
A28B6
  8
OUTLINE
 10
-68.5
 20
238.2000000000007
 30
0.0
 11
-68.5
 21
232.6500000000014
 31
0.0
  0
LINE
  5
A28B7
  8
OUTLINE
 10
-85.199999999989814
 20
229.6500000000014
 30
0.0
 11
-85.199999999989814
 21
210.75000000000179
 31
0.0
  0
LINE
  5
A28B8
  8
OUTLINE
 10
-70.5
 20
179.2000000000007
 30
0.0
 11
-37.89999999999781
 21
179.2000000000007
 31
0.0
  0
LINE
  5
A28B9
  8
OUTLINE
 10
-70.5
 20
179.2000000000007
 30
0.0
 11
-70.5
 21
200.2000000000007
 31
0.0
  0
LINE
  5
A28BA
  8
OUTLINE
 10
-70.5
 20
200.2000000000007
 30
0.0
 11
-68.5
 21
202.19999999999891
 31
0.0
  0
LINE
  5
A28BB
  8
OUTLINE
 10
-37.89999999999781
 20
200.2000000000007
 30
0.0
 11
-39.89999999999781
 21
202.2000000000007
 31
0.0
  0
LINE
  5
A28BC
  8
OUTLINE
 10
-37.89999999999781
 20
179.2000000000007
 30
0.0
 11
-37.89999999999781
 21
200.2000000000007
 31
0.0
  0
ARC
  5
A28BD
  8
OUTLINE
 10
-71.5
 20
311.62640687119892
 30
0.0
 40
37.949999999995399
 50
315.0
 51
0.000000000000007
  0
LINE
  5
A28BE
  8
OUTLINE
 10
-33.549999999999272
 20
311.62640687120069
 30
0.0
 11
-33.549999999999272
 21
347.20000000000073
 31
0.0
  0
LINE
  5
A28BF
  8
OUTLINE
 10
-68.5
 20
283.44299782088092
 30
0.0
 11
-68.5
 21
347.20000000000073
 31
0.0
  0
LINE
  5
A28C0
  8
OUTLINE
 10
-49.449999999998909
 20
311.62640687120069
 30
0.0
 11
-49.449999999998909
 21
347.20000000000073
 31
0.0
  0
ARC
  5
A28C1
  8
OUTLINE
 10
-71.500000000007276
 20
311.62640687120251
 30
0.0
 40
22.050000000001539
 50
315.0
 51
0.000000000000007
  0
LINE
  5
A28C2
  8
OUTLINE
 10
-68.5
 20
179.2000000000007
 30
0.0
 11
-68.5
 21
159.2000000000007
 31
0.0
  0
LINE
  5
A28C3
  8
OUTLINE
 10
-39.89999999999781
 20
179.2000000000007
 30
0.0
 11
-39.89999999999781
 21
159.2000000000007
 31
0.0
  0
CIRCLE
  5
A28C4
  8
OUTLINE
 10
-88.223085464778706
 20
473.0000000005893
 30
0.0
 40
2.25
  0
LINE
  5
A28C5
  8
OUTLINE
 10
-98.328692494293151
 20
457.0
 30
0.0
 11
-67.099999999998545
 21
457.0
 31
0.0
  0
LINE
  5
A28C6
  8
OUTLINE
 10
-103.8999999999978
 20
381.79999999999922
 30
0.0
 11
-72.899999999997817
 21
381.79999999999922
 31
0.0
  0
LINE
  5
A28C7
  8
OUTLINE
 10
-103.8999999999978
 20
388.19999999999891
 30
0.0
 11
-72.899999999997817
 21
388.19999999999891
 31
0.0
  0
CIRCLE
  5
A28C8
  8
OUTLINE
 10
-119.3999999999978
 20
491.0
 30
0.0
 40
32.5
  0
CIRCLE
  5
A28C9
  8
OUTLINE
 10
-119.3999999999978
 20
491.0
 30
0.0
 40
40.0
  0
LINE
  5
A28CA
  8
OUTLINE
 10
-57.099999999998552
 20
392.60000000000031
 30
0.0
 11
-116.199999999997
 21
392.60000000000031
 31
0.0
  0
LINE
  5
A28CB
  8
OUTLINE
 10
-57.099999999998552
 20
390.19999999999879
 30
0.0
 11
-116.199999999997
 21
390.19999999999879
 31
0.0
  0
LINE
  5
A28CC
  8
OUTLINE
 10
-67.099999999998545
 20
547.0
 30
0.0
 11
-394.0
 21
547.0
 31
0.0
  0
LINE
  5
A28CD
  8
OUTLINE
 10
-397.20000000000073
 20
567.49999999999989
 30
0.0
 11
-2.2000000000007272
 21
567.49999999999989
 31
0.0
  0
LINE
  5
A28CE
  8
OUTLINE
 10
-269.39999999999782
 20
549.29999999999927
 30
0.0
 11
-69.399999999997803
 21
549.29999999999927
 31
0.0
  0
LINE
  5
A28CF
  8
OUTLINE
 10
-2.2000000000007272
 20
1164.999999999998
 30
0.0
 11
-397.20000000000073
 21
1164.999999999998
 31
0.0
  0
LINE
  5
A28D0
  8
OUTLINE
 10
-397.20000000000073
 20
1164.999999999998
 30
0.0
 11
-397.20000000000073
 21
567.49999999999989
 31
0.0
  0
LINE
  5
A28D1
  8
OUTLINE
 10
-226.2054712923017
 20
430.20000000000073
 30
0.0
 11
-297.0
 21
430.20000000000073
 31
0.0
  0
LINE
  5
A28D2
  8
OUTLINE
 10
-228.89999999999779
 20
433.20000000000061
 30
0.0
 11
-297.0
 21
433.20000000000061
 31
0.0
  0
LINE
  5
A28D3
  8
OUTLINE
 10
-349.92463718784518
 20
457.0
 30
0.0
 11
-238.7649167310355
 21
457.0
 31
0.0
  0
LINE
  5
A28D4
  8
OUTLINE
 10
-280.10000000000213
 20
381.79999999999922
 30
0.0
 11
-134.89999999999779
 21
381.79999999999922
 31
0.0
  0
LINE
  5
A28D5
  8
OUTLINE
 10
-354.0
 20
394.60000000000031
 30
0.0
 11
-234.89999999999779
 21
394.60000000000031
 31
0.0
  0
LINE
  5
A28D6
  8
OUTLINE
 10
-354.0
 20
388.19999999999891
 30
0.0
 11
-134.89999999999779
 21
388.19999999999891
 31
0.0
  0
LINE
  5
A28D7
  8
OUTLINE
 10
-370.11584159893391
 20
460.78202073425012
 30
0.0
 11
-344.28415840106391
 21
460.78202073425012
 31
0.0
  0
LINE
  5
A28D8
  8
OUTLINE
 10
-364.47536281215429
 20
457.5
 30
0.0
 11
-349.92463718784518
 21
457.5
 31
0.0
  0
LINE
  5
A28D9
  8
OUTLINE
 10
-364.47536281215429
 20
450.469564625413
 30
0.0
 11
-349.92463718784518
 21
450.469564625413
 31
0.0
  0
LINE
  5
A28DA
  8
OUTLINE
 10
-366.70000000000073
 20
435.21870884215417
 30
0.0
 11
-347.70000000000073
 21
435.21870884215417
 31
0.0
  0
LINE
  5
A28DB
  8
OUTLINE
 10
-347.70000000000073
 20
446.21870884215417
 30
0.0
 11
-366.70000000000073
 21
446.21870884215417
 31
0.0
  0
LINE
  5
A28DC
  8
OUTLINE
 10
-317.20000000000073
 20
467.20000000000073
 30
0.0
 11
-376.20000000000073
 21
467.20000000000073
 31
0.0
  0
LINE
  5
A28DD
  8
OUTLINE
 10
-353.20000000000073
 20
430.71870884215411
 30
0.0
 11
-361.20000000000073
 21
430.71870884215411
 31
0.0
  0
LINE
  5
A28DE
  8
OUTLINE
 10
-376.20000000000073
 20
525.39999999999964
 30
0.0
 11
-317.20000000000073
 21
525.39999999999964
 31
0.0
  0
LINE
  5
A28DF
  8
OUTLINE
 10
-347.0
 20
546.99999999999807
 30
0.0
 11
-394.0
 21
546.99999999999807
 31
0.0
  0
LINE
  5
A28E0
  8
OUTLINE
 10
-357.20000000000073
 20
381.79999999999922
 30
0.0
 11
-310.20000000000073
 21
381.79999999999922
 31
0.0
  0
ARC
  5
A28E1
  8
OUTLINE
 10
-357.20000000000073
 20
385.0
 30
0.0
 40
3.1999999999998181
 50
180.0
 51
0.000000000000007
  0
LINE
  5
A28E2
  8
OUTLINE
 10
-376.20000000000073
 20
525.39999999999964
 30
0.0
 11
-376.20000000000073
 21
467.20000000000073
 31
0.0
  0
LINE
  5
A28E3
  8
OUTLINE
 10
-361.20000000000073
 20
430.71870884215411
 30
0.0
 11
-366.70000000000073
 21
435.21870884215417
 31
0.0
  0
LINE
  5
A28E4
  8
OUTLINE
 10
-362.47536281215429
 20
460.78202073425012
 30
0.0
 11
-362.47536281215429
 21
457.5
 31
0.0
  0
LINE
  5
A28E5
  8
OUTLINE
 10
-362.47536281215429
 20
450.469564625413
 30
0.0
 11
-362.47536281215429
 21
446.21870884215417
 31
0.0
  0
LINE
  5
A28E6
  8
OUTLINE
 10
-354.20000000000073
 20
450.469564625413
 30
0.0
 11
-354.20000000000073
 21
457.5
 31
0.0
  0
LINE
  5
A28E7
  8
OUTLINE
 10
-360.20000000000073
 20
450.469564625413
 30
0.0
 11
-360.20000000000073
 21
457.5
 31
0.0
  0
LINE
  5
A28E8
  8
OUTLINE
 10
-361.70000000000073
 20
435.21870884215417
 30
0.0
 11
-361.70000000000073
 21
446.21870884215417
 31
0.0
  0
LINE
  5
A28E9
  8
OUTLINE
 10
-370.11584159893391
 20
467.20000000000073
 30
0.0
 11
-370.11584159893391
 21
460.78202073425012
 31
0.0
  0
LINE
  5
A28EA
  8
OUTLINE
 10
-364.47536281215429
 20
457.5
 30
0.0
 11
-364.47536281215429
 21
450.469564625413
 31
0.0
  0
LINE
  5
A28EB
  8
OUTLINE
 10
-366.70000000000073
 20
446.21870884215417
 30
0.0
 11
-366.70000000000073
 21
435.21870884215417
 31
0.0
  0
LINE
  5
A28EC
  8
OUTLINE
 10
-391.70000000000073
 20
457.0
 30
0.0
 11
-391.70000000000073
 21
546.99999999999807
 31
0.0
  0
LINE
  5
A28ED
  8
OUTLINE
 10
-394.0
 20
457.0
 30
0.0
 11
-364.47536281215429
 21
457.0
 31
0.0
  0
LINE
  5
A28EE
  8
OUTLINE
 10
-360.39999999999782
 20
385.0
 30
0.0
 11
-360.39999999999782
 21
430.71870884215411
 31
0.0
  0
LINE
  5
A28EF
  8
OUTLINE
 10
-269.39999999999782
 20
457.0
 30
0.0
 11
-269.39999999999782
 21
547.0
 31
0.0
  0
LINE
  5
A28F0
  8
OUTLINE
 10
-271.70000000000073
 20
457.0
 30
0.0
 11
-271.70000000000073
 21
547.0
 31
0.0
  0
LINE
  5
A28F1
  8
OUTLINE
 10
-280.20000000000073
 20
513.50000000000182
 30
0.0
 11
-280.20000000000073
 21
500.49999999999989
 31
0.0
  0
LINE
  5
A28F2
  8
OUTLINE
 10
-280.20000000000073
 20
467.0
 30
0.0
 11
-280.20000000000073
 21
473.5
 31
0.0
  0
LINE
  5
A28F3
  8
OUTLINE
 10
-280.20000000000073
 20
493.5
 30
0.0
 11
-280.20000000000073
 21
480.49999999999989
 31
0.0
  0
LINE
  5
A28F4
  8
OUTLINE
 10
-269.39999999999782
 20
547.0
 30
0.0
 11
-269.39999999999782
 21
549.29999999999927
 31
0.0
  0
LINE
  5
A28F5
  8
OUTLINE
 10
-280.20000000000073
 20
527.0
 30
0.0
 11
-280.20000000000073
 21
520.5
 31
0.0
  0
LINE
  5
A28F6
  8
OUTLINE
 10
-302.70000000000073
 20
525.375
 30
0.0
 11
-302.70000000000073
 21
468.625
 31
0.0
  0
LINE
  5
A28F7
  8
OUTLINE
 10
-300.70000000000073
 20
527.0
 30
0.0
 11
-300.70000000000073
 21
467.0
 31
0.0
  0
LINE
  5
A28F8
  8
OUTLINE
 10
-317.20000000000073
 20
525.39999999999964
 30
0.0
 11
-317.20000000000073
 21
467.20000000000073
 31
0.0
  0
LINE
  5
A28F9
  8
OUTLINE
 10
-300.70000000000073
 20
468.37499999999989
 30
0.0
 11
-317.20000000000073
 21
470.43749999999989
 31
0.0
  0
ARC
  5
A28FA
  8
OUTLINE
 10
-291.70000000000073
 20
497.0
 30
0.0
 40
3.5
 50
90.0
 51
270.0
  0
ARC
  5
A28FB
  8
OUTLINE
 10
-291.70000000000073
 20
477.0
 30
0.0
 40
3.5
 50
90.0
 51
270.0
  0
LINE
  5
A28FC
  8
OUTLINE
 10
-302.70000000000073
 20
468.625
 30
0.0
 11
-302.70000000000073
 21
467.0
 31
0.0
  0
LINE
  5
A28FD
  8
OUTLINE
 10
-351.92463718784518
 20
460.78202073425012
 30
0.0
 11
-351.92463718784518
 21
457.5
 31
0.0
  0
LINE
  5
A28FE
  8
OUTLINE
 10
-344.28415840106391
 20
467.20000000000073
 30
0.0
 11
-344.28415840106391
 21
460.78202073425012
 31
0.0
  0
LINE
  5
A28FF
  8
OUTLINE
 10
-349.92463718784518
 20
450.469564625413
 30
0.0
 11
-349.92463718784518
 21
457.5
 31
0.0
  0
LINE
  5
A2900
  8
OUTLINE
 10
-351.92463718784518
 20
450.469564625413
 30
0.0
 11
-351.92463718784518
 21
446.21870884215417
 31
0.0
  0
LINE
  5
A2901
  8
OUTLINE
 10
-352.70000000000073
 20
446.21870884215417
 30
0.0
 11
-352.70000000000073
 21
435.21870884215417
 31
0.0
  0
LINE
  5
A2902
  8
OUTLINE
 10
-347.70000000000073
 20
435.21870884215417
 30
0.0
 11
-353.20000000000073
 21
430.71870884215411
 31
0.0
  0
LINE
  5
A2903
  8
OUTLINE
 10
-347.70000000000073
 20
435.21870884215417
 30
0.0
 11
-347.70000000000073
 21
446.21870884215417
 31
0.0
  0
LINE
  5
A2904
  8
OUTLINE
 10
-300.70000000000073
 20
525.625
 30
0.0
 11
-317.20000000000073
 21
523.56249999999989
 31
0.0
  0
ARC
  5
A2905
  8
OUTLINE
 10
-291.70000000000073
 20
517.0
 30
0.0
 40
3.5
 50
90.0
 51
270.0
  0
LINE
  5
A2906
  8
OUTLINE
 10
-302.70000000000073
 20
525.375
 30
0.0
 11
-302.70000000000073
 21
527.0
 31
0.0
  0
LINE
  5
A2907
  8
OUTLINE
 10
-280.20000000000073
 20
500.49999999999989
 30
0.0
 11
-291.70000000000073
 21
500.49999999999989
 31
0.0
  0
LINE
  5
A2908
  8
OUTLINE
 10
-280.20000000000073
 20
493.5
 30
0.0
 11
-291.70000000000073
 21
493.5
 31
0.0
  0
LINE
  5
A2909
  8
OUTLINE
 10
-280.20000000000073
 20
473.5
 30
0.0
 11
-291.70000000000073
 21
473.5
 31
0.0
  0
LINE
  5
A290A
  8
OUTLINE
 10
-280.20000000000073
 20
480.49999999999989
 30
0.0
 11
-291.70000000000073
 21
480.49999999999989
 31
0.0
  0
LINE
  5
A290B
  8
OUTLINE
 10
-280.20000000000073
 20
467.0
 30
0.0
 11
-302.70000000000073
 21
467.0
 31
0.0
  0
LINE
  5
A290C
  8
OUTLINE
 10
-280.20000000000073
 20
513.49999999999989
 30
0.0
 11
-291.70000000000073
 21
513.49999999999989
 31
0.0
  0
LINE
  5
A290D
  8
OUTLINE
 10
-280.20000000000073
 20
520.5
 30
0.0
 11
-291.70000000000073
 21
520.5
 31
0.0
  0
LINE
  5
A290E
  8
OUTLINE
 10
-280.20000000000073
 20
527.0
 30
0.0
 11
-302.70000000000073
 21
527.0
 31
0.0
  0
LINE
  5
A290F
  8
OUTLINE
 10
-279.20000000000073
 20
388.20000000000073
 30
0.0
 11
-279.20000000000073
 21
380.79999999999922
 31
0.0
  0
LINE
  5
A2910
  8
OUTLINE
 10
-310.20000000000073
 20
388.20000000000073
 30
0.0
 11
-310.20000000000073
 21
380.79999999999922
 31
0.0
  0
LINE
  5
A2911
  8
OUTLINE
 10
-279.20000000000073
 20
380.79999999999922
 30
0.0
 11
-310.20000000000073
 21
380.79999999999922
 31
0.0
  0
LINE
  5
A2912
  8
OUTLINE
 10
-354.0
 20
385.0
 30
0.0
 11
-354.0
 21
430.71870884215411
 31
0.0
  0
LINE
  5
A2913
  8
OUTLINE
 10
-347.0
 20
457.0
 30
0.0
 11
-347.0
 21
394.60000000000031
 31
0.0
  0
LINE
  5
A2914
  8
OUTLINE
 10
-300.0
 20
457.0
 30
0.0
 11
-300.0
 21
394.60000000000031
 31
0.0
  0
LINE
  5
A2915
  8
OUTLINE
 10
-297.0
 20
457.0
 30
0.0
 11
-297.0
 21
394.60000000000031
 31
0.0
  0
LINE
  5
A2916
  8
OUTLINE
 10
-200.0350832689619
 20
457.0
 30
0.0
 11
-140.47130750570429
 21
457.0
 31
0.0
  0
LINE
  5
A2917
  8
OUTLINE
 10
-212.5945287076938
 20
430.20000000000073
 30
0.0
 11
-126.20547129230179
 21
430.20000000000073
 31
0.0
  0
LINE
  5
A2918
  8
OUTLINE
 10
-128.89999999999779
 20
433.20000000000061
 30
0.0
 11
-209.8999999999977
 21
433.20000000000061
 31
0.0
  0
LINE
  5
A2919
  8
OUTLINE
 10
-203.89999999999779
 20
394.60000000000031
 30
0.0
 11
-172.89999999999779
 21
394.60000000000031
 31
0.0
  0
CIRCLE
  5
A291A
  8
OUTLINE
 10
-188.22308546477871
 20
474.0000000005893
 30
0.0
 40
2.25
  0
CIRCLE
  5
A291B
  8
OUTLINE
 10
-250.57691453555159
 20
474.00000000039648
 30
0.0
 40
2.25
  0
CIRCLE
  5
A291C
  8
OUTLINE
 10
-250.57691453555159
 20
474.00000000039648
 30
0.0
 40
2.25
  0
LINE
  5
A291D
  8
OUTLINE
 10
-228.39999999999779
 20
450.0
 30
0.0
 11
-210.39999999999779
 21
450.0
 31
0.0
  0
LINE
  5
A291E
  8
OUTLINE
 10
-210.39999999999779
 20
460.77149999999892
 30
0.0
 11
-210.39999999999779
 21
450.0
 31
0.0
  0
LINE
  5
A291F
  8
OUTLINE
 10
-228.39999999999779
 20
460.77149999999892
 30
0.0
 11
-228.39999999999779
 21
450.0
 31
0.0
  0
LINE
  5
A2920
  8
OUTLINE
 10
-214.89999999999779
 20
443.40461439720627
 30
0.0
 11
-214.89999999999779
 21
450.0
 31
0.0
  0
LINE
  5
A2921
  8
OUTLINE
 10
-223.89999999999779
 20
443.40461439720627
 30
0.0
 11
-223.89999999999779
 21
450.0
 31
0.0
  0
LINE
  5
A2922
  8
OUTLINE
 10
-223.39999999999779
 20
427.90461439720627
 30
0.0
 11
-228.89999999999779
 21
432.40461439720627
 31
0.0
  0
LINE
  5
A2923
  8
OUTLINE
 10
-215.39999999999779
 20
427.90461439720627
 30
0.0
 11
-223.39999999999779
 21
427.90461439720627
 31
0.0
  0
LINE
  5
A2924
  8
OUTLINE
 10
-209.8999999999977
 20
432.40461439720627
 30
0.0
 11
-215.39999999999779
 21
427.90461439720627
 31
0.0
  0
LINE
  5
A2925
  8
OUTLINE
 10
-228.89999999999779
 20
432.40461439720627
 30
0.0
 11
-209.8999999999977
 21
432.40461439720627
 31
0.0
  0
LINE
  5
A2926
  8
OUTLINE
 10
-209.8999999999977
 20
432.40461439720627
 30
0.0
 11
-209.8999999999977
 21
443.40461439720627
 31
0.0
  0
LINE
  5
A2927
  8
OUTLINE
 10
-214.89999999999779
 20
443.40461439720627
 30
0.0
 11
-214.89999999999779
 21
432.40461439720627
 31
0.0
  0
LINE
  5
A2928
  8
OUTLINE
 10
-223.89999999999779
 20
432.40461439720627
 30
0.0
 11
-223.89999999999779
 21
443.40461439720627
 31
0.0
  0
LINE
  5
A2929
  8
OUTLINE
 10
-228.89999999999779
 20
443.40461439720627
 30
0.0
 11
-228.89999999999779
 21
432.40461439720627
 31
0.0
  0
LINE
  5
A292A
  8
OUTLINE
 10
-209.8999999999977
 20
443.40461439720627
 30
0.0
 11
-228.89999999999779
 21
443.40461439720627
 31
0.0
  0
CIRCLE
  5
A292B
  8
OUTLINE
 10
-219.39999999999779
 20
527.9999999999618
 30
0.0
 40
2.25
  0
CIRCLE
  5
A292C
  8
OUTLINE
 10
-219.39999999999779
 20
492.0
 30
0.0
 40
30.0
  0
CIRCLE
  5
A292D
  8
OUTLINE
 10
-219.39999999999779
 20
492.0
 30
0.0
 40
32.5
  0
CIRCLE
  5
A292E
  8
OUTLINE
 10
-219.39999999999779
 20
492.0
 30
0.0
 40
40.0
  0
LINE
  5
A292F
  8
OUTLINE
 10
-230.00638999321009
 20
502.60621000016903
 30
0.0
 11
-201.72199999999791
 21
474.32229999999981
 31
0.0
  0
LINE
  5
A2930
  8
OUTLINE
 10
-201.72199999999791
 20
474.32220000000052
 30
0.0
 11
-204.22199999999791
 21
478.65229999999968
 31
0.0
  0
LINE
  5
A2931
  8
OUTLINE
 10
-201.72199999999791
 20
474.32229999999981
 30
0.0
 11
-206.05199999999959
 21
476.82229999999981
 31
0.0
  0
ARC
  5
A2932
  8
OUTLINE
 10
-219.39999999999779
 20
391.39999999999782
 30
0.0
 40
4.2000000000002613
 50
139.63240645582869
 51
229.63240645578901
  0
ARC
  5
A2933
  8
OUTLINE
 10
-219.39999999999779
 20
391.39999999999782
 30
0.0
 40
4.2000000000005651
 50
310.36759354421088
 51
40.367593544171257
  0
LINE
  5
A2934
  8
OUTLINE
 10
-234.89999999999779
 20
388.19999999999891
 30
0.0
 11
-234.89999999999779
 21
395.60000000000031
 31
0.0
  0
LINE
  5
A2935
  8
OUTLINE
 10
-203.89999999999779
 20
388.19999999999891
 30
0.0
 11
-203.89999999999779
 21
395.60000000000031
 31
0.0
  0
LINE
  5
A2936
  8
OUTLINE
 10
-234.89999999999779
 20
395.60000000000031
 30
0.0
 11
-222.59999999999849
 21
395.60000000000031
 31
0.0
  0
LINE
  5
A2937
  8
OUTLINE
 10
-216.19999999999891
 20
395.60000000000031
 30
0.0
 11
-203.89999999999779
 21
395.60000000000031
 31
0.0
  0
ARC
  5
A2938
  8
OUTLINE
 10
-219.39999999999779
 20
391.39999999999782
 30
0.0
 40
3.2000000000007272
 50
180.0
 51
0.000000000000007
  0
LINE
  5
A2939
  8
OUTLINE
 10
-216.19999999999891
 20
427.90461439720627
 30
0.0
 11
-216.19999999999891
 21
391.39999999999958
 31
0.0
  0
LINE
  5
A293A
  8
OUTLINE
 10
-222.59999999999849
 20
427.90461439720627
 30
0.0
 11
-222.59999999999849
 21
391.39999999999782
 31
0.0
  0
LINE
  5
A293B
  8
OUTLINE
 10
-101.72199999999791
 20
473.32220000000041
 30
0.0
 11
-104.22199999999791
 21
477.65229999999968
 31
0.0
  0
LINE
  5
A293C
  8
OUTLINE
 10
-101.72199999999791
 20
473.3222999999997
 30
0.0
 11
-106.05199999999959
 21
475.82229999999981
 31
0.0
  0
LINE
  5
A293D
  8
OUTLINE
 10
-110.3999999999978
 20
459.77149999999892
 30
0.0
 11
-110.3999999999978
 21
449.0
 31
0.0
  0
LINE
  5
A293E
  8
OUTLINE
 10
-109.8999999999978
 20
432.40461439720627
 30
0.0
 11
-109.8999999999978
 21
443.40461439720627
 31
0.0
  0
LINE
  5
A293F
  8
OUTLINE
 10
-103.8999999999978
 20
389.19999999999891
 30
0.0
 11
-103.8999999999978
 21
380.79999999999922
 31
0.0
  0
LINE
  5
A2940
  8
OUTLINE
 10
-115.3999999999978
 20
427.90461439720627
 30
0.0
 11
-123.3999999999978
 21
427.90461439720627
 31
0.0
  0
LINE
  5
A2941
  8
OUTLINE
 10
-114.8999999999978
 20
443.40461439720627
 30
0.0
 11
-114.8999999999978
 21
449.0
 31
0.0
  0
LINE
  5
A2942
  8
OUTLINE
 10
-114.8999999999978
 20
443.40461439720627
 30
0.0
 11
-114.8999999999978
 21
432.40461439720627
 31
0.0
  0
CIRCLE
  5
A2943
  8
OUTLINE
 10
-150.57691453555159
 20
473.00000000039648
 30
0.0
 40
2.25
  0
CIRCLE
  5
A2944
  8
OUTLINE
 10
-150.57691453555159
 20
473.00000000039648
 30
0.0
 40
2.25
  0
LINE
  5
A2945
  8
OUTLINE
 10
-128.39999999999779
 20
459.77149999999892
 30
0.0
 11
-128.39999999999779
 21
449.0
 31
0.0
  0
LINE
  5
A2946
  8
OUTLINE
 10
-123.8999999999978
 20
443.40461439720627
 30
0.0
 11
-123.8999999999978
 21
449.0
 31
0.0
  0
LINE
  5
A2947
  8
OUTLINE
 10
-123.3999999999978
 20
427.90461439720627
 30
0.0
 11
-128.89999999999779
 21
432.40461439720627
 31
0.0
  0
LINE
  5
A2948
  8
OUTLINE
 10
-123.8999999999978
 20
432.40461439720627
 30
0.0
 11
-123.8999999999978
 21
443.40461439720627
 31
0.0
  0
LINE
  5
A2949
  8
OUTLINE
 10
-128.89999999999779
 20
443.40461439720627
 30
0.0
 11
-128.89999999999779
 21
432.40461439720627
 31
0.0
  0
CIRCLE
  5
A294A
  8
OUTLINE
 10
-119.3999999999978
 20
526.9999999999618
 30
0.0
 40
2.25
  0
ARC
  5
A294B
  8
OUTLINE
 10
-119.3999999999978
 20
384.99999999999812
 30
0.0
 40
4.2000000000005651
 50
139.63240645582869
 51
40.367593544171257
  0
ARC
  5
A294C
  8
OUTLINE
 10
-119.3999999999978
 20
384.99999999999812
 30
0.0
 40
3.2000000000007272
 50
180.0
 51
0.000000000000007
  0
LINE
  5
A294D
  8
OUTLINE
 10
-122.5999999999985
 20
392.60000000000031
 30
0.0
 11
-159.89999999999779
 21
392.60000000000031
 31
0.0
  0
LINE
  5
A294E
  8
OUTLINE
 10
-122.5999999999985
 20
390.19999999999879
 30
0.0
 11
-159.89999999999779
 21
390.19999999999879
 31
0.0
  0
LINE
  5
A294F
  8
OUTLINE
 10
-169.89999999999779
 20
389.19999999999891
 30
0.0
 11
-159.89999999999779
 21
389.19999999999891
 31
0.0
  0
LINE
  5
A2950
  8
OUTLINE
 10
-159.89999999999779
 20
393.60000000000031
 30
0.0
 11
-159.89999999999779
 21
389.19999999999891
 31
0.0
  0
LINE
  5
A2951
  8
OUTLINE
 10
-169.89999999999779
 20
393.60000000000031
 30
0.0
 11
-159.89999999999779
 21
393.60000000000031
 31
0.0
  0
LINE
  5
A2952
  8
OUTLINE
 10
-169.89999999999779
 20
389.19999999999891
 30
0.0
 11
-172.89999999999779
 21
388.19999999999891
 31
0.0
  0
LINE
  5
A2953
  8
OUTLINE
 10
-172.89999999999779
 20
394.60000000000031
 30
0.0
 11
-169.89999999999779
 21
393.60000000000031
 31
0.0
  0
LINE
  5
A2954
  8
OUTLINE
 10
-134.89999999999779
 20
389.19999999999891
 30
0.0
 11
-122.5999999999985
 21
389.19999999999891
 31
0.0
  0
LINE
  5
A2955
  8
OUTLINE
 10
-134.89999999999779
 20
389.19999999999891
 30
0.0
 11
-134.89999999999779
 21
380.79999999999922
 31
0.0
  0
LINE
  5
A2956
  8
OUTLINE
 10
-116.199999999997
 20
427.90461439720627
 30
0.0
 11
-116.199999999997
 21
385.0
 31
0.0
  0
LINE
  5
A2957
  8
OUTLINE
 10
-122.5999999999985
 20
427.90461439720627
 30
0.0
 11
-122.5999999999985
 21
384.99999999999812
 31
0.0
  0
CIRCLE
  5
A2958
  8
OUTLINE
 10
-119.3999999999978
 20
491.0
 30
0.0
 40
30.0
  0
LINE
  5
A2959
  8
OUTLINE
 10
-130.00638999321009
 20
501.60621000016909
 30
0.0
 11
-101.72199999999791
 21
473.3222999999997
 31
0.0
  0
LINE
  5
A295A
  8
OUTLINE
 10
-103.8999999999978
 20
380.79999999999922
 30
0.0
 11
-134.89999999999779
 21
380.79999999999922
 31
0.0
  0
LINE
  5
A295B
  8
OUTLINE
 10
-110.3999999999978
 20
449.0
 30
0.0
 11
-128.39999999999779
 21
449.0
 31
0.0
  0
LINE
  5
A295C
  8
OUTLINE
 10
-128.89999999999779
 20
432.40461439720627
 30
0.0
 11
-109.8999999999978
 21
432.40461439720627
 31
0.0
  0
LINE
  5
A295D
  8
OUTLINE
 10
-109.8999999999978
 20
443.40461439720627
 30
0.0
 11
-128.89999999999779
 21
443.40461439720627
 31
0.0
  0
LINE
  5
A295E
  8
OUTLINE
 10
-116.199999999997
 20
389.19999999999891
 30
0.0
 11
-103.8999999999978
 21
389.19999999999891
 31
0.0
  0
LINE
  5
A295F
  8
OUTLINE
 10
-109.8999999999978
 20
432.40461439720627
 30
0.0
 11
-115.3999999999978
 21
427.90461439720627
 31
0.0
  0
CIRCLE
  5
A2960
  8
OUTLINE
 10
-272.0
 20
968.30678499999885
 30
0.0
 40
10.0
  0
CIRCLE
  5
A2961
  8
OUTLINE
 10
-272.0
 20
968.30678499999885
 30
0.0
 40
15.0
  0
ARC
  5
A2962
  8
OUTLINE
 10
-272.0
 20
968.30678499999885
 30
0.0
 40
17.0
 50
180.0
 51
0.000000000000007
  0
LINE
  5
A2963
  8
OUTLINE
 10
-255.0
 20
992.30678499999885
 30
0.0
 11
-289.0
 21
992.30678499999885
 31
0.0
  0
LINE
  5
A2964
  8
OUTLINE
 10
-253.783503999999
 20
1077.859972
 30
0.0
 11
-276.93745699999999
 21
1077.859972
 31
0.0
  0
LINE
  5
A2965
  8
OUTLINE
 10
-276.93745699999999
 20
1066.3720110000011
 30
0.0
 11
-253.783503999999
 21
1066.3720110000011
 31
0.0
  0
LINE
  5
A2966
  8
OUTLINE
 10
-287.0
 20
1040.999999999998
 30
0.0
 11
-177.0
 21
1040.999999999998
 31
0.0
  0
LINE
  5
A2967
  8
OUTLINE
 10
-177.0
 20
1079.999999999998
 30
0.0
 11
-287.0
 21
1079.999999999998
 31
0.0
  0
LINE
  5
A2968
  8
OUTLINE
 10
-297.0
 20
1030.999999999998
 30
0.0
 11
-167.0
 21
1030.999999999998
 31
0.0
  0
LINE
  5
A2969
  8
OUTLINE
 10
-167.0
 20
1089.999999999998
 30
0.0
 11
-297.0
 21
1089.999999999998
 31
0.0
  0
LINE
  5
A296A
  8
OUTLINE
 10
-287.0
 20
1079.999999999998
 30
0.0
 11
-287.0
 21
1040.999999999998
 31
0.0
  0
LINE
  5
A296B
  8
OUTLINE
 10
-297.0
 20
1089.999999999998
 30
0.0
 11
-297.0
 21
1030.999999999998
 31
0.0
  0
LINE
  5
A296C
  8
OUTLINE
 10
-289.0
 20
992.30678499999885
 30
0.0
 11
-289.0
 21
968.30678499999885
 31
0.0
  0
LINE
  5
A296D
  8
OUTLINE
 10
-312.5
 20
909.9067849999991
 30
0.0
 11
-331.49999999999989
 21
909.9067849999991
 31
0.0
  0
LINE
  5
A296E
  8
OUTLINE
 10
-312.5
 20
876.70678500000031
 30
0.0
 11
-312.5
 21
909.9067849999991
 31
0.0
  0
LINE
  5
A296F
  8
OUTLINE
 10
-331.49999999999989
 20
876.70678500000031
 30
0.0
 11
-312.5
 21
876.70678500000031
 31
0.0
  0
LINE
  5
A2970
  8
OUTLINE
 10
-331.49999999999989
 20
909.9067849999991
 30
0.0
 11
-331.49999999999989
 21
876.70678500000031
 31
0.0
  0
LINE
  5
A2971
  8
OUTLINE
 10
-306.36680199999859
 20
936.99999999999807
 30
0.0
 11
-337.86680199999859
 21
936.99999999999807
 31
0.0
  0
LINE
  5
A2972
  8
OUTLINE
 10
-306.36680199999859
 20
926.99999999999807
 30
0.0
 11
-306.36680199999859
 21
936.99999999999807
 31
0.0
  0
LINE
  5
A2973
  8
OUTLINE
 10
-337.86680199999859
 20
926.99999999999807
 30
0.0
 11
-306.36680199999859
 21
926.99999999999807
 31
0.0
  0
LINE
  5
A2974
  8
OUTLINE
 10
-337.86680199999859
 20
936.99999999999807
 30
0.0
 11
-337.86680199999859
 21
926.99999999999807
 31
0.0
  0
ARC
  5
A2975
  8
OUTLINE
 10
-321.95837699999902
 20
893.30678499999885
 30
0.0
 40
1.541623000000071
 50
180.0
 51
0.000000000000007
  0
LINE
  5
A2976
  8
OUTLINE
 10
-320.4167529999977
 20
893.30678499999885
 30
0.0
 11
-319.91675299999758
 21
900.23427899999842
 31
0.0
  0
LINE
  5
A2977
  8
OUTLINE
 10
-323.49999999999989
 20
893.30678499999885
 30
0.0
 11
-323.96035299999852
 21
900.20355100000063
 31
0.0
  0
ARC
  5
A2978
  8
OUTLINE
 10
-322.0
 20
893.30678499999885
 30
0.0
 40
3.999999999999706
 50
115.7916409999832
 51
62.619217000027781
  0
ARC
  5
A2979
  8
OUTLINE
 10
-322.0
 20
893.30678499999885
 30
0.0
 40
6.9999999999997904
 50
106.16449699999509
 51
72.834116999981958
  0
ARC
  5
A297A
  8
OUTLINE
 10
-321.95837699999902
 20
899.67345300000113
 30
0.0
 40
2.0699939999999959
 50
9.0244720000504337
 51
170.50312699996991
  0
CIRCLE
  5
A297B
  8
OUTLINE
 10
-322.0
 20
968.30678499999885
 30
0.0
 40
6.0
  0
LINE
  5
A297C
  8
OUTLINE
 10
-337.74999999999989
 20
1039.999999999998
 30
0.0
 11
-306.25
 21
1039.999999999998
 31
0.0
  0
LINE
  5
A297D
  8
OUTLINE
 10
-337.74999999999989
 20
1029.999999999998
 30
0.0
 11
-337.74999999999989
 21
1039.999999999998
 31
0.0
  0
LINE
  5
A297E
  8
OUTLINE
 10
-306.25
 20
1029.999999999998
 30
0.0
 11
-337.74999999999989
 21
1029.999999999998
 31
0.0
  0
LINE
  5
A297F
  8
OUTLINE
 10
-306.25
 20
1039.999999999998
 30
0.0
 11
-306.25
 21
1029.999999999998
 31
0.0
  0
LINE
  5
A2980
  8
OUTLINE
 10
-337.74999999999989
 20
989.99999999999818
 30
0.0
 11
-306.25
 21
989.99999999999818
 31
0.0
  0
LINE
  5
A2981
  8
OUTLINE
 10
-337.74999999999989
 20
979.99999999999807
 30
0.0
 11
-337.74999999999989
 21
989.99999999999818
 31
0.0
  0
LINE
  5
A2982
  8
OUTLINE
 10
-306.25
 20
979.99999999999807
 30
0.0
 11
-337.74999999999989
 21
979.99999999999807
 31
0.0
  0
LINE
  5
A2983
  8
OUTLINE
 10
-306.25
 20
989.99999999999818
 30
0.0
 11
-306.25
 21
979.99999999999807
 31
0.0
  0
CIRCLE
  5
A2984
  8
OUTLINE
 10
-322.0
 20
1018.3067849999979
 30
0.0
 40
6.0
  0
LINE
  5
A2985
  8
OUTLINE
 10
-276.93745699999999
 20
1077.859972
 30
0.0
 11
-276.93745699999999
 21
1066.3720110000011
 31
0.0
  0
LINE
  5
A2986
  8
OUTLINE
 10
-337.74999999999989
 20
1089.999999999998
 30
0.0
 11
-306.25
 21
1089.999999999998
 31
0.0
  0
LINE
  5
A2987
  8
OUTLINE
 10
-337.74999999999989
 20
1079.999999999998
 30
0.0
 11
-337.74999999999989
 21
1089.999999999998
 31
0.0
  0
LINE
  5
A2988
  8
OUTLINE
 10
-306.25
 20
1079.999999999998
 30
0.0
 11
-337.74999999999989
 21
1079.999999999998
 31
0.0
  0
LINE
  5
A2989
  8
OUTLINE
 10
-306.25
 20
1089.999999999998
 30
0.0
 11
-306.25
 21
1079.999999999998
 31
0.0
  0
CIRCLE
  5
A298A
  8
OUTLINE
 10
-322.0
 20
1068.3067849999979
 30
0.0
 40
6.0
  0
LINE
  5
A298B
  8
OUTLINE
 10
-167.0
 20
1030.999999999998
 30
0.0
 11
-167.0
 21
1089.999999999998
 31
0.0
  0
LINE
  5
A298C
  8
OUTLINE
 10
-177.0
 20
1040.999999999998
 30
0.0
 11
-177.0
 21
1079.999999999998
 31
0.0
  0
CIRCLE
  5
A298D
  8
OUTLINE
 10
-222.0
 20
968.30678499999885
 30
0.0
 40
10.0
  0
CIRCLE
  5
A298E
  8
OUTLINE
 10
-222.0
 20
968.30678499999885
 30
0.0
 40
15.0
  0
LINE
  5
A298F
  8
OUTLINE
 10
-205.0
 20
968.30678499999885
 30
0.0
 11
-205.0
 21
992.30678499999885
 31
0.0
  0
LINE
  5
A2990
  8
OUTLINE
 10
-239.0
 20
992.30678499999885
 30
0.0
 11
-239.0
 21
968.30678499999885
 31
0.0
  0
LINE
  5
A2991
  8
OUTLINE
 10
-255.0
 20
968.30678499999885
 30
0.0
 11
-255.0
 21
992.30678499999885
 31
0.0
  0
ARC
  5
A2992
  8
OUTLINE
 10
-222.0
 20
968.30678499999885
 30
0.0
 40
17.0
 50
180.0
 51
0.000000000000007
  0
LINE
  5
A2993
  8
OUTLINE
 10
-205.0
 20
992.30678499999885
 30
0.0
 11
-239.0
 21
992.30678499999885
 31
0.0
  0
LINE
  5
A2994
  8
OUTLINE
 10
-253.783503999999
 20
1066.3720110000011
 30
0.0
 11
-253.783503999999
 21
1077.859972
 31
0.0
  0
LINE
  5
A2995
  8
OUTLINE
 10
2.000678138731018
 20
1164.999999999998
 30
0.0
 11
2.000678138731018
 21
567.49999999999989
 31
0.0
  0
LINE
  5
A2996
  8
OUTLINE
 10
-2.1993218612697092
 20
567.49999999999989
 30
0.0
 11
-2.1993218612697092
 21
1164.999999999998
 31
0.0
  0
LINE
  5
A2997
  8
OUTLINE
 10
2.0
 20
1164.999999999998
 30
0.0
 11
2.0
 21
567.49999999999989
 31
0.0
  0
LINE
  5
A2998
  8
OUTLINE
 10
-2.2000000000007272
 20
567.49999999999989
 30
0.0
 11
-2.2000000000007272
 21
1164.999999999998
 31
0.0
  0
LINE
  5
A2999
  8
OUTLINE
 10
-49.89999999999781
 20
880.54999999999927
 30
0.0
 11
-49.89999999999781
 21
778.54999999999916
 31
0.0
  0
LINE
  5
A299A
  8
OUTLINE
 10
-84.899999999997803
 20
778.54999999999916
 30
0.0
 11
-84.899999999997803
 21
880.54999999999927
 31
0.0
  0
LINE
  5
A299B
  8
OUTLINE
 10
-78.399999999997817
 20
867.54999999999916
 30
0.0
 11
-78.399999999997817
 21
799.54999999999916
 31
0.0
  0
LINE
  5
A299C
  8
OUTLINE
 10
-56.399999999997817
 20
867.54999999999916
 30
0.0
 11
-56.399999999997817
 21
799.54999999999916
 31
0.0
  0
LINE
  5
A299D
  8
OUTLINE
 10
-24.0
 20
463.39999999999958
 30
0.0
 11
-24.0
 21
500.8136606355892
 31
0.0
  0
LINE
  5
A299E
  8
OUTLINE
 10
-67.099999999998545
 20
437.0
 30
0.0
 11
-67.099999999998545
 21
547.0
 31
0.0
  0
LINE
  5
A299F
  8
OUTLINE
 10
-69.399999999997803
 20
457.0
 30
0.0
 11
-69.399999999997803
 21
547.0
 31
0.0
  0
LINE
  5
A29A0
  8
OUTLINE
 10
-35.761539235656521
 20
510.55691854760869
 30
0.0
 11
-47.238460764339827
 21
510.55691854760869
 31
0.0
  0
LINE
  5
A29A1
  8
OUTLINE
 10
-33.0
 20
509.8136606355892
 30
0.0
 11
-50.0
 21
509.8136606355892
 31
0.0
  0
LINE
  5
A29A2
  8
OUTLINE
 10
-33.799999999997453
 20
480.29999999999922
 30
0.0
 11
-36.399999999997817
 21
482.89999999999958
 31
0.0
  0
LINE
  5
A29A3
  8
OUTLINE
 10
-60.399999999997817
 20
480.29999999999922
 30
0.0
 11
-33.799999999997453
 21
480.29999999999922
 31
0.0
  0
LINE
  5
A29A4
  8
OUTLINE
 10
-33.799999999997453
 20
473.29999999999922
 30
0.0
 11
-60.399999999997817
 21
473.29999999999922
 31
0.0
  0
LINE
  5
A29A5
  8
OUTLINE
 10
-35.761539235656521
 20
509.81366063558562
 30
0.0
 11
-35.761539235656521
 21
510.55691854760869
 31
0.0
  0
LINE
  5
A29A6
  8
OUTLINE
 10
-33.799999999997453
 20
473.29999999999922
 30
0.0
 11
-33.799999999997453
 21
480.29999999999922
 31
0.0
  0
LINE
  5
A29A7
  8
OUTLINE
 10
-59.0
 20
463.39999999999958
 30
0.0
 11
-59.0
 21
500.8136606355892
 31
0.0
  0
LINE
  5
A29A8
  8
OUTLINE
 10
-39.138530450705723
 20
511.64999999999958
 30
0.0
 11
-43.861469549290632
 21
511.64999999999958
 31
0.0
  0
LINE
  5
A29A9
  8
OUTLINE
 10
-43.861469549290632
 20
510.55691854760698
 30
0.0
 11
-43.861469549290632
 21
511.64999999999958
 31
0.0
  0
LINE
  5
A29AA
  8
OUTLINE
 10
-47.238460764339827
 20
509.81366063558562
 30
0.0
 11
-47.238460764339827
 21
510.55691854760869
 31
0.0
  0
LINE
  5
A29AB
  8
OUTLINE
 10
-39.138530450705723
 20
510.55691854760698
 30
0.0
 11
-39.138530450705723
 21
511.64999999999958
 31
0.0
  0
ARC
  5
A29AC
  8
OUTLINE
 10
-50.0
 20
500.8136606355892
 30
0.0
 40
9.0000000000009095
 50
90.0
 51
180.0
  0
LINE
  5
A29AD
  8
OUTLINE
 10
-67.099999999998545
 20
463.20000000000073
 30
0.0
 11
-52.099999999998552
 21
463.20000000000073
 31
0.0
  0
ARC
  5
A29AE
  8
OUTLINE
 10
-55.099999999998552
 20
470.49999999999818
 30
0.0
 40
1.9999999999990901
 50
180.0
 51
270.00000000005213
  0
LINE
  5
A29AF
  8
OUTLINE
 10
-57.099999999998552
 20
473.2999999999974
 30
0.0
 11
-57.099999999998552
 21
470.5
 31
0.0
  0
LINE
  5
A29B0
  8
OUTLINE
 10
-39.099999999998538
 20
468.5
 30
0.0
 11
-55.099999999998552
 21
468.5
 31
0.0
  0
ARC
  5
A29B1
  8
OUTLINE
 10
-39.099999999998538
 20
470.5
 30
0.0
 40
2.0000000000006808
 50
270.0
 51
0.000000000000007
  0
LINE
  5
A29B2
  8
OUTLINE
 10
-37.099999999998538
 20
473.2999999999974
 30
0.0
 11
-37.099999999998538
 21
470.5
 31
0.0
  0
LINE
  5
A29B3
  8
OUTLINE
 10
-36.399999999997817
 20
482.89999999999958
 30
0.0
 11
-57.799999999999272
 21
482.9000000000014
 31
0.0
  0
LINE
  5
A29B4
  8
OUTLINE
 10
-36.399999999997817
 20
482.89999999999958
 30
0.0
 11
-36.399999999997817
 21
502.0
 31
0.0
  0
LINE
  5
A29B5
  8
OUTLINE
 10
-57.799999999999272
 20
502.0
 30
0.0
 11
-36.399999999997817
 21
502.0
 31
0.0
  0
LINE
  5
A29B6
  8
OUTLINE
 10
-57.799999999999272
 20
482.9000000000014
 30
0.0
 11
-57.799999999999272
 21
502.0
 31
0.0
  0
LINE
  5
A29B7
  8
OUTLINE
 10
-60.399999999997817
 20
480.29999999999922
 30
0.0
 11
-57.799999999999272
 21
482.9000000000014
 31
0.0
  0
LINE
  5
A29B8
  8
OUTLINE
 10
-52.099999999998552
 20
468.5
 30
0.0
 11
-52.099999999998552
 21
458.49999999999989
 31
0.0
  0
LINE
  5
A29B9
  8
OUTLINE
 10
-42.099999999998538
 20
468.5
 30
0.0
 11
-42.099999999998538
 21
458.49999999999989
 31
0.0
  0
LINE
  5
A29BA
  8
OUTLINE
 10
-60.399999999997817
 20
473.29999999999922
 30
0.0
 11
-60.399999999997817
 21
480.29999999999922
 31
0.0
  0
LINE
  5
A29BB
  8
OUTLINE
 10
-52.099999999998552
 20
458.49999999999989
 30
0.0
 11
-42.099999999998538
 21
458.49999999999989
 31
0.0
  0
LINE
  5
A29BC
  8
OUTLINE
 10
-67.099999999998545
 20
437.0
 30
0.0
 11
-69.399999999997803
 21
437.0
 31
0.0
  0
LINE
  5
A29BD
  8
OUTLINE
 10
-69.399999999997803
 20
457.0
 30
0.0
 11
-69.399999999997803
 21
437.0
 31
0.0
  0
LINE
  5
A29BE
  8
OUTLINE
 10
-69.399999999997803
 20
547.0
 30
0.0
 11
-69.399999999997803
 21
549.29999999999927
 31
0.0
  0
ARC
  5
A29BF
  8
OUTLINE
 10
-32.999999999998181
 20
500.81366063559102
 30
0.0
 40
8.9999999999977263
 50
0.000000000000007
 51
90.0
  0
ARC
  5
A29C0
  8
OUTLINE
 10
-57.099999999998552
 20
401.39999999999782
 30
0.0
 40
11.19999999999831
 50
270.0
 51
321.78678929831062
  0
LINE
  5
A29C1
  8
OUTLINE
 10
-47.099999999998538
 20
383.79999999999922
 30
0.0
 11
-59.89999999999781
 21
383.79999999999922
 31
0.0
  0
LINE
  5
A29C2
  8
OUTLINE
 10
-48.299999999999272
 20
386.19999999999891
 30
0.0
 11
-59.89999999999781
 21
386.19999999999891
 31
0.0
  0
ARC
  5
A29C3
  8
OUTLINE
 10
-47.099999999998538
 20
385.0
 30
0.0
 40
1.200000000000045
 50
180.0
 51
0.000000000000007
  0
LINE
  5
A29C4
  8
OUTLINE
 10
-69.899999999997803
 20
382.79999999999922
 30
0.0
 11
-59.89999999999781
 21
382.79999999999922
 31
0.0
  0
LINE
  5
A29C5
  8
OUTLINE
 10
-59.89999999999781
 20
387.19999999999891
 30
0.0
 11
-59.89999999999781
 21
382.79999999999922
 31
0.0
  0
LINE
  5
A29C6
  8
OUTLINE
 10
-69.899999999997803
 20
387.19999999999891
 30
0.0
 11
-59.89999999999781
 21
387.19999999999891
 31
0.0
  0
LINE
  5
A29C7
  8
OUTLINE
 10
-69.899999999997803
 20
382.79999999999922
 30
0.0
 11
-72.899999999997817
 21
381.79999999999922
 31
0.0
  0
LINE
  5
A29C8
  8
OUTLINE
 10
-72.899999999997817
 20
388.19999999999891
 30
0.0
 11
-69.899999999997803
 21
387.19999999999891
 31
0.0
  0
LINE
  5
A29C9
  8
OUTLINE
 10
-48.299999999999272
 20
458.49999999999989
 30
0.0
 11
-48.299999999999272
 21
385.0
 31
0.0
  0
LINE
  5
A29CA
  8
OUTLINE
 10
-45.899999999997817
 20
458.49999999999989
 30
0.0
 11
-45.899999999997817
 21
385.0
 31
0.0
  0
ARC
  5
A29CB
  8
OUTLINE
 10
-57.099999999996733
 20
401.39999999999782
 30
0.0
 40
8.7999999999983611
 50
270.0
 51
0.000000000000007
  0
LINE
  5
A29CC
  8
OUTLINE
 10
50.800000000001091
 20
550.0
 30
0.0
 11
50.800000000001091
 21
463.20000000000073
 31
0.0
  0
LINE
  5
A29CD
  8
OUTLINE
 10
30.799999999999269
 20
550.0
 30
0.0
 11
30.799999999999269
 21
463.20000000000073
 31
0.0
  0
CIRCLE
  5
A29CE
  8
OUTLINE
 10
35.80000000000291
 20
405.0
 30
0.0
 40
5.0
  0
ARC
  5
A29CF
  8
OUTLINE
 10
-53.899999999999643
 20
778.55000000000109
 30
0.0
 40
4.0000000000006821
 50
270.0
 51
0.000000000000007
  0
ARC
  5
A29D0
  8
OUTLINE
 10
-80.899999999997803
 20
778.55000000000109
 30
0.0
 40
4.0000000000009104
 50
180.0
 51
270.0
  0
LINE
  5
A29D1
  8
OUTLINE
 10
-53.899999999997817
 20
774.54999999999916
 30
0.0
 11
-80.899999999997803
 21
774.54999999999916
 31
0.0
  0
LINE
  5
A29D2
  8
OUTLINE
 10
-56.399999999997817
 20
786.54999999999916
 30
0.0
 11
-78.399999999997817
 21
786.54999999999916
 31
0.0
  0
LINE
  5
A29D3
  8
OUTLINE
 10
-59.39999999999781
 20
796.54999999999916
 30
0.0
 11
-75.399999999997817
 21
796.54999999999916
 31
0.0
  0
ARC
  5
A29D4
  8
OUTLINE
 10
-75.399999999997817
 20
782.55000000000109
 30
0.0
 40
3.0000000000013629
 50
180.0
 51
270.0
  0
LINE
  5
A29D5
  8
OUTLINE
 10
-59.39999999999781
 20
779.54999999999916
 30
0.0
 11
-75.399999999997817
 21
779.54999999999916
 31
0.0
  0
ARC
  5
A29D6
  8
OUTLINE
 10
-59.400000000001462
 20
782.55000000000109
 30
0.0
 40
3.000000000001136
 50
270.00000000005213
 51
0.000000000000007
  0
ARC
  5
A29D7
  8
OUTLINE
 10
-75.399999999997817
 20
799.55000000000109
 30
0.0
 40
3.0000000000013629
 50
180.0
 51
270.0
  0
ARC
  5
A29D8
  8
OUTLINE
 10
-59.400000000001462
 20
799.55000000000109
 30
0.0
 40
3.000000000001136
 50
270.00000000005213
 51
0.000000000000007
  0
LINE
  5
A29D9
  8
OUTLINE
 10
-78.399999999997817
 20
782.54999999999916
 30
0.0
 11
-78.399999999997817
 21
799.54999999999916
 31
0.0
  0
LINE
  5
A29DA
  8
OUTLINE
 10
-56.399999999997817
 20
799.54999999999916
 30
0.0
 11
-56.399999999997817
 21
782.54999999999916
 31
0.0
  0
LINE
  5
A29DB
  8
OUTLINE
 10
-56.399999999997817
 20
796.54999999999916
 30
0.0
 11
-59.39999999999781
 21
796.54999999999916
 31
0.0
  0
LINE
  5
A29DC
  8
OUTLINE
 10
-75.399999999997817
 20
796.54999999999916
 30
0.0
 11
-78.399999999997817
 21
796.54999999999916
 31
0.0
  0
CIRCLE
  5
A29DD
  8
OUTLINE
 10
-67.399999999997803
 20
809.54999999999916
 30
0.0
 40
7.0
  0
ARC
  5
A29DE
  8
OUTLINE
 10
-53.899999999999643
 20
880.54999999999745
 30
0.0
 40
4.0000000000009104
 50
0.000000000000007
 51
90.0
  0
LINE
  5
A29DF
  8
OUTLINE
 10
-80.899999999997803
 20
884.54999999999916
 30
0.0
 11
-53.899999999997817
 21
884.54999999999916
 31
0.0
  0
ARC
  5
A29E0
  8
OUTLINE
 10
-80.899999999997803
 20
880.54999999999745
 30
0.0
 40
4.0000000000006821
 50
90.0
 51
180.0
  0
ARC
  5
A29E1
  8
OUTLINE
 10
-67.399999999997803
 20
867.54999999999916
 30
0.0
 40
11.0
 50
0.000000000000007
 51
180.0
  0
LINE
  5
A29E2
  8
OUTLINE
 10
397.0
 20
550.0
 30
0.0
 11
397.0
 21
0.0
 31
0.0
  0
LINE
  5
A29E3
  8
OUTLINE
 10
300.0
 20
80.0
 30
0.0
 11
300.0
 21
550.0
 31
0.0
  0
LINE
  5
A29E4
  8
OUTLINE
 10
297.0
 20
550.0
 30
0.0
 11
297.0
 21
80.0
 31
0.0
  0
LINE
  5
A29E5
  8
OUTLINE
 10
347.0
 20
350.0
 30
0.0
 11
347.0
 21
550.0
 31
0.0
  0
LINE
  5
A29E6
  8
OUTLINE
 10
394.0
 20
349.99999999999812
 30
0.0
 11
394.0
 21
547.0
 31
0.0
  0
LINE
  5
A29E7
  8
OUTLINE
 10
394.0
 20
350.0
 30
0.0
 11
394.0
 21
83.0
 31
0.0
  0
LINE
  5
A29E8
  8
OUTLINE
 10
274.80000000000467
 20
83.0
 30
0.0
 11
274.80000000000467
 21
347.20000000000073
 31
0.0
  0
LINE
  5
A29E9
  8
OUTLINE
 10
397.0
 20
80.0
 30
0.0
 11
297.0
 21
80.0
 31
0.0
  0
LINE
  5
A29EA
  8
OUTLINE
 10
400.0
 20
3.0
 30
0.0
 11
400.0
 21
83.0
 31
0.0
  0
ARC
  5
A29EB
  8
OUTLINE
 10
397.00000000000182
 20
3.0
 30
0.0
 40
2.9999999999988631
 50
270.0
 51
0.000000000000007
  0
LINE
  5
A29EC
  8
OUTLINE
 10
400.0
 20
83.0
 30
0.0
 11
397.0
 21
83.0
 31
0.0
  0
LINE
  5
A29ED
  8
OUTLINE
 10
397.0
 20
350.0
 30
0.0
 11
347.0
 21
350.0
 31
0.0
  0
LINE
  5
A29EE
  8
OUTLINE
 10
397.0
 20
567.49999999999989
 30
0.0
 11
397.0
 21
1164.999999999998
 31
0.0
  0
LINE
  5
A29EF
  8
OUTLINE
 10
347.0
 20
547.0
 30
0.0
 11
394.0
 21
547.0
 31
0.0
  0
LINE
  5
A29F0
  8
OUTLINE
 10
274.80000000000467
 20
550.0
 30
0.0
 11
274.80000000000467
 21
463.20000000000073
 31
0.0
  0
CIRCLE
  5
A29F1
  8
OUTLINE
 10
289.8000000000028
 20
405.0
 30
0.0
 40
5.0
  0
LINE
  5
A29F2
  8
OUTLINE
 10
397.0
 20
1163.399999999999
 30
0.0
 11
397.0
 21
1063.399999999999
 31
0.0
  0
LINE
  5
A29F3
  8
OUTLINE
 10
400.0
 20
1747.999999999998
 30
0.0
 11
-400.0
 21
1747.999999999998
 31
0.0
  0
LINE
  5
A29F4
  8
OUTLINE
 10
402.0
 20
1749.999999999998
 30
0.0
 11
-402.0
 21
1749.999999999998
 31
0.0
  0
LINE
  5
A29F5
  8
OUTLINE
 10
397.0
 20
1742.499999999998
 30
0.0
 11
-397.0
 21
1742.499999999998
 31
0.0
  0
LINE
  5
A29F6
  8
OUTLINE
 10
-402.0
 20
1724.999999999998
 30
0.0
 11
-402.0
 21
1749.999999999998
 31
0.0
  0
LINE
  5
A29F7
  8
OUTLINE
 10
-402.0
 20
1724.999999999998
 30
0.0
 11
-400.39999999999782
 21
1724.999999999998
 31
0.0
  0
LINE
  5
A29F8
  8
OUTLINE
 10
402.0
 20
1724.999999999998
 30
0.0
 11
400.4000000000014
 21
1724.999999999998
 31
0.0
  0
LINE
  5
A29F9
  8
OUTLINE
 10
402.0
 20
1724.999999999998
 30
0.0
 11
402.0
 21
1749.999999999998
 31
0.0
  0
ENDSEC
  0
EOF
