  0
SECTION
  2
HEADER
  9
$ACADVER
  1
AC1009
  9
$INSBASE
 10
0.0
 20
0.0
 30
0.0
  9
$EXTMIN
 10
-1198.26896595626
 20
-486.77973427824332
 30
-0.0015258207003583
  9
$EXTMAX
 10
1369.9006497133989
 20
2227.8896466699521
 30
0.0000000349246037
  9
$LIMMIN
 10
-1352.9837862245181
 20
-1089.924182486654
  9
$LIMMAX
 10
1443.9034763519589
 20
2630.815217090058
  9
$ORTHOMODE
 70
     1
  9
$REGENMODE
 70
     1
  9
$FILLMODE
 70
     1
  9
$QTEXTMODE
 70
     0
  9
$MIRRTEXT
 70
     0
  9
$DRAGMODE
 70
     2
  9
$LTSCALE
 40
20.0
  9
$OSMODE
 70
   119
  9
$ATTMODE
 70
     1
  9
$TEXTSIZE
 40
64.0
  9
$TRACEWID
 40
0.05
  9
$TEXTSTYLE
  7
STANDARD
  9
$CLAYER
  8
SIZE
  9
$CELTYPE
  6
BYLAYER
  9
$CECOLOR
 62
   256
  9
$DIMSCALE
 40
1.0
  9
$DIMASZ
 40
12.0
  9
$DIMEXO
 40
5.0
  9
$DIMDLI
 40
10.0
  9
$DIMRND
 40
0.0
  9
$DIMDLE
 40
0.0
  9
$DIMEXE
 40
20.0
  9
$DIMTP
 40
0.0
  9
$DIMTM
 40
0.0
  9
$DIMTXT
 40
50.0
  9
$DIMCEN
 40
0.0
  9
$DIMTSZ
 40
0.0
  9
$DIMTOL
 70
     0
  9
$DIMLIM
 70
     0
  9
$DIMTIH
 70
     0
  9
$DIMTOH
 70
     0
  9
$DIMSE1
 70
     0
  9
$DIMSE2
 70
     0
  9
$DIMTAD
 70
     1
  9
$DIMZIN
 70
     0
  9
$DIMBLK
  1
DOTBLANK
  9
$DIMASO
 70
     1
  9
$DIMSHO
 70
     0
  9
$DIMPOST
  1

  9
$DIMAPOST
  1

  9
$DIMALT
 70
     0
  9
$DIMALTD
 70
     2
  9
$DIMALTF
 40
25.399999999999999
  9
$DIMLFAC
 40
1.0
  9
$DIMTOFL
 70
     1
  9
$DIMTVP
 40
0.0
  9
$DIMTIX
 70
     0
  9
$DIMSOXD
 70
     0
  9
$DIMSAH
 70
     0
  9
$DIMBLK1
  1

  9
$DIMBLK2
  1

  9
$DIMSTYLE
  2
STANDARD
  9
$DIMCLRD
 70
     0
  9
$DIMCLRE
 70
     0
  9
$DIMCLRT
 70
     0
  9
$DIMTFAC
 40
1.0
  9
$DIMGAP
 40
10.0
  9
$LUNITS
 70
     2
  9
$LUPREC
 70
     4
  9
$SKETCHINC
 40
0.1
  9
$FILLETRAD
 40
10.0
  9
$AUNITS
 70
     1
  9
$AUPREC
 70
     3
  9
$MENU
  1
ACAD
  9
$ELEVATION
 40
0.0
  9
$PELEVATION
 40
0.0
  9
$THICKNESS
 40
0.0
  9
$LIMCHECK
 70
     0
  9
$BLIPMODE
 70
     0
  9
$CHAMFERA
 40
0.0
  9
$CHAMFERB
 40
0.0
  9
$SKPOLY
 70
     0
  9
$TDCREATE
 40
2449761.4936226849
  9
$TDUPDATE
 40
2453822.62257721
  9
$TDINDWG
 40
10.3335202083
  9
$TDUSRTIMER
 40
10.333514791700001
  9
$USRTIMER
 70
     1
  9
$ANGBASE
 50
0.0
  9
$ANGDIR
 70
     0
  9
$PDMODE
 70
    35
  9
$PDSIZE
 40
20.0
  9
$PLINEWID
 40
0.0
  9
$COORDS
 70
     0
  9
$SPLFRAME
 70
     0
  9
$SPLINETYPE
 70
     6
  9
$SPLINESEGS
 70
     8
  9
$ATTDIA
 70
     0
  9
$ATTREQ
 70
     1
  9
$HANDLING
 70
-16383
  9
$HANDSEED
  5
A92F9
  9
$SURFTAB1
 70
     6
  9
$SURFTAB2
 70
     6
  9
$SURFTYPE
 70
     6
  9
$SURFU
 70
     6
  9
$SURFV
 70
     6
  9
$UCSNAME
  2

  9
$UCSORG
 10
0.0
 20
0.0
 30
0.0
  9
$UCSXDIR
 10
1.0
 20
0.0
 30
0.0
  9
$UCSYDIR
 10
0.0
 20
1.0
 30
0.0
  9
$PUCSNAME
  2

  9
$PUCSORG
 10
0.0
 20
0.0
 30
0.0
  9
$PUCSXDIR
 10
1.0
 20
0.0
 30
0.0
  9
$PUCSYDIR
 10
0.0
 20
1.0
 30
0.0
  9
$USERI1
 70
     0
  9
$USERI2
 70
     0
  9
$USERI3
 70
     0
  9
$USERI4
 70
     0
  9
$USERI5
 70
     0
  9
$USERR1
 40
20.0
  9
$USERR2
 40
0.0
  9
$USERR3
 40
0.0
  9
$USERR4
 40
0.0
  9
$USERR5
 40
0.0
  9
$WORLDVIEW
 70
     1
  9
$SHADEDGE
 70
     3
  9
$SHADEDIF
 70
    70
  9
$TILEMODE
 70
     1
  9
$MAXACTVP
 70
    64
  9
$PLIMCHECK
 70
     0
  9
$PEXTMIN
 10
1.0000000000000000E+020
 20
1.0000000000000000E+020
 30
1.0000000000000000E+020
  9
$PEXTMAX
 10
-1.0000000000000000E+020
 20
-1.0000000000000000E+020
 30
-1.0000000000000000E+020
  9
$PLIMMIN
 10
0.0
 20
0.0
  9
$PLIMMAX
 10
12.0
 20
9.0
  9
$UNITMODE
 70
     0
  9
$VISRETAIN
 70
     1
  9
$PLINEGEN
 70
     0
  9
$PSLTSCALE
 70
     1
  0
ENDSEC
  0
SECTION
  2
TABLES
  0
TABLE
  2
VPORT
 70
     3
  0
VPORT
  2
*ACTIVE
 70
     0
 10
0.0
 20
0.0
 11
1.0
 21
1.0
 12
3423.7036515079521
 22
-359.54100734838812
 13
0.0
 23
0.0
 14
50.0
 24
50.0
 15
100.0
 25
100.0
 16
0.0
 26
0.0
 36
1.0
 17
0.0
 27
0.0
 37
0.0
 40
7345.5544072835446
 41
1.57544757033248
 42
50.0
 43
0.0
 44
0.0
 50
0.0
 51
0.0
 71
     0
 72
  1000
 73
     1
 74
     0
 75
     0
 76
     0
 77
     0
 78
     0
  0
ENDTAB
  0
TABLE
  2
LTYPE
 70
     2
  0
LTYPE
  2
CONTINUOUS
 70
     0
  3
実線
 72
    65
 73
     0
 40
0.0
  0
LTYPE
  2
DASHDOT
 70
     0
  3
____ _ ____ _ ____ _ ____ _ ____ _ ____ _ ____
 72
    65
 73
     4
 40
5.5
 49
4.0
 49
-0.6
 49
0.3
 49
-0.6
  0
ENDTAB
  0
TABLE
  2
LAYER
 70
    10
  0
LAYER
  2
0
 70
     0
 62
     7
  6
CONTINUOUS
  0
LAYER
  2
SIZE
 70
     0
 62
    30
  6
CONTINUOUS
  0
LAYER
  2
DETAIL
 70
     0
 62
     5
  6
CONTINUOUS
  0
LAYER
  2
BASIS
 70
     0
 62
     6
  6
DASHDOT
  0
LAYER
  2
NOTE
 70
     0
 62
     4
  6
CONTINUOUS
  0
LAYER
  2
ARRANGE
 70
     0
 62
     1
  6
CONTINUOUS
  0
LAYER
  2
FIX
 70
     0
 62
    11
  6
CONTINUOUS
  0
LAYER
  2
ETC
 70
     0
 62
    61
  6
CONTINUOUS
  0
LAYER
  2
DEFPOINTS
 70
     0
 62
     7
  6
CONTINUOUS
  0
LAYER
  2
OUTLINE
 70
     0
 62
     3
  6
CONTINUOUS
  0
ENDTAB
  0
TABLE
  2
STYLE
 70
     1
  0
STYLE
  2
STANDARD
 70
     0
 40
0.0
 41
0.9
 50
0.0
 71
     0
 42
64.0
  3
SIMPLEX
  4
BIGFONT
  0
ENDTAB
  0
TABLE
  2
VIEW
 70
     1
  0
VIEW
  2
ALL
 70
     0
 40
6056.2300320000013
 10
0.0
 20
58.11501599999999
 41
8400.0
 11
0.0
 21
0.0
 31
1.0
 12
0.0
 22
0.0
 32
0.0
 42
50.0
 43
0.0
 44
0.0
 50
0.0
 71
     0
  0
ENDTAB
  0
TABLE
  2
UCS
 70
     0
  0
ENDTAB
  0
TABLE
  2
APPID
 70
     1
  0
APPID
  2
ACAD
 70
     0
  0
ENDTAB
  0
TABLE
  2
DIMSTYLE
 70
     1
  0
DIMSTYLE
  2
STANDARD
 70
     0
  3

  4

  5

  6

  7

 40
1.0
 41
0.18
 42
0.0625
 43
0.38
 44
0.18
 45
0.0
 46
0.0
 47
0.0
 48
0.0
140
0.18
141
0.09
142
0.0
143
25.399999999999999
144
1.0
145
0.0
146
1.0
147
0.09
 71
     0
 72
     0
 73
     1
 74
     1
 75
     0
 76
     0
 77
     0
 78
     0
170
     0
171
     2
172
     0
173
     0
174
     0
175
     0
176
     0
177
     0
178
     0
  0
ENDTAB
  0
ENDSEC
  0
SECTION
  2
BLOCKS
  0
BLOCK
  8
0
  2
$MODEL_SPACE
 70
     0
 10
0.0
 20
0.0
 30
0.0
  3
$MODEL_SPACE
  1

  0
ENDBLK
  5
20
  8
0
  0
BLOCK
 67
     1
  8
0
  2
$PAPER_SPACE
 70
     0
 10
0.0
 20
0.0
 30
0.0
  3
$PAPER_SPACE
  1

  0
ENDBLK
  5
1C
 67
     1
  8
0
  0
BLOCK
  8
0
  2
_DOTBLANK
 70
     0
 10
0.0
 20
0.0
 30
0.0
  3
_DOTBLANK
  1

  0
CIRCLE
  5
53E7
  8
0
  6
BYBLOCK
 62
     0
 10
0.0
 20
0.0
 30
0.0
 40
0.5
  0
LINE
  5
53E8
  8
0
  6
BYBLOCK
 62
     0
 10
-0.5
 20
0.0
 30
0.0
 11
-1.0
 21
0.0
 31
0.0
  0
ENDBLK
  5
53EA
  8
0
  0
ENDSEC
  0
SECTION
  2
ENTITIES
  0
TEXT
  5
94F09
  8
ETC
  6
CONTINUOUS
 10
463.43564382609742
 20
2163.3386823848609
 30
0.0
 40
64.0
  1
CBCL5003
 41
0.9
  0
LINE
  5
A455B
  8
BASIS
 10
-0.0001158661352747
 20
1982.1793928035511
 30
0.0
 11
-0.0001158661352747
 21
-42.518606849258497
 31
0.0
  0
TEXT
  5
A4562
  8
NOTE
 10
753.87240983874005
 20
381.85267798774288
 30
0.0
 40
50.0
  1
CD JIS 10K-100A
 50
359.99999999999932
 41
0.9
  0
TEXT
  5
A4563
  8
NOTE
 10
753.35410891014271
 20
525.92995724172567
 30
0.0
 40
50.0
  1
CDR JIS 10K-100A
 50
359.99999999999932
 41
0.9
  0
LINE
  5
A4564
  8
NOTE
 10
1369.8735577490299
 20
506.68378021725579
 30
0.0
 11
742.39484538213674
 21
506.68378021725943
 31
0.0
  0
LINE
  5
A4565
  8
NOTE
 10
1339.0894827555539
 20
364.19035793557123
 30
0.0
 11
748.37633820221617
 21
364.19035793557669
 31
0.0
  0
LINE
  5
A456C
  8
NOTE
 10
-422.00011586613522
 20
-54.0
 30
0.0
 11
-422.00011586613522
 21
54.0
 31
0.0
  0
LINE
  5
A456D
  8
NOTE
 10
421.99988413386473
 20
-0.0003450171352597
 30
0.0
 11
444.9525729879033
 21
-42.333581560700623
 31
0.0
  0
LINE
  5
A456E
  8
NOTE
 10
421.99988413386473
 20
-54.0
 30
0.0
 11
421.99988413386473
 21
54.0
 31
0.0
  0
LINE
  5
A456F
  8
NOTE
 10
421.99970195830701
 20
0.0000724417623132
 30
0.0
 11
554.05563047374835
 21
-139.32264865827159
 31
0.0
  0
LINE
  5
A4570
  8
BASIS
 10
-422.00011586613522
 20
40.0
 30
0.0
 11
-422.00011586613522
 21
-40.0
 31
0.0
  0
TEXT
  5
A4573
  8
NOTE
 10
566.44215487468045
 20
-123.3295298195644
 30
0.0
 40
50.0
  1
AH 4-%%c24
 50
359.99999999999932
 41
0.9
  0
LINE
  5
A4574
  8
NOTE
 10
923.46438453885355
 20
-139.32264865828071
 30
0.0
 11
554.05563047374835
 21
-139.32264865827159
 31
0.0
  0
LINE
  5
A4575
  8
NOTE
 10
-48.99288317955051
 20
184.50832424067261
 30
0.0
 11
-565.34405973989385
 21
404.45464539270318
 31
0.0
  0
LINE
  5
A4576
  8
NOTE
 10
-48.993413039489504
 20
781.5008848945381
 30
0.0
 11
-584.91825116151347
 21
556.40811874306564
 31
0.0
  0
LINE
  5
A458D
  8
BASIS
 10
339.99988413386473
 20
914.15167118306272
 30
0.0
 11
339.99988413386473
 21
648.8483360212922
 31
0.0
  0
LINE
  5
A458E
  8
BASIS
 10
-49.000115866131637
 20
914.15167118306272
 30
0.0
 11
-49.000115866131637
 21
648.8483360212922
 31
0.0
  0
LINE
  5
A4590
  8
NOTE
 10
285.99988413382101
 20
781.50000360215199
 30
0.0
 11
393.99988413382101
 21
781.50000360215199
 31
0.0
  0
LINE
  5
A4591
  8
NOTE
 10
286.00066518092439
 20
184.48568670829621
 30
0.0
 11
394.00066518092439
 21
184.48568670829621
 31
0.0
  0
LINE
  5
A4592
  8
NOTE
 10
340.00033099163642
 20
184.500026476242
 30
0.0
 11
387.5904402648784
 21
191.85599964406529
 31
0.0
  0
LINE
  5
A4593
  8
NOTE
 10
340.00066518092439
 20
184.5004093583338
 30
0.0
 11
374.22146098614121
 21
218.38058020120289
 31
0.0
  0
LINE
  5
A4594
  8
NOTE
 10
340.00011785141851
 20
781.49989627522154
 30
0.0
 11
385.67483118024478
 21
766.24376949896214
 31
0.0
  0
LINE
  5
A4595
  8
NOTE
 10
339.99987399982001
 20
781.49987848035005
 30
0.0
 11
742.39484538213674
 21
506.68378021725943
 31
0.0
  0
LINE
  5
A4596
  8
NOTE
 10
339.99987656690149
 20
184.4999955241546
 30
0.0
 11
748.37633820221617
 21
364.19035793557669
 31
0.0
  0
LINE
  5
A4597
  8
BASIS
 10
472.65155171477909
 20
781.50000360215199
 30
0.0
 11
207.34821655286669
 21
781.50000360215199
 31
0.0
  0
LINE
  5
A4598
  8
NOTE
 10
367.99988413386473
 20
0.0
 30
0.0
 11
475.99988413386473
 21
0.0
 31
0.0
  0
LINE
  5
A4599
  8
BASIS
 10
472.65155171477909
 20
184.50000360215191
 30
0.0
 11
207.34821655286669
 21
184.50000360215191
 31
0.0
  0
LINE
  5
A45AA
  8
NOTE
 10
421.99994352111838
 20
0.0000346574252035
 30
0.0
 11
463.04417342566461
 21
-25.18527918670042
 31
0.0
  0
CIRCLE
  5
A45AB
  8
FIX
 10
421.99988413386473
 20
-0.0003450171352597
 30
0.0
 40
8.0
  0
LINE
  5
A45AC
  8
BASIS
 10
421.99988413386473
 20
22.99965498286474
 30
0.0
 11
421.99988413386473
 21
-20.00034501713526
 31
0.0
  0
LINE
  5
A45E0
  8
BASIS
 10
83.651551714779075
 20
184.50000360215191
 30
0.0
 11
-181.65178344713331
 21
184.50000360215191
 31
0.0
  0
LINE
  5
A45E7
  8
NOTE
 10
340.00066518092439
 20
130.48568670829621
 30
0.0
 11
340.00066518092439
 21
238.48568670829621
 31
0.0
  0
LINE
  5
A45E8
  8
BASIS
 10
339.99988413386473
 20
317.15167118306272
 30
0.0
 11
339.99988413386473
 21
51.84833602129401
 31
0.0
  0
LINE
  5
A4605
  8
NOTE
 10
-49.00011586617893
 20
130.50000360215191
 30
0.0
 11
-49.00011586617893
 21
238.50000360215191
 31
0.0
  0
LINE
  5
A4606
  8
NOTE
 10
-48.992929639613969
 20
184.50799255410851
 30
0.0
 11
-84.132249931749357
 21
217.43453217324711
 31
0.0
  0
LINE
  5
A4607
  8
BASIS
 10
-49.000115866131637
 20
317.15167118306272
 30
0.0
 11
-49.000115866131637
 21
51.84833602129401
 31
0.0
  0
LINE
  5
A460E
  8
NOTE
 10
-103.0001158661789
 20
184.50000360215191
 30
0.0
 11
4.9998841338210687
 21
184.50000360215191
 31
0.0
  0
LINE
  5
A460F
  8
NOTE
 10
-48.993118863817472
 20
184.50825917773179
 30
0.0
 11
-96.767475288869718
 21
190.55306769876731
 31
0.0
  0
POINT
  5
A4610
  8
ARRANGE
  6
CONTINUOUS
 10
-0.0000752433616071
 20
0.0000401053475798
 30
0.0
  0
LINE
  5
A461E
  8
BASIS
 10
83.651551714779075
 20
781.50000360215199
 30
0.0
 11
-181.65178344713331
 21
781.50000360215199
 31
0.0
  0
LINE
  5
A4627
  8
NOTE
 10
339.99988413382101
 20
727.50000360215199
 30
0.0
 11
339.99988413382101
 21
835.50000360215199
 31
0.0
  0
LINE
  5
A4628
  8
NOTE
 10
339.99998432552911
 20
781.50019471247094
 30
0.0
 11
368.03433199346631
 21
742.34659726961388
 31
0.0
  0
LINE
  5
A463D
  8
NOTE
 10
-103.00011586613159
 20
781.48528095213805
 30
0.0
 11
4.9998841338683633
 21
781.48528095213805
 31
0.0
  0
LINE
  5
A463E
  8
NOTE
 10
-49.000115866131637
 20
727.48528095213805
 30
0.0
 11
-49.000115866131637
 21
835.48528095213805
 31
0.0
  0
LINE
  5
A463F
  8
NOTE
 10
-48.994208527029507
 20
781.50048443183368
 30
0.0
 11
-83.782055516217042
 21
748.20281869170856
 31
0.0
  0
LINE
  5
A4640
  8
NOTE
 10
-48.993867921973113
 20
781.5008616179548
 30
0.0
 11
-96.701371331392707
 21
774.94929994728773
 31
0.0
  0
LINE
  5
A4808
  8
NOTE
 10
-565.34405973989385
 20
404.45464539270318
 30
0.0
 11
-1197.757322997857
 21
404.4546453927141
 31
0.0
  0
TEXT
  5
A4809
  8
NOTE
 10
-1179.8053546561971
 20
422.11696544487671
 30
0.0
 40
50.0
  1
BR JIS 10K-100A
 50
359.99999999999932
 41
0.9
  0
TEXT
  5
A480A
  8
NOTE
 10
-1135.8957329288139
 20
575.65429576753195
 30
0.0
 40
50.0
  1
B JIS 10K-100A
 50
359.99999999999932
 41
0.9
  0
LINE
  5
A480B
  8
NOTE
 10
-584.91825116151347
 20
556.40811874306564
 30
0.0
 11
-1150.800108676011
 21
556.40811874306928
 31
0.0
  0
LINE
  5
A480F
  8
NOTE
 10
-476.00011586613522
 20
0.0
 30
0.0
 11
-368.00011586613522
 21
0.0
 31
0.0
  0
CIRCLE
  5
A4812
  8
FIX
 10
-422.00011586613522
 20
-0.0003450171352597
 30
0.0
 40
8.0
  0
LINE
  5
A623E
  8
DETAIL
 10
-421.9999999980563
 20
39.999999999998181
 30
0.0
 11
-421.9999999980563
 21
-40.0
 31
0.0
  0
LINE
  5
A7F16
  8
DETAIL
 10
472.39999999805599
 20
1172.499999999998
 30
0.0
 11
472.39999999805599
 21
1944.499999999998
 31
0.0
  0
LINE
  5
A7F17
  8
DETAIL
 10
474.99999999805459
 20
549.99999999999818
 30
0.0
 11
474.99999999805459
 21
1949.999999999998
 31
0.0
  0
LINE
  5
A7F18
  8
DETAIL
 10
-472.00000000194541
 20
1172.499999999998
 30
0.0
 11
-472.00000000194541
 21
1944.499999999998
 31
0.0
  0
LINE
  5
A7F19
  8
DETAIL
 10
-475.0000000019453
 20
1949.999999999998
 30
0.0
 11
-475.0000000019453
 21
549.99999999999818
 31
0.0
  0
LINE
  5
A7F2F
  8
DETAIL
 10
2.0999999980549542
 20
567.49999999999818
 30
0.0
 11
472.1999999980552
 21
567.49999999999818
 31
0.0
  0
LINE
  5
A7F30
  8
DETAIL
 10
2.0999999980549542
 20
1164.999999999998
 30
0.0
 11
472.1999999980552
 21
1164.999999999998
 31
0.0
  0
LINE
  5
A7F31
  8
DETAIL
 10
-472.00000000194541
 20
1172.499999999998
 30
0.0
 11
472.39999999805599
 21
1172.499999999998
 31
0.0
  0
LINE
  5
A7F32
  8
DETAIL
 10
-475.0000000019453
 20
549.99999999999818
 30
0.0
 11
474.99999999805459
 21
549.99999999999818
 31
0.0
  0
LINE
  5
A7F33
  8
DETAIL
 10
-372.0000000019453
 20
450.20000000000073
 30
0.0
 11
371.99999999805448
 21
450.20000000000073
 31
0.0
  0
LINE
  5
A7F34
  8
DETAIL
 10
-372.0000000019453
 20
400.20000000000073
 30
0.0
 11
371.99999999805448
 21
400.20000000000073
 31
0.0
  0
LINE
  5
A7F35
  8
DETAIL
 10
-372.0000000019453
 20
367.20000000000073
 30
0.0
 11
371.99999999805448
 21
367.20000000000073
 31
0.0
  0
LINE
  5
A7F36
  8
DETAIL
 10
371.99999999805448
 20
83.0
 30
0.0
 11
-372.00000000194348
 21
83.0
 31
0.0
  0
LINE
  5
A7F37
  8
DETAIL
 10
472.00000000194348
 20
0.0
 30
0.0
 11
-472.00000000194348
 21
0.0
 31
0.0
  0
LINE
  5
A7F38
  8
DETAIL
 10
245.59999976869489
 20
98.500000000001819
 30
0.0
 11
15.599999768694939
 21
98.500000000001819
 31
0.0
  0
LINE
  5
A7F39
  8
DETAIL
 10
471.99999999805448
 20
549.99999999999818
 30
0.0
 11
471.99999999805448
 21
0.000000000001819
 31
0.0
  0
LINE
  5
A7F3A
  8
DETAIL
 10
371.99999999805448
 20
549.99999999999818
 30
0.0
 11
371.99999999805448
 21
80.000003602151992
 31
0.0
  0
LINE
  5
A7F3B
  8
DETAIL
 10
265.59999976869489
 20
83.0
 30
0.0
 11
265.59999976869489
 21
367.20000000000073
 31
0.0
  0
LINE
  5
A7F3C
  8
DETAIL
 10
250.09999976869489
 20
83.0
 30
0.0
 11
250.09999976869489
 21
310.99999999999812
 31
0.0
  0
LINE
  5
A7F3D
  8
DETAIL
 10
256.09999976869489
 20
83.0
 30
0.0
 11
256.09999976869489
 21
310.99999999999812
 31
0.0
  0
LINE
  5
A7F3E
  8
DETAIL
 10
245.59999976869489
 20
367.20000000000073
 30
0.0
 11
245.59999976869489
 21
98.500000000001819
 31
0.0
  0
LINE
  5
A7F40
  8
DETAIL
 10
474.99999999805459
 20
80.000003602150159
 30
0.0
 11
474.99999999805459
 21
3.0000000000018181
 31
0.0
  0
ARC
  5
A7F41
  8
DETAIL
 10
472.00000000194348
 20
2.99999999323154
 30
0.0
 40
2.9999999961119101
 50
269.99999992574288
 51
0.000000129337543
  0
LINE
  5
A7F42
  8
DETAIL
 10
371.99999999805448
 20
113.774999999996
 30
0.0
 11
339.79999976869379
 21
113.774999999996
 31
0.0
  0
LINE
  5
A7F43
  8
DETAIL
 10
371.99999999805448
 20
158.22499999999491
 30
0.0
 11
339.79999976869561
 21
158.22499999999491
 31
0.0
  0
LINE
  5
A7F44
  8
DETAIL
 10
370.49999999805999
 20
111.7749999999978
 30
0.0
 11
370.49999999805999
 21
160.22499999999491
 31
0.0
  0
LINE
  5
A7F45
  8
DETAIL
 10
474.99999999805459
 20
80.000003602150159
 30
0.0
 11
371.99999999805641
 21
80.000003602150159
 31
0.0
  0
LINE
  5
A7F46
  8
DETAIL
 10
309.79999976869561
 20
171.149999999996
 30
0.0
 11
309.79999976869561
 21
100.84999999999491
 31
0.0
  0
LINE
  5
A7F47
  8
DETAIL
 10
339.79999976869561
 20
111.6999999999952
 30
0.0
 11
339.79999976869561
 21
160.29999999999561
 31
0.0
  0
LINE
  5
A7F48
  8
DETAIL
 10
263.54999976869561
 20
93.549999999995634
 30
0.0
 11
263.54999976869561
 21
178.449999999997
 31
0.0
  0
LINE
  5
A7F49
  8
DETAIL
 10
253.59999976869489
 20
168.4999999999981
 30
0.0
 11
253.59999976869489
 21
103.4999999999981
 31
0.0
  0
LINE
  5
A7F4A
  8
DETAIL
 10
283.89999976869598
 20
91.549999999995634
 30
0.0
 11
283.89999976869598
 21
180.449999999997
 31
0.0
  0
LINE
  5
A7F4B
  8
DETAIL
 10
299.79999976869561
 20
91.549999999995634
 30
0.0
 11
299.79999976869561
 21
180.449999999997
 31
0.0
  0
LINE
  5
A7F4C
  8
DETAIL
 10
283.89999976869598
 20
93.549999999995634
 30
0.0
 11
263.54999976869561
 21
93.549999999995634
 31
0.0
  0
LINE
  5
A7F4D
  8
DETAIL
 10
299.79999976869561
 20
100.84999999999491
 30
0.0
 11
309.79999976869561
 21
100.84999999999491
 31
0.0
  0
LINE
  5
A7F4E
  8
DETAIL
 10
309.79999976869561
 20
111.6999999999952
 30
0.0
 11
339.79999976869561
 21
111.6999999999952
 31
0.0
  0
LINE
  5
A7F4F
  8
DETAIL
 10
283.89999976869598
 20
91.549999999995634
 30
0.0
 11
299.79999976869561
 21
91.549999999995634
 31
0.0
  0
LINE
  5
A7F50
  8
DETAIL
 10
245.59999976869489
 20
103.4999999999981
 30
0.0
 11
253.59999976869489
 21
103.4999999999981
 31
0.0
  0
LINE
  5
A7F51
  8
DETAIL
 10
263.54999976869561
 20
93.549999999995634
 30
0.0
 11
253.59999976869489
 21
103.4999999999981
 31
0.0
  0
LINE
  5
A7F52
  8
DETAIL
 10
283.8999997686978
 20
178.449999999997
 30
0.0
 11
263.54999976869561
 21
178.449999999997
 31
0.0
  0
LINE
  5
A7F53
  8
DETAIL
 10
299.79999976869561
 20
180.449999999997
 30
0.0
 11
283.89999976869598
 21
180.449999999997
 31
0.0
  0
LINE
  5
A7F54
  8
DETAIL
 10
299.79999976869561
 20
171.149999999996
 30
0.0
 11
309.79999976869561
 21
171.149999999996
 31
0.0
  0
LINE
  5
A7F55
  8
DETAIL
 10
309.79999976869561
 20
160.29999999999561
 30
0.0
 11
339.79999976869561
 21
160.29999999999561
 31
0.0
  0
LINE
  5
A7F56
  8
DETAIL
 10
253.59999976869489
 20
168.4999999999981
 30
0.0
 11
245.59999976869489
 21
168.4999999999981
 31
0.0
  0
LINE
  5
A7F57
  8
DETAIL
 10
263.54999976869561
 20
178.449999999997
 30
0.0
 11
253.59999976869489
 21
168.4999999999981
 31
0.0
  0
LINE
  5
A7F58
  8
DETAIL
 10
472.1999999980552
 20
1164.999999999998
 30
0.0
 11
472.1999999980552
 21
567.49999999999818
 31
0.0
  0
LINE
  5
A7F59
  8
DETAIL
 10
250.09999976869489
 20
310.99999999999812
 30
0.0
 11
256.09999976869489
 21
310.99999999999812
 31
0.0
  0
LINE
  5
A7F5A
  8
DETAIL
 10
245.5999997686967
 20
284.99999999999812
 30
0.0
 11
265.59999976869489
 21
284.99999999999812
 31
0.0
  0
LINE
  5
A7F5B
  8
DETAIL
 10
265.59999976869489
 20
296.99999999999812
 30
0.0
 11
265.59999976869489
 21
284.99999999999812
 31
0.0
  0
LINE
  5
A7F5C
  8
DETAIL
 10
245.59999976869489
 20
296.99999999999812
 30
0.0
 11
265.59999976869489
 21
296.99999999999812
 31
0.0
  0
LINE
  5
A7F5F
  8
DETAIL
 10
-372.0000000019453
 20
456.99999999999812
 30
0.0
 11
-372.0000000019453
 21
80.000003602151992
 31
0.0
  0
LINE
  5
A7F60
  8
DETAIL
 10
-4.4000002313050572
 20
83.0
 30
0.0
 11
-4.4000002313050572
 21
367.20000000000073
 31
0.0
  0
LINE
  5
A7F61
  8
DETAIL
 10
15.599999768694939
 20
83.0
 30
0.0
 11
15.599999768694939
 21
367.20000000000073
 31
0.0
  0
LINE
  5
A7F62
  8
DETAIL
 10
9.5999997686949428
 20
83.0
 30
0.0
 11
9.5999997686949428
 21
310.99999999999812
 31
0.0
  0
LINE
  5
A7F63
  8
DETAIL
 10
-472.00000000194541
 20
549.99999999999818
 30
0.0
 11
-472.00000000194541
 21
0.000000000001819
 31
0.0
  0
LINE
  5
A7F64
  8
DETAIL
 10
-279.50000020306368
 20
260.1500000000014
 30
0.0
 11
-279.50000020306368
 21
282.1500000000014
 31
0.0
  0
LINE
  5
A7F65
  8
DETAIL
 10
-313.50000020306379
 20
260.1500000000014
 30
0.0
 11
-313.50000020306379
 21
282.1500000000014
 31
0.0
  0
ARC
  5
A7F66
  8
DETAIL
 10
-167.99969487558059
 20
263.02671222691782
 30
0.0
 40
37.9500000000005
 50
315.0
 51
0.000000000000007
  0
ARC
  5
A7F67
  8
DETAIL
 10
-167.9996948755788
 20
263.02671222691782
 30
0.0
 40
22.04999999999859
 50
315.0
 51
0.000000000000007
  0
LINE
  5
A7F68
  8
DETAIL
 10
-183.1735933601112
 20
125.05000000000111
 30
0.0
 11
-75.600000231303966
 21
125.05000000000111
 31
0.0
  0
LINE
  5
A7F69
  8
DETAIL
 10
-183.1735933601112
 20
140.95000000000249
 30
0.0
 11
-75.600000231303966
 21
140.95000000000249
 31
0.0
  0
LINE
  5
A7F6A
  8
DETAIL
 10
-198.76529788527381
 20
178.5917045251644
 30
0.0
 11
-141.16499252955049
 21
236.1920098808877
 31
0.0
  0
LINE
  5
A7F6B
  8
DETAIL
 10
-210.00829570613951
 20
189.8347023460301
 30
0.0
 11
-152.4079903504161
 21
247.43500770175521
 31
0.0
  0
LINE
  5
A7F6C
  8
DETAIL
 10
15.599999768694939
 20
108.0000000000018
 30
0.0
 11
5.9999997686963971
 21
108.0000000000018
 31
0.0
  0
LINE
  5
A7F6D
  8
DETAIL
 10
5.9999997686963971
 20
158.00000000000179
 30
0.0
 11
15.599999768694939
 21
158.00000000000179
 31
0.0
  0
LINE
  5
A7F6E
  8
DETAIL
 10
-52.600000231303959
 20
147.30000000000101
 30
0.0
 11
-64.600000231303966
 21
141.95000000000249
 31
0.0
  0
LINE
  5
A7F6F
  8
DETAIL
 10
-32.600000231303959
 20
149.50000000000179
 30
0.0
 11
-32.600000231303959
 21
116.5000000000018
 31
0.0
  0
LINE
  5
A7F70
  8
DETAIL
 10
-38.600000231303959
 20
149.50000000000179
 30
0.0
 11
-38.600000231303959
 21
116.5000000000018
 31
0.0
  0
LINE
  5
A7F71
  8
DETAIL
 10
5.9999997686963971
 20
158.00000000000179
 30
0.0
 11
5.9999997686963971
 21
108.0000000000018
 31
0.0
  0
LINE
  5
A7F72
  8
DETAIL
 10
-64.600000231303966
 20
124.05000000000111
 30
0.0
 11
-75.600000231303966
 21
124.05000000000111
 31
0.0
  0
LINE
  5
A7F73
  8
DETAIL
 10
-64.600000231303966
 20
141.95000000000249
 30
0.0
 11
-75.600000231303966
 21
141.95000000000249
 31
0.0
  0
LINE
  5
A7F74
  8
DETAIL
 10
1.9999997686963971
 20
117.5000000000018
 30
0.0
 11
-32.022649962115793
 21
117.5000000000018
 31
0.0
  0
LINE
  5
A7F75
  8
DETAIL
 10
-52.600000231303959
 20
118.7000000000025
 30
0.0
 11
-64.600000231303966
 21
124.05000000000111
 31
0.0
  0
LINE
  5
A7F76
  8
DETAIL
 10
-52.600000231303959
 20
118.7000000000025
 30
0.0
 11
-38.600000231300321
 21
118.7000000000025
 31
0.0
  0
LINE
  5
A7F77
  8
DETAIL
 10
-38.600000231303959
 20
116.5000000000018
 30
0.0
 11
-32.600000231303959
 21
116.5000000000018
 31
0.0
  0
LINE
  5
A7F78
  8
DETAIL
 10
-32.600000231303959
 20
116.5000000000018
 30
0.0
 11
-32.022649962115793
 21
117.5000000000018
 31
0.0
  0
ARC
  5
A7F79
  8
DETAIL
 10
1.9999997686927591
 20
113.4999999999981
 30
0.0
 40
4.000000000002955
 50
0.000000000000007
 51
89.999999999947889
  0
LINE
  5
A7F7A
  8
DETAIL
 10
-75.600000231303966
 20
141.95000000000249
 30
0.0
 11
-75.600000231303966
 21
124.05000000000111
 31
0.0
  0
LINE
  5
A7F7B
  8
DETAIL
 10
1.9999997686945781
 20
148.50000000000179
 30
0.0
 11
-32.022649962113967
 21
148.50000000000179
 31
0.0
  0
LINE
  5
A7F7C
  8
DETAIL
 10
-52.600000231303959
 20
147.30000000000101
 30
0.0
 11
-38.600000231300321
 21
147.30000000000101
 31
0.0
  0
LINE
  5
A7F7D
  8
DETAIL
 10
-32.600000231303959
 20
149.50000000000179
 30
0.0
 11
-38.600000231303959
 21
149.50000000000179
 31
0.0
  0
LINE
  5
A7F7E
  8
DETAIL
 10
-32.600000231303959
 20
149.50000000000179
 30
0.0
 11
-32.022649962113967
 21
148.50000000000179
 31
0.0
  0
ARC
  5
A7F7F
  8
DETAIL
 10
1.9999997686945781
 20
152.50000000000361
 30
0.0
 40
4.0000000000013634
 50
270.0
 51
0.000000000000007
  0
LINE
  5
A7F80
  8
DETAIL
 10
-421.9999999980563
 20
39.999996397849827
 30
0.0
 11
-421.9999999980563
 21
-40.000003602148347
 31
0.0
  0
LINE
  5
A7F81
  8
DETAIL
 10
-475.0000000019453
 20
3.0000000000018181
 30
0.0
 11
-475.0000000019453
 21
80.000003602150159
 31
0.0
  0
ARC
  5
A7F82
  8
DETAIL
 10
-472.00000000194541
 20
3.0
 30
0.0
 40
2.9999999999995448
 50
180.0
 51
270.0
  0
LINE
  5
A7F83
  8
DETAIL
 10
-288.5500004560335
 20
200.14999999177959
 30
0.0
 11
-288.54999999091427
 21
86.999999999998181
 31
0.0
  0
LINE
  5
A7F84
  8
DETAIL
 10
-304.45000103455732
 20
200.15000000158579
 30
0.0
 11
-304.45000094490291
 21
86.999999999998181
 31
0.0
  0
ARC
  5
A7F85
  8
DETAIL
 10
-183.1735933601112
 20
163.00000000000179
 30
0.0
 40
37.949999999999363
 50
135.0
 51
270.0
  0
ARC
  5
A7F86
  8
DETAIL
 10
-183.1735933601112
 20
163.00000000000179
 30
0.0
 40
22.050000000000178
 50
135.0
 51
270.0
  0
ARC
  5
A7F87
  8
DETAIL
 10
-296.50000020821687
 20
87.0
 30
0.0
 40
7.9500000000102977
 50
180.0
 51
210.20826763782219
  0
ARC
  5
A7F88
  8
DETAIL
 10
-296.50000020822239
 20
86.999999999996362
 30
0.0
 40
7.9499999999949909
 50
329.79173236208771
 51
0.000076022852771
  0
LINE
  5
A7F89
  8
DETAIL
 10
-279.50000020306368
 20
260.1500000000014
 30
0.0
 11
-313.50000020306379
 21
260.1500000000014
 31
0.0
  0
LINE
  5
A7F8A
  8
DETAIL
 10
-286.87884337531523
 20
260.15000000000327
 30
0.0
 11
-286.87884337531523
 21
254.4251168915543
 31
0.0
  0
LINE
  5
A7F8B
  8
DETAIL
 10
-306.12115703081412
 20
254.4251168915543
 30
0.0
 11
-286.87884337531523
 21
254.4251168915543
 31
0.0
  0
LINE
  5
A7F8C
  8
DETAIL
 10
-306.12115703081412
 20
260.15000000000327
 30
0.0
 11
-306.12115703081412
 21
254.4251168915543
 31
0.0
  0
LINE
  5
A7F8D
  8
DETAIL
 10
-288.55000020306301
 20
254.4251168915543
 30
0.0
 11
-288.55000020306301
 21
215.1500000000014
 31
0.0
  0
LINE
  5
A7F8E
  8
DETAIL
 10
-304.45000020306452
 20
254.4251168915543
 30
0.0
 11
-304.45000020306452
 21
215.1500000000014
 31
0.0
  0
LINE
  5
A7F8F
  8
DETAIL
 10
-286.55000020306301
 20
213.1500000000014
 30
0.0
 11
-288.55000020306301
 21
215.1500000000014
 31
0.0
  0
LINE
  5
A7F90
  8
DETAIL
 10
-306.4500002030627
 20
213.1500000000014
 30
0.0
 11
-304.45000020306452
 21
215.1500000000014
 31
0.0
  0
LINE
  5
A7F91
  8
DETAIL
 10
-306.45000020306452
 20
213.1500000000014
 30
0.0
 11
-306.45000020306452
 21
200.1500000000014
 31
0.0
  0
LINE
  5
A7F92
  8
DETAIL
 10
-286.55000020306301
 20
213.1500000000014
 30
0.0
 11
-286.55000020306301
 21
200.1500000000014
 31
0.0
  0
LINE
  5
A7F93
  8
DETAIL
 10
-286.55000020306301
 20
200.1500000000014
 30
0.0
 11
-306.45000020306452
 21
200.1500000000014
 31
0.0
  0
LINE
  5
A7F94
  8
DETAIL
 10
-372.00000000194348
 20
80.000003602150159
 30
0.0
 11
-475.0000000019453
 21
80.000003602150159
 31
0.0
  0
LINE
  5
A7F95
  8
DETAIL
 10
2.0999999980549542
 20
1164.999999999998
 30
0.0
 11
2.0999999980549542
 21
567.49999999999818
 31
0.0
  0
LINE
  5
A7F96
  8
DETAIL
 10
-2.1000000019439531
 20
1164.999999999998
 30
0.0
 11
-2.1000000019439531
 21
567.49999999999818
 31
0.0
  0
LINE
  5
A7F97
  8
DETAIL
 10
-472.20000000194608
 20
1164.999999999998
 30
0.0
 11
-472.20000000194608
 21
567.49999999999818
 31
0.0
  0
LINE
  5
A7F98
  8
DETAIL
 10
-472.20000000194608
 20
567.49999999999818
 30
0.0
 11
-2.1000000019439531
 21
567.49999999999818
 31
0.0
  0
LINE
  5
A7F99
  8
DETAIL
 10
-176.32869249624031
 20
456.99999999999812
 30
0.0
 11
-145.1000000019439
 21
456.99999999999812
 31
0.0
  0
LINE
  5
A7F9A
  8
DETAIL
 10
-145.1000000019439
 20
456.99999999999812
 30
0.0
 11
-145.1000000019439
 21
549.99999999999818
 31
0.0
  0
LINE
  5
A7F9B
  8
DETAIL
 10
15.599999768694939
 20
310.99999999999812
 30
0.0
 11
9.5999997686949428
 21
310.99999999999812
 31
0.0
  0
LINE
  5
A7F9C
  8
DETAIL
 10
15.599999768694939
 20
284.99999999999812
 30
0.0
 11
-4.4000002313050572
 21
284.99999999999812
 31
0.0
  0
LINE
  5
A7F9D
  8
DETAIL
 10
15.599999768694939
 20
296.99999999999812
 30
0.0
 11
-4.4000002313050572
 21
296.99999999999812
 31
0.0
  0
LINE
  5
A7F9E
  8
DETAIL
 10
-4.4000002313050572
 20
296.99999999999812
 30
0.0
 11
-4.4000002313050572
 21
284.99999999999812
 31
0.0
  0
LINE
  5
A7F9F
  8
DETAIL
 10
-130.04969484733459
 20
367.20000000000073
 30
0.0
 11
-130.04969484733459
 21
355.64999999999958
 31
0.0
  0
LINE
  5
A7FA0
  8
DETAIL
 10
-145.9496948473342
 20
367.20000000000073
 30
0.0
 11
-145.9496948473342
 21
355.64999999999958
 31
0.0
  0
LINE
  5
A7FA1
  8
DETAIL
 10
-130.04969487604009
 20
367.20000000000073
 30
0.0
 11
-130.04969490377971
 21
361.1499963189471
 31
0.0
  0
LINE
  5
A7FA2
  8
DETAIL
 10
-145.94969500794551
 20
367.20000000000073
 30
0.0
 11
-145.9496950316379
 21
361.15002683652529
 31
0.0
  0
LINE
  5
A7FA3
  8
DETAIL
 10
-130.04969487557989
 20
343.64999997175249
 30
0.0
 11
-130.04969487557989
 21
263.02671222691782
 31
0.0
  0
LINE
  5
A7FA4
  8
DETAIL
 10
-145.9496948755795
 20
343.65000002824672
 30
0.0
 11
-145.9496948755795
 21
263.02671222691782
 31
0.0
  0
LINE
  5
A7FA5
  8
DETAIL
 10
-128.04969484733459
 20
345.64999999999958
 30
0.0
 11
-130.04969487557989
 21
343.64999997175249
 31
0.0
  0
LINE
  5
A7FA6
  8
DETAIL
 10
-128.04969484733459
 20
345.64999999999958
 30
0.0
 11
-128.04969484733459
 21
355.64999999999958
 31
0.0
  0
LINE
  5
A7FA7
  8
DETAIL
 10
-128.04969484733459
 20
355.64999999999958
 30
0.0
 11
-147.9496948473342
 21
355.64999999999958
 31
0.0
  0
LINE
  5
A7FA8
  8
DETAIL
 10
-147.9496948473342
 20
355.64999999999958
 30
0.0
 11
-147.9496948473342
 21
345.64999999999958
 31
0.0
  0
LINE
  5
A7FA9
  8
DETAIL
 10
-147.9496948473342
 20
345.64999999999958
 30
0.0
 11
-145.9496948755795
 21
343.65000002824672
 31
0.0
  0
LINE
  5
A7FAA
  8
DETAIL
 10
-395.20000000194608
 20
525.39999999999782
 30
0.0
 11
-395.20000000194608
 21
467.20000000000073
 31
0.0
  0
LINE
  5
A7FAB
  8
DETAIL
 10
-454.20000000194608
 20
525.39999999999782
 30
0.0
 11
-454.20000000194608
 21
467.20000000000073
 31
0.0
  0
LINE
  5
A7FAC
  8
DETAIL
 10
-208.0063899951555
 20
501.60621000016909
 30
0.0
 11
-179.72200000194329
 21
473.3222999999997
 31
0.0
  0
LINE
  5
A7FAD
  8
DETAIL
 10
-308.00638999515547
 20
502.60621000016903
 30
0.0
 11
-279.72200000194329
 21
474.32229999999981
 31
0.0
  0
CIRCLE
  5
A7FAE
  8
DETAIL
 10
-297.40000000194499
 20
491.99999999999818
 30
0.0
 40
30.0
  0
CIRCLE
  5
A7FAF
  8
DETAIL
 10
-297.40000000194499
 20
491.99999999999818
 30
0.0
 40
32.5
  0
CIRCLE
  5
A7FB0
  8
DETAIL
 10
-297.40000000194499
 20
491.99999999999818
 30
0.0
 40
40.0
  0
CIRCLE
  5
A7FB1
  8
DETAIL
 10
-197.4000000019432
 20
490.99999999999812
 30
0.0
 40
30.0
  0
CIRCLE
  5
A7FB2
  8
DETAIL
 10
-197.4000000019432
 20
490.99999999999812
 30
0.0
 40
32.5
  0
CIRCLE
  5
A7FB3
  8
DETAIL
 10
-197.4000000019432
 20
490.99999999999812
 30
0.0
 40
40.0
  0
LINE
  5
A7FB4
  8
DETAIL
 10
-472.00000000194541
 20
456.99999999999812
 30
0.0
 11
-316.76491673298091
 21
456.99999999999812
 31
0.0
  0
ARC
  5
A7FB5
  8
DETAIL
 10
-318.00000020306379
 20
287.14999999999958
 30
0.0
 40
4.9999999999990914
 50
90.0
 51
270.0
  0
LINE
  5
A7FB6
  8
DETAIL
 10
-288.55000114272201
 20
367.20000000000073
 30
0.0
 11
-288.55000111785102
 21
361.14999999177962
 31
0.0
  0
LINE
  5
A7FB7
  8
DETAIL
 10
-304.4500011669233
 20
367.20000000000073
 30
0.0
 11
-304.4500011621285
 21
361.15000000158568
 31
0.0
  0
LINE
  5
A7FB8
  8
DETAIL
 10
-279.50000020306368
 20
292.1500000000014
 30
0.0
 11
-279.50000020306368
 21
297.15000000034161
 31
0.0
  0
LINE
  5
A7FB9
  8
DETAIL
 10
-313.50000020306379
 20
292.1500000000014
 30
0.0
 11
-313.50000020306379
 21
297.14999999937748
 31
0.0
  0
LINE
  5
A7FBA
  8
DETAIL
 10
-275.00000020306561
 20
282.1500000000014
 30
0.0
 11
-318.00000020306379
 21
282.1500000000014
 31
0.0
  0
LINE
  5
A7FBB
  8
DETAIL
 10
-275.00000020306561
 20
292.1500000000014
 30
0.0
 11
-318.00000020306379
 21
292.1500000000014
 31
0.0
  0
LINE
  5
A7FBC
  8
DETAIL
 10
-279.50000020306368
 20
265.09032829327953
 30
0.0
 11
-313.50000020306379
 21
265.09032829327953
 31
0.0
  0
LINE
  5
A7FBD
  8
DETAIL
 10
-306.12115703081412
 20
305.2040497944144
 30
0.0
 11
-306.12115703081412
 21
311.3930418269901
 31
0.0
  0
LINE
  5
A7FBE
  8
DETAIL
 10
-286.87884337531341
 20
311.3930418269901
 30
0.0
 11
-306.12115703081412
 21
311.3930418269901
 31
0.0
  0
LINE
  5
A7FBF
  8
DETAIL
 10
-286.87884337531341
 20
305.20404979462722
 30
0.0
 11
-286.87884337531341
 21
311.3930418269901
 31
0.0
  0
ARC
  5
A7FC0
  8
DETAIL
 10
-298.50000020290548
 20
287.15000000026151
 30
0.0
 40
21.470910553325801
 50
27.75854060149204
 51
57.231143564864652
  0
ARC
  5
A7FC1
  8
DETAIL
 10
-294.50000020291822
 20
287.1500000002888
 30
0.0
 40
21.47091055328946
 50
122.7688564361748
 51
152.24145940132809
  0
ARC
  5
A7FC2
  8
DETAIL
 10
-275.00000020306561
 20
287.1500000000014
 30
0.0
 40
4.9999999999990914
 50
270.0
 51
90.0
  0
CIRCLE
  5
A7FC3
  8
DETAIL
 10
-318.00000020306379
 20
287.1500000000014
 30
0.0
 40
2.25
  0
CIRCLE
  5
A7FC4
  8
DETAIL
 10
-275.00000020306368
 20
287.1500000000014
 30
0.0
 40
2.25
  0
LINE
  5
A7FC5
  8
DETAIL
 10
-304.45000020306452
 20
311.3930418269901
 30
0.0
 11
-304.45000020306452
 21
346.14999999999782
 31
0.0
  0
LINE
  5
A7FC6
  8
DETAIL
 10
-288.55000020306301
 20
311.3930418269901
 30
0.0
 11
-288.55000020306301
 21
346.1500000000014
 31
0.0
  0
LINE
  5
A7FC7
  8
DETAIL
 10
-306.45000020306628
 20
348.14999999999958
 30
0.0
 11
-304.45000020306452
 21
346.14999999999782
 31
0.0
  0
LINE
  5
A7FC8
  8
DETAIL
 10
-286.55000020306483
 20
348.14999999999958
 30
0.0
 11
-288.55000020306301
 21
346.1500000000014
 31
0.0
  0
LINE
  5
A7FC9
  8
DETAIL
 10
-286.55000020306483
 20
348.1500000000014
 30
0.0
 11
-286.55000020306483
 21
361.1500000000014
 31
0.0
  0
LINE
  5
A7FCA
  8
DETAIL
 10
-306.45000020306452
 20
348.1500000000014
 30
0.0
 11
-306.45000020306452
 21
361.1500000000014
 31
0.0
  0
LINE
  5
A7FCB
  8
DETAIL
 10
-306.45000020306452
 20
361.1500000000014
 30
0.0
 11
-286.55000020306483
 21
361.1500000000014
 31
0.0
  0
LINE
  5
A7FCC
  8
DETAIL
 10
-278.03508327090731
 20
456.99999999999812
 30
0.0
 11
-218.4713075076497
 21
456.99999999999812
 31
0.0
  0
LINE
  5
A7FCD
  8
DETAIL
 10
-179.72200000194329
 20
473.3221999999987
 30
0.0
 11
-182.22200000194329
 21
477.65229999999792
 31
0.0
  0
LINE
  5
A7FCE
  8
DETAIL
 10
-179.72200000194329
 20
473.3222999999997
 30
0.0
 11
-184.052000001945
 21
475.82229999999981
 31
0.0
  0
LINE
  5
A7FCF
  8
DETAIL
 10
-279.72200000194329
 20
474.32219999999859
 30
0.0
 11
-282.22200000194329
 21
478.65229999999792
 31
0.0
  0
LINE
  5
A7FD0
  8
DETAIL
 10
-279.72200000194329
 20
474.32229999999981
 30
0.0
 11
-284.05200000194498
 21
476.82229999999981
 31
0.0
  0
LINE
  5
A7FD1
  8
DETAIL
 10
-425.0000000019453
 20
456.99999999999812
 30
0.0
 11
-425.0000000019453
 21
278.85375494071008
 31
0.0
  0
LINE
  5
A7FD2
  8
DETAIL
 10
-472.00000000194541
 20
278.85375494071008
 30
0.0
 11
-425.0000000019453
 21
278.85375494071008
 31
0.0
  0
LINE
  5
A7FD3
  8
DETAIL
 10
-395.20000000194608
 20
467.20000000000073
 30
0.0
 11
-454.20000000194608
 21
467.20000000000073
 31
0.0
  0
LINE
  5
A7FD4
  8
DETAIL
 10
-454.20000000194608
 20
525.39999999999782
 30
0.0
 11
-395.20000000194608
 21
525.39999999999782
 31
0.0
  0
LINE
  5
A7FD5
  8
DETAIL
 10
-472.20000000194608
 20
1164.999999999998
 30
0.0
 11
-2.1000000019439531
 21
1164.999999999998
 31
0.0
  0
LINE
  5
A7FD6
  8
DETAIL
 10
-37.527504394153759
 20
733.24587568298375
 30
0.0
 11
-37.527504394153759
 21
844.24587568298
 31
0.0
  0
LINE
  5
A7FD7
  8
DETAIL
 10
-65.527504394153766
 20
733.24587568298375
 30
0.0
 11
-65.527504394153766
 21
844.24587568298
 31
0.0
  0
LINE
  5
A7FD8
  8
DETAIL
 10
-63.527504394153773
 20
844.24587568298
 30
0.0
 11
-63.527504394153773
 21
733.24587568298375
 31
0.0
  0
LINE
  5
A7FD9
  8
DETAIL
 10
-39.527504394153759
 20
844.24587568298
 30
0.0
 11
-39.527504394153759
 21
733.24587568298375
 31
0.0
  0
LINE
  5
A7FDA
  8
DETAIL
 10
-43.027504394153759
 20
760.24587568298
 30
0.0
 11
-43.027504394153759
 21
753.24587568298011
 31
0.0
  0
LINE
  5
A7FDB
  8
DETAIL
 10
-60.027504394153759
 20
753.24587568298011
 30
0.0
 11
-60.027504394153759
 21
760.24587568298
 31
0.0
  0
LINE
  5
A7FDC
  8
DETAIL
 10
-40.527504394153759
 20
730.24587568298375
 30
0.0
 11
-62.527504394153759
 21
730.24587568298375
 31
0.0
  0
LINE
  5
A7FDD
  8
DETAIL
 10
-43.027504394153759
 20
763.24587568298011
 30
0.0
 11
-60.027504394153759
 21
763.24587568298011
 31
0.0
  0
LINE
  5
A7FDE
  8
DETAIL
 10
-62.527504394153759
 20
732.24587568298375
 30
0.0
 11
-40.527504394153759
 21
732.24587568298375
 31
0.0
  0
ARC
  5
A7FDF
  8
DETAIL
 10
-40.52750439414649
 20
733.24587568297648
 30
0.0
 40
0.9999999999934061
 50
269.99999999963518
 51
0.0000000004168887
  0
ARC
  5
A7FE0
  8
DETAIL
 10
-62.527504394153759
 20
733.24587568298193
 30
0.0
 40
0.9999999999995453
 50
180.0
 51
270.00000000005213
  0
ARC
  5
A7FE1
  8
DETAIL
 10
-62.52750439415194
 20
733.24587568298375
 30
0.0
 40
3.0000000000018181
 50
180.0
 51
269.99999999994782
  0
ARC
  5
A7FE2
  8
DETAIL
 10
-40.527504394150128
 20
733.24587568297818
 30
0.0
 40
2.9999999999956799
 50
269.99999999994782
 51
0.0000000001042274
  0
ARC
  5
A7FE3
  8
DETAIL
 10
-51.527504394153773
 20
825.24587568298011
 30
0.0
 40
8.5
 50
0.000000000000007
 51
180.0
  0
ARC
  5
A7FE4
  8
DETAIL
 10
-51.527504394153773
 20
822.93818337528865
 30
0.0
 40
8.8076923076923261
 50
15.18928673713693
 51
164.810713262863
  0
LINE
  5
A7FE5
  8
DETAIL
 10
-43.027504394153759
 20
742.74587568298375
 30
0.0
 11
-51.527504394153773
 21
734.24587568298375
 31
0.0
  0
LINE
  5
A7FE6
  8
DETAIL
 10
-51.527504394153773
 20
734.24587568298375
 30
0.0
 11
-60.027504394153759
 21
742.74587568298375
 31
0.0
  0
LINE
  5
A7FE7
  8
DETAIL
 10
-43.027504394153759
 20
742.74587568298375
 30
0.0
 11
-60.027504394153759
 21
742.74587568298375
 31
0.0
  0
LINE
  5
A7FE8
  8
DETAIL
 10
-60.027504394153759
 20
760.24587568298
 30
0.0
 11
-43.027504394153759
 21
760.24587568298
 31
0.0
  0
ARC
  5
A7FE9
  8
DETAIL
 10
-51.527504394153773
 20
753.24587568298375
 30
0.0
 40
8.5
 50
180.0
 51
0.000000000000007
  0
LINE
  5
A7FEA
  8
DETAIL
 10
-43.027504394153759
 20
825.24587568298011
 30
0.0
 11
-43.027504394153759
 21
763.24587568298011
 31
0.0
  0
LINE
  5
A7FEB
  8
DETAIL
 10
-60.027504394153759
 20
825.24587568298011
 30
0.0
 11
-60.027504394153759
 21
763.24587568298011
 31
0.0
  0
POINT
  5
A7FEC
  8
DETAIL
 10
-51.527504394153773
 20
822.24587568298011
 30
0.0
  0
LINE
  5
A7FED
  8
DETAIL
 10
-62.527504394153759
 20
847.24587568298011
 30
0.0
 11
-40.527504394153759
 21
847.24587568298011
 31
0.0
  0
LINE
  5
A7FEE
  8
DETAIL
 10
-40.527504394153759
 20
845.24587568298
 30
0.0
 11
-62.527504394153759
 21
845.24587568298
 31
0.0
  0
ARC
  5
A7FEF
  8
DETAIL
 10
-62.527504394153759
 20
844.24587568298
 30
0.0
 40
0.9999999999995453
 50
90.0
 51
180.0
  0
ARC
  5
A7FF0
  8
DETAIL
 10
-40.52750439414649
 20
844.24587568298728
 30
0.0
 40
0.9999999999931787
 50
359.99999999958311
 51
90.000000000364764
  0
ARC
  5
A7FF1
  8
DETAIL
 10
-40.52750439414649
 20
844.24587568298728
 30
0.0
 40
2.9999999999927232
 50
359.99999999989581
 51
90.000000000156334
  0
ARC
  5
A7FF2
  8
DETAIL
 10
-62.527504394153759
 20
844.24587568298182
 30
0.0
 40
2.9999999999988631
 50
90.0
 51
180.0
  0
CIRCLE
  5
A7FF3
  8
DETAIL
 10
-320.73764966762701
 20
915.20654919161825
 30
0.0
 40
10.0
  0
CIRCLE
  5
A7FF4
  8
DETAIL
 10
-320.73764966762701
 20
915.20654919161825
 30
0.0
 40
15.0
  0
ARC
  5
A7FF5
  8
DETAIL
 10
-320.73764966762701
 20
915.20654919161825
 30
0.0
 40
17.0
 50
180.0
 51
0.000000000000007
  0
LINE
  5
A7FF6
  8
DETAIL
 10
-303.7376496676269
 20
939.20654919161825
 30
0.0
 11
-337.73764966762701
 21
939.20654919161825
 31
0.0
  0
CIRCLE
  5
A7FF7
  8
DETAIL
 10
-270.73764966762701
 20
915.20654919161825
 30
0.0
 40
10.0
  0
CIRCLE
  5
A7FF8
  8
DETAIL
 10
-270.73764966762701
 20
915.20654919161825
 30
0.0
 40
15.0
  0
ARC
  5
A7FF9
  8
DETAIL
 10
-270.73764966762701
 20
915.20654919161825
 30
0.0
 40
17.0
 50
180.0
 51
0.000000000000007
  0
LINE
  5
A7FFA
  8
DETAIL
 10
-253.7376496676269
 20
915.20654919161825
 30
0.0
 11
-253.7376496676269
 21
939.20654919161825
 31
0.0
  0
LINE
  5
A7FFB
  8
DETAIL
 10
-253.7376496676269
 20
939.20654919161825
 30
0.0
 11
-287.73764966762701
 21
939.20654919161825
 31
0.0
  0
LINE
  5
A7FFC
  8
DETAIL
 10
-287.73764966762701
 20
939.20654919161825
 30
0.0
 11
-287.73764966762701
 21
915.20654919161825
 31
0.0
  0
LINE
  5
A7FFD
  8
DETAIL
 10
-303.7376496676269
 20
915.20654919161825
 30
0.0
 11
-303.7376496676269
 21
939.20654919161825
 31
0.0
  0
LINE
  5
A7FFE
  8
DETAIL
 10
-361.23764966762701
 20
823.60654919161777
 30
0.0
 11
-361.23764966762701
 21
856.8065491916168
 31
0.0
  0
LINE
  5
A7FFF
  8
DETAIL
 10
-380.23764966762701
 20
856.8065491916168
 30
0.0
 11
-380.23764966762701
 21
823.60654919161777
 31
0.0
  0
LINE
  5
A8000
  8
DETAIL
 10
-369.15440266762829
 20
840.20654919161825
 30
0.0
 11
-368.65440266762829
 21
847.13404319161782
 31
0.0
  0
LINE
  5
A8001
  8
DETAIL
 10
-372.23764966762701
 20
840.20654919161825
 30
0.0
 11
-372.69800266762741
 21
847.10331519161809
 31
0.0
  0
ARC
  5
A8002
  8
DETAIL
 10
-370.73764966762877
 20
840.20654919161655
 30
0.0
 40
4.0000000000000062
 50
115.7916409999832
 51
62.619217000027781
  0
ARC
  5
A8003
  8
DETAIL
 10
-370.73764966762877
 20
840.20654919161825
 30
0.0
 40
6.9999999999997904
 50
106.16449699999509
 51
72.834116999981958
  0
LINE
  5
A8004
  8
DETAIL
 10
-380.23764966762701
 20
823.60654919161777
 30
0.0
 11
-361.23764966762701
 21
823.60654919161777
 31
0.0
  0
ARC
  5
A8005
  8
DETAIL
 10
-370.69602666762779
 20
840.20654919161825
 30
0.0
 40
1.541623000000071
 50
180.0
 51
0.000000000000007
  0
LINE
  5
A8006
  8
DETAIL
 10
-361.23764966762701
 20
856.8065491916168
 30
0.0
 11
-380.23764966762701
 21
856.8065491916168
 31
0.0
  0
LINE
  5
A8007
  8
DETAIL
 10
-355.10445166762742
 20
883.89976419161758
 30
0.0
 11
-386.60445166762742
 21
883.89976419161758
 31
0.0
  0
LINE
  5
A8008
  8
DETAIL
 10
-355.10445166762742
 20
873.89976419161758
 30
0.0
 11
-355.10445166762742
 21
883.89976419161758
 31
0.0
  0
LINE
  5
A8009
  8
DETAIL
 10
-386.60445166762742
 20
873.89976419161758
 30
0.0
 11
-355.10445166762742
 21
873.89976419161758
 31
0.0
  0
LINE
  5
A800A
  8
DETAIL
 10
-386.60445166762742
 20
883.89976419161758
 30
0.0
 11
-386.60445166762742
 21
873.89976419161758
 31
0.0
  0
ARC
  5
A800B
  8
DETAIL
 10
-370.69602666762779
 20
846.57321719161689
 30
0.0
 40
2.069993999999773
 50
9.0244720000504337
 51
170.50312699996991
  0
LINE
  5
A800C
  8
DETAIL
 10
-386.48764966762701
 20
936.89976419161746
 30
0.0
 11
-354.98764966762701
 21
936.89976419161746
 31
0.0
  0
LINE
  5
A800D
  8
DETAIL
 10
-386.48764966762701
 20
926.89976419161746
 30
0.0
 11
-386.48764966762701
 21
936.89976419161746
 31
0.0
  0
LINE
  5
A800E
  8
DETAIL
 10
-354.98764966762701
 20
926.89976419161746
 30
0.0
 11
-386.48764966762701
 21
926.89976419161746
 31
0.0
  0
LINE
  5
A800F
  8
DETAIL
 10
-354.98764966762701
 20
936.89976419161746
 30
0.0
 11
-354.98764966762701
 21
926.89976419161746
 31
0.0
  0
LINE
  5
A8010
  8
DETAIL
 10
-337.73764966762701
 20
939.20654919161825
 30
0.0
 11
-337.73764966762701
 21
915.20654919161825
 31
0.0
  0
CIRCLE
  5
A8011
  8
DETAIL
 10
-370.73764966762701
 20
915.20654919161825
 30
0.0
 40
6.0
  0
LINE
  5
A8012
  8
DETAIL
 10
-345.73764966762701
 20
977.89976419161746
 30
0.0
 11
-215.73764966762701
 21
977.89976419161746
 31
0.0
  0
LINE
  5
A8013
  8
DETAIL
 10
-215.73764966762701
 20
1036.8997641916169
 30
0.0
 11
-345.73764966762701
 21
1036.8997641916169
 31
0.0
  0
LINE
  5
A8014
  8
DETAIL
 10
-335.73764966762701
 20
987.89976419161746
 30
0.0
 11
-225.73764966762701
 21
987.89976419161746
 31
0.0
  0
LINE
  5
A8015
  8
DETAIL
 10
-225.73764966762701
 20
1026.8997641916169
 30
0.0
 11
-335.73764966762701
 21
1026.8997641916169
 31
0.0
  0
LINE
  5
A8016
  8
DETAIL
 10
-302.52115366762791
 20
1024.7597361916171
 30
0.0
 11
-325.67510666762701
 21
1024.7597361916171
 31
0.0
  0
LINE
  5
A8017
  8
DETAIL
 10
-325.67510666762701
 20
1013.2717751916171
 30
0.0
 11
-302.52115366762791
 21
1013.2717751916171
 31
0.0
  0
LINE
  5
A8018
  8
DETAIL
 10
-215.73764966762701
 20
977.89976419161746
 30
0.0
 11
-215.73764966762701
 21
1036.8997641916169
 31
0.0
  0
LINE
  5
A8019
  8
DETAIL
 10
-225.73764966762701
 20
987.89976419161746
 30
0.0
 11
-225.73764966762701
 21
1026.8997641916169
 31
0.0
  0
LINE
  5
A801A
  8
DETAIL
 10
-302.52115366762791
 20
1013.2717751916171
 30
0.0
 11
-302.52115366762791
 21
1024.7597361916171
 31
0.0
  0
LINE
  5
A801B
  8
DETAIL
 10
-386.48764966762701
 20
986.89976419161746
 30
0.0
 11
-354.98764966762701
 21
986.89976419161746
 31
0.0
  0
LINE
  5
A801C
  8
DETAIL
 10
-386.48764966762701
 20
976.89976419161746
 30
0.0
 11
-386.48764966762701
 21
986.89976419161746
 31
0.0
  0
LINE
  5
A801D
  8
DETAIL
 10
-354.98764966762701
 20
976.89976419161746
 30
0.0
 11
-386.48764966762701
 21
976.89976419161746
 31
0.0
  0
LINE
  5
A801E
  8
DETAIL
 10
-354.98764966762701
 20
986.89976419161746
 30
0.0
 11
-354.98764966762701
 21
976.89976419161746
 31
0.0
  0
LINE
  5
A801F
  8
DETAIL
 10
-386.48764966762701
 20
1036.8997641916169
 30
0.0
 11
-354.98764966762701
 21
1036.8997641916169
 31
0.0
  0
LINE
  5
A8020
  8
DETAIL
 10
-386.48764966762701
 20
1026.8997641916169
 30
0.0
 11
-386.48764966762701
 21
1036.8997641916169
 31
0.0
  0
LINE
  5
A8021
  8
DETAIL
 10
-354.98764966762701
 20
1026.8997641916169
 30
0.0
 11
-386.48764966762701
 21
1026.8997641916169
 31
0.0
  0
LINE
  5
A8022
  8
DETAIL
 10
-354.98764966762701
 20
1036.8997641916169
 30
0.0
 11
-354.98764966762701
 21
1026.8997641916169
 31
0.0
  0
LINE
  5
A8023
  8
DETAIL
 10
-345.73764966762701
 20
1036.8997641916169
 30
0.0
 11
-345.73764966762701
 21
977.89976419161746
 31
0.0
  0
LINE
  5
A8024
  8
DETAIL
 10
-335.73764966762701
 20
1026.8997641916169
 30
0.0
 11
-335.73764966762701
 21
987.89976419161746
 31
0.0
  0
CIRCLE
  5
A8025
  8
DETAIL
 10
-370.73764966762701
 20
965.20654919161825
 30
0.0
 40
6.0
  0
CIRCLE
  5
A8026
  8
DETAIL
 10
-370.73764966762701
 20
1015.206549191618
 30
0.0
 40
6.0
  0
LINE
  5
A8027
  8
DETAIL
 10
-325.67510666762701
 20
1024.7597361916171
 30
0.0
 11
-325.67510666762701
 21
1013.2717751916171
 31
0.0
  0
LINE
  5
A8163
  8
DETAIL
 10
472.39999999805599
 20
1944.499999999998
 30
0.0
 11
-472.00000000194541
 21
1944.499999999998
 31
0.0
  0
LINE
  5
A8164
  8
DETAIL
 10
-475.0000000019453
 20
1949.999999999998
 30
0.0
 11
474.99999999805459
 21
1949.999999999998
 31
0.0
  0
LINE
  5
A9176
  8
SIZE
 10
480.99988413386461
 20
-0.0000000000000014
 30
0.0
 11
737.17020106811913
 21
-0.000000000000074
 31
0.0
  0
LINE
  5
A9177
  8
SIZE
 10
479.99988413386473
 20
1950.0
 30
0.0
 11
737.17020106811958
 21
1949.9999999999991
 31
0.0
  0
LINE
  5
A9178
  8
SIZE
 10
717.17020106811913
 20
11.999999999999931
 30
0.0
 11
717.17020106811958
 21
1937.9999999999991
 31
0.0
  0
LINE
  5
A917C
  8
SIZE
 10
421.99988413386473
 20
-45.0
 30
0.0
 11
421.99988413386473
 21
-149.5332720923615
 31
0.0
  0
LINE
  5
A917D
  8
SIZE
 10
-0.000115866135275
 20
-47.518606849258497
 30
0.0
 11
-0.0001158661352813
 21
-149.5332720923615
 31
0.0
  0
LINE
  5
A917E
  8
SIZE
 10
409.99988413386473
 20
-129.5332720923615
 30
0.0
 11
11.999884133864709
 21
-129.5332720923615
 31
0.0
  0
LINE
  5
A9182
  8
SIZE
 10
339.99988413386473
 20
46.84833602129401
 30
0.0
 11
339.99988413386473
 21
-261.27027349179292
 31
0.0
  0
LINE
  5
A9183
  8
SIZE
 10
-49.000115866131637
 20
46.84833602129401
 30
0.0
 11
-49.000115866131658
 21
-261.27027349179292
 31
0.0
  0
LINE
  5
A9184
  8
SIZE
 10
327.99988413386473
 20
-241.27027349179289
 30
0.0
 11
-37.000115866131651
 21
-241.27027349179289
 31
0.0
  0
LINE
  5
A9188
  8
SIZE
 10
474.99988413386473
 20
-1.999996397849827
 30
0.0
 11
474.99988413386461
 21
-486.61069823176689
 31
0.0
  0
LINE
  5
A9189
  8
SIZE
 10
-475.00011586613522
 20
-1.999996397849827
 30
0.0
 11
-475.00011586613527
 21
-486.61069823176689
 31
0.0
  0
LINE
  5
A918A
  8
SIZE
 10
462.99988413386461
 20
-466.61069823176689
 30
0.0
 11
-463.00011586613527
 21
-466.61069823176689
 31
0.0
  0
LINE
  5
A918E
  8
SIZE
 10
421.99988413386473
 20
-59.0
 30
0.0
 11
421.99988413386473
 21
-372.06137301664597
 31
0.0
  0
LINE
  5
A918F
  8
SIZE
 10
-422.00011586613522
 20
-59.0
 30
0.0
 11
-422.00011586613522
 21
-372.06137301664597
 31
0.0
  0
LINE
  5
A9190
  8
SIZE
 10
409.99988413386473
 20
-352.06137301664597
 30
0.0
 11
-410.00011586613527
 21
-352.06137301664597
 31
0.0
  0
LINE
  5
A9194
  8
SIZE
 10
-422.00011586613522
 20
-59.0
 30
0.0
 11
-422.00011586613522
 21
-372.06137301664597
 31
0.0
  0
LINE
  5
A9195
  8
SIZE
 10
-475.00011586613522
 20
-1.999996397849827
 30
0.0
 11
-475.00011586613522
 21
-372.06137301664597
 31
0.0
  0
LINE
  5
A9196
  8
SIZE
 10
-434.00011586613522
 20
-352.06137301664597
 30
0.0
 11
-463.00011586613522
 21
-352.06137301664597
 31
0.0
  0
LINE
  5
A9197
  8
SIZE
 10
-475.00011586613522
 20
-352.06137301664597
 30
0.0
 11
-579.85725872327805
 21
-352.06137301664597
 31
0.0
  0
LINE
  5
A919B
  8
SIZE
 10
-49.000115866131637
 20
46.84833602129401
 30
0.0
 11
-49.000115866131658
 21
-261.27027349179292
 31
0.0
  0
LINE
  5
A919C
  8
SIZE
 10
-475.00011586613522
 20
-1.999996397849827
 30
0.0
 11
-475.00011586613522
 21
-261.27027349179292
 31
0.0
  0
LINE
  5
A919D
  8
SIZE
 10
-61.000115866131658
 20
-241.27027349179289
 30
0.0
 11
-463.00011586613522
 21
-241.27027349179289
 31
0.0
  0
LINE
  5
A91A1
  8
SIZE
 10
477.65155171477909
 20
184.50000360215191
 30
0.0
 11
601.05036947416806
 21
184.50000360215191
 31
0.0
  0
LINE
  5
A91A2
  8
SIZE
 10
492.26132784616578
 20
781.55000360214945
 30
0.0
 11
601.05036947416818
 21
781.55000360214945
 31
0.0
  0
LINE
  5
A91A3
  8
SIZE
 10
581.05036947416795
 20
196.50000360215191
 30
0.0
 11
581.05036947416818
 21
769.55000360214945
 31
0.0
  0
LINE
  5
A91A7
  8
SIZE
 10
421.99988413386473
 20
-59.0
 30
0.0
 11
421.99988413386473
 21
-372.06137301664597
 31
0.0
  0
LINE
  5
A91A8
  8
SIZE
 10
474.99988413386473
 20
-1.999996397849827
 30
0.0
 11
474.99988413386473
 21
-372.06137301664597
 31
0.0
  0
LINE
  5
A91A9
  8
SIZE
 10
433.99988413386473
 20
-352.06137301664597
 30
0.0
 11
462.99988413386473
 21
-352.06137301664597
 31
0.0
  0
LINE
  5
A91AA
  8
SIZE
 10
474.99988413386473
 20
-352.06137301664597
 30
0.0
 11
579.85702699100761
 21
-352.06137301664597
 31
0.0
  0
LINE
  5
A91AE
  8
SIZE
 10
339.99988413386473
 20
46.84833602129401
 30
0.0
 11
339.99988413386473
 21
-261.27027349179292
 31
0.0
  0
LINE
  5
A91AF
  8
SIZE
 10
474.99988413386473
 20
-1.999996397849827
 30
0.0
 11
474.99988413386473
 21
-261.27027349179292
 31
0.0
  0
LINE
  5
A91B0
  8
SIZE
 10
351.99988413386473
 20
-241.27027349179289
 30
0.0
 11
462.99988413386473
 21
-241.27027349179289
 31
0.0
  0
LINE
  5
A91B4
  8
SIZE
 10
476.99988413386461
 20
0.0000036021501714
 30
0.0
 11
601.05036947416818
 21
0.0000036021501363
 31
0.0
  0
LINE
  5
A91B5
  8
SIZE
 10
477.65155171477909
 20
184.50000360215191
 30
0.0
 11
601.05036947416818
 21
184.50000360215191
 31
0.0
  0
LINE
  5
A91B6
  8
SIZE
 10
581.05036947416818
 20
12.000003602150141
 30
0.0
 11
581.05036947416818
 21
172.50000360215191
 31
0.0
  0
TEXT
  5
A91BA
  8
SIZE
 10
153.14274127672181
 20
-119.5332720923615
 30
0.0
 40
50.0
  1
422
 41
0.9
  0
TEXT
  5
A91BB
  8
SIZE
 10
-569.85725872327805
 20
-342.06137301664597
 30
0.0
 40
50.0
  1
53
 41
0.9
  0
CIRCLE
  5
A91BC
  8
SIZE
 10
-422.00011586613522
 20
-352.06137301664597
 30
0.0
 40
6.0
  0
LINE
  5
A91BD
  8
SIZE
 10
-428.00011586613522
 20
-352.06137301664597
 30
0.0
 11
-434.00011586613522
 21
-352.06137301664597
 31
0.0
  0
CIRCLE
  5
A91BE
  8
SIZE
 10
-475.00011586613522
 20
-352.06137301664597
 30
0.0
 40
6.0
  0
LINE
  5
A91BF
  8
SIZE
 10
-469.00011586613527
 20
-352.06137301664597
 30
0.0
 11
-463.00011586613522
 21
-352.06137301664597
 31
0.0
  0
CIRCLE
  5
A91C0
  8
SIZE
 10
-475.00011586613527
 20
-466.61069823176689
 30
0.0
 40
6.0
  0
LINE
  5
A91C1
  8
SIZE
 10
-469.00011586613527
 20
-466.61069823176689
 30
0.0
 11
-463.00011586613527
 21
-466.61069823176689
 31
0.0
  0
CIRCLE
  5
A91C2
  8
SIZE
 10
-422.00011586613522
 20
-352.06137301664597
 30
0.0
 40
6.0
  0
LINE
  5
A91C3
  8
SIZE
 10
-416.00011586613522
 20
-352.06137301664597
 30
0.0
 11
-410.00011586613527
 21
-352.06137301664597
 31
0.0
  0
CIRCLE
  5
A91C4
  8
SIZE
 10
-475.00011586613522
 20
-241.27027349179289
 30
0.0
 40
6.0
  0
LINE
  5
A91C5
  8
SIZE
 10
-469.00011586613527
 20
-241.27027349179289
 30
0.0
 11
-463.00011586613522
 21
-241.27027349179289
 31
0.0
  0
TEXT
  5
A91C6
  8
SIZE
 10
-318.78583015184768
 20
-231.27027349179289
 30
0.0
 40
50.0
  1
426
 41
0.9
  0
TEXT
  5
A91C7
  8
SIZE
 10
-58.928687294706691
 20
-342.06137301664597
 30
0.0
 40
50.0
  1
844
 41
0.9
  0
TEXT
  5
A91C8
  8
SIZE
 10
-57.857258723278193
 20
-456.61069823176689
 30
0.0
 40
50.0
  1
950
 41
0.9
  0
CIRCLE
  5
A91C9
  8
SIZE
 10
-49.000115866131658
 20
-241.27027349179289
 30
0.0
 40
6.0
  0
LINE
  5
A91CA
  8
SIZE
 10
-55.000115866131651
 20
-241.27027349179289
 30
0.0
 11
-61.000115866131658
 21
-241.27027349179289
 31
0.0
  0
CIRCLE
  5
A91CB
  8
SIZE
 10
-49.000115866131658
 20
-241.27027349179289
 30
0.0
 40
6.0
  0
LINE
  5
A91CC
  8
SIZE
 10
-43.000115866131651
 20
-241.27027349179289
 30
0.0
 11
-37.000115866131651
 21
-241.27027349179289
 31
0.0
  0
CIRCLE
  5
A91CD
  8
SIZE
 10
-0.00011586613528
 20
-129.5332720923615
 30
0.0
 40
6.0
  0
LINE
  5
A91CE
  8
SIZE
 10
5.9998841338647191
 20
-129.5332720923615
 30
0.0
 11
11.999884133864709
 21
-129.5332720923615
 31
0.0
  0
TEXT
  5
A91CF
  8
SIZE
 10
88.714169848152281
 20
-231.27027349179289
 30
0.0
 40
50.0
  1
389
 41
0.9
  0
TEXT
  5
A91D0
  8
SIZE
 10
353.92845556243611
 20
-231.27027349179289
 30
0.0
 40
50.0
  1
135
 41
0.9
  0
CIRCLE
  5
A91D1
  8
SIZE
 10
421.99988413386473
 20
-352.06137301664597
 30
0.0
 40
6.0
  0
LINE
  5
A91D2
  8
SIZE
 10
427.99988413386473
 20
-352.06137301664597
 30
0.0
 11
433.99988413386473
 21
-352.06137301664597
 31
0.0
  0
CIRCLE
  5
A91D3
  8
SIZE
 10
421.99988413386473
 20
-352.06137301664597
 30
0.0
 40
6.0
  0
LINE
  5
A91D4
  8
SIZE
 10
415.99988413386473
 20
-352.06137301664597
 30
0.0
 11
409.99988413386473
 21
-352.06137301664597
 31
0.0
  0
CIRCLE
  5
A91D5
  8
SIZE
 10
339.99988413386473
 20
-241.27027349179289
 30
0.0
 40
6.0
  0
LINE
  5
A91D6
  8
SIZE
 10
345.99988413386473
 20
-241.27027349179289
 30
0.0
 11
351.99988413386473
 21
-241.27027349179289
 31
0.0
  0
CIRCLE
  5
A91D7
  8
SIZE
 10
339.99988413386473
 20
-241.27027349179289
 30
0.0
 40
6.0
  0
LINE
  5
A91D8
  8
SIZE
 10
333.99988413386473
 20
-241.27027349179289
 30
0.0
 11
327.99988413386473
 21
-241.27027349179289
 31
0.0
  0
CIRCLE
  5
A91D9
  8
SIZE
 10
421.99988413386473
 20
-129.5332720923615
 30
0.0
 40
6.0
  0
LINE
  5
A91DA
  8
SIZE
 10
415.99988413386473
 20
-129.5332720923615
 30
0.0
 11
409.99988413386473
 21
-129.5332720923615
 31
0.0
  0
TEXT
  5
A91DB
  8
SIZE
 10
496.99988413386473
 20
-342.06137301664597
 30
0.0
 40
50.0
  1
53
 41
0.9
  0
CIRCLE
  5
A91DC
  8
SIZE
 10
474.99988413386473
 20
-352.06137301664597
 30
0.0
 40
6.0
  0
LINE
  5
A91DD
  8
SIZE
 10
468.99988413386473
 20
-352.06137301664597
 30
0.0
 11
462.99988413386473
 21
-352.06137301664597
 31
0.0
  0
CIRCLE
  5
A91DE
  8
SIZE
 10
474.99988413386461
 20
-466.61069823176689
 30
0.0
 40
6.0
  0
LINE
  5
A91DF
  8
SIZE
 10
468.99988413386461
 20
-466.61069823176689
 30
0.0
 11
462.99988413386461
 21
-466.61069823176689
 31
0.0
  0
CIRCLE
  5
A91E0
  8
SIZE
 10
474.99988413386473
 20
-241.27027349179289
 30
0.0
 40
6.0
  0
LINE
  5
A91E1
  8
SIZE
 10
468.99988413386473
 20
-241.27027349179289
 30
0.0
 11
462.99988413386473
 21
-241.27027349179289
 31
0.0
  0
TEXT
  5
A91E2
  8
SIZE
 10
571.05036947416818
 20
38.678575030722577
 30
0.0
 40
50.0
  1
185
 50
90.0
 41
0.9
  0
CIRCLE
  5
A91E3
  8
SIZE
 10
581.05036947416818
 20
0.0000036021501419
 30
0.0
 40
6.0
  0
LINE
  5
A91E4
  8
SIZE
 10
581.05036947416818
 20
6.0000036021501408
 30
0.0
 11
581.05036947416818
 21
12.000003602150141
 31
0.0
  0
CIRCLE
  5
A91E5
  8
SIZE
 10
581.05036947416818
 20
184.50000360215191
 30
0.0
 40
6.0
  0
LINE
  5
A91E6
  8
SIZE
 10
581.05036947416818
 20
178.50000360215191
 30
0.0
 11
581.05036947416818
 21
172.50000360215191
 31
0.0
  0
CIRCLE
  5
A91E7
  8
SIZE
 10
581.05036947416795
 20
184.50000360215191
 30
0.0
 40
6.0
  0
LINE
  5
A91E8
  8
SIZE
 10
581.05036947416795
 20
190.50000360215191
 30
0.0
 11
581.05036947416795
 21
196.50000360215191
 31
0.0
  0
CIRCLE
  5
A91E9
  8
SIZE
 10
717.17020106811913
 20
-0.0000000000000683
 30
0.0
 40
6.0
  0
LINE
  5
A91EA
  8
SIZE
 10
717.17020106811913
 20
5.9999999999999307
 30
0.0
 11
717.17020106811913
 21
11.999999999999931
 31
0.0
  0
TEXT
  5
A91EB
  8
SIZE
 10
707.17020106811924
 20
900.00000000000171
 30
0.0
 40
50.0
  1
1950
 50
90.0
 41
0.9
  0
TEXT
  5
A91EC
  8
SIZE
 10
571.05036947416806
 20
425.16786074500789
 30
0.0
 40
50.0
  1
597
 50
90.0
 41
0.9
  0
CIRCLE
  5
A91ED
  8
SIZE
 10
581.05036947416818
 20
781.55000360214945
 30
0.0
 40
6.0
  0
LINE
  5
A91EE
  8
SIZE
 10
581.05036947416818
 20
775.55000360214945
 30
0.0
 11
581.05036947416818
 21
769.55000360214945
 31
0.0
  0
CIRCLE
  5
A91EF
  8
SIZE
 10
717.17020106811958
 20
1949.9999999999991
 30
0.0
 40
6.0
  0
LINE
  5
A91F0
  8
SIZE
 10
717.17020106811958
 20
1943.9999999999991
 30
0.0
 11
717.17020106811958
 21
1937.9999999999991
 31
0.0
  0
LINE
  5
A91F1
  8
OUTLINE
 10
472.39999999805599
 20
1172.499999999998
 30
0.0
 11
472.39999999805599
 21
1944.499999999998
 31
0.0
  0
LINE
  5
A91F2
  8
OUTLINE
 10
474.99999999805459
 20
549.99999999999818
 30
0.0
 11
474.99999999805459
 21
1949.999999999998
 31
0.0
  0
LINE
  5
A91F3
  8
OUTLINE
 10
-472.00000000194541
 20
1172.499999999998
 30
0.0
 11
-472.00000000194541
 21
1944.499999999998
 31
0.0
  0
LINE
  5
A91F4
  8
OUTLINE
 10
-475.0000000019453
 20
1949.999999999998
 30
0.0
 11
-475.0000000019453
 21
549.99999999999818
 31
0.0
  0
LINE
  5
A91F5
  8
OUTLINE
 10
245.5999997686967
 20
284.99999999999812
 30
0.0
 11
265.59999976869489
 21
284.99999999999812
 31
0.0
  0
LINE
  5
A91F6
  8
OUTLINE
 10
245.59999976869489
 20
296.99999999999812
 30
0.0
 11
265.59999976869489
 21
296.99999999999812
 31
0.0
  0
LINE
  5
A91F7
  8
OUTLINE
 10
263.54999976869561
 20
93.549999999995634
 30
0.0
 11
253.59999976869489
 21
103.4999999999981
 31
0.0
  0
LINE
  5
A91F8
  8
OUTLINE
 10
263.54999976869561
 20
178.449999999997
 30
0.0
 11
253.59999976869489
 21
168.4999999999981
 31
0.0
  0
LINE
  5
A91F9
  8
OUTLINE
 10
2.0999999980549542
 20
567.49999999999818
 30
0.0
 11
472.1999999980552
 21
567.49999999999818
 31
0.0
  0
LINE
  5
A91FA
  8
OUTLINE
 10
2.0999999980549542
 20
1164.999999999998
 30
0.0
 11
472.1999999980552
 21
1164.999999999998
 31
0.0
  0
LINE
  5
A91FB
  8
OUTLINE
 10
-472.00000000194541
 20
1172.499999999998
 30
0.0
 11
472.39999999805599
 21
1172.499999999998
 31
0.0
  0
LINE
  5
A91FC
  8
OUTLINE
 10
-475.0000000019453
 20
549.99999999999818
 30
0.0
 11
474.99999999805459
 21
549.99999999999818
 31
0.0
  0
LINE
  5
A91FD
  8
OUTLINE
 10
-372.0000000019453
 20
450.20000000000073
 30
0.0
 11
371.99999999805448
 21
450.20000000000073
 31
0.0
  0
LINE
  5
A91FE
  8
OUTLINE
 10
-372.0000000019453
 20
400.20000000000073
 30
0.0
 11
371.99999999805448
 21
400.20000000000073
 31
0.0
  0
LINE
  5
A91FF
  8
OUTLINE
 10
-372.0000000019453
 20
367.20000000000073
 30
0.0
 11
371.99999999805448
 21
367.20000000000073
 31
0.0
  0
LINE
  5
A9200
  8
OUTLINE
 10
371.99999999805448
 20
83.0
 30
0.0
 11
-372.00000000194348
 21
83.0
 31
0.0
  0
LINE
  5
A9201
  8
OUTLINE
 10
472.00000000194348
 20
0.0
 30
0.0
 11
-472.00000000194348
 21
0.0
 31
0.0
  0
LINE
  5
A9202
  8
OUTLINE
 10
245.59999976869489
 20
367.20000000000073
 30
0.0
 11
245.59999976869489
 21
98.500000000001819
 31
0.0
  0
LINE
  5
A9203
  8
OUTLINE
 10
-130.04969484733459
 20
367.20000000000073
 30
0.0
 11
-130.04969484733459
 21
355.64999999999958
 31
0.0
  0
LINE
  5
A9204
  8
OUTLINE
 10
-145.9496948473342
 20
367.20000000000073
 30
0.0
 11
-145.9496948473342
 21
355.64999999999958
 31
0.0
  0
LINE
  5
A9205
  8
OUTLINE
 10
-130.04969487604009
 20
367.20000000000073
 30
0.0
 11
-130.04969490377971
 21
361.1499963189471
 31
0.0
  0
LINE
  5
A9206
  8
OUTLINE
 10
-145.94969500794551
 20
367.20000000000073
 30
0.0
 11
-145.9496950316379
 21
361.15002683652529
 31
0.0
  0
LINE
  5
A9207
  8
OUTLINE
 10
-4.4000002313050572
 20
83.0
 30
0.0
 11
-4.4000002313050572
 21
367.20000000000073
 31
0.0
  0
LINE
  5
A9208
  8
OUTLINE
 10
15.599999768694939
 20
83.0
 30
0.0
 11
15.599999768694939
 21
367.20000000000073
 31
0.0
  0
LINE
  5
A9209
  8
OUTLINE
 10
-288.55000114272201
 20
367.20000000000073
 30
0.0
 11
-288.55000111785102
 21
361.14999999177962
 31
0.0
  0
LINE
  5
A920A
  8
OUTLINE
 10
-304.4500011669233
 20
367.20000000000073
 30
0.0
 11
-304.4500011621285
 21
361.15000000158568
 31
0.0
  0
LINE
  5
A920B
  8
OUTLINE
 10
-425.0000000019453
 20
456.99999999999812
 30
0.0
 11
-425.0000000019453
 21
278.85375494071008
 31
0.0
  0
LINE
  5
A920C
  8
OUTLINE
 10
-372.0000000019453
 20
456.99999999999812
 30
0.0
 11
-372.0000000019453
 21
80.000003602151992
 31
0.0
  0
LINE
  5
A920D
  8
OUTLINE
 10
-472.00000000194541
 20
549.99999999999818
 30
0.0
 11
-472.00000000194541
 21
0.000000000001819
 31
0.0
  0
ARC
  5
A920E
  8
OUTLINE
 10
-167.99969487558059
 20
263.02671222691782
 30
0.0
 40
37.9500000000005
 50
315.0
 51
0.000000000000007
  0
LINE
  5
A920F
  8
OUTLINE
 10
-128.04969484733459
 20
355.64999999999958
 30
0.0
 11
-147.9496948473342
 21
355.64999999999958
 31
0.0
  0
LINE
  5
A9210
  8
OUTLINE
 10
-183.1735933601112
 20
125.05000000000111
 30
0.0
 11
-75.600000231303966
 21
125.05000000000111
 31
0.0
  0
LINE
  5
A9211
  8
OUTLINE
 10
-183.1735933601112
 20
140.95000000000249
 30
0.0
 11
-75.600000231303966
 21
140.95000000000249
 31
0.0
  0
LINE
  5
A9212
  8
OUTLINE
 10
-372.00000000194348
 20
80.000003602150159
 30
0.0
 11
-475.0000000019453
 21
80.000003602150159
 31
0.0
  0
LINE
  5
A9213
  8
OUTLINE
 10
-475.0000000019453
 20
3.0000000000018181
 30
0.0
 11
-475.0000000019453
 21
80.000003602150159
 31
0.0
  0
ARC
  5
A9214
  8
OUTLINE
 10
-472.00000000194541
 20
3.0
 30
0.0
 40
2.9999999999995448
 50
180.0
 51
270.0
  0
LINE
  5
A9215
  8
OUTLINE
 10
-421.9999999980563
 20
39.999999999998181
 30
0.0
 11
-421.9999999980563
 21
-40.0
 31
0.0
  0
LINE
  5
A9216
  8
OUTLINE
 10
-421.9999999980563
 20
39.999996397849827
 30
0.0
 11
-421.9999999980563
 21
-40.000003602148347
 31
0.0
  0
LINE
  5
A9217
  8
OUTLINE
 10
-472.00000000194541
 20
278.85375494071008
 30
0.0
 11
-425.0000000019453
 21
278.85375494071008
 31
0.0
  0
ARC
  5
A9218
  8
OUTLINE
 10
-183.1735933601112
 20
163.00000000000179
 30
0.0
 40
37.949999999999363
 50
135.0
 51
270.0
  0
LINE
  5
A9219
  8
OUTLINE
 10
-288.5500004560335
 20
200.14999999177959
 30
0.0
 11
-288.54999999091427
 21
86.999999999998181
 31
0.0
  0
LINE
  5
A921A
  8
OUTLINE
 10
-304.45000103455732
 20
200.15000000158579
 30
0.0
 11
-304.45000094490291
 21
86.999999999998181
 31
0.0
  0
ARC
  5
A921B
  8
OUTLINE
 10
-296.50000020821687
 20
87.0
 30
0.0
 40
7.9500000000102977
 50
180.0
 51
210.20826763782219
  0
ARC
  5
A921C
  8
OUTLINE
 10
-296.50000020822239
 20
86.999999999996362
 30
0.0
 40
7.9499999999949909
 50
329.79173236208771
 51
0.000076022852771
  0
LINE
  5
A921D
  8
OUTLINE
 10
-279.50000020306368
 20
260.1500000000014
 30
0.0
 11
-279.50000020306368
 21
282.1500000000014
 31
0.0
  0
LINE
  5
A921E
  8
OUTLINE
 10
-313.50000020306379
 20
260.1500000000014
 30
0.0
 11
-313.50000020306379
 21
282.1500000000014
 31
0.0
  0
LINE
  5
A921F
  8
OUTLINE
 10
-279.50000020306368
 20
260.1500000000014
 30
0.0
 11
-313.50000020306379
 21
260.1500000000014
 31
0.0
  0
LINE
  5
A9220
  8
OUTLINE
 10
-286.87884337531523
 20
260.15000000000327
 30
0.0
 11
-286.87884337531523
 21
254.4251168915543
 31
0.0
  0
LINE
  5
A9221
  8
OUTLINE
 10
-306.12115703081412
 20
254.4251168915543
 30
0.0
 11
-286.87884337531523
 21
254.4251168915543
 31
0.0
  0
LINE
  5
A9222
  8
OUTLINE
 10
-306.12115703081412
 20
260.15000000000327
 30
0.0
 11
-306.12115703081412
 21
254.4251168915543
 31
0.0
  0
ARC
  5
A9223
  8
OUTLINE
 10
-318.00000020306379
 20
287.14999999999958
 30
0.0
 40
4.9999999999990914
 50
90.0
 51
270.0
  0
LINE
  5
A9224
  8
OUTLINE
 10
-279.50000020306368
 20
292.1500000000014
 30
0.0
 11
-279.50000020306368
 21
297.15000000034161
 31
0.0
  0
LINE
  5
A9225
  8
OUTLINE
 10
-313.50000020306379
 20
292.1500000000014
 30
0.0
 11
-313.50000020306379
 21
297.14999999937748
 31
0.0
  0
LINE
  5
A9226
  8
OUTLINE
 10
-275.00000020306561
 20
282.1500000000014
 30
0.0
 11
-318.00000020306379
 21
282.1500000000014
 31
0.0
  0
LINE
  5
A9227
  8
OUTLINE
 10
-275.00000020306561
 20
292.1500000000014
 30
0.0
 11
-318.00000020306379
 21
292.1500000000014
 31
0.0
  0
LINE
  5
A9228
  8
OUTLINE
 10
-279.50000020306368
 20
265.09032829327953
 30
0.0
 11
-313.50000020306379
 21
265.09032829327953
 31
0.0
  0
LINE
  5
A9229
  8
OUTLINE
 10
-306.12115703081412
 20
305.2040497944144
 30
0.0
 11
-306.12115703081412
 21
311.3930418269901
 31
0.0
  0
LINE
  5
A922A
  8
OUTLINE
 10
-286.87884337531341
 20
311.3930418269901
 30
0.0
 11
-306.12115703081412
 21
311.3930418269901
 31
0.0
  0
LINE
  5
A922B
  8
OUTLINE
 10
-286.87884337531341
 20
305.20404979462722
 30
0.0
 11
-286.87884337531341
 21
311.3930418269901
 31
0.0
  0
ARC
  5
A922C
  8
OUTLINE
 10
-298.50000020290548
 20
287.15000000026151
 30
0.0
 40
21.470910553325801
 50
27.75854060149204
 51
57.231143564864652
  0
ARC
  5
A922D
  8
OUTLINE
 10
-294.50000020291822
 20
287.1500000002888
 30
0.0
 40
21.47091055328946
 50
122.7688564361748
 51
152.24145940132809
  0
ARC
  5
A922E
  8
OUTLINE
 10
-275.00000020306561
 20
287.1500000000014
 30
0.0
 40
4.9999999999990914
 50
270.0
 51
90.0
  0
CIRCLE
  5
A922F
  8
OUTLINE
 10
-318.00000020306379
 20
287.1500000000014
 30
0.0
 40
2.25
  0
CIRCLE
  5
A9230
  8
OUTLINE
 10
-275.00000020306368
 20
287.1500000000014
 30
0.0
 40
2.25
  0
LINE
  5
A9231
  8
OUTLINE
 10
-304.45000020306452
 20
311.3930418269901
 30
0.0
 11
-304.45000020306452
 21
346.14999999999782
 31
0.0
  0
LINE
  5
A9232
  8
OUTLINE
 10
-288.55000020306301
 20
311.3930418269901
 30
0.0
 11
-288.55000020306301
 21
346.1500000000014
 31
0.0
  0
LINE
  5
A9233
  8
OUTLINE
 10
-306.45000020306628
 20
348.14999999999958
 30
0.0
 11
-304.45000020306452
 21
346.14999999999782
 31
0.0
  0
LINE
  5
A9234
  8
OUTLINE
 10
-286.55000020306483
 20
348.14999999999958
 30
0.0
 11
-288.55000020306301
 21
346.1500000000014
 31
0.0
  0
LINE
  5
A9235
  8
OUTLINE
 10
-286.55000020306483
 20
348.1500000000014
 30
0.0
 11
-286.55000020306483
 21
361.1500000000014
 31
0.0
  0
LINE
  5
A9236
  8
OUTLINE
 10
-306.45000020306452
 20
348.1500000000014
 30
0.0
 11
-306.45000020306452
 21
361.1500000000014
 31
0.0
  0
LINE
  5
A9237
  8
OUTLINE
 10
-306.45000020306452
 20
361.1500000000014
 30
0.0
 11
-286.55000020306483
 21
361.1500000000014
 31
0.0
  0
LINE
  5
A9238
  8
OUTLINE
 10
-286.55000020306301
 20
213.1500000000014
 30
0.0
 11
-288.55000020306301
 21
215.1500000000014
 31
0.0
  0
LINE
  5
A9239
  8
OUTLINE
 10
-306.4500002030627
 20
213.1500000000014
 30
0.0
 11
-304.45000020306452
 21
215.1500000000014
 31
0.0
  0
LINE
  5
A923A
  8
OUTLINE
 10
-306.45000020306452
 20
213.1500000000014
 30
0.0
 11
-306.45000020306452
 21
200.1500000000014
 31
0.0
  0
LINE
  5
A923B
  8
OUTLINE
 10
-286.55000020306301
 20
213.1500000000014
 30
0.0
 11
-286.55000020306301
 21
200.1500000000014
 31
0.0
  0
LINE
  5
A923C
  8
OUTLINE
 10
-286.55000020306301
 20
200.1500000000014
 30
0.0
 11
-306.45000020306452
 21
200.1500000000014
 31
0.0
  0
LINE
  5
A923D
  8
OUTLINE
 10
-288.55000020306301
 20
254.4251168915543
 30
0.0
 11
-288.55000020306301
 21
215.1500000000014
 31
0.0
  0
LINE
  5
A923E
  8
OUTLINE
 10
-304.45000020306452
 20
254.4251168915543
 30
0.0
 11
-304.45000020306452
 21
215.1500000000014
 31
0.0
  0
ARC
  5
A923F
  8
OUTLINE
 10
-167.9996948755788
 20
263.02671222691782
 30
0.0
 40
22.04999999999859
 50
315.0
 51
0.000000000000007
  0
LINE
  5
A9240
  8
OUTLINE
 10
-145.9496948755795
 20
343.65000002824672
 30
0.0
 11
-145.9496948755795
 21
263.02671222691782
 31
0.0
  0
LINE
  5
A9241
  8
OUTLINE
 10
-147.9496948473342
 20
355.64999999999958
 30
0.0
 11
-147.9496948473342
 21
345.64999999999958
 31
0.0
  0
LINE
  5
A9242
  8
OUTLINE
 10
-147.9496948473342
 20
345.64999999999958
 30
0.0
 11
-145.9496948755795
 21
343.65000002824672
 31
0.0
  0
ARC
  5
A9243
  8
OUTLINE
 10
-183.1735933601112
 20
163.00000000000179
 30
0.0
 40
22.050000000000178
 50
135.0
 51
270.0
  0
LINE
  5
A9244
  8
OUTLINE
 10
-198.76529788527381
 20
178.5917045251644
 30
0.0
 11
-141.16499252955049
 21
236.1920098808877
 31
0.0
  0
LINE
  5
A9245
  8
OUTLINE
 10
-210.00829570613951
 20
189.8347023460301
 30
0.0
 11
-152.4079903504161
 21
247.43500770175521
 31
0.0
  0
LINE
  5
A9246
  8
OUTLINE
 10
245.59999976869489
 20
98.500000000001819
 30
0.0
 11
15.599999768694939
 21
98.500000000001819
 31
0.0
  0
LINE
  5
A9247
  8
OUTLINE
 10
-32.600000231303959
 20
149.50000000000179
 30
0.0
 11
-32.600000231303959
 21
116.5000000000018
 31
0.0
  0
LINE
  5
A9248
  8
OUTLINE
 10
-38.600000231303959
 20
149.50000000000179
 30
0.0
 11
-38.600000231303959
 21
116.5000000000018
 31
0.0
  0
LINE
  5
A9249
  8
OUTLINE
 10
5.9999997686963971
 20
158.00000000000179
 30
0.0
 11
5.9999997686963971
 21
108.0000000000018
 31
0.0
  0
LINE
  5
A924A
  8
OUTLINE
 10
-75.600000231303966
 20
141.95000000000249
 30
0.0
 11
-75.600000231303966
 21
124.05000000000111
 31
0.0
  0
LINE
  5
A924B
  8
OUTLINE
 10
9.5999997686949428
 20
83.0
 30
0.0
 11
9.5999997686949428
 21
310.99999999999812
 31
0.0
  0
LINE
  5
A924C
  8
OUTLINE
 10
-38.600000231303959
 20
116.5000000000018
 30
0.0
 11
-32.600000231303959
 21
116.5000000000018
 31
0.0
  0
LINE
  5
A924D
  8
OUTLINE
 10
-52.600000231303959
 20
118.7000000000025
 30
0.0
 11
-38.600000231300321
 21
118.7000000000025
 31
0.0
  0
LINE
  5
A924E
  8
OUTLINE
 10
-64.600000231303966
 20
124.05000000000111
 30
0.0
 11
-75.600000231303966
 21
124.05000000000111
 31
0.0
  0
LINE
  5
A924F
  8
OUTLINE
 10
-52.600000231303959
 20
118.7000000000025
 30
0.0
 11
-64.600000231303966
 21
124.05000000000111
 31
0.0
  0
LINE
  5
A9250
  8
OUTLINE
 10
15.599999768694939
 20
108.0000000000018
 30
0.0
 11
5.9999997686963971
 21
108.0000000000018
 31
0.0
  0
LINE
  5
A9251
  8
OUTLINE
 10
1.9999997686963971
 20
117.5000000000018
 30
0.0
 11
-32.022649962115793
 21
117.5000000000018
 31
0.0
  0
LINE
  5
A9252
  8
OUTLINE
 10
-32.600000231303959
 20
116.5000000000018
 30
0.0
 11
-32.022649962115793
 21
117.5000000000018
 31
0.0
  0
ARC
  5
A9253
  8
OUTLINE
 10
1.9999997686927591
 20
113.4999999999981
 30
0.0
 40
4.000000000002955
 50
0.000000000000007
 51
89.999999999947889
  0
LINE
  5
A9254
  8
OUTLINE
 10
-32.600000231303959
 20
149.50000000000179
 30
0.0
 11
-38.600000231303959
 21
149.50000000000179
 31
0.0
  0
LINE
  5
A9255
  8
OUTLINE
 10
-130.04969487557989
 20
343.64999997175249
 30
0.0
 11
-130.04969487557989
 21
263.02671222691782
 31
0.0
  0
LINE
  5
A9256
  8
OUTLINE
 10
-128.04969484733459
 20
345.64999999999958
 30
0.0
 11
-130.04969487557989
 21
343.64999997175249
 31
0.0
  0
LINE
  5
A9257
  8
OUTLINE
 10
-128.04969484733459
 20
345.64999999999958
 30
0.0
 11
-128.04969484733459
 21
355.64999999999958
 31
0.0
  0
LINE
  5
A9258
  8
OUTLINE
 10
-52.600000231303959
 20
147.30000000000101
 30
0.0
 11
-38.600000231300321
 21
147.30000000000101
 31
0.0
  0
LINE
  5
A9259
  8
OUTLINE
 10
-64.600000231303966
 20
141.95000000000249
 30
0.0
 11
-75.600000231303966
 21
141.95000000000249
 31
0.0
  0
LINE
  5
A925A
  8
OUTLINE
 10
-52.600000231303959
 20
147.30000000000101
 30
0.0
 11
-64.600000231303966
 21
141.95000000000249
 31
0.0
  0
LINE
  5
A925B
  8
OUTLINE
 10
15.599999768694939
 20
310.99999999999812
 30
0.0
 11
9.5999997686949428
 21
310.99999999999812
 31
0.0
  0
LINE
  5
A925C
  8
OUTLINE
 10
15.599999768694939
 20
284.99999999999812
 30
0.0
 11
-4.4000002313050572
 21
284.99999999999812
 31
0.0
  0
LINE
  5
A925D
  8
OUTLINE
 10
15.599999768694939
 20
296.99999999999812
 30
0.0
 11
-4.4000002313050572
 21
296.99999999999812
 31
0.0
  0
LINE
  5
A925E
  8
OUTLINE
 10
-4.4000002313050572
 20
296.99999999999812
 30
0.0
 11
-4.4000002313050572
 21
284.99999999999812
 31
0.0
  0
LINE
  5
A925F
  8
OUTLINE
 10
5.9999997686963971
 20
158.00000000000179
 30
0.0
 11
15.599999768694939
 21
158.00000000000179
 31
0.0
  0
LINE
  5
A9260
  8
OUTLINE
 10
1.9999997686945781
 20
148.50000000000179
 30
0.0
 11
-32.022649962113967
 21
148.50000000000179
 31
0.0
  0
LINE
  5
A9261
  8
OUTLINE
 10
-32.600000231303959
 20
149.50000000000179
 30
0.0
 11
-32.022649962113967
 21
148.50000000000179
 31
0.0
  0
ARC
  5
A9262
  8
OUTLINE
 10
1.9999997686945781
 20
152.50000000000361
 30
0.0
 40
4.0000000000013634
 50
270.0
 51
0.000000000000007
  0
LINE
  5
A9263
  8
OUTLINE
 10
253.59999976869489
 20
168.4999999999981
 30
0.0
 11
253.59999976869489
 21
103.4999999999981
 31
0.0
  0
LINE
  5
A9264
  8
OUTLINE
 10
250.09999976869489
 20
83.0
 30
0.0
 11
250.09999976869489
 21
310.99999999999812
 31
0.0
  0
LINE
  5
A9265
  8
OUTLINE
 10
256.09999976869489
 20
83.0
 30
0.0
 11
256.09999976869489
 21
310.99999999999812
 31
0.0
  0
LINE
  5
A9266
  8
OUTLINE
 10
245.59999976869489
 20
103.4999999999981
 30
0.0
 11
253.59999976869489
 21
103.4999999999981
 31
0.0
  0
LINE
  5
A9267
  8
OUTLINE
 10
250.09999976869489
 20
310.99999999999812
 30
0.0
 11
256.09999976869489
 21
310.99999999999812
 31
0.0
  0
LINE
  5
A9268
  8
OUTLINE
 10
253.59999976869489
 20
168.4999999999981
 30
0.0
 11
245.59999976869489
 21
168.4999999999981
 31
0.0
  0
LINE
  5
A9269
  8
OUTLINE
 10
-472.20000000194608
 20
567.49999999999818
 30
0.0
 11
-2.1000000019439531
 21
567.49999999999818
 31
0.0
  0
LINE
  5
A926A
  8
OUTLINE
 10
-472.20000000194608
 20
1164.999999999998
 30
0.0
 11
-2.1000000019439531
 21
1164.999999999998
 31
0.0
  0
LINE
  5
A926B
  8
OUTLINE
 10
-361.23764966762701
 20
823.60654919161777
 30
0.0
 11
-361.23764966762701
 21
856.8065491916168
 31
0.0
  0
LINE
  5
A926C
  8
OUTLINE
 10
-380.23764966762701
 20
856.8065491916168
 30
0.0
 11
-380.23764966762701
 21
823.60654919161777
 31
0.0
  0
LINE
  5
A926D
  8
OUTLINE
 10
-472.20000000194608
 20
1164.999999999998
 30
0.0
 11
-472.20000000194608
 21
567.49999999999818
 31
0.0
  0
CIRCLE
  5
A926E
  8
OUTLINE
 10
-297.40000000194499
 20
491.99999999999818
 30
0.0
 40
40.0
  0
LINE
  5
A926F
  8
OUTLINE
 10
-472.00000000194541
 20
456.99999999999812
 30
0.0
 11
-316.76491673298091
 21
456.99999999999812
 31
0.0
  0
LINE
  5
A9270
  8
OUTLINE
 10
-395.20000000194608
 20
467.20000000000073
 30
0.0
 11
-454.20000000194608
 21
467.20000000000073
 31
0.0
  0
LINE
  5
A9271
  8
OUTLINE
 10
-454.20000000194608
 20
525.39999999999782
 30
0.0
 11
-395.20000000194608
 21
525.39999999999782
 31
0.0
  0
LINE
  5
A9272
  8
OUTLINE
 10
-454.20000000194608
 20
525.39999999999782
 30
0.0
 11
-454.20000000194608
 21
467.20000000000073
 31
0.0
  0
LINE
  5
A9273
  8
OUTLINE
 10
-395.20000000194608
 20
525.39999999999782
 30
0.0
 11
-395.20000000194608
 21
467.20000000000073
 31
0.0
  0
LINE
  5
A9274
  8
OUTLINE
 10
-380.23764966762701
 20
823.60654919161777
 30
0.0
 11
-361.23764966762701
 21
823.60654919161777
 31
0.0
  0
LINE
  5
A9275
  8
OUTLINE
 10
-278.03508327090731
 20
456.99999999999812
 30
0.0
 11
-218.4713075076497
 21
456.99999999999812
 31
0.0
  0
CIRCLE
  5
A9276
  8
OUTLINE
 10
-197.4000000019432
 20
490.99999999999812
 30
0.0
 40
40.0
  0
LINE
  5
A9277
  8
OUTLINE
 10
-308.00638999515547
 20
502.60621000016903
 30
0.0
 11
-279.72200000194329
 21
474.32229999999981
 31
0.0
  0
LINE
  5
A9278
  8
OUTLINE
 10
-279.72200000194329
 20
474.32219999999859
 30
0.0
 11
-282.22200000194329
 21
478.65229999999792
 31
0.0
  0
LINE
  5
A9279
  8
OUTLINE
 10
-279.72200000194329
 20
474.32229999999981
 30
0.0
 11
-284.05200000194498
 21
476.82229999999981
 31
0.0
  0
CIRCLE
  5
A927A
  8
OUTLINE
 10
-297.40000000194499
 20
491.99999999999818
 30
0.0
 40
30.0
  0
CIRCLE
  5
A927B
  8
OUTLINE
 10
-297.40000000194499
 20
491.99999999999818
 30
0.0
 40
32.5
  0
LINE
  5
A927C
  8
OUTLINE
 10
-208.0063899951555
 20
501.60621000016909
 30
0.0
 11
-179.72200000194329
 21
473.3222999999997
 31
0.0
  0
LINE
  5
A927D
  8
OUTLINE
 10
-179.72200000194329
 20
473.3221999999987
 30
0.0
 11
-182.22200000194329
 21
477.65229999999792
 31
0.0
  0
LINE
  5
A927E
  8
OUTLINE
 10
-179.72200000194329
 20
473.3222999999997
 30
0.0
 11
-184.052000001945
 21
475.82229999999981
 31
0.0
  0
LINE
  5
A927F
  8
OUTLINE
 10
-176.32869249624031
 20
456.99999999999812
 30
0.0
 11
-145.1000000019439
 21
456.99999999999812
 31
0.0
  0
LINE
  5
A9280
  8
OUTLINE
 10
-145.1000000019439
 20
456.99999999999812
 30
0.0
 11
-145.1000000019439
 21
549.99999999999818
 31
0.0
  0
CIRCLE
  5
A9281
  8
OUTLINE
 10
-197.4000000019432
 20
490.99999999999812
 30
0.0
 40
30.0
  0
CIRCLE
  5
A9282
  8
OUTLINE
 10
-197.4000000019432
 20
490.99999999999812
 30
0.0
 40
32.5
  0
LINE
  5
A9283
  8
OUTLINE
 10
-303.7376496676269
 20
939.20654919161825
 30
0.0
 11
-337.73764966762701
 21
939.20654919161825
 31
0.0
  0
LINE
  5
A9284
  8
OUTLINE
 10
-345.73764966762701
 20
977.89976419161746
 30
0.0
 11
-215.73764966762701
 21
977.89976419161746
 31
0.0
  0
LINE
  5
A9285
  8
OUTLINE
 10
-215.73764966762701
 20
1036.8997641916169
 30
0.0
 11
-345.73764966762701
 21
1036.8997641916169
 31
0.0
  0
LINE
  5
A9286
  8
OUTLINE
 10
-335.73764966762701
 20
987.89976419161746
 30
0.0
 11
-225.73764966762701
 21
987.89976419161746
 31
0.0
  0
LINE
  5
A9287
  8
OUTLINE
 10
-225.73764966762701
 20
1026.8997641916169
 30
0.0
 11
-335.73764966762701
 21
1026.8997641916169
 31
0.0
  0
ARC
  5
A9288
  8
OUTLINE
 10
-320.73764966762701
 20
915.20654919161825
 30
0.0
 40
17.0
 50
180.0
 51
0.000000000000007
  0
CIRCLE
  5
A9289
  8
OUTLINE
 10
-320.73764966762701
 20
915.20654919161825
 30
0.0
 40
15.0
  0
LINE
  5
A928A
  8
OUTLINE
 10
-345.73764966762701
 20
1036.8997641916169
 30
0.0
 11
-345.73764966762701
 21
977.89976419161746
 31
0.0
  0
LINE
  5
A928B
  8
OUTLINE
 10
-335.73764966762701
 20
1026.8997641916169
 30
0.0
 11
-335.73764966762701
 21
987.89976419161746
 31
0.0
  0
LINE
  5
A928C
  8
OUTLINE
 10
-337.73764966762701
 20
939.20654919161825
 30
0.0
 11
-337.73764966762701
 21
915.20654919161825
 31
0.0
  0
LINE
  5
A928D
  8
OUTLINE
 10
-386.48764966762701
 20
936.89976419161746
 30
0.0
 11
-354.98764966762701
 21
936.89976419161746
 31
0.0
  0
LINE
  5
A928E
  8
OUTLINE
 10
-386.48764966762701
 20
986.89976419161746
 30
0.0
 11
-354.98764966762701
 21
986.89976419161746
 31
0.0
  0
LINE
  5
A928F
  8
OUTLINE
 10
-386.48764966762701
 20
976.89976419161746
 30
0.0
 11
-386.48764966762701
 21
986.89976419161746
 31
0.0
  0
LINE
  5
A9290
  8
OUTLINE
 10
-354.98764966762701
 20
976.89976419161746
 30
0.0
 11
-386.48764966762701
 21
976.89976419161746
 31
0.0
  0
LINE
  5
A9291
  8
OUTLINE
 10
-354.98764966762701
 20
986.89976419161746
 30
0.0
 11
-354.98764966762701
 21
976.89976419161746
 31
0.0
  0
LINE
  5
A9292
  8
OUTLINE
 10
-386.48764966762701
 20
1036.8997641916169
 30
0.0
 11
-354.98764966762701
 21
1036.8997641916169
 31
0.0
  0
LINE
  5
A9293
  8
OUTLINE
 10
-386.48764966762701
 20
1026.8997641916169
 30
0.0
 11
-386.48764966762701
 21
1036.8997641916169
 31
0.0
  0
LINE
  5
A9294
  8
OUTLINE
 10
-354.98764966762701
 20
1026.8997641916169
 30
0.0
 11
-386.48764966762701
 21
1026.8997641916169
 31
0.0
  0
LINE
  5
A9295
  8
OUTLINE
 10
-354.98764966762701
 20
1036.8997641916169
 30
0.0
 11
-354.98764966762701
 21
1026.8997641916169
 31
0.0
  0
CIRCLE
  5
A9296
  8
OUTLINE
 10
-370.73764966762701
 20
965.20654919161825
 30
0.0
 40
6.0
  0
CIRCLE
  5
A9297
  8
OUTLINE
 10
-370.73764966762701
 20
1015.206549191618
 30
0.0
 40
6.0
  0
LINE
  5
A9298
  8
OUTLINE
 10
-369.15440266762829
 20
840.20654919161825
 30
0.0
 11
-368.65440266762829
 21
847.13404319161782
 31
0.0
  0
LINE
  5
A9299
  8
OUTLINE
 10
-372.23764966762701
 20
840.20654919161825
 30
0.0
 11
-372.69800266762741
 21
847.10331519161809
 31
0.0
  0
ARC
  5
A929A
  8
OUTLINE
 10
-370.73764966762877
 20
840.20654919161655
 30
0.0
 40
4.0000000000000062
 50
115.7916409999832
 51
62.619217000027781
  0
ARC
  5
A929B
  8
OUTLINE
 10
-370.73764966762877
 20
840.20654919161825
 30
0.0
 40
6.9999999999997904
 50
106.16449699999509
 51
72.834116999981958
  0
ARC
  5
A929C
  8
OUTLINE
 10
-370.69602666762779
 20
840.20654919161825
 30
0.0
 40
1.541623000000071
 50
180.0
 51
0.000000000000007
  0
LINE
  5
A929D
  8
OUTLINE
 10
-361.23764966762701
 20
856.8065491916168
 30
0.0
 11
-380.23764966762701
 21
856.8065491916168
 31
0.0
  0
LINE
  5
A929E
  8
OUTLINE
 10
-355.10445166762742
 20
883.89976419161758
 30
0.0
 11
-386.60445166762742
 21
883.89976419161758
 31
0.0
  0
LINE
  5
A929F
  8
OUTLINE
 10
-355.10445166762742
 20
873.89976419161758
 30
0.0
 11
-355.10445166762742
 21
883.89976419161758
 31
0.0
  0
LINE
  5
A92A0
  8
OUTLINE
 10
-386.60445166762742
 20
873.89976419161758
 30
0.0
 11
-355.10445166762742
 21
873.89976419161758
 31
0.0
  0
LINE
  5
A92A1
  8
OUTLINE
 10
-386.60445166762742
 20
883.89976419161758
 30
0.0
 11
-386.60445166762742
 21
873.89976419161758
 31
0.0
  0
ARC
  5
A92A2
  8
OUTLINE
 10
-370.69602666762779
 20
846.57321719161689
 30
0.0
 40
2.069993999999773
 50
9.0244720000504337
 51
170.50312699996991
  0
LINE
  5
A92A3
  8
OUTLINE
 10
-354.98764966762701
 20
926.89976419161746
 30
0.0
 11
-386.48764966762701
 21
926.89976419161746
 31
0.0
  0
CIRCLE
  5
A92A4
  8
OUTLINE
 10
-370.73764966762701
 20
915.20654919161825
 30
0.0
 40
6.0
  0
LINE
  5
A92A5
  8
OUTLINE
 10
-386.48764966762701
 20
926.89976419161746
 30
0.0
 11
-386.48764966762701
 21
936.89976419161746
 31
0.0
  0
LINE
  5
A92A6
  8
OUTLINE
 10
-354.98764966762701
 20
936.89976419161746
 30
0.0
 11
-354.98764966762701
 21
926.89976419161746
 31
0.0
  0
LINE
  5
A92A7
  8
OUTLINE
 10
-302.52115366762791
 20
1024.7597361916171
 30
0.0
 11
-325.67510666762701
 21
1024.7597361916171
 31
0.0
  0
LINE
  5
A92A8
  8
OUTLINE
 10
-325.67510666762701
 20
1013.2717751916171
 30
0.0
 11
-302.52115366762791
 21
1013.2717751916171
 31
0.0
  0
LINE
  5
A92A9
  8
OUTLINE
 10
-302.52115366762791
 20
1013.2717751916171
 30
0.0
 11
-302.52115366762791
 21
1024.7597361916171
 31
0.0
  0
LINE
  5
A92AA
  8
OUTLINE
 10
-325.67510666762701
 20
1024.7597361916171
 30
0.0
 11
-325.67510666762701
 21
1013.2717751916171
 31
0.0
  0
LINE
  5
A92AB
  8
OUTLINE
 10
-253.7376496676269
 20
939.20654919161825
 30
0.0
 11
-287.73764966762701
 21
939.20654919161825
 31
0.0
  0
CIRCLE
  5
A92AC
  8
OUTLINE
 10
-320.73764966762701
 20
915.20654919161825
 30
0.0
 40
10.0
  0
CIRCLE
  5
A92AD
  8
OUTLINE
 10
-270.73764966762701
 20
915.20654919161825
 30
0.0
 40
10.0
  0
ARC
  5
A92AE
  8
OUTLINE
 10
-270.73764966762701
 20
915.20654919161825
 30
0.0
 40
17.0
 50
180.0
 51
0.000000000000007
  0
CIRCLE
  5
A92AF
  8
OUTLINE
 10
-270.73764966762701
 20
915.20654919161825
 30
0.0
 40
15.0
  0
LINE
  5
A92B0
  8
OUTLINE
 10
-253.7376496676269
 20
915.20654919161825
 30
0.0
 11
-253.7376496676269
 21
939.20654919161825
 31
0.0
  0
LINE
  5
A92B1
  8
OUTLINE
 10
-287.73764966762701
 20
939.20654919161825
 30
0.0
 11
-287.73764966762701
 21
915.20654919161825
 31
0.0
  0
LINE
  5
A92B2
  8
OUTLINE
 10
-303.7376496676269
 20
915.20654919161825
 30
0.0
 11
-303.7376496676269
 21
939.20654919161825
 31
0.0
  0
LINE
  5
A92B3
  8
OUTLINE
 10
-215.73764966762701
 20
977.89976419161746
 30
0.0
 11
-215.73764966762701
 21
1036.8997641916169
 31
0.0
  0
LINE
  5
A92B4
  8
OUTLINE
 10
-225.73764966762701
 20
987.89976419161746
 30
0.0
 11
-225.73764966762701
 21
1026.8997641916169
 31
0.0
  0
LINE
  5
A92B5
  8
OUTLINE
 10
-37.527504394153759
 20
733.24587568298375
 30
0.0
 11
-37.527504394153759
 21
844.24587568298
 31
0.0
  0
LINE
  5
A92B6
  8
OUTLINE
 10
-39.527504394153759
 20
844.24587568298
 30
0.0
 11
-39.527504394153759
 21
733.24587568298375
 31
0.0
  0
LINE
  5
A92B7
  8
OUTLINE
 10
-65.527504394153766
 20
733.24587568298375
 30
0.0
 11
-65.527504394153766
 21
844.24587568298
 31
0.0
  0
LINE
  5
A92B8
  8
OUTLINE
 10
-63.527504394153773
 20
844.24587568298
 30
0.0
 11
-63.527504394153773
 21
733.24587568298375
 31
0.0
  0
ARC
  5
A92B9
  8
OUTLINE
 10
-51.527504394153773
 20
825.24587568298011
 30
0.0
 40
8.5
 50
0.000000000000007
 51
180.0
  0
ARC
  5
A92BA
  8
OUTLINE
 10
-51.527504394153773
 20
822.93818337528865
 30
0.0
 40
8.8076923076923261
 50
15.18928673713693
 51
164.810713262863
  0
POINT
  5
A92BB
  8
OUTLINE
 10
-51.527504394153773
 20
822.24587568298011
 30
0.0
  0
LINE
  5
A92BC
  8
OUTLINE
 10
2.0999999980549542
 20
1164.999999999998
 30
0.0
 11
2.0999999980549542
 21
567.49999999999818
 31
0.0
  0
LINE
  5
A92BD
  8
OUTLINE
 10
-2.1000000019439531
 20
1164.999999999998
 30
0.0
 11
-2.1000000019439531
 21
567.49999999999818
 31
0.0
  0
LINE
  5
A92BE
  8
OUTLINE
 10
-43.027504394153759
 20
760.24587568298
 30
0.0
 11
-43.027504394153759
 21
753.24587568298011
 31
0.0
  0
ARC
  5
A92BF
  8
OUTLINE
 10
-40.52750439414649
 20
733.24587568297648
 30
0.0
 40
0.9999999999934061
 50
269.99999999963518
 51
0.0000000004168887
  0
ARC
  5
A92C0
  8
OUTLINE
 10
-40.527504394150128
 20
733.24587568297818
 30
0.0
 40
2.9999999999956799
 50
269.99999999994782
 51
0.0000000001042274
  0
LINE
  5
A92C1
  8
OUTLINE
 10
-43.027504394153759
 20
742.74587568298375
 30
0.0
 11
-51.527504394153773
 21
734.24587568298375
 31
0.0
  0
LINE
  5
A92C2
  8
OUTLINE
 10
-43.027504394153759
 20
825.24587568298011
 30
0.0
 11
-43.027504394153759
 21
763.24587568298011
 31
0.0
  0
LINE
  5
A92C3
  8
OUTLINE
 10
-60.027504394153759
 20
753.24587568298011
 30
0.0
 11
-60.027504394153759
 21
760.24587568298
 31
0.0
  0
ARC
  5
A92C4
  8
OUTLINE
 10
-62.527504394153759
 20
733.24587568298193
 30
0.0
 40
0.9999999999995453
 50
180.0
 51
270.00000000005213
  0
ARC
  5
A92C5
  8
OUTLINE
 10
-62.52750439415194
 20
733.24587568298375
 30
0.0
 40
3.0000000000018181
 50
180.0
 51
269.99999999994782
  0
LINE
  5
A92C6
  8
OUTLINE
 10
-60.027504394153759
 20
825.24587568298011
 30
0.0
 11
-60.027504394153759
 21
763.24587568298011
 31
0.0
  0
LINE
  5
A92C7
  8
OUTLINE
 10
-40.527504394153759
 20
730.24587568298375
 30
0.0
 11
-62.527504394153759
 21
730.24587568298375
 31
0.0
  0
LINE
  5
A92C8
  8
OUTLINE
 10
-43.027504394153759
 20
763.24587568298011
 30
0.0
 11
-60.027504394153759
 21
763.24587568298011
 31
0.0
  0
LINE
  5
A92C9
  8
OUTLINE
 10
-62.527504394153759
 20
732.24587568298375
 30
0.0
 11
-40.527504394153759
 21
732.24587568298375
 31
0.0
  0
LINE
  5
A92CA
  8
OUTLINE
 10
-51.527504394153773
 20
734.24587568298375
 30
0.0
 11
-60.027504394153759
 21
742.74587568298375
 31
0.0
  0
LINE
  5
A92CB
  8
OUTLINE
 10
-43.027504394153759
 20
742.74587568298375
 30
0.0
 11
-60.027504394153759
 21
742.74587568298375
 31
0.0
  0
LINE
  5
A92CC
  8
OUTLINE
 10
-60.027504394153759
 20
760.24587568298
 30
0.0
 11
-43.027504394153759
 21
760.24587568298
 31
0.0
  0
ARC
  5
A92CD
  8
OUTLINE
 10
-51.527504394153773
 20
753.24587568298375
 30
0.0
 40
8.5
 50
180.0
 51
0.000000000000007
  0
ARC
  5
A92CE
  8
OUTLINE
 10
-40.52750439414649
 20
844.24587568298728
 30
0.0
 40
0.9999999999931787
 50
359.99999999958311
 51
90.000000000364764
  0
ARC
  5
A92CF
  8
OUTLINE
 10
-40.52750439414649
 20
844.24587568298728
 30
0.0
 40
2.9999999999927232
 50
359.99999999989581
 51
90.000000000156334
  0
ARC
  5
A92D0
  8
OUTLINE
 10
-62.527504394153759
 20
844.24587568298
 30
0.0
 40
0.9999999999995453
 50
90.0
 51
180.0
  0
ARC
  5
A92D1
  8
OUTLINE
 10
-62.527504394153759
 20
844.24587568298182
 30
0.0
 40
2.9999999999988631
 50
90.0
 51
180.0
  0
LINE
  5
A92D2
  8
OUTLINE
 10
-62.527504394153759
 20
847.24587568298011
 30
0.0
 11
-40.527504394153759
 21
847.24587568298011
 31
0.0
  0
LINE
  5
A92D3
  8
OUTLINE
 10
-40.527504394153759
 20
845.24587568298
 30
0.0
 11
-62.527504394153759
 21
845.24587568298
 31
0.0
  0
LINE
  5
A92D4
  8
OUTLINE
 10
471.99999999805448
 20
549.99999999999818
 30
0.0
 11
471.99999999805448
 21
0.000000000001819
 31
0.0
  0
LINE
  5
A92D5
  8
OUTLINE
 10
265.59999976869489
 20
83.0
 30
0.0
 11
265.59999976869489
 21
367.20000000000073
 31
0.0
  0
LINE
  5
A92D6
  8
OUTLINE
 10
371.99999999805448
 20
549.99999999999818
 30
0.0
 11
371.99999999805448
 21
80.000003602151992
 31
0.0
  0
LINE
  5
A92D7
  8
OUTLINE
 10
474.99999999805459
 20
80.000003602150159
 30
0.0
 11
371.99999999805641
 21
80.000003602150159
 31
0.0
  0
LINE
  5
A92D8
  8
OUTLINE
 10
370.49999999805999
 20
111.7749999999978
 30
0.0
 11
370.49999999805999
 21
160.22499999999491
 31
0.0
  0
LINE
  5
A92D9
  8
OUTLINE
 10
339.79999976869561
 20
111.6999999999952
 30
0.0
 11
339.79999976869561
 21
160.29999999999561
 31
0.0
  0
LINE
  5
A92DA
  8
OUTLINE
 10
309.79999976869561
 20
171.149999999996
 30
0.0
 11
309.79999976869561
 21
100.84999999999491
 31
0.0
  0
LINE
  5
A92DB
  8
OUTLINE
 10
263.54999976869561
 20
93.549999999995634
 30
0.0
 11
263.54999976869561
 21
178.449999999997
 31
0.0
  0
LINE
  5
A92DC
  8
OUTLINE
 10
283.89999976869598
 20
91.549999999995634
 30
0.0
 11
283.89999976869598
 21
180.449999999997
 31
0.0
  0
LINE
  5
A92DD
  8
OUTLINE
 10
299.79999976869561
 20
91.549999999995634
 30
0.0
 11
299.79999976869561
 21
180.449999999997
 31
0.0
  0
LINE
  5
A92DE
  8
OUTLINE
 10
371.99999999805448
 20
113.774999999996
 30
0.0
 11
339.79999976869379
 21
113.774999999996
 31
0.0
  0
LINE
  5
A92DF
  8
OUTLINE
 10
283.89999976869598
 20
93.549999999995634
 30
0.0
 11
263.54999976869561
 21
93.549999999995634
 31
0.0
  0
LINE
  5
A92E0
  8
OUTLINE
 10
299.79999976869561
 20
100.84999999999491
 30
0.0
 11
309.79999976869561
 21
100.84999999999491
 31
0.0
  0
LINE
  5
A92E1
  8
OUTLINE
 10
283.89999976869598
 20
91.549999999995634
 30
0.0
 11
299.79999976869561
 21
91.549999999995634
 31
0.0
  0
LINE
  5
A92E2
  8
OUTLINE
 10
309.79999976869561
 20
111.6999999999952
 30
0.0
 11
339.79999976869561
 21
111.6999999999952
 31
0.0
  0
LINE
  5
A92E3
  8
OUTLINE
 10
371.99999999805448
 20
158.22499999999491
 30
0.0
 11
339.79999976869561
 21
158.22499999999491
 31
0.0
  0
LINE
  5
A92E4
  8
OUTLINE
 10
265.59999976869489
 20
296.99999999999812
 30
0.0
 11
265.59999976869489
 21
284.99999999999812
 31
0.0
  0
LINE
  5
A92E5
  8
OUTLINE
 10
283.8999997686978
 20
178.449999999997
 30
0.0
 11
263.54999976869561
 21
178.449999999997
 31
0.0
  0
LINE
  5
A92E6
  8
OUTLINE
 10
299.79999976869561
 20
180.449999999997
 30
0.0
 11
283.89999976869598
 21
180.449999999997
 31
0.0
  0
LINE
  5
A92E7
  8
OUTLINE
 10
299.79999976869561
 20
171.149999999996
 30
0.0
 11
309.79999976869561
 21
171.149999999996
 31
0.0
  0
LINE
  5
A92E8
  8
OUTLINE
 10
309.79999976869561
 20
160.29999999999561
 30
0.0
 11
339.79999976869561
 21
160.29999999999561
 31
0.0
  0
LINE
  5
A92E9
  8
OUTLINE
 10
474.99999999805459
 20
80.000003602150159
 30
0.0
 11
474.99999999805459
 21
3.0000000000018181
 31
0.0
  0
ARC
  5
A92EA
  8
OUTLINE
 10
472.00000000194348
 20
2.99999999323154
 30
0.0
 40
2.9999999961119101
 50
269.99999992574288
 51
0.000000129337543
  0
LINE
  5
A92EB
  8
OUTLINE
 10
472.1999999980552
 20
1164.999999999998
 30
0.0
 11
472.1999999980552
 21
567.49999999999818
 31
0.0
  0
LINE
  5
A92EC
  8
OUTLINE
 10
472.39999999805599
 20
1944.499999999998
 30
0.0
 11
-472.00000000194541
 21
1944.499999999998
 31
0.0
  0
LINE
  5
A92ED
  8
OUTLINE
 10
-475.0000000019453
 20
1949.999999999998
 30
0.0
 11
474.99999999805459
 21
1949.999999999998
 31
0.0
  0
ENDSEC
  0
EOF
