  0
SECTION
  2
HEADER
  9
$ACADVER
  1
AC1009
  9
$INSBASE
 10
0.0
 20
0.0
 30
0.0
  9
$EXTMIN
 10
-1179.4800722560431
 20
-467.00681324491592
 30
-0.0015258207003583
  9
$EXTMAX
 10
1329.5851053606341
 20
2068.3409244369318
 30
0.0000000349246037
  9
$LIMMIN
 10
-1329.231458983224
 20
-895.82253774019762
  9
$LIMMAX
 10
1357.521073229974
 20
2367.5688185492249
  9
$ORTHOMODE
 70
     1
  9
$REGENMODE
 70
     1
  9
$FILLMODE
 70
     1
  9
$QTEXTMODE
 70
     0
  9
$MIRRTEXT
 70
     0
  9
$DRAGMODE
 70
     2
  9
$LTSCALE
 40
20.0
  9
$OSMODE
 70
   119
  9
$ATTMODE
 70
     1
  9
$TEXTSIZE
 40
64.0
  9
$TRACEWID
 40
0.05
  9
$TEXTSTYLE
  7
STANDARD
  9
$CLAYER
  8
SIZE
  9
$CELTYPE
  6
BYLAYER
  9
$CECOLOR
 62
   256
  9
$DIMSCALE
 40
1.0
  9
$DIMASZ
 40
12.0
  9
$DIMEXO
 40
5.0
  9
$DIMDLI
 40
10.0
  9
$DIMRND
 40
0.0
  9
$DIMDLE
 40
0.0
  9
$DIMEXE
 40
20.0
  9
$DIMTP
 40
0.0
  9
$DIMTM
 40
0.0
  9
$DIMTXT
 40
50.0
  9
$DIMCEN
 40
0.0
  9
$DIMTSZ
 40
0.0
  9
$DIMTOL
 70
     0
  9
$DIMLIM
 70
     0
  9
$DIMTIH
 70
     0
  9
$DIMTOH
 70
     0
  9
$DIMSE1
 70
     0
  9
$DIMSE2
 70
     0
  9
$DIMTAD
 70
     1
  9
$DIMZIN
 70
     0
  9
$DIMBLK
  1
DOTBLANK
  9
$DIMASO
 70
     1
  9
$DIMSHO
 70
     0
  9
$DIMPOST
  1

  9
$DIMAPOST
  1

  9
$DIMALT
 70
     0
  9
$DIMALTD
 70
     2
  9
$DIMALTF
 40
25.399999999999999
  9
$DIMLFAC
 40
1.0
  9
$DIMTOFL
 70
     1
  9
$DIMTVP
 40
0.0
  9
$DIMTIX
 70
     0
  9
$DIMSOXD
 70
     0
  9
$DIMSAH
 70
     0
  9
$DIMBLK1
  1

  9
$DIMBLK2
  1

  9
$DIMSTYLE
  2
STANDARD
  9
$DIMCLRD
 70
     0
  9
$DIMCLRE
 70
     0
  9
$DIMCLRT
 70
     0
  9
$DIMTFAC
 40
1.0
  9
$DIMGAP
 40
10.0
  9
$LUNITS
 70
     2
  9
$LUPREC
 70
     4
  9
$SKETCHINC
 40
0.1
  9
$FILLETRAD
 40
10.0
  9
$AUNITS
 70
     1
  9
$AUPREC
 70
     3
  9
$MENU
  1
ACAD
  9
$ELEVATION
 40
0.0
  9
$PELEVATION
 40
0.0
  9
$THICKNESS
 40
0.0
  9
$LIMCHECK
 70
     0
  9
$BLIPMODE
 70
     0
  9
$CHAMFERA
 40
0.0
  9
$CHAMFERB
 40
0.0
  9
$SKPOLY
 70
     0
  9
$TDCREATE
 40
2449761.4936226849
  9
$TDUPDATE
 40
2453822.571452002
  9
$TDINDWG
 40
9.9853778704000007
  9
$TDUSRTIMER
 40
9.9853724537000002
  9
$USRTIMER
 70
     1
  9
$ANGBASE
 50
0.0
  9
$ANGDIR
 70
     0
  9
$PDMODE
 70
    35
  9
$PDSIZE
 40
20.0
  9
$PLINEWID
 40
0.0
  9
$COORDS
 70
     0
  9
$SPLFRAME
 70
     0
  9
$SPLINETYPE
 70
     6
  9
$SPLINESEGS
 70
     8
  9
$ATTDIA
 70
     0
  9
$ATTREQ
 70
     1
  9
$HANDLING
 70
-16383
  9
$HANDSEED
  5
96623
  9
$SURFTAB1
 70
     6
  9
$SURFTAB2
 70
     6
  9
$SURFTYPE
 70
     6
  9
$SURFU
 70
     6
  9
$SURFV
 70
     6
  9
$UCSNAME
  2

  9
$UCSORG
 10
0.0
 20
0.0
 30
0.0
  9
$UCSXDIR
 10
1.0
 20
0.0
 30
0.0
  9
$UCSYDIR
 10
0.0
 20
1.0
 30
0.0
  9
$PUCSNAME
  2

  9
$PUCSORG
 10
0.0
 20
0.0
 30
0.0
  9
$PUCSXDIR
 10
1.0
 20
0.0
 30
0.0
  9
$PUCSYDIR
 10
0.0
 20
1.0
 30
0.0
  9
$USERI1
 70
     0
  9
$USERI2
 70
     0
  9
$USERI3
 70
     0
  9
$USERI4
 70
     0
  9
$USERI5
 70
     0
  9
$USERR1
 40
20.0
  9
$USERR2
 40
0.0
  9
$USERR3
 40
0.0
  9
$USERR4
 40
0.0
  9
$USERR5
 40
0.0
  9
$WORLDVIEW
 70
     1
  9
$SHADEDGE
 70
     3
  9
$SHADEDIF
 70
    70
  9
$TILEMODE
 70
     1
  9
$MAXACTVP
 70
    64
  9
$PLIMCHECK
 70
     0
  9
$PEXTMIN
 10
1.0000000000000000E+020
 20
1.0000000000000000E+020
 30
1.0000000000000000E+020
  9
$PEXTMAX
 10
-1.0000000000000000E+020
 20
-1.0000000000000000E+020
 30
-1.0000000000000000E+020
  9
$PLIMMIN
 10
0.0
 20
0.0
  9
$PLIMMAX
 10
12.0
 20
9.0
  9
$UNITMODE
 70
     0
  9
$VISRETAIN
 70
     1
  9
$PLINEGEN
 70
     0
  9
$PSLTSCALE
 70
     1
  0
ENDSEC
  0
SECTION
  2
TABLES
  0
TABLE
  2
VPORT
 70
     3
  0
VPORT
  2
*ACTIVE
 70
     0
 10
0.0
 20
0.0
 11
1.0
 21
1.0
 12
1623.928992534693
 22
707.54508623132267
 13
0.0
 23
0.0
 14
50.0
 24
50.0
 15
100.0
 25
100.0
 16
0.0
 26
0.0
 36
1.0
 17
0.0
 27
0.0
 37
0.0
 40
4436.1726068556891
 41
1.57544757033248
 42
50.0
 43
0.0
 44
0.0
 50
0.0
 51
0.0
 71
     0
 72
  1000
 73
     1
 74
     0
 75
     0
 76
     0
 77
     0
 78
     0
  0
ENDTAB
  0
TABLE
  2
LTYPE
 70
     2
  0
LTYPE
  2
CONTINUOUS
 70
     0
  3
実線
 72
    65
 73
     0
 40
0.0
  0
LTYPE
  2
DASHDOT
 70
     0
  3
____ _ ____ _ ____ _ ____ _ ____ _ ____ _ ____
 72
    65
 73
     4
 40
5.5
 49
4.0
 49
-0.6
 49
0.3
 49
-0.6
  0
ENDTAB
  0
TABLE
  2
LAYER
 70
    11
  0
LAYER
  2
0
 70
     0
 62
     7
  6
CONTINUOUS
  0
LAYER
  2
SIZE
 70
     0
 62
    30
  6
CONTINUOUS
  0
LAYER
  2
DETAIL
 70
     0
 62
     5
  6
CONTINUOUS
  0
LAYER
  2
BASIS
 70
     0
 62
     6
  6
DASHDOT
  0
LAYER
  2
NOTE
 70
     0
 62
     4
  6
CONTINUOUS
  0
LAYER
  2
ARRANGE
 70
     0
 62
     1
  6
CONTINUOUS
  0
LAYER
  2
FIX
 70
     0
 62
    11
  6
CONTINUOUS
  0
LAYER
  2
ETC
 70
     0
 62
    61
  6
CONTINUOUS
  0
LAYER
  2
DEFPOINTS
 70
     0
 62
     7
  6
CONTINUOUS
  0
LAYER
  2
OUTLINE
 70
     0
 62
     3
  6
CONTINUOUS
  0
LAYER
  2
SERVICESPACE
 70
     0
 62
     2
  6
DASHDOT
  0
ENDTAB
  0
TABLE
  2
STYLE
 70
     1
  0
STYLE
  2
STANDARD
 70
     0
 40
0.0
 41
0.9
 50
0.0
 71
     0
 42
64.0
  3
SIMPLEX
  4
BIGFONT
  0
ENDTAB
  0
TABLE
  2
VIEW
 70
     1
  0
VIEW
  2
ALL
 70
     0
 40
6056.2300320000013
 10
0.0
 20
58.11501599999999
 41
8400.0
 11
0.0
 21
0.0
 31
1.0
 12
0.0
 22
0.0
 32
0.0
 42
50.0
 43
0.0
 44
0.0
 50
0.0
 71
     0
  0
ENDTAB
  0
TABLE
  2
UCS
 70
     0
  0
ENDTAB
  0
TABLE
  2
APPID
 70
     1
  0
APPID
  2
ACAD
 70
     0
  0
ENDTAB
  0
TABLE
  2
DIMSTYLE
 70
     1
  0
DIMSTYLE
  2
STANDARD
 70
     0
  3

  4

  5

  6

  7

 40
1.0
 41
0.18
 42
0.0625
 43
0.38
 44
0.18
 45
0.0
 46
0.0
 47
0.0
 48
0.0
140
0.18
141
0.09
142
0.0
143
25.399999999999999
144
1.0
145
0.0
146
1.0
147
0.09
 71
     0
 72
     0
 73
     1
 74
     1
 75
     0
 76
     0
 77
     0
 78
     0
170
     0
171
     2
172
     0
173
     0
174
     0
175
     0
176
     0
177
     0
178
     0
  0
ENDTAB
  0
ENDSEC
  0
SECTION
  2
BLOCKS
  0
BLOCK
  8
0
  2
$MODEL_SPACE
 70
     0
 10
0.0
 20
0.0
 30
0.0
  3
$MODEL_SPACE
  1

  0
ENDBLK
  5
20
  8
0
  0
BLOCK
 67
     1
  8
0
  2
$PAPER_SPACE
 70
     0
 10
0.0
 20
0.0
 30
0.0
  3
$PAPER_SPACE
  1

  0
ENDBLK
  5
1C
 67
     1
  8
0
  0
BLOCK
  8
0
  2
_DOTBLANK
 70
     0
 10
0.0
 20
0.0
 30
0.0
  3
_DOTBLANK
  1

  0
CIRCLE
  5
53E7
  8
0
  6
BYBLOCK
 62
     0
 10
0.0
 20
0.0
 30
0.0
 40
0.5
  0
LINE
  5
53E8
  8
0
  6
BYBLOCK
 62
     0
 10
-0.5
 20
0.0
 30
0.0
 11
-1.0
 21
0.0
 31
0.0
  0
ENDBLK
  5
53EA
  8
0
  0
ENDSEC
  0
SECTION
  2
ENTITIES
  0
LINE
  5
94CAF
  8
DETAIL
 10
-397.0
 20
1742.5
 30
0.0
 11
-397.0
 21
1172.5
 31
0.0
  0
LINE
  5
94CB0
  8
DETAIL
 10
397.0
 20
1172.5
 30
0.0
 11
397.0
 21
1742.5
 31
0.0
  0
LINE
  5
94CB1
  8
DETAIL
 10
399.99999999999812
 20
1748.0
 30
0.0
 11
399.99999999999812
 21
550.0
 31
0.0
  0
LINE
  5
94CB2
  8
DETAIL
 10
-400.0
 20
1748.0
 30
0.0
 11
-400.0
 21
550.0
 31
0.0
  0
LINE
  5
94CB3
  8
DETAIL
 10
-397.0
 20
1172.5
 30
0.0
 11
397.0
 21
1172.5
 31
0.0
  0
LINE
  5
94CB4
  8
DETAIL
 10
397.0
 20
1165.0
 30
0.0
 11
2.0
 21
1165.0
 31
0.0
  0
LINE
  5
94CB5
  8
DETAIL
 10
-18.700000000004358
 20
524.05000000000098
 30
0.0
 11
24.299999999995631
 21
524.05000000000098
 31
0.0
  0
LINE
  5
94CB6
  8
DETAIL
 10
-18.700000000004358
 20
534.05000000000109
 30
0.0
 11
24.299999999995631
 21
534.05000000000109
 31
0.0
  0
LINE
  5
94CB7
  8
DETAIL
 10
-17.200000000004358
 20
539.05000000000098
 30
0.0
 11
22.799999999995631
 21
539.05000000000098
 31
0.0
  0
LINE
  5
94CB8
  8
DETAIL
 10
-17.200000000004358
 20
540.55000000000098
 30
0.0
 11
22.799999999995631
 21
540.55000000000098
 31
0.0
  0
ARC
  5
94CB9
  8
DETAIL
 10
2.799999999995634
 20
500.05000000000109
 30
0.0
 40
12.700000000000729
 50
0.000000000000007
 51
180.0
  0
ARC
  5
94CBA
  8
DETAIL
 10
2.799999999997453
 20
500.05000000000109
 30
0.0
 40
14.20000000000203
 50
333.4271355277869
 51
206.5728644722131
  0
LINE
  5
94CBB
  8
DETAIL
 10
19.099999999996719
 20
339.05000000000098
 30
0.0
 11
-13.500000000003631
 21
339.05000000000098
 31
0.0
  0
LINE
  5
94CBC
  8
DETAIL
 10
10.799999999999271
 20
193.35000000000389
 30
0.0
 11
-4.2000000000043647
 21
193.35000000000389
 31
0.0
  0
LINE
  5
94CBD
  8
DETAIL
 10
10.799999999999271
 20
160.75000000000179
 30
0.0
 11
-4.2000000000043647
 21
160.75000000000179
 31
0.0
  0
LINE
  5
94CBE
  8
DETAIL
 10
-13.500000000003631
 20
257.05000000000109
 30
0.0
 11
19.099999999996719
 21
257.05000000000109
 31
0.0
  0
LINE
  5
94CBF
  8
DETAIL
 10
397.0
 20
3.0
 30
0.0
 11
-397.0
 21
3.0
 31
0.0
  0
LINE
  5
94CC0
  8
DETAIL
 10
-297.0
 20
83.0
 30
0.0
 11
297.0
 21
83.0
 31
0.0
  0
LINE
  5
94CC1
  8
DETAIL
 10
297.0
 20
380.20000000000073
 30
0.0
 11
-297.0
 21
380.20000000000073
 31
0.0
  0
LINE
  5
94CC2
  8
DETAIL
 10
297.0
 20
377.20000000000073
 30
0.0
 11
-297.0
 21
377.20000000000073
 31
0.0
  0
LINE
  5
94CC3
  8
DETAIL
 10
-397.0
 20
0.0
 30
0.0
 11
397.0
 21
0.0
 31
0.0
  0
LINE
  5
94CC4
  8
DETAIL
 10
297.0
 20
80.0
 30
0.0
 11
-297.0
 21
80.0
 31
0.0
  0
LINE
  5
94CC5
  8
DETAIL
 10
-42.100000000000357
 20
463.20000000000073
 30
0.0
 11
297.0
 21
463.20000000000073
 31
0.0
  0
LINE
  5
94CC6
  8
DETAIL
 10
400.0
 20
550.0
 30
0.0
 11
-400.0
 21
550.0
 31
0.0
  0
LINE
  5
94CC7
  8
DETAIL
 10
-109.89999999999959
 20
433.20000000000061
 30
0.0
 11
297.0
 21
433.20000000000061
 31
0.0
  0
LINE
  5
94CC8
  8
DETAIL
 10
-112.5945287076956
 20
430.20000000000073
 30
0.0
 11
297.0
 21
430.20000000000073
 31
0.0
  0
LINE
  5
94CC9
  8
DETAIL
 10
2.0
 20
567.49999999999989
 30
0.0
 11
397.0
 21
567.49999999999989
 31
0.0
  0
LINE
  5
94CCA
  8
DETAIL
 10
233.49977113593189
 20
290.60000000000031
 30
0.0
 11
-11.500000000007271
 21
290.60000000000031
 31
0.0
  0
LINE
  5
94CCB
  8
DETAIL
 10
233.49977113593189
 20
274.69999999999891
 30
0.0
 11
-11.500000000007271
 21
274.69999999999891
 31
0.0
  0
LINE
  5
94CCC
  8
DETAIL
 10
297.0
 20
347.20000000000073
 30
0.0
 11
-297.0
 21
347.20000000000073
 31
0.0
  0
LINE
  5
94CCD
  8
DETAIL
 10
233.49977113593189
 20
310.60000000000031
 30
0.0
 11
-11.500000000007271
 21
310.60000000000031
 31
0.0
  0
LINE
  5
94CCE
  8
DETAIL
 10
233.49977113593189
 20
254.69999999999891
 30
0.0
 11
-11.500000000007271
 21
254.69999999999891
 31
0.0
  0
LINE
  5
94CCF
  8
DETAIL
 10
397.0
 20
567.49999999999989
 30
0.0
 11
397.0
 21
1165.0
 31
0.0
  0
LINE
  5
94CD0
  8
DETAIL
 10
397.0
 20
80.0
 30
0.0
 11
297.0
 21
80.0
 31
0.0
  0
LINE
  5
94CD1
  8
DETAIL
 10
394.0
 20
350.0
 30
0.0
 11
394.0
 21
83.0
 31
0.0
  0
LINE
  5
94CD2
  8
DETAIL
 10
397.0
 20
550.0
 30
0.0
 11
397.0
 21
0.0
 31
0.0
  0
LINE
  5
94CD3
  8
DETAIL
 10
400.0
 20
83.0
 30
0.0
 11
397.0
 21
83.0
 31
0.0
  0
ARC
  5
94CD4
  8
DETAIL
 10
397.00000000000182
 20
3.0
 30
0.0
 40
2.9999999999988631
 50
269.99999999997391
 51
0.000000000000007
  0
LINE
  5
94CD5
  8
DETAIL
 10
400.0
 20
3.0
 30
0.0
 11
400.0
 21
83.0
 31
0.0
  0
LINE
  5
94CD6
  8
BASIS
 10
346.99999999999812
 20
23.000000000001808
 30
0.0
 11
346.99999999999812
 21
-19.999999999998181
 31
0.0
  0
LINE
  5
94CD7
  8
DETAIL
 10
347.0
 20
350.0
 30
0.0
 11
347.0
 21
550.0
 31
0.0
  0
LINE
  5
94CD8
  8
DETAIL
 10
394.0
 20
349.99999999999812
 30
0.0
 11
394.0
 21
547.0
 31
0.0
  0
LINE
  5
94CD9
  8
DETAIL
 10
397.0
 20
350.0
 30
0.0
 11
346.99999999999812
 21
350.0
 31
0.0
  0
LINE
  5
94CDA
  8
DETAIL
 10
347.0
 20
547.0
 30
0.0
 11
394.0
 21
547.0
 31
0.0
  0
LINE
  5
94CDB
  8
DETAIL
 10
198.79999999999561
 20
160.75000000000361
 30
0.0
 11
198.79999999999561
 21
193.35000000000389
 31
0.0
  0
ARC
  5
94CDC
  8
DETAIL
 10
278.80000000151807
 20
177.05000000068321
 30
0.0
 40
14.300000000681379
 50
269.99999999390297
 51
90.000000006096911
  0
LINE
  5
94CDD
  8
DETAIL
 10
297.0
 20
550.0
 30
0.0
 11
297.0
 21
80.0
 31
0.0
  0
LINE
  5
94CDE
  8
DETAIL
 10
300.0
 20
80.0
 30
0.0
 11
300.0
 21
550.0
 31
0.0
  0
LINE
  5
94CDF
  8
DETAIL
 10
30.438189822623819
 20
151.65000000000319
 30
0.0
 11
164.16181017736741
 21
151.65000000000319
 31
0.0
  0
LINE
  5
94CE0
  8
DETAIL
 10
278.79999999999558
 20
162.75000000000179
 30
0.0
 11
198.79999999999561
 21
162.75000000000179
 31
0.0
  0
ARC
  5
94CE1
  8
DETAIL
 10
164.16181017737651
 20
177.39002744556271
 30
0.0
 40
25.740027445562649
 50
270.0
 51
319.72439303485839
  0
LINE
  5
94CE2
  8
DETAIL
 10
183.79999999999561
 20
160.75000000000179
 30
0.0
 11
198.79999999999561
 21
160.75000000000179
 31
0.0
  0
ARC
  5
94CE3
  8
DETAIL
 10
30.438189822618369
 20
177.39002744556271
 30
0.0
 40
25.740027445562649
 50
220.27560696514149
 51
270.00000000002598
  0
LINE
  5
94CE4
  8
DETAIL
 10
30.438189822623819
 20
202.45000000000431
 30
0.0
 11
164.16181017736741
 21
202.45000000000431
 31
0.0
  0
ARC
  5
94CE5
  8
DETAIL
 10
233.49977113593189
 20
312.6500000000014
 30
0.0
 40
22.049999999999962
 50
270.0
 51
0.000000000000007
  0
ARC
  5
94CE6
  8
DETAIL
 10
233.4997711359301
 20
312.6500000000014
 30
0.0
 40
37.950000000000273
 50
270.0
 51
0.000000000000007
  0
ARC
  5
94CE7
  8
DETAIL
 10
233.4997711359301
 20
312.6500000000014
 30
0.0
 40
57.95000000000072
 50
270.0
 51
0.000000000000007
  0
LINE
  5
94CE8
  8
DETAIL
 10
278.79999999999558
 20
191.35000000136461
 30
0.0
 11
198.79999999999561
 21
191.35000000136461
 31
0.0
  0
LINE
  5
94CE9
  8
DETAIL
 10
255.54977113593119
 20
347.20000000000073
 30
0.0
 11
255.54977113593119
 21
312.64999999999958
 31
0.0
  0
LINE
  5
94CEA
  8
DETAIL
 10
271.4497711359308
 20
347.20000000000073
 30
0.0
 11
271.4497711359308
 21
312.64999999999958
 31
0.0
  0
LINE
  5
94CEB
  8
DETAIL
 10
291.4497711359308
 20
347.20000000000073
 30
0.0
 11
291.4497711359308
 21
312.64999999999958
 31
0.0
  0
LINE
  5
94CEC
  8
DETAIL
 10
183.79999999999561
 20
193.35000000000389
 30
0.0
 11
198.79999999999561
 21
193.35000000000389
 31
0.0
  0
ARC
  5
94CED
  8
DETAIL
 10
164.1618101773729
 20
176.70997255443939
 30
0.0
 40
25.740027445567652
 50
40.275606965141549
 51
90.0
  0
ARC
  5
94CEE
  8
DETAIL
 10
233.4997711359301
 20
312.6500000000014
 30
0.0
 40
2.0500000000010901
 50
270.00000000005213
 51
359.99999999989581
  0
LINE
  5
94CEF
  8
DETAIL
 10
235.54977113593119
 20
347.20000000000073
 30
0.0
 11
235.54977113593119
 21
312.64999999999958
 31
0.0
  0
LINE
  5
94CF0
  8
DETAIL
 10
297.0
 20
467.70000000000073
 30
0.0
 11
224.4832670283995
 21
467.70000000000073
 31
0.0
  0
LINE
  5
94CF1
  8
DETAIL
 10
297.0
 20
495.70000000000249
 30
0.0
 11
204.4832958627685
 21
495.70000000000249
 31
0.0
  0
LINE
  5
94CF2
  8
DETAIL
 10
242.4997713229495
 20
467.70000000000073
 30
0.0
 11
243.4997713229495
 21
475.70000000000073
 31
0.0
  0
LINE
  5
94CF3
  8
DETAIL
 10
284.49977132294953
 20
467.70000000000073
 30
0.0
 11
283.49977132294953
 21
475.70000000000073
 31
0.0
  0
LINE
  5
94CF4
  8
DETAIL
 10
243.4997713229495
 20
475.70000000000073
 30
0.0
 11
283.49977132294953
 21
475.70000000000073
 31
0.0
  0
LINE
  5
94CF5
  8
DETAIL
 10
249.19977113592901
 20
550.0
 30
0.0
 11
249.19977113592901
 21
475.70000000000073
 31
0.0
  0
LINE
  5
94CF6
  8
DETAIL
 10
277.7997711359294
 20
550.0
 30
0.0
 11
277.7997711359294
 21
475.70000000000073
 31
0.0
  0
LINE
  5
94CF7
  8
DETAIL
 10
204.4832958627685
 20
463.20000000000073
 30
0.0
 11
204.4832958627685
 21
495.70000000000249
 31
0.0
  0
LINE
  5
94CF8
  8
DETAIL
 10
224.4832670283995
 20
463.20000000000073
 30
0.0
 11
224.4832670283995
 21
467.70000000000073
 31
0.0
  0
LINE
  5
94CF9
  8
DETAIL
 10
229.19977113592901
 20
550.0
 30
0.0
 11
229.19977113592901
 21
495.70000000000249
 31
0.0
  0
LINE
  5
94CFA
  8
DETAIL
 10
19.099999999996719
 20
318.05000000000098
 30
0.0
 11
17.099999999996719
 21
316.05000000000098
 31
0.0
  0
LINE
  5
94CFB
  8
DETAIL
 10
17.099999999996719
 20
290.60000000000031
 30
0.0
 11
17.099999999996719
 21
316.05000000000098
 31
0.0
  0
LINE
  5
94CFC
  8
DETAIL
 10
19.099999999996719
 20
318.05000000000098
 30
0.0
 11
19.099999999996719
 21
339.05000000000098
 31
0.0
  0
LINE
  5
94CFD
  8
DETAIL
 10
17.0999999999949
 20
339.05000000000098
 30
0.0
 11
15.49999999999636
 21
340.64999999999782
 31
0.0
  0
LINE
  5
94CFE
  8
DETAIL
 10
15.49999999999636
 20
347.20000000000073
 30
0.0
 11
15.49999999999636
 21
340.64999999999782
 31
0.0
  0
ARC
  5
94CFF
  8
DETAIL
 10
30.438189822618369
 20
176.709972554443
 30
0.0
 40
25.740027445562649
 50
90.0
 51
139.72439303485839
  0
LINE
  5
94D00
  8
DETAIL
 10
17.099999999996719
 20
257.05000000000109
 30
0.0
 11
17.099999999996719
 21
237.05000000000291
 31
0.0
  0
ARC
  5
94D01
  8
DETAIL
 10
62.79999999999017
 20
237.0499999999974
 30
0.0
 40
45.699999999993238
 50
180.0
 51
226.9143912799633
  0
LINE
  5
94D02
  8
DETAIL
 10
19.099999999996719
 20
274.69999999999891
 30
0.0
 11
19.099999999996719
 21
257.05000000000109
 31
0.0
  0
LINE
  5
94D03
  8
DETAIL
 10
18.799999999995631
 20
524.05000000000098
 30
0.0
 11
18.799999999995631
 21
512.05000000000109
 31
0.0
  0
LINE
  5
94D04
  8
DETAIL
 10
24.299999999995631
 20
534.05000000000109
 30
0.0
 11
24.299999999995631
 21
524.05000000000098
 31
0.0
  0
LINE
  5
94D05
  8
DETAIL
 10
22.799999999995631
 20
539.05000000000098
 30
0.0
 11
22.799999999995631
 21
540.55000000000098
 31
0.0
  0
LINE
  5
94D06
  8
DETAIL
 10
20.299999999995631
 20
534.05000000000109
 30
0.0
 11
20.299999999995631
 21
539.05000000000098
 31
0.0
  0
LINE
  5
94D07
  8
DETAIL
 10
20.299999999995631
 20
550.0
 30
0.0
 11
20.299999999995631
 21
540.55000000000098
 31
0.0
  0
LINE
  5
94D08
  8
DETAIL
 10
10.39210115844798
 20
512.05000000000109
 30
0.0
 11
24.799999999995631
 21
512.05000000000109
 31
0.0
  0
LINE
  5
94D09
  8
DETAIL
 10
18.799999999995631
 20
488.05000000000109
 30
0.0
 11
18.799999999995631
 21
477.05000000000098
 31
0.0
  0
LINE
  5
94D0A
  8
DETAIL
 10
24.799999999995631
 20
488.05000000000109
 30
0.0
 11
15.49999999999636
 21
488.05000000000109
 31
0.0
  0
LINE
  5
94D0B
  8
DETAIL
 10
18.799999999995631
 20
477.05000000000098
 30
0.0
 11
15.49999999999636
 21
477.05000000000098
 31
0.0
  0
LINE
  5
94D0C
  8
DETAIL
 10
24.799999999995631
 20
488.05000000000109
 30
0.0
 11
24.799999999995631
 21
512.05000000000109
 31
0.0
  0
LINE
  5
94D0D
  8
DETAIL
 10
15.49999999999636
 20
500.05000000000109
 30
0.0
 11
15.49999999999636
 21
463.20000000000073
 31
0.0
  0
LINE
  5
94D0E
  8
DETAIL
 10
397.0
 20
1163.400000000001
 30
0.0
 11
397.0
 21
1063.400000000001
 31
0.0
  0
LINE
  5
94D0F
  8
DETAIL
 10
-2.2000000000007272
 20
567.49999999999989
 30
0.0
 11
-2.2000000000007272
 21
1165.0
 31
0.0
  0
LINE
  5
94D10
  8
DETAIL
 10
-397.20000000000073
 20
1165.0
 30
0.0
 11
-397.20000000000073
 21
567.49999999999989
 31
0.0
  0
LINE
  5
94D11
  8
DETAIL
 10
2.0
 20
1165.0
 30
0.0
 11
2.0
 21
567.49999999999989
 31
0.0
  0
LINE
  5
94D12
  8
DETAIL
 10
-300.70000000000073
 20
525.625
 30
0.0
 11
-317.20000000000073
 21
523.56249999999989
 31
0.0
  0
LINE
  5
94D13
  8
DETAIL
 10
-300.70000000000073
 20
468.37499999999989
 30
0.0
 11
-317.20000000000073
 21
470.43749999999989
 31
0.0
  0
LINE
  5
94D14
  8
DETAIL
 10
-279.20000000000249
 20
380.79999999999922
 30
0.0
 11
-310.20000000000249
 21
380.79999999999922
 31
0.0
  0
LINE
  5
94D15
  8
DETAIL
 10
-67.100000000000364
 20
547.0
 30
0.0
 11
-394.00000000000182
 21
547.0
 31
0.0
  0
LINE
  5
94D16
  8
DETAIL
 10
-354.00000000000182
 20
388.19999999999891
 30
0.0
 11
-134.89999999999961
 21
388.19999999999891
 31
0.0
  0
LINE
  5
94D17
  8
DETAIL
 10
-354.00000000000182
 20
394.59999999999849
 30
0.0
 11
-234.89999999999961
 21
394.59999999999849
 31
0.0
  0
LINE
  5
94D18
  8
DETAIL
 10
-349.924637187847
 20
457.0
 30
0.0
 11
-238.76491673103729
 21
457.0
 31
0.0
  0
LINE
  5
94D19
  8
DETAIL
 10
-397.20000000000073
 20
567.49999999999989
 30
0.0
 11
-2.2000000000007272
 21
567.49999999999989
 31
0.0
  0
LINE
  5
94D1A
  8
DETAIL
 10
-297.0
 20
80.0
 30
0.0
 11
-397.0
 21
80.0
 31
0.0
  0
ARC
  5
94D1B
  8
DETAIL
 10
-84.200000001503227
 20
177.05000000000101
 30
0.0
 40
14.300000000681379
 50
89.999999993981277
 51
270.00000000601869
  0
LINE
  5
94D1C
  8
DETAIL
 10
-100.20000000000429
 20
201.04999999999919
 30
0.0
 11
-100.20000000000429
 21
161.04999999999919
 31
0.0
  0
ARC
  5
94D1D
  8
DETAIL
 10
-84.200000000002547
 20
177.05000000000101
 30
0.0
 40
16.000000000000931
 50
63.348319926260388
 51
296.65168008464599
  0
ARC
  5
94D1E
  8
DETAIL
 10
-84.200000000180808
 20
177.05000000068321
 30
0.0
 40
14.300000000681379
 50
89.999999999296506
 51
270.00000000072947
  0
ARC
  5
94D1F
  8
DETAIL
 10
-84.200000000004366
 20
177.05000000000101
 30
0.0
 40
22.999999999998231
 50
134.07920984791909
 51
321.55675348711208
  0
ARC
  5
94D20
  8
DETAIL
 10
-84.200000000002547
 20
177.05000000000291
 30
0.0
 40
20.999999999997339
 50
139.6324064558456
 51
220.3675935441544
  0
LINE
  5
94D21
  8
DETAIL
 10
-4.2000000000043647
 20
160.75000000000179
 30
0.0
 11
-4.2000000000043647
 21
193.35000000000389
 31
0.0
  0
LINE
  5
94D22
  8
DETAIL
 10
-297.0
 20
380.79999999999922
 30
0.0
 11
-297.0
 21
80.0
 31
0.0
  0
LINE
  5
94D23
  8
DETAIL
 10
-300.0
 20
80.0
 30
0.0
 11
-300.0
 21
380.79999999999922
 31
0.0
  0
LINE
  5
94D24
  8
DETAIL
 10
-162.0502287304152
 20
127.9999999999981
 30
0.0
 11
-162.0502287304152
 21
290.10000000000218
 31
0.0
  0
LINE
  5
94D25
  8
DETAIL
 10
-177.95022873041489
 20
127.9999999999981
 30
0.0
 11
-177.95022873041489
 21
298.05000000000098
 31
0.0
  0
ARC
  5
94D26
  8
DETAIL
 10
-170.00022873041411
 20
80.999999999996376
 30
0.0
 40
17.00000000000119
 50
6.7563270305807803
 51
144.99331353505099
  0
LINE
  5
94D27
  8
DETAIL
 10
-68.200000000004366
 20
161.04999999999919
 30
0.0
 11
-100.20000000000429
 21
161.04999999999919
 31
0.0
  0
ARC
  5
94D28
  8
DETAIL
 10
-84.200000000000713
 20
177.0500000000047
 30
0.0
 40
21.000000000000892
 50
229.63240645582869
 51
310.3675935441712
  0
LINE
  5
94D29
  8
DETAIL
 10
-84.200000000002547
 20
162.75000000000179
 30
0.0
 11
-4.2000000000043647
 21
162.75000000000179
 31
0.0
  0
LINE
  5
94D2A
  8
DETAIL
 10
-100.2000000000025
 20
138.05000000000101
 30
0.0
 11
-68.200000000002547
 21
138.05000000000101
 31
0.0
  0
LINE
  5
94D2B
  8
DETAIL
 10
-65.200000000002547
 20
141.05000000000101
 30
0.0
 11
-103.2000000000025
 21
141.05000000000101
 31
0.0
  0
LINE
  5
94D2C
  8
DETAIL
 10
-129.20000000000249
 20
135.05000000000101
 30
0.0
 11
-39.200000000002539
 21
135.05000000000101
 31
0.0
  0
LINE
  5
94D2D
  8
DETAIL
 10
-129.20000000000249
 20
132.05000000000101
 30
0.0
 11
-39.200000000002539
 21
132.05000000000101
 31
0.0
  0
LINE
  5
94D2E
  8
DETAIL
 10
-68.200000000004366
 20
162.75000000000179
 30
0.0
 11
-68.200000000004366
 21
161.04999999999919
 31
0.0
  0
LINE
  5
94D2F
  8
DETAIL
 10
-68.200000000002547
 20
138.05000000000101
 30
0.0
 11
-68.200000000002547
 21
135.05000000000101
 31
0.0
  0
LINE
  5
94D30
  8
DETAIL
 10
-45.200000000002539
 20
135.05000000000101
 30
0.0
 11
-45.200000000002539
 21
138.05000000000101
 31
0.0
  0
LINE
  5
94D31
  8
DETAIL
 10
-45.200000000002539
 20
138.05000000000101
 30
0.0
 11
-65.200000000002547
 21
138.05000000000101
 31
0.0
  0
LINE
  5
94D32
  8
DETAIL
 10
-65.200000000002547
 20
138.05000000000101
 30
0.0
 11
-65.200000000002547
 21
141.05000000000101
 31
0.0
  0
LINE
  5
94D33
  8
DETAIL
 10
-39.200000000002539
 20
83.0
 30
0.0
 11
-39.200000000002539
 21
135.05000000000291
 31
0.0
  0
LINE
  5
94D34
  8
DETAIL
 10
-52.700000000002547
 20
121.2306229693385
 30
0.0
 11
-52.700000000002547
 21
151.9244612393467
 31
0.0
  0
LINE
  5
94D35
  8
DETAIL
 10
-123.2000000000025
 20
138.05000000000101
 30
0.0
 11
-123.2000000000025
 21
135.05000000000101
 31
0.0
  0
LINE
  5
94D36
  8
DETAIL
 10
-129.20000000000249
 20
83.0
 30
0.0
 11
-129.20000000000249
 21
135.05000000000291
 31
0.0
  0
LINE
  5
94D37
  8
DETAIL
 10
-100.2000000000025
 20
135.05000000000101
 30
0.0
 11
-100.2000000000025
 21
138.05000000000101
 31
0.0
  0
LINE
  5
94D38
  8
DETAIL
 10
-103.2000000000025
 20
141.05000000000101
 30
0.0
 11
-103.2000000000025
 21
138.05000000000101
 31
0.0
  0
LINE
  5
94D39
  8
DETAIL
 10
-123.2000000000025
 20
138.05000000000101
 30
0.0
 11
-103.2000000000025
 21
138.05000000000101
 31
0.0
  0
LINE
  5
94D3A
  8
DETAIL
 10
-115.7000000000025
 20
151.9244612393467
 30
0.0
 11
-115.7000000000025
 21
121.2306229693385
 31
0.0
  0
LINE
  5
94D3B
  8
DETAIL
 10
-169.01415259042909
 20
88.888609119871035
 30
0.0
 11
-249.01415259042909
 21
98.888609119885587
 31
0.0
  0
ARC
  5
94D3C
  8
DETAIL
 10
-250.00022873036141
 20
90.999999999947249
 30
0.0
 40
38.00000000007384
 50
4.9510747431636002
 51
192.15319746893201
  0
LINE
  5
94D3D
  8
DETAIL
 10
-156.5002287304159
 20
127.9999999999981
 30
0.0
 11
-183.5002287304159
 21
127.9999999999981
 31
0.0
  0
LINE
  5
94D3E
  8
DETAIL
 10
-156.5002287304159
 20
91.331989159880322
 30
0.0
 11
-156.5002287304159
 21
127.9999999999981
 31
0.0
  0
LINE
  5
94D3F
  8
DETAIL
 10
-183.5002287304159
 20
91.331989159887598
 30
0.0
 11
-183.5002287304159
 21
127.9999999999981
 31
0.0
  0
ARC
  5
94D40
  8
DETAIL
 10
-170.0002287304178
 20
80.999999999994543
 30
0.0
 40
7.9500000000031674
 50
14.570573920999371
 51
82.874983651072355
  0
ARC
  5
94D41
  8
DETAIL
 10
-170.0002287304178
 20
80.999999999994543
 30
0.0
 40
10.702297591763919
 50
10.77051300096392
 51
124.9018360380304
  0
LINE
  5
94D42
  8
DETAIL
 10
-297.0
 20
93.136897228678194
 30
0.0
 11
-287.858441525861
 21
94.279592037946713
 31
0.0
  0
LINE
  5
94D43
  8
DETAIL
 10
-257.79445736447451
 20
104.5000000000127
 30
0.0
 11
-242.20600009635561
 21
104.5000000000127
 31
0.0
  0
LINE
  5
94D44
  8
DETAIL
 10
-257.79445736447451
 20
104.5000000000127
 30
0.0
 11
-265.5886859985348
 21
91.000000000012733
 31
0.0
  0
LINE
  5
94D45
  8
DETAIL
 10
-238.3936056865677
 20
97.896739183768659
 30
0.0
 11
-242.20600009635561
 21
104.5000000000127
 31
0.0
  0
ARC
  5
94D46
  8
DETAIL
 10
-250.0002287304159
 20
91.000000000012733
 30
0.0
 40
7.9499999999998092
 50
82.874983651072355
 51
262.8749836510982
  0
LINE
  5
94D47
  8
DETAIL
 10
-260.96988384500941
 20
83.0
 30
0.0
 11
-265.5886859985348
 21
91.000000000012733
 31
0.0
  0
ARC
  5
94D48
  8
DETAIL
 10
-250.0002287304159
 20
91.000000000012733
 30
0.0
 40
12.000000000003441
 50
36.134991812769009
 51
221.8103148958545
  0
LINE
  5
94D49
  8
DETAIL
 10
-296.99999999999091
 20
166.1347259145295
 30
0.0
 11
-296.99999999999091
 21
93.136868637377134
 31
0.0
  0
LINE
  5
94D4A
  8
DETAIL
 10
-122.60000000000031
 20
390.19999999999879
 30
0.0
 11
-159.89999999999961
 21
390.19999999999879
 31
0.0
  0
LINE
  5
94D4B
  8
DETAIL
 10
-122.60000000000031
 20
392.59999999999849
 30
0.0
 11
-159.89999999999961
 21
392.59999999999849
 31
0.0
  0
CIRCLE
  5
94D4C
  8
DETAIL
 10
-150.57691453555341
 20
473.00000000039648
 30
0.0
 40
2.25
  0
CIRCLE
  5
94D4D
  8
DETAIL
 10
-150.57691453555341
 20
473.00000000039648
 30
0.0
 40
2.25
  0
LINE
  5
94D4E
  8
DETAIL
 10
-200.03508326896369
 20
457.0
 30
0.0
 11
-140.47130750570611
 21
457.0
 31
0.0
  0
LINE
  5
94D4F
  8
DETAIL
 10
-280.100000000004
 20
381.79999999999922
 30
0.0
 11
-134.89999999999961
 21
381.79999999999922
 31
0.0
  0
LINE
  5
94D50
  8
DETAIL
 10
-128.89999999999961
 20
433.20000000000061
 30
0.0
 11
-209.89999999999961
 21
433.20000000000061
 31
0.0
  0
LINE
  5
94D51
  8
DETAIL
 10
-212.59452870769559
 20
430.20000000000073
 30
0.0
 11
-126.2054712923036
 21
430.20000000000073
 31
0.0
  0
CIRCLE
  5
94D52
  8
DETAIL
 10
-119.39999999999959
 20
491.0
 30
0.0
 40
40.0
  0
CIRCLE
  5
94D53
  8
DETAIL
 10
-119.39999999999959
 20
491.0
 30
0.0
 40
32.5
  0
LINE
  5
94D54
  8
DETAIL
 10
-269.39999999999958
 20
549.29999999999927
 30
0.0
 11
-69.399999999999636
 21
549.29999999999927
 31
0.0
  0
LINE
  5
94D55
  8
DETAIL
 10
-170.0002287304159
 20
306.00000000000182
 30
0.0
 11
-48.862815739721547
 21
306.00000000000182
 31
0.0
  0
LINE
  5
94D56
  8
DETAIL
 10
-42.02376123613066
 20
290.10000000000218
 30
0.0
 11
-170.0002287304159
 21
290.10000000000218
 31
0.0
  0
LINE
  5
94D57
  8
DETAIL
 10
-123.39999999999959
 20
427.90461439720627
 30
0.0
 11
-128.89999999999961
 21
432.40461439720627
 31
0.0
  0
LINE
  5
94D58
  8
DETAIL
 10
-45.899999999999629
 20
458.49999999999989
 30
0.0
 11
-45.899999999999629
 21
385.0
 31
0.0
  0
LINE
  5
94D59
  8
DETAIL
 10
-48.300000000001091
 20
458.49999999999989
 30
0.0
 11
-48.300000000001091
 21
385.0
 31
0.0
  0
LINE
  5
94D5A
  8
DETAIL
 10
-109.89999999999959
 20
432.40461439720627
 30
0.0
 11
-115.39999999999959
 21
427.90461439720627
 31
0.0
  0
LINE
  5
94D5B
  8
DETAIL
 10
-103.89999999999959
 20
388.19999999999891
 30
0.0
 11
-72.899999999999636
 21
388.19999999999891
 31
0.0
  0
LINE
  5
94D5C
  8
DETAIL
 10
-103.89999999999959
 20
381.79999999999922
 30
0.0
 11
-72.899999999999636
 21
381.79999999999922
 31
0.0
  0
LINE
  5
94D5D
  8
DETAIL
 10
-57.100000000000357
 20
390.19999999999879
 30
0.0
 11
-116.19999999999889
 21
390.19999999999879
 31
0.0
  0
LINE
  5
94D5E
  8
DETAIL
 10
-57.100000000000357
 20
392.59999999999849
 30
0.0
 11
-116.19999999999889
 21
392.59999999999849
 31
0.0
  0
LINE
  5
94D5F
  8
DETAIL
 10
-100.20000000000429
 20
201.04999999999919
 30
0.0
 11
-68.200000000004366
 21
201.04999999999919
 31
0.0
  0
LINE
  5
94D60
  8
DETAIL
 10
-70.920943807030199
 20
237.05000000000101
 30
0.0
 11
-97.479056192974895
 21
237.05000000000101
 31
0.0
  0
LINE
  5
94D61
  8
DETAIL
 10
-84.200000000002547
 20
191.35000000136461
 30
0.0
 11
-4.2000000000043647
 21
191.35000000136461
 31
0.0
  0
ARC
  5
94D62
  8
DETAIL
 10
-11.50000000000181
 20
312.6500000000014
 30
0.0
 40
57.950000000002099
 50
180.0
 51
270.0
  0
LINE
  5
94D63
  8
DETAIL
 10
-72.899999999999636
 20
388.19999999999891
 30
0.0
 11
-69.899999999999636
 21
387.19999999999891
 31
0.0
  0
LINE
  5
94D64
  8
DETAIL
 10
-69.899999999999636
 20
382.79999999999922
 30
0.0
 11
-72.899999999999636
 21
381.79999999999922
 31
0.0
  0
LINE
  5
94D65
  8
DETAIL
 10
-69.899999999999636
 20
387.19999999999891
 30
0.0
 11
-59.899999999999629
 21
387.19999999999891
 31
0.0
  0
LINE
  5
94D66
  8
DETAIL
 10
-59.899999999999629
 20
387.19999999999891
 30
0.0
 11
-59.899999999999629
 21
382.79999999999922
 31
0.0
  0
LINE
  5
94D67
  8
DETAIL
 10
-69.899999999999636
 20
382.79999999999922
 30
0.0
 11
-59.899999999999629
 21
382.79999999999922
 31
0.0
  0
ARC
  5
94D68
  8
DETAIL
 10
-47.100000000000357
 20
385.0
 30
0.0
 40
1.200000000000728
 50
180.0
 51
0.000000000000007
  0
LINE
  5
94D69
  8
DETAIL
 10
-48.300000000001091
 20
386.19999999999891
 30
0.0
 11
-59.899999999999629
 21
386.19999999999891
 31
0.0
  0
LINE
  5
94D6A
  8
DETAIL
 10
-47.100000000000357
 20
383.79999999999922
 30
0.0
 11
-59.899999999999629
 21
383.79999999999922
 31
0.0
  0
ARC
  5
94D6B
  8
DETAIL
 10
-57.099999999998552
 20
401.39999999999782
 30
0.0
 40
8.7999999999976808
 50
270.0
 51
0.000000000000007
  0
ARC
  5
94D6C
  8
DETAIL
 10
-57.099999999998552
 20
401.39999999999412
 30
0.0
 40
11.1999999999948
 50
270.0
 51
321.78678929829442
  0
LINE
  5
94D6D
  8
DETAIL
 10
-49.450000000000728
 20
312.64999999999958
 30
0.0
 11
-49.450000000000728
 21
347.20000000000073
 31
0.0
  0
LINE
  5
94D6E
  8
DETAIL
 10
-69.450000000000728
 20
312.64999999999958
 30
0.0
 11
-69.450000000000728
 21
347.20000000000073
 31
0.0
  0
LINE
  5
94D6F
  8
DETAIL
 10
-33.549999999999272
 20
312.64999999999958
 30
0.0
 11
-33.549999999999272
 21
347.20000000000073
 31
0.0
  0
LINE
  5
94D70
  8
DETAIL
 10
-13.500000000003631
 20
318.05000000000098
 30
0.0
 11
-11.500000000003631
 21
316.05000000000098
 31
0.0
  0
LINE
  5
94D71
  8
DETAIL
 10
-11.50000000000545
 20
316.05000000000098
 30
0.0
 11
-11.50000000000545
 21
310.50000000000182
 31
0.0
  0
LINE
  5
94D72
  8
DETAIL
 10
-28.199999999995271
 20
307.50000000000182
 30
0.0
 11
-14.50000000000545
 21
307.50000000000182
 31
0.0
  0
ARC
  5
94D73
  8
DETAIL
 10
-14.50000000000545
 20
310.50000000000182
 30
0.0
 40
2.9999999999995448
 50
270.0
 51
0.000000000000007
  0
LINE
  5
94D74
  8
DETAIL
 10
-32.523320384761973
 20
306.00000000000182
 30
0.0
 11
-28.199999999997079
 21
306.00000000000182
 31
0.0
  0
LINE
  5
94D75
  8
DETAIL
 10
-28.199999999995271
 20
298.2516494000065
 30
0.0
 11
-28.199999999995271
 21
307.50000000000182
 31
0.0
  0
LINE
  5
94D76
  8
DETAIL
 10
-13.500000000003631
 20
318.05000000000098
 30
0.0
 11
-13.500000000003631
 21
339.05000000000098
 31
0.0
  0
LINE
  5
94D77
  8
DETAIL
 10
-11.500000000003631
 20
339.05000000000098
 30
0.0
 11
-9.9000000000050932
 21
340.64999999999782
 31
0.0
  0
LINE
  5
94D78
  8
DETAIL
 10
-9.9000000000050932
 20
347.20000000000073
 30
0.0
 11
-9.9000000000050932
 21
340.64999999999782
 31
0.0
  0
LINE
  5
94D79
  8
DETAIL
 10
-13.549999999999271
 20
312.64999999999958
 30
0.0
 11
-13.549999999999271
 21
347.20000000000073
 31
0.0
  0
ARC
  5
94D7A
  8
DETAIL
 10
-11.50000000000545
 20
312.6500000000014
 30
0.0
 40
2.0500000000010901
 50
180.0
 51
270.0
  0
ARC
  5
94D7B
  8
DETAIL
 10
-11.500000000007271
 20
312.6500000000014
 30
0.0
 40
22.050000000000178
 50
180.0
 51
270.0
  0
ARC
  5
94D7C
  8
DETAIL
 10
-11.50000000000545
 20
312.6500000000014
 30
0.0
 40
37.95000000000072
 50
180.0
 51
270.0
  0
LINE
  5
94D7D
  8
DETAIL
 10
-68.200000000004366
 20
201.04999999999919
 30
0.0
 11
-68.200000000004366
 21
191.35000000136461
 31
0.0
  0
LINE
  5
94D7E
  8
DETAIL
 10
-70.920943807030199
 20
201.04999999999919
 30
0.0
 11
-70.920943807030199
 21
237.05000000000101
 31
0.0
  0
LINE
  5
94D7F
  8
DETAIL
 10
-11.500000000003631
 20
257.05000000000109
 30
0.0
 11
-11.500000000003631
 21
237.05000000000291
 31
0.0
  0
ARC
  5
94D80
  8
DETAIL
 10
62.799999999988351
 20
237.04999999999919
 30
0.0
 40
74.299999999992338
 50
180.0
 51
216.02627004643489
  0
LINE
  5
94D81
  8
DETAIL
 10
-13.500000000003631
 20
274.75273756588649
 30
0.0
 11
-13.500000000003631
 21
257.05000000000109
 31
0.0
  0
LINE
  5
94D82
  8
DETAIL
 10
-134.89999999999961
 20
389.19999999999891
 30
0.0
 11
-134.89999999999961
 21
380.79999999999922
 31
0.0
  0
LINE
  5
94D83
  8
DETAIL
 10
-134.89999999999961
 20
389.19999999999891
 30
0.0
 11
-122.60000000000031
 21
389.19999999999891
 31
0.0
  0
LINE
  5
94D84
  8
DETAIL
 10
-122.60000000000031
 20
427.90461439720627
 30
0.0
 11
-122.60000000000031
 21
384.99999999999631
 31
0.0
  0
LINE
  5
94D85
  8
DETAIL
 10
-103.89999999999959
 20
389.19999999999891
 30
0.0
 11
-103.89999999999959
 21
380.79999999999922
 31
0.0
  0
LINE
  5
94D86
  8
DETAIL
 10
-116.19999999999889
 20
389.19999999999891
 30
0.0
 11
-103.89999999999959
 21
389.19999999999891
 31
0.0
  0
LINE
  5
94D87
  8
DETAIL
 10
-116.19999999999889
 20
427.90461439720627
 30
0.0
 11
-116.19999999999889
 21
385.0
 31
0.0
  0
LINE
  5
94D88
  8
DETAIL
 10
-103.89999999999959
 20
380.79999999999922
 30
0.0
 11
-134.89999999999961
 21
380.79999999999922
 31
0.0
  0
ARC
  5
94D89
  8
DETAIL
 10
-119.39999999999959
 20
384.99999999999812
 30
0.0
 40
3.2000000000007272
 50
180.0
 51
0.000000000000007
  0
ARC
  5
94D8A
  8
DETAIL
 10
-119.39999999999959
 20
384.99999999999812
 30
0.0
 40
4.2000000000005651
 50
139.6324064558456
 51
40.367593544171257
  0
LINE
  5
94D8B
  8
DETAIL
 10
-115.39999999999959
 20
427.90461439720627
 30
0.0
 11
-123.39999999999959
 21
427.90461439720627
 31
0.0
  0
LINE
  5
94D8C
  8
DETAIL
 10
-84.200000000002547
 20
201.04999999999919
 30
0.0
 11
-84.200000000002547
 21
237.05000000000101
 31
0.0
  0
LINE
  5
94D8D
  8
DETAIL
 10
-77.560471903516373
 20
201.04999999999919
 30
0.0
 11
-77.560471903516373
 21
237.05000000000101
 31
0.0
  0
LINE
  5
94D8E
  8
DETAIL
 10
-90.839528096488721
 20
201.04999999999919
 30
0.0
 11
-90.839528096488721
 21
237.05000000000101
 31
0.0
  0
LINE
  5
94D8F
  8
DETAIL
 10
-97.479056192974895
 20
201.04999999999919
 30
0.0
 11
-97.479056192974895
 21
237.05000000000101
 31
0.0
  0
LINE
  5
94D90
  8
DETAIL
 10
-98.328692494294955
 20
457.0
 30
0.0
 11
-67.100000000000364
 21
457.0
 31
0.0
  0
LINE
  5
94D91
  8
DETAIL
 10
-69.399999999999636
 20
547.0
 30
0.0
 11
-69.399999999999636
 21
549.29999999999927
 31
0.0
  0
LINE
  5
94D92
  8
DETAIL
 10
-57.800000000001091
 20
502.0
 30
0.0
 11
-36.399999999999629
 21
502.0
 31
0.0
  0
ARC
  5
94D93
  8
DETAIL
 10
-49.999999999998181
 20
500.81366063558738
 30
0.0
 40
9.0000000000009095
 50
90.0
 51
180.0
  0
LINE
  5
94D94
  8
DETAIL
 10
-39.138530450709361
 20
510.55691854760869
 30
0.0
 11
-39.138530450709361
 21
511.6500000000014
 31
0.0
  0
LINE
  5
94D95
  8
DETAIL
 10
-47.238460764343472
 20
509.81366063558738
 30
0.0
 11
-47.238460764343472
 21
510.55691854760869
 31
0.0
  0
LINE
  5
94D96
  8
DETAIL
 10
-43.861469549290632
 20
510.55691854760869
 30
0.0
 11
-43.861469549290632
 21
511.6500000000014
 31
0.0
  0
LINE
  5
94D97
  8
DETAIL
 10
-39.138530450709361
 20
511.6500000000014
 30
0.0
 11
-43.861469549290632
 21
511.6500000000014
 31
0.0
  0
ARC
  5
94D98
  8
DETAIL
 10
-33.000000000001812
 20
500.81366063558738
 30
0.0
 40
9.0000000000009095
 50
0.000000000000007
 51
90.0
  0
LINE
  5
94D99
  8
DETAIL
 10
-35.761539235660159
 20
509.81366063558738
 30
0.0
 11
-35.761539235660159
 21
510.55691854760869
 31
0.0
  0
LINE
  5
94D9A
  8
DETAIL
 10
-13.20000000000436
 20
524.05000000000098
 30
0.0
 11
-13.20000000000436
 21
512.05000000000109
 31
0.0
  0
LINE
  5
94D9B
  8
DETAIL
 10
-18.700000000004358
 20
524.05000000000098
 30
0.0
 11
-18.700000000004358
 21
534.05000000000109
 31
0.0
  0
LINE
  5
94D9C
  8
DETAIL
 10
-14.70000000000436
 20
534.05000000000109
 30
0.0
 11
-14.70000000000436
 21
539.05000000000098
 31
0.0
  0
LINE
  5
94D9D
  8
DETAIL
 10
-17.200000000004358
 20
540.55000000000098
 30
0.0
 11
-17.200000000004358
 21
539.05000000000098
 31
0.0
  0
LINE
  5
94D9E
  8
DETAIL
 10
-14.70000000000436
 20
550.0
 30
0.0
 11
-14.70000000000436
 21
540.55000000000098
 31
0.0
  0
LINE
  5
94D9F
  8
DETAIL
 10
-4.79210115844944
 20
512.05000000000109
 30
0.0
 11
-19.200000000004358
 21
512.05000000000109
 31
0.0
  0
LINE
  5
94DA0
  8
DETAIL
 10
-33.0
 20
509.8136606355892
 30
0.0
 11
-50.0
 21
509.8136606355892
 31
0.0
  0
LINE
  5
94DA1
  8
DETAIL
 10
-35.761539235660159
 20
510.55691854760869
 30
0.0
 11
-47.238460764343472
 21
510.55691854760869
 31
0.0
  0
LINE
  5
94DA2
  8
DETAIL
 10
-69.399999999999636
 20
457.0
 30
0.0
 11
-69.399999999999636
 21
437.0
 31
0.0
  0
LINE
  5
94DA3
  8
DETAIL
 10
-67.100000000000364
 20
437.0
 30
0.0
 11
-69.399999999999636
 21
437.0
 31
0.0
  0
LINE
  5
94DA4
  8
DETAIL
 10
-52.100000000000357
 20
458.49999999999989
 30
0.0
 11
-42.100000000000357
 21
458.49999999999989
 31
0.0
  0
LINE
  5
94DA5
  8
DETAIL
 10
-60.399999999999629
 20
473.29999999999922
 30
0.0
 11
-60.399999999999629
 21
480.29999999999922
 31
0.0
  0
LINE
  5
94DA6
  8
DETAIL
 10
-42.100000000000357
 20
468.5
 30
0.0
 11
-42.100000000000357
 21
458.49999999999989
 31
0.0
  0
LINE
  5
94DA7
  8
DETAIL
 10
-52.100000000000357
 20
468.5
 30
0.0
 11
-52.100000000000357
 21
458.49999999999989
 31
0.0
  0
LINE
  5
94DA8
  8
DETAIL
 10
-60.400000000001448
 20
480.29999999999922
 30
0.0
 11
-57.800000000001091
 21
482.9000000000014
 31
0.0
  0
LINE
  5
94DA9
  8
DETAIL
 10
-36.399999999999629
 20
482.9000000000014
 30
0.0
 11
-57.800000000001091
 21
482.9000000000014
 31
0.0
  0
LINE
  5
94DAA
  8
DETAIL
 10
-37.100000000000357
 20
473.29999999999922
 30
0.0
 11
-37.100000000000357
 21
470.5
 31
0.0
  0
ARC
  5
94DAB
  8
DETAIL
 10
-39.100000000000357
 20
470.49999999999818
 30
0.0
 40
1.9999999999990901
 50
269.99999999997391
 51
0.000000000000007
  0
LINE
  5
94DAC
  8
DETAIL
 10
-39.100000000000357
 20
468.5
 30
0.0
 11
-55.100000000000371
 21
468.5
 31
0.0
  0
LINE
  5
94DAD
  8
DETAIL
 10
-57.100000000000357
 20
473.29999999999922
 30
0.0
 11
-57.100000000000357
 21
470.5
 31
0.0
  0
ARC
  5
94DAE
  8
DETAIL
 10
-55.100000000000371
 20
470.49999999999818
 30
0.0
 40
1.9999999999990901
 50
180.0
 51
270.00000000002598
  0
LINE
  5
94DAF
  8
DETAIL
 10
-67.100000000000364
 20
463.20000000000073
 30
0.0
 11
-52.100000000000357
 21
463.20000000000073
 31
0.0
  0
LINE
  5
94DB0
  8
DETAIL
 10
-33.799999999999272
 20
473.29999999999922
 30
0.0
 11
-33.799999999999272
 21
480.29999999999922
 31
0.0
  0
LINE
  5
94DB1
  8
DETAIL
 10
-13.20000000000436
 20
488.05000000000109
 30
0.0
 11
-13.20000000000436
 21
477.05000000000098
 31
0.0
  0
LINE
  5
94DB2
  8
DETAIL
 10
-9.9000000000032742
 20
488.05000000000109
 30
0.0
 11
-19.200000000004358
 21
488.05000000000109
 31
0.0
  0
LINE
  5
94DB3
  8
DETAIL
 10
-9.9000000000032742
 20
477.05000000000098
 30
0.0
 11
-13.20000000000436
 21
477.05000000000098
 31
0.0
  0
LINE
  5
94DB4
  8
DETAIL
 10
-33.799999999999272
 20
473.29999999999922
 30
0.0
 11
-60.399999999999629
 21
473.29999999999922
 31
0.0
  0
LINE
  5
94DB5
  8
DETAIL
 10
-60.399999999999629
 20
480.29999999999922
 30
0.0
 11
-33.799999999999272
 21
480.29999999999922
 31
0.0
  0
LINE
  5
94DB6
  8
DETAIL
 10
-33.799999999999272
 20
480.29999999999922
 30
0.0
 11
-36.399999999999629
 21
482.9000000000014
 31
0.0
  0
LINE
  5
94DB7
  8
DETAIL
 10
-69.399999999999636
 20
457.0
 30
0.0
 11
-69.399999999999636
 21
547.0
 31
0.0
  0
LINE
  5
94DB8
  8
DETAIL
 10
-67.100000000000364
 20
437.0
 30
0.0
 11
-67.100000000000364
 21
547.0
 31
0.0
  0
LINE
  5
94DB9
  8
DETAIL
 10
-57.800000000001091
 20
482.9000000000014
 30
0.0
 11
-57.800000000001091
 21
502.0
 31
0.0
  0
LINE
  5
94DBA
  8
DETAIL
 10
-36.399999999999629
 20
482.9000000000014
 30
0.0
 11
-36.399999999999629
 21
502.0
 31
0.0
  0
LINE
  5
94DBB
  8
DETAIL
 10
-59.0
 20
463.4000000000014
 30
0.0
 11
-59.0
 21
500.8136606355892
 31
0.0
  0
LINE
  5
94DBC
  8
DETAIL
 10
-24.0
 20
463.4000000000014
 30
0.0
 11
-24.0
 21
500.8136606355892
 31
0.0
  0
LINE
  5
94DBD
  8
DETAIL
 10
-19.200000000004358
 20
512.05000000000109
 30
0.0
 11
-19.200000000004358
 21
488.05000000000109
 31
0.0
  0
LINE
  5
94DBE
  8
DETAIL
 10
-9.9000000000032742
 20
500.05000000000109
 30
0.0
 11
-9.9000000000032742
 21
463.20000000000073
 31
0.0
  0
LINE
  5
94DBF
  8
DETAIL
 10
-128.39999999999961
 20
459.77149999999892
 30
0.0
 11
-128.39999999999961
 21
449.0
 31
0.0
  0
LINE
  5
94DC0
  8
DETAIL
 10
-128.89999999999961
 20
443.40461439720627
 30
0.0
 11
-128.89999999999961
 21
432.40461439720627
 31
0.0
  0
LINE
  5
94DC1
  8
DETAIL
 10
-123.89999999999959
 20
432.40461439720627
 30
0.0
 11
-123.89999999999959
 21
443.40461439720627
 31
0.0
  0
LINE
  5
94DC2
  8
DETAIL
 10
-123.89999999999959
 20
443.40461439720627
 30
0.0
 11
-123.89999999999959
 21
449.0
 31
0.0
  0
LINE
  5
94DC3
  8
DETAIL
 10
-110.39999999999959
 20
459.77149999999892
 30
0.0
 11
-110.39999999999959
 21
449.0
 31
0.0
  0
LINE
  5
94DC4
  8
DETAIL
 10
-101.7219999999997
 20
473.3222999999997
 30
0.0
 11
-106.05199999999959
 21
475.82229999999981
 31
0.0
  0
LINE
  5
94DC5
  8
DETAIL
 10
-101.7219999999997
 20
473.3221999999987
 30
0.0
 11
-104.2219999999997
 21
477.65229999999968
 31
0.0
  0
CIRCLE
  5
94DC6
  8
DETAIL
 10
-88.223085464780524
 20
473.0000000005893
 30
0.0
 40
2.25
  0
LINE
  5
94DC7
  8
DETAIL
 10
-109.89999999999959
 20
432.40461439720627
 30
0.0
 11
-109.89999999999959
 21
443.40461439720627
 31
0.0
  0
LINE
  5
94DC8
  8
DETAIL
 10
-114.89999999999959
 20
443.40461439720627
 30
0.0
 11
-114.89999999999959
 21
432.40461439720627
 31
0.0
  0
LINE
  5
94DC9
  8
DETAIL
 10
-114.89999999999959
 20
443.40461439720627
 30
0.0
 11
-114.89999999999959
 21
449.0
 31
0.0
  0
CIRCLE
  5
94DCA
  8
DETAIL
 10
-119.39999999999959
 20
491.0
 30
0.0
 40
30.0
  0
LINE
  5
94DCB
  8
DETAIL
 10
-110.39999999999959
 20
449.0
 30
0.0
 11
-128.39999999999961
 21
449.0
 31
0.0
  0
CIRCLE
  5
94DCC
  8
DETAIL
 10
-119.39999999999959
 20
526.9999999999618
 30
0.0
 40
2.25
  0
CIRCLE
  5
94DCD
  8
DETAIL
 10
-119.39999999999959
 20
526.9999999999618
 30
0.0
 40
2.25
  0
LINE
  5
94DCE
  8
DETAIL
 10
-130.00638999321191
 20
501.60621000016909
 30
0.0
 11
-101.7219999999997
 21
473.3222999999997
 31
0.0
  0
LINE
  5
94DCF
  8
DETAIL
 10
-109.89999999999959
 20
443.40461439720627
 30
0.0
 11
-128.89999999999961
 21
443.40461439720627
 31
0.0
  0
LINE
  5
94DD0
  8
DETAIL
 10
-128.89999999999961
 20
432.40461439720627
 30
0.0
 11
-109.89999999999959
 21
432.40461439720627
 31
0.0
  0
LINE
  5
94DD1
  8
DETAIL
 10
-297.0
 20
457.0
 30
0.0
 11
-297.0
 21
394.59999999999849
 31
0.0
  0
LINE
  5
94DD2
  8
DETAIL
 10
-300.0
 20
457.0
 30
0.0
 11
-300.0
 21
394.59999999999849
 31
0.0
  0
LINE
  5
94DD3
  8
DETAIL
 10
-209.89999999999961
 20
432.40461439720627
 30
0.0
 11
-215.39999999999961
 21
427.90461439720627
 31
0.0
  0
LINE
  5
94DD4
  8
DETAIL
 10
-223.39999999999961
 20
427.90461439720627
 30
0.0
 11
-228.89999999999961
 21
432.40461439720627
 31
0.0
  0
LINE
  5
94DD5
  8
DETAIL
 10
-234.89999999999961
 20
395.59999999999849
 30
0.0
 11
-222.60000000000389
 21
395.59999999999849
 31
0.0
  0
ARC
  5
94DD6
  8
DETAIL
 10
-219.4000000000014
 20
391.39999999999782
 30
0.0
 40
3.2000000000007272
 50
180.0
 51
0.000000000000007
  0
LINE
  5
94DD7
  8
DETAIL
 10
-216.2000000000007
 20
395.59999999999849
 30
0.0
 11
-203.89999999999961
 21
395.59999999999849
 31
0.0
  0
LINE
  5
94DD8
  8
DETAIL
 10
-203.89999999999961
 20
388.19999999999891
 30
0.0
 11
-203.89999999999961
 21
395.59999999999849
 31
0.0
  0
ARC
  5
94DD9
  8
DETAIL
 10
-219.39999999999961
 20
391.39999999999782
 30
0.0
 40
4.2000000000005651
 50
310.36759354421088
 51
40.367593544171257
  0
ARC
  5
94DDA
  8
DETAIL
 10
-219.39999999999961
 20
391.39999999999958
 30
0.0
 40
4.2000000000016922
 50
139.6324064558456
 51
229.63240645578901
  0
LINE
  5
94DDB
  8
DETAIL
 10
-215.39999999999961
 20
427.90461439720627
 30
0.0
 11
-223.39999999999961
 21
427.90461439720627
 31
0.0
  0
LINE
  5
94DDC
  8
DETAIL
 10
-222.60000000000389
 20
427.90461439720627
 30
0.0
 11
-222.60000000000389
 21
391.39999999999782
 31
0.0
  0
LINE
  5
94DDD
  8
DETAIL
 10
-216.2000000000007
 20
427.90461439720627
 30
0.0
 11
-216.2000000000007
 21
391.39999999999958
 31
0.0
  0
LINE
  5
94DDE
  8
DETAIL
 10
-172.89999999999961
 20
394.59999999999849
 30
0.0
 11
-169.89999999999961
 21
393.59999999999849
 31
0.0
  0
LINE
  5
94DDF
  8
DETAIL
 10
-169.89999999999961
 20
389.19999999999891
 30
0.0
 11
-172.89999999999961
 21
388.19999999999891
 31
0.0
  0
LINE
  5
94DE0
  8
DETAIL
 10
-169.89999999999961
 20
393.59999999999849
 30
0.0
 11
-159.89999999999961
 21
393.59999999999849
 31
0.0
  0
LINE
  5
94DE1
  8
DETAIL
 10
-159.89999999999961
 20
393.59999999999849
 30
0.0
 11
-159.89999999999961
 21
389.19999999999891
 31
0.0
  0
LINE
  5
94DE2
  8
DETAIL
 10
-169.89999999999961
 20
389.19999999999891
 30
0.0
 11
-159.89999999999961
 21
389.19999999999891
 31
0.0
  0
LINE
  5
94DE3
  8
DETAIL
 10
-203.89999999999961
 20
394.59999999999849
 30
0.0
 11
-172.89999999999961
 21
394.59999999999849
 31
0.0
  0
ARC
  5
94DE4
  8
DETAIL
 10
-170.0002287304159
 20
298.05000000000098
 30
0.0
 40
7.9499999999993616
 50
90.0
 51
270.0
  0
LINE
  5
94DE5
  8
DETAIL
 10
-279.20000000000249
 20
388.20000000000073
 30
0.0
 11
-279.20000000000249
 21
380.79999999999922
 31
0.0
  0
LINE
  5
94DE6
  8
DETAIL
 10
-234.89999999999961
 20
388.19999999999891
 30
0.0
 11
-234.89999999999961
 21
395.59999999999849
 31
0.0
  0
LINE
  5
94DE7
  8
DETAIL
 10
-209.89999999999961
 20
443.40461439720627
 30
0.0
 11
-228.89999999999961
 21
443.40461439720627
 31
0.0
  0
LINE
  5
94DE8
  8
DETAIL
 10
-228.89999999999961
 20
432.40461439720627
 30
0.0
 11
-209.89999999999961
 21
432.40461439720627
 31
0.0
  0
CIRCLE
  5
94DE9
  8
DETAIL
 10
-219.39999999999961
 20
492.0
 30
0.0
 40
40.0
  0
CIRCLE
  5
94DEA
  8
DETAIL
 10
-219.39999999999961
 20
492.0
 30
0.0
 40
32.5
  0
CIRCLE
  5
94DEB
  8
DETAIL
 10
-219.39999999999961
 20
492.0
 30
0.0
 40
30.0
  0
LINE
  5
94DEC
  8
DETAIL
 10
-230.006389993212
 20
502.60621000016903
 30
0.0
 11
-201.7219999999997
 21
474.32229999999981
 31
0.0
  0
LINE
  5
94DED
  8
DETAIL
 10
-226.20547129230539
 20
430.20000000000073
 30
0.0
 11
-297.0
 21
430.20000000000073
 31
0.0
  0
CIRCLE
  5
94DEE
  8
DETAIL
 10
-219.39999999999961
 20
527.9999999999618
 30
0.0
 40
2.25
  0
CIRCLE
  5
94DEF
  8
DETAIL
 10
-219.39999999999961
 20
527.9999999999618
 30
0.0
 40
2.25
  0
LINE
  5
94DF0
  8
DETAIL
 10
-228.39999999999961
 20
460.77149999999892
 30
0.0
 11
-228.39999999999961
 21
450.0
 31
0.0
  0
LINE
  5
94DF1
  8
DETAIL
 10
-210.39999999999961
 20
460.77149999999892
 30
0.0
 11
-210.39999999999961
 21
450.0
 31
0.0
  0
LINE
  5
94DF2
  8
DETAIL
 10
-228.39999999999961
 20
450.0
 30
0.0
 11
-210.39999999999961
 21
450.0
 31
0.0
  0
LINE
  5
94DF3
  8
DETAIL
 10
-201.7219999999997
 20
474.32229999999981
 30
0.0
 11
-206.05199999999959
 21
476.82229999999981
 31
0.0
  0
LINE
  5
94DF4
  8
DETAIL
 10
-201.7219999999997
 20
474.32219999999859
 30
0.0
 11
-204.2219999999997
 21
478.65229999999968
 31
0.0
  0
LINE
  5
94DF5
  8
DETAIL
 10
-223.89999999999961
 20
432.40461439720627
 30
0.0
 11
-223.89999999999961
 21
443.40461439720627
 31
0.0
  0
LINE
  5
94DF6
  8
DETAIL
 10
-214.89999999999961
 20
443.40461439720627
 30
0.0
 11
-214.89999999999961
 21
432.40461439720627
 31
0.0
  0
LINE
  5
94DF7
  8
DETAIL
 10
-209.89999999999961
 20
432.40461439720627
 30
0.0
 11
-209.89999999999961
 21
443.40461439720627
 31
0.0
  0
LINE
  5
94DF8
  8
DETAIL
 10
-223.89999999999961
 20
443.40461439720627
 30
0.0
 11
-223.89999999999961
 21
450.0
 31
0.0
  0
LINE
  5
94DF9
  8
DETAIL
 10
-214.89999999999961
 20
443.40461439720627
 30
0.0
 11
-214.89999999999961
 21
450.0
 31
0.0
  0
CIRCLE
  5
94DFA
  8
DETAIL
 10
-188.2230854647805
 20
474.0000000005893
 30
0.0
 40
2.25
  0
LINE
  5
94DFB
  8
DETAIL
 10
-302.70000000000073
 20
525.375
 30
0.0
 11
-302.70000000000073
 21
527.0
 31
0.0
  0
ARC
  5
94DFC
  8
DETAIL
 10
-291.70000000000073
 20
517.0
 30
0.0
 40
3.5
 50
90.0
 51
270.0
  0
LINE
  5
94DFD
  8
DETAIL
 10
-302.70000000000073
 20
468.625
 30
0.0
 11
-302.70000000000073
 21
467.0
 31
0.0
  0
ARC
  5
94DFE
  8
DETAIL
 10
-291.70000000000073
 20
477.0
 30
0.0
 40
3.5
 50
90.0
 51
270.0
  0
LINE
  5
94DFF
  8
DETAIL
 10
-300.70000000000073
 20
527.0
 30
0.0
 11
-300.70000000000073
 21
467.0
 31
0.0
  0
ARC
  5
94E00
  8
DETAIL
 10
-291.70000000000073
 20
497.0
 30
0.0
 40
3.5
 50
90.0
 51
270.0
  0
LINE
  5
94E01
  8
DETAIL
 10
-302.70000000000073
 20
525.375
 30
0.0
 11
-302.70000000000073
 21
468.625
 31
0.0
  0
LINE
  5
94E02
  8
DETAIL
 10
-280.20000000000073
 20
513.50000000000182
 30
0.0
 11
-280.20000000000073
 21
500.49999999999989
 31
0.0
  0
LINE
  5
94E03
  8
DETAIL
 10
-280.20000000000073
 20
527.0
 30
0.0
 11
-280.20000000000073
 21
520.5
 31
0.0
  0
LINE
  5
94E04
  8
DETAIL
 10
-269.39999999999958
 20
547.0
 30
0.0
 11
-269.39999999999958
 21
549.29999999999927
 31
0.0
  0
LINE
  5
94E05
  8
DETAIL
 10
-280.20000000000073
 20
493.5
 30
0.0
 11
-280.20000000000073
 21
480.49999999999989
 31
0.0
  0
LINE
  5
94E06
  8
DETAIL
 10
-280.20000000000073
 20
467.0
 30
0.0
 11
-280.20000000000073
 21
473.5
 31
0.0
  0
CIRCLE
  5
94E07
  8
DETAIL
 10
-250.57691453555341
 20
474.00000000039648
 30
0.0
 40
2.25
  0
CIRCLE
  5
94E08
  8
DETAIL
 10
-250.57691453555341
 20
474.00000000039648
 30
0.0
 40
2.25
  0
LINE
  5
94E09
  8
DETAIL
 10
-228.89999999999961
 20
443.40461439720627
 30
0.0
 11
-228.89999999999961
 21
432.40461439720627
 31
0.0
  0
LINE
  5
94E0A
  8
DETAIL
 10
-271.70000000000073
 20
457.0
 30
0.0
 11
-271.70000000000073
 21
547.0
 31
0.0
  0
LINE
  5
94E0B
  8
DETAIL
 10
-269.39999999999958
 20
457.0
 30
0.0
 11
-269.39999999999958
 21
547.0
 31
0.0
  0
LINE
  5
94E0C
  8
DETAIL
 10
-280.20000000000073
 20
527.0
 30
0.0
 11
-302.70000000000073
 21
527.0
 31
0.0
  0
LINE
  5
94E0D
  8
DETAIL
 10
-280.20000000000073
 20
467.0
 30
0.0
 11
-302.70000000000073
 21
467.0
 31
0.0
  0
LINE
  5
94E0E
  8
DETAIL
 10
-280.20000000000073
 20
480.49999999999989
 30
0.0
 11
-291.70000000000073
 21
480.49999999999989
 31
0.0
  0
LINE
  5
94E0F
  8
DETAIL
 10
-280.20000000000073
 20
473.5
 30
0.0
 11
-291.70000000000073
 21
473.5
 31
0.0
  0
LINE
  5
94E10
  8
DETAIL
 10
-280.20000000000073
 20
493.5
 30
0.0
 11
-291.70000000000073
 21
493.5
 31
0.0
  0
LINE
  5
94E11
  8
DETAIL
 10
-280.20000000000073
 20
500.49999999999989
 30
0.0
 11
-291.70000000000073
 21
500.49999999999989
 31
0.0
  0
LINE
  5
94E12
  8
DETAIL
 10
-280.20000000000073
 20
520.5
 30
0.0
 11
-291.70000000000073
 21
520.5
 31
0.0
  0
LINE
  5
94E13
  8
DETAIL
 10
-280.20000000000073
 20
513.49999999999989
 30
0.0
 11
-291.70000000000073
 21
513.49999999999989
 31
0.0
  0
LINE
  5
94E14
  8
DETAIL
 10
-228.89999999999961
 20
433.20000000000061
 30
0.0
 11
-297.0
 21
433.20000000000061
 31
0.0
  0
LINE
  5
94E15
  8
DETAIL
 10
-397.0
 20
550.0
 30
0.0
 11
-397.0
 21
0.0
 31
0.0
  0
LINE
  5
94E16
  8
DETAIL
 10
-394.0
 20
80.0
 30
0.0
 11
-394.0
 21
350.0
 31
0.0
  0
LINE
  5
94E17
  8
BASIS
 10
-347.00000000000182
 20
23.0
 30
0.0
 11
-347.00000000000182
 21
-20.000000000003631
 31
0.0
  0
LINE
  5
94E18
  8
DETAIL
 10
-397.0
 20
83.0
 30
0.0
 11
-400.0
 21
83.0
 31
0.0
  0
ARC
  5
94E19
  8
DETAIL
 10
-397.0
 20
3.0
 30
0.0
 40
3.000000000000226
 50
180.0
 51
270.0
  0
LINE
  5
94E1A
  8
DETAIL
 10
-400.0
 20
3.0
 30
0.0
 11
-400.0
 21
83.0
 31
0.0
  0
LINE
  5
94E1B
  8
DETAIL
 10
-354.00000000000182
 20
385.0
 30
0.0
 11
-354.00000000000182
 21
430.71870884215599
 31
0.0
  0
LINE
  5
94E1C
  8
DETAIL
 10
-360.4000000000014
 20
385.0
 30
0.0
 11
-360.4000000000014
 21
430.71870884215599
 31
0.0
  0
LINE
  5
94E1D
  8
DETAIL
 10
-347.00000000000182
 20
457.0
 30
0.0
 11
-347.00000000000182
 21
394.59999999999849
 31
0.0
  0
LINE
  5
94E1E
  8
DETAIL
 10
-394.00000000000182
 20
349.99999999999812
 30
0.0
 11
-394.00000000000182
 21
546.99999999999807
 31
0.0
  0
LINE
  5
94E1F
  8
DETAIL
 10
-397.00000000000182
 20
350.0
 30
0.0
 11
-347.0
 21
350.0
 31
0.0
  0
ARC
  5
94E20
  8
DETAIL
 10
-357.20000000000249
 20
385.0
 30
0.0
 40
3.1999999999998181
 50
180.0
 51
0.000000000000007
  0
LINE
  5
94E21
  8
DETAIL
 10
-310.20000000000249
 20
388.20000000000073
 30
0.0
 11
-310.20000000000249
 21
380.79999999999922
 31
0.0
  0
LINE
  5
94E22
  8
DETAIL
 10
-357.20000000000073
 20
381.79999999999922
 30
0.0
 11
-310.20000000000249
 21
381.79999999999922
 31
0.0
  0
LINE
  5
94E23
  8
DETAIL
 10
-347.00000000000182
 20
381.79999999999922
 30
0.0
 11
-347.00000000000182
 21
350.0
 31
0.0
  0
LINE
  5
94E24
  8
DETAIL
 10
-347.00000000000182
 20
546.99999999999807
 30
0.0
 11
-394.00000000000182
 21
546.99999999999807
 31
0.0
  0
LINE
  5
94E25
  8
DETAIL
 10
-394.00000000000182
 20
457.0
 30
0.0
 11
-364.47536281215611
 21
457.0
 31
0.0
  0
LINE
  5
94E26
  8
DETAIL
 10
-376.20000000000073
 20
525.39999999999964
 30
0.0
 11
-317.20000000000073
 21
525.39999999999964
 31
0.0
  0
LINE
  5
94E27
  8
DETAIL
 10
-366.70000000000073
 20
446.21870884215599
 30
0.0
 11
-366.70000000000073
 21
435.21870884215599
 31
0.0
  0
LINE
  5
94E28
  8
DETAIL
 10
-364.47536281215611
 20
457.5
 30
0.0
 11
-364.47536281215611
 21
450.469564625413
 31
0.0
  0
LINE
  5
94E29
  8
DETAIL
 10
-370.11584159893391
 20
467.20000000000073
 30
0.0
 11
-370.11584159893391
 21
460.78202073424831
 31
0.0
  0
LINE
  5
94E2A
  8
DETAIL
 10
-347.70000000000073
 20
435.21870884215599
 30
0.0
 11
-347.70000000000073
 21
446.21870884215599
 31
0.0
  0
LINE
  5
94E2B
  8
DETAIL
 10
-347.70000000000073
 20
435.21870884215599
 30
0.0
 11
-353.20000000000073
 21
430.71870884215599
 31
0.0
  0
LINE
  5
94E2C
  8
DETAIL
 10
-353.20000000000073
 20
430.71870884215599
 30
0.0
 11
-361.20000000000073
 21
430.71870884215599
 31
0.0
  0
LINE
  5
94E2D
  8
DETAIL
 10
-361.70000000000073
 20
435.21870884215599
 30
0.0
 11
-361.70000000000073
 21
446.21870884215599
 31
0.0
  0
LINE
  5
94E2E
  8
DETAIL
 10
-352.70000000000073
 20
446.21870884215599
 30
0.0
 11
-352.70000000000073
 21
435.21870884215599
 31
0.0
  0
LINE
  5
94E2F
  8
DETAIL
 10
-360.20000000000073
 20
450.469564625413
 30
0.0
 11
-360.20000000000073
 21
457.5
 31
0.0
  0
LINE
  5
94E30
  8
DETAIL
 10
-354.20000000000073
 20
450.469564625413
 30
0.0
 11
-354.20000000000073
 21
457.5
 31
0.0
  0
LINE
  5
94E31
  8
DETAIL
 10
-362.47536281215611
 20
450.469564625413
 30
0.0
 11
-362.47536281215611
 21
446.21870884215599
 31
0.0
  0
LINE
  5
94E32
  8
DETAIL
 10
-351.92463718784711
 20
450.469564625413
 30
0.0
 11
-351.92463718784711
 21
446.21870884215599
 31
0.0
  0
LINE
  5
94E33
  8
DETAIL
 10
-349.924637187847
 20
450.469564625413
 30
0.0
 11
-349.924637187847
 21
457.5
 31
0.0
  0
LINE
  5
94E34
  8
DETAIL
 10
-344.28415840106749
 20
467.20000000000073
 30
0.0
 11
-344.28415840106749
 21
460.78202073424831
 31
0.0
  0
LINE
  5
94E35
  8
DETAIL
 10
-362.47536281215611
 20
460.78202073424831
 30
0.0
 11
-362.47536281215611
 21
457.5
 31
0.0
  0
LINE
  5
94E36
  8
DETAIL
 10
-351.92463718784711
 20
460.78202073424831
 30
0.0
 11
-351.92463718784711
 21
457.5
 31
0.0
  0
LINE
  5
94E37
  8
DETAIL
 10
-317.20000000000073
 20
467.20000000000073
 30
0.0
 11
-376.20000000000073
 21
467.20000000000073
 31
0.0
  0
LINE
  5
94E38
  8
DETAIL
 10
-347.70000000000073
 20
446.21870884215599
 30
0.0
 11
-366.70000000000073
 21
446.21870884215599
 31
0.0
  0
LINE
  5
94E39
  8
DETAIL
 10
-366.70000000000073
 20
435.21870884215599
 30
0.0
 11
-347.70000000000073
 21
435.21870884215599
 31
0.0
  0
LINE
  5
94E3A
  8
DETAIL
 10
-361.20000000000073
 20
430.71870884215599
 30
0.0
 11
-366.70000000000073
 21
435.21870884215599
 31
0.0
  0
LINE
  5
94E3B
  8
DETAIL
 10
-364.47536281215611
 20
450.469564625413
 30
0.0
 11
-349.924637187847
 21
450.469564625413
 31
0.0
  0
LINE
  5
94E3C
  8
DETAIL
 10
-364.47536281215611
 20
457.5
 30
0.0
 11
-349.924637187847
 21
457.5
 31
0.0
  0
LINE
  5
94E3D
  8
DETAIL
 10
-370.11584159893391
 20
460.78202073424831
 30
0.0
 11
-344.28415840106749
 21
460.78202073424831
 31
0.0
  0
LINE
  5
94E3E
  8
DETAIL
 10
-317.20000000000073
 20
525.39999999999964
 30
0.0
 11
-317.20000000000073
 21
467.20000000000073
 31
0.0
  0
LINE
  5
94E3F
  8
DETAIL
 10
-376.20000000000073
 20
525.39999999999964
 30
0.0
 11
-376.20000000000073
 21
467.20000000000073
 31
0.0
  0
LINE
  5
94E40
  8
DETAIL
 10
-391.70000000000073
 20
457.0
 30
0.0
 11
-391.70000000000073
 21
546.99999999999625
 31
0.0
  0
LINE
  5
94E41
  8
DETAIL
 10
-306.25
 20
1080.0
 30
0.0
 11
-337.74999999999989
 21
1080.0
 31
0.0
  0
LINE
  5
94E42
  8
DETAIL
 10
-337.74999999999989
 20
1090.0
 30
0.0
 11
-306.25
 21
1090.0
 31
0.0
  0
LINE
  5
94E43
  8
DETAIL
 10
-2.2000000000007272
 20
1165.0
 30
0.0
 11
-397.20000000000073
 21
1165.0
 31
0.0
  0
LINE
  5
94E44
  8
DETAIL
 10
-306.25
 20
980.0
 30
0.0
 11
-337.74999999999989
 21
980.0
 31
0.0
  0
LINE
  5
94E45
  8
DETAIL
 10
-337.74999999999989
 20
990.0
 30
0.0
 11
-306.25
 21
990.0
 31
0.0
  0
LINE
  5
94E46
  8
DETAIL
 10
-306.25
 20
1030.0
 30
0.0
 11
-337.74999999999989
 21
1030.0
 31
0.0
  0
LINE
  5
94E47
  8
DETAIL
 10
-337.74999999999989
 20
1040.0
 30
0.0
 11
-306.25
 21
1040.0
 31
0.0
  0
ARC
  5
94E48
  8
DETAIL
 10
-67.400000000001455
 20
867.54999999999916
 30
0.0
 40
11.0
 50
0.000000000000007
 51
180.0
  0
LINE
  5
94E49
  8
DETAIL
 10
-80.900000000001455
 20
884.54999999999916
 30
0.0
 11
-53.900000000001462
 21
884.54999999999916
 31
0.0
  0
CIRCLE
  5
94E4A
  8
DETAIL
 10
-67.400000000001455
 20
809.54999999999916
 30
0.0
 40
7.0
  0
LINE
  5
94E4B
  8
DETAIL
 10
-59.400000000001462
 20
779.54999999999916
 30
0.0
 11
-75.400000000001455
 21
779.54999999999916
 31
0.0
  0
LINE
  5
94E4C
  8
DETAIL
 10
-59.400000000001462
 20
796.54999999999916
 30
0.0
 11
-75.400000000001455
 21
796.54999999999916
 31
0.0
  0
LINE
  5
94E4D
  8
DETAIL
 10
-56.400000000001462
 20
786.54999999999916
 30
0.0
 11
-78.400000000001455
 21
786.54999999999916
 31
0.0
  0
LINE
  5
94E4E
  8
DETAIL
 10
-53.900000000001462
 20
774.54999999999916
 30
0.0
 11
-80.900000000001455
 21
774.54999999999916
 31
0.0
  0
ARC
  5
94E4F
  8
DETAIL
 10
-53.899999999999643
 20
880.55000000000098
 30
0.0
 40
3.9999999999995448
 50
0.000000000000007
 51
90.000000000026048
  0
LINE
  5
94E50
  8
DETAIL
 10
-56.400000000001462
 20
796.54999999999916
 30
0.0
 11
-59.400000000001462
 21
796.54999999999916
 31
0.0
  0
LINE
  5
94E51
  8
DETAIL
 10
-56.400000000001462
 20
799.54999999999916
 30
0.0
 11
-56.400000000001462
 21
782.54999999999916
 31
0.0
  0
ARC
  5
94E52
  8
DETAIL
 10
-59.399999999999629
 20
799.54999999999916
 30
0.0
 40
2.9999999999995448
 50
270.0
 51
0.000000000000007
  0
ARC
  5
94E53
  8
DETAIL
 10
-59.399999999999629
 20
782.54999999999916
 30
0.0
 40
2.9999999999995448
 50
270.0
 51
0.000000000000007
  0
ARC
  5
94E54
  8
DETAIL
 10
-53.899999999999643
 20
778.54999999999916
 30
0.0
 40
3.9999999999990901
 50
270.0
 51
0.000000000000007
  0
LINE
  5
94E55
  8
DETAIL
 10
-56.400000000001462
 20
867.54999999999916
 30
0.0
 11
-56.400000000001462
 21
799.54999999999916
 31
0.0
  0
LINE
  5
94E56
  8
DETAIL
 10
-49.900000000001448
 20
880.54999999999927
 30
0.0
 11
-49.900000000001448
 21
778.54999999999916
 31
0.0
  0
ARC
  5
94E57
  8
DETAIL
 10
-80.899999999999636
 20
880.54999999999745
 30
0.0
 40
4.0000000000022728
 50
90.000000000026048
 51
180.0
  0
LINE
  5
94E58
  8
DETAIL
 10
-75.400000000001455
 20
796.54999999999916
 30
0.0
 11
-78.400000000001455
 21
796.54999999999916
 31
0.0
  0
LINE
  5
94E59
  8
DETAIL
 10
-78.400000000001455
 20
782.54999999999916
 30
0.0
 11
-78.400000000001455
 21
799.54999999999916
 31
0.0
  0
ARC
  5
94E5A
  8
DETAIL
 10
-75.399999999999636
 20
799.55000000000291
 30
0.0
 40
3.000000000002728
 50
180.00000000010419
 51
269.99999999994782
  0
ARC
  5
94E5B
  8
DETAIL
 10
-75.399999999999636
 20
782.55000000000291
 30
0.0
 40
3.000000000002728
 50
180.00000000010419
 51
269.99999999994782
  0
ARC
  5
94E5C
  8
DETAIL
 10
-80.899999999999636
 20
778.55000000000291
 30
0.0
 40
4.0000000000022728
 50
180.0
 51
269.99999999997391
  0
LINE
  5
94E5D
  8
DETAIL
 10
-78.400000000001455
 20
867.54999999999916
 30
0.0
 11
-78.400000000001455
 21
799.54999999999916
 31
0.0
  0
LINE
  5
94E5E
  8
DETAIL
 10
-84.900000000001455
 20
778.54999999999916
 30
0.0
 11
-84.900000000001455
 21
880.54999999999927
 31
0.0
  0
LINE
  5
94E5F
  8
DETAIL
 10
-177.0
 20
1080.0
 30
0.0
 11
-287.0
 21
1080.0
 31
0.0
  0
LINE
  5
94E60
  8
DETAIL
 10
-167.0
 20
1090.0
 30
0.0
 11
-297.0
 21
1090.0
 31
0.0
  0
LINE
  5
94E61
  8
DETAIL
 10
-205.0
 20
992.30678499999885
 30
0.0
 11
-239.0
 21
992.30678499999885
 31
0.0
  0
ARC
  5
94E62
  8
DETAIL
 10
-222.0
 20
968.30678499999885
 30
0.0
 40
17.0
 50
180.0
 51
0.000000000000007
  0
CIRCLE
  5
94E63
  8
DETAIL
 10
-222.0
 20
968.30678499999885
 30
0.0
 40
15.0
  0
CIRCLE
  5
94E64
  8
DETAIL
 10
-222.0
 20
968.30678499999885
 30
0.0
 40
10.0
  0
LINE
  5
94E65
  8
DETAIL
 10
-287.0
 20
1041.0
 30
0.0
 11
-177.0
 21
1041.0
 31
0.0
  0
LINE
  5
94E66
  8
DETAIL
 10
-297.0
 20
1031.0
 30
0.0
 11
-167.0
 21
1031.0
 31
0.0
  0
LINE
  5
94E67
  8
DETAIL
 10
-205.0
 20
968.30678499999885
 30
0.0
 11
-205.0
 21
992.30678499999885
 31
0.0
  0
LINE
  5
94E68
  8
DETAIL
 10
-177.0
 20
1041.0
 30
0.0
 11
-177.0
 21
1080.0
 31
0.0
  0
LINE
  5
94E69
  8
DETAIL
 10
-167.0
 20
1031.0
 30
0.0
 11
-167.0
 21
1090.0
 31
0.0
  0
LINE
  5
94E6A
  8
DETAIL
 10
-306.25
 20
1090.0
 30
0.0
 11
-306.25
 21
1080.0
 31
0.0
  0
LINE
  5
94E6B
  8
DETAIL
 10
-253.78350400000079
 20
1077.8599719999979
 30
0.0
 11
-276.93745699999999
 21
1077.8599719999979
 31
0.0
  0
LINE
  5
94E6C
  8
DETAIL
 10
-289.0
 20
992.30678499999885
 30
0.0
 11
-289.0
 21
968.30678499999885
 31
0.0
  0
LINE
  5
94E6D
  8
DETAIL
 10
-306.25
 20
990.0
 30
0.0
 11
-306.25
 21
980.0
 31
0.0
  0
LINE
  5
94E6E
  8
DETAIL
 10
-306.25
 20
1040.0
 30
0.0
 11
-306.25
 21
1030.0
 31
0.0
  0
LINE
  5
94E6F
  8
DETAIL
 10
-276.93745699999999
 20
1066.372010999999
 30
0.0
 11
-253.78350400000079
 21
1066.372010999999
 31
0.0
  0
LINE
  5
94E70
  8
DETAIL
 10
-255.0
 20
968.30678499999885
 30
0.0
 11
-255.0
 21
992.30678499999885
 31
0.0
  0
LINE
  5
94E71
  8
DETAIL
 10
-239.0
 20
992.30678499999885
 30
0.0
 11
-239.0
 21
968.30678499999885
 31
0.0
  0
CIRCLE
  5
94E72
  8
DETAIL
 10
-272.0
 20
968.30678499999885
 30
0.0
 40
10.0
  0
LINE
  5
94E73
  8
DETAIL
 10
-255.0
 20
992.30678499999885
 30
0.0
 11
-289.0
 21
992.30678499999885
 31
0.0
  0
ARC
  5
94E74
  8
DETAIL
 10
-272.0
 20
968.30678499999885
 30
0.0
 40
17.0
 50
180.0
 51
0.000000000000007
  0
CIRCLE
  5
94E75
  8
DETAIL
 10
-272.0
 20
968.30678499999885
 30
0.0
 40
15.0
  0
LINE
  5
94E76
  8
DETAIL
 10
-276.93745699999999
 20
1077.8599719999979
 30
0.0
 11
-276.93745699999999
 21
1066.372010999999
 31
0.0
  0
LINE
  5
94E77
  8
DETAIL
 10
-253.78350400000079
 20
1066.372010999999
 30
0.0
 11
-253.78350400000079
 21
1077.8599719999979
 31
0.0
  0
LINE
  5
94E78
  8
DETAIL
 10
-287.0
 20
1080.0
 30
0.0
 11
-287.0
 21
1041.0
 31
0.0
  0
LINE
  5
94E79
  8
DETAIL
 10
-297.0
 20
1090.0
 30
0.0
 11
-297.0
 21
1031.0
 31
0.0
  0
ARC
  5
94E7A
  8
DETAIL
 10
-321.95837700000078
 20
899.67345299999943
 30
0.0
 40
2.0699939999999959
 50
9.0244720000504337
 51
170.50312699996991
  0
ARC
  5
94E7B
  8
DETAIL
 10
-322.00000000000182
 20
893.30678499999885
 30
0.0
 40
6.9999999999997904
 50
106.16449700002011
 51
72.834116999981958
  0
ARC
  5
94E7C
  8
DETAIL
 10
-322.00000000000182
 20
893.30678499999885
 30
0.0
 40
3.999999999999901
 50
115.79164100000661
 51
62.619217000027781
  0
LINE
  5
94E7D
  8
DETAIL
 10
-323.49999999999989
 20
893.30678499999885
 30
0.0
 11
-323.9603530000004
 21
900.20355100000063
 31
0.0
  0
LINE
  5
94E7E
  8
DETAIL
 10
-320.41675300000128
 20
893.30678499999885
 30
0.0
 11
-319.91675300000128
 21
900.23427900000013
 31
0.0
  0
ARC
  5
94E7F
  8
DETAIL
 10
-321.95837700000078
 20
893.30678499999885
 30
0.0
 40
1.541623000000071
 50
180.0
 51
0.000000000000007
  0
LINE
  5
94E80
  8
DETAIL
 10
-331.49999999999989
 20
909.9067849999991
 30
0.0
 11
-331.49999999999989
 21
876.70678500000031
 31
0.0
  0
LINE
  5
94E81
  8
DETAIL
 10
-331.49999999999989
 20
876.70678500000031
 30
0.0
 11
-312.5
 21
876.70678500000031
 31
0.0
  0
LINE
  5
94E82
  8
DETAIL
 10
-312.5
 20
876.70678500000031
 30
0.0
 11
-312.5
 21
909.9067849999991
 31
0.0
  0
LINE
  5
94E83
  8
DETAIL
 10
-312.5
 20
909.9067849999991
 30
0.0
 11
-331.49999999999989
 21
909.9067849999991
 31
0.0
  0
LINE
  5
94E84
  8
DETAIL
 10
-337.74999999999989
 20
1080.0
 30
0.0
 11
-337.74999999999989
 21
1090.0
 31
0.0
  0
CIRCLE
  5
94E85
  8
DETAIL
 10
-322.0
 20
968.30678499999885
 30
0.0
 40
6.0
  0
CIRCLE
  5
94E86
  8
DETAIL
 10
-322.0
 20
1068.3067849999979
 30
0.0
 40
6.0
  0
CIRCLE
  5
94E87
  8
DETAIL
 10
-322.0
 20
1018.3067849999979
 30
0.0
 40
6.0
  0
LINE
  5
94E88
  8
DETAIL
 10
-337.74999999999989
 20
980.0
 30
0.0
 11
-337.74999999999989
 21
990.0
 31
0.0
  0
LINE
  5
94E89
  8
DETAIL
 10
-337.74999999999989
 20
1030.0
 30
0.0
 11
-337.74999999999989
 21
1040.0
 31
0.0
  0
LINE
  5
94E8A
  8
DETAIL
 10
-337.8668020000004
 20
937.0
 30
0.0
 11
-337.8668020000004
 21
927.0
 31
0.0
  0
LINE
  5
94E8B
  8
DETAIL
 10
-337.8668020000004
 20
927.0
 30
0.0
 11
-306.3668020000004
 21
927.0
 31
0.0
  0
LINE
  5
94E8C
  8
DETAIL
 10
-306.3668020000004
 20
927.0
 30
0.0
 11
-306.3668020000004
 21
937.0
 31
0.0
  0
LINE
  5
94E8D
  8
DETAIL
 10
-306.3668020000004
 20
937.0
 30
0.0
 11
-337.8668020000004
 21
937.0
 31
0.0
  0
LINE
  5
94E8E
  8
DETAIL
 10
397.0
 20
1742.5
 30
0.0
 11
-397.0
 21
1742.5
 31
0.0
  0
LINE
  5
94E8F
  8
DETAIL
 10
402.0
 20
1750.0
 30
0.0
 11
-402.0
 21
1750.0
 31
0.0
  0
LINE
  5
94E90
  8
DETAIL
 10
400.0
 20
1748.0
 30
0.0
 11
-400.0
 21
1748.0
 31
0.0
  0
LINE
  5
94E91
  8
DETAIL
 10
402.0
 20
1725.0
 30
0.0
 11
402.0
 21
1750.0
 31
0.0
  0
LINE
  5
94E92
  8
DETAIL
 10
402.0
 20
1725.0
 30
0.0
 11
400.39999999999958
 21
1725.0
 31
0.0
  0
LINE
  5
94E93
  8
DETAIL
 10
-402.0
 20
1725.0
 30
0.0
 11
-400.4000000000014
 21
1725.0
 31
0.0
  0
LINE
  5
94E94
  8
DETAIL
 10
-402.0
 20
1725.0
 30
0.0
 11
-402.0
 21
1750.0
 31
0.0
  0
LINE
  5
94EAD
  8
BASIS
 10
-0.000000000001819
 20
1804.0752326141819
 30
0.0
 11
-0.000000000001819
 21
-19.999999999994539
 31
0.0
  0
TEXT
  5
94F09
  8
ETC
  6
CONTINUOUS
 10
503.87104443767021
 20
2003.8184017807141
 30
0.0
 40
64.0
  1
CBCL4933
 41
0.9
  0
POINT
  5
94F24
  8
ARRANGE
  6
CONTINUOUS
 10
-0.0000406227736676
 20
0.000036503195588
 30
0.0
  0
CIRCLE
  5
94F25
  8
FIX
 10
-347.00000000000182
 20
0.0
 30
0.0
 40
8.0
  0
LINE
  5
94F26
  8
NOTE
 10
-293.00000000000182
 20
0.0003450171352597
 30
0.0
 11
-401.00000000000182
 21
0.0003450171352597
 31
0.0
  0
LINE
  5
94F27
  8
NOTE
 10
-347.00000000000182
 20
-53.99965498286474
 30
0.0
 11
-347.00000000000182
 21
54.00034501713526
 31
0.0
  0
CIRCLE
  5
94F28
  8
FIX
 10
346.99999999999812
 20
-0.0003450171352597
 30
0.0
 40
8.0
  0
LINE
  5
94F29
  8
NOTE
 10
400.99999999999818
 20
0.0
 30
0.0
 11
292.99999999999812
 21
0.0
 31
0.0
  0
LINE
  5
94F2A
  8
NOTE
 10
346.99999999999812
 20
-54.0
 30
0.0
 11
346.99999999999812
 21
54.0
 31
0.0
  0
LINE
  5
94F2B
  8
BASIS
 10
-169.27945488118709
 20
781.55000000000473
 30
0.0
 11
50.679454881184931
 21
781.55000000000473
 31
0.0
  0
LINE
  5
94F2C
  8
BASIS
 10
-59.300000000001091
 20
668.98855628770605
 30
0.0
 11
-59.300000000001091
 21
894.11144371230512
 31
0.0
  0
LINE
  5
94F2D
  8
NOTE
 10
-113.30000000000101
 20
781.55000000000473
 30
0.0
 11
-5.3000000000010914
 21
781.55000000000473
 31
0.0
  0
LINE
  5
94F2E
  8
NOTE
 10
-59.300000000001091
 20
727.55000000000473
 30
0.0
 11
-59.300000000001091
 21
835.55000000000473
 31
0.0
  0
LINE
  5
94F30
  8
BASIS
 10
299.69999999999891
 20
894.1114361292166
 30
0.0
 11
299.69999999999891
 21
668.98854870461764
 31
0.0
  0
LINE
  5
94F31
  8
NOTE
 10
245.69999999999891
 20
781.55033743405329
 30
0.0
 11
353.69999999999891
 21
781.55033743405329
 31
0.0
  0
LINE
  5
94F32
  8
BASIS
 10
412.2614437122993
 20
781.55000000000473
 30
0.0
 11
187.1385562877021
 21
781.55000000000473
 31
0.0
  0
LINE
  5
94F33
  8
NOTE
 10
299.69999999999891
 20
727.55033743405329
 30
0.0
 11
299.69999999999891
 21
835.55033743405318
 31
0.0
  0
LINE
  5
94F34
  8
BASIS
 10
53.261443712301109
 20
184.5500000000047
 30
0.0
 11
-171.86144371229781
 21
184.5500000000047
 31
0.0
  0
LINE
  5
94F35
  8
NOTE
 10
-59.299999999997453
 20
130.5500000000047
 30
0.0
 11
-59.299999999997453
 21
238.5500000000047
 31
0.0
  0
LINE
  5
94F36
  8
BASIS
 10
-59.300000000001091
 20
71.98855628770616
 30
0.0
 11
-59.300000000001091
 21
297.11144371230512
 31
0.0
  0
LINE
  5
94F37
  8
NOTE
 10
-113.2999999999974
 20
184.5500000000047
 30
0.0
 11
-5.2999999999974534
 21
184.5500000000047
 31
0.0
  0
LINE
  5
94F38
  8
NOTE
 10
299.69999999999891
 20
130.549992416918
 30
0.0
 11
299.69999999999891
 21
238.549992416918
 31
0.0
  0
LINE
  5
94F39
  8
BASIS
 10
299.69999999999891
 20
297.11143612921649
 30
0.0
 11
299.69999999999891
 21
71.988548704617642
 31
0.0
  0
LINE
  5
94F3A
  8
NOTE
 10
245.69999999999891
 20
184.549992416918
 30
0.0
 11
353.69999999999891
 21
184.549992416918
 31
0.0
  0
LINE
  5
94F3B
  8
BASIS
 10
412.2614437122993
 20
184.5500000000047
 30
0.0
 11
187.1385562877021
 21
184.5500000000047
 31
0.0
  0
LINE
  5
9516D
  8
NOTE
 10
-59.29276731336904
 20
184.5583206385254
 30
0.0
 11
-575.64394387371249
 21
404.50464179055598
 31
0.0
  0
LINE
  5
9516E
  8
NOTE
 10
-59.2932971733062
 20
781.55088129239084
 30
0.0
 11
-595.2181352953321
 21
556.45811514091838
 31
0.0
  0
LINE
  5
9516F
  8
NOTE
 10
-575.64394387371249
 20
404.50464179055598
 30
0.0
 11
-1179.4487530644601
 21
404.50464179056689
 31
0.0
  0
LINE
  5
95170
  8
NOTE
 10
-595.2181352953321
 20
556.45811514091838
 30
0.0
 11
-1161.0999928098281
 21
556.45811514092202
 31
0.0
  0
TEXT
  5
95171
  8
NOTE
 10
-1111.9099027769189
 20
575.70429216538457
 30
0.0
 40
50.0
  1
B JIS 10K-80A
 50
359.99999999999932
 41
0.9
  0
TEXT
  5
95172
  8
NOTE
 10
-1155.8195245043
 20
422.16696184272757
 30
0.0
 40
50.0
  1
BR JIS 10K-80A
 50
359.99999999999932
 41
0.9
  0
LINE
  5
95173
  8
NOTE
 10
-59.293752055791622
 20
781.55085801580753
 30
0.0
 11
-107.00125546521301
 21
774.99929634514035
 31
0.0
  0
LINE
  5
95174
  8
NOTE
 10
-59.29409266084803
 20
781.55048082968642
 30
0.0
 11
-94.081939650035565
 21
748.25281508956141
 31
0.0
  0
LINE
  5
95176
  8
NOTE
 10
299.69998986599779
 20
781.5498748782029
 30
0.0
 11
702.09496124831821
 21
506.73377661511222
 31
0.0
  0
LINE
  5
95178
  8
NOTE
 10
299.70010019170689
 20
781.55019111032379
 30
0.0
 11
327.73444785964602
 21
742.39659366746673
 31
0.0
  0
LINE
  5
95179
  8
NOTE
 10
299.70023371759811
 20
781.54989267307417
 30
0.0
 11
345.37494704642631
 21
766.29376589681476
 31
0.0
  0
LINE
  5
9517A
  8
NOTE
 10
1298.7895986217329
 20
364.24035433342391
 30
0.0
 11
708.07645406839583
 21
364.24035433342942
 31
0.0
  0
LINE
  5
9517B
  8
NOTE
 10
1329.5736736152101
 20
506.73377661510852
 30
0.0
 11
702.09496124831821
 21
506.73377661511222
 31
0.0
  0
TEXT
  5
9517C
  8
NOTE
 10
730.39280458465873
 20
525.97995363957853
 30
0.0
 40
50.0
  1
CDR JIS 10K-80A
 50
359.99999999999932
 41
0.9
  0
TEXT
  5
9517D
  8
NOTE
 10
730.91110551325789
 20
381.9026743855938
 30
0.0
 40
50.0
  1
CD JIS 10K-80A
 50
359.99999999999932
 41
0.9
  0
LINE
  5
9517E
  8
NOTE
 10
299.69999243307927
 20
184.54999192200739
 30
0.0
 11
708.07645406839583
 21
364.24035433342942
 31
0.0
  0
TEXT
  5
95183
  8
NOTE
 10
491.44227074081198
 20
-123.3291848024236
 30
0.0
 40
50.0
  1
AH 4-%%c24
 50
359.99999999999932
 41
0.9
  0
LINE
  5
95184
  8
NOTE
 10
848.46450040498712
 20
-139.32230364114
 30
0.0
 11
479.05574633987987
 21
-139.3223036411309
 31
0.0
  0
LINE
  5
95185
  8
NOTE
 10
346.99981782444041
 20
0.0004174589030299
 30
0.0
 11
479.05574633987987
 21
-139.3223036411309
 31
0.0
  0
LINE
  5
9518A
  8
NOTE
 10
-59.292813773432499
 20
184.55798895196131
 30
0.0
 11
-94.43213406556788
 21
217.48452857109979
 31
0.0
  0
LINE
  5
9518B
  8
NOTE
 10
-59.293002997636002
 20
184.5582555755845
 30
0.0
 11
-107.0673594226882
 21
190.60306409661999
 31
0.0
  0
LINE
  5
9518C
  8
NOTE
 10
346.99999999999812
 20
0.000000000005457
 30
0.0
 11
369.95268885403669
 21
-42.333236543559913
 31
0.0
  0
LINE
  5
9518D
  8
NOTE
 10
347.00005938725178
 20
0.0003796745659201
 30
0.0
 11
388.04428929179812
 21
-25.18493416955971
 31
0.0
  0
LINE
  5
9518E
  8
NOTE
 10
299.7007810471041
 20
184.55040575618659
 30
0.0
 11
333.92157685232081
 21
218.43057659905571
 31
0.0
  0
LINE
  5
9518F
  8
NOTE
 10
299.70044685781789
 20
184.55002287409471
 30
0.0
 11
347.29055613105811
 21
191.90599604191809
 31
0.0
  0
LINE
  5
963B9
  8
SIZE
 10
405.99999999999812
 20
0.0003450171407152
 30
0.0
 11
636.54565464803954
 21
0.0003450171406499
 31
0.0
  0
LINE
  5
963BA
  8
SIZE
 10
404.99999999999818
 20
1750.000000000005
 30
0.0
 11
636.54565464804
 21
1750.000000000005
 31
0.0
  0
LINE
  5
963BB
  8
SIZE
 10
616.54565464803954
 20
12.000345017140649
 30
0.0
 11
616.54565464804
 21
1738.000000000005
 31
0.0
  0
LINE
  5
963BF
  8
SIZE
 10
-347.00000000000182
 20
-58.999999999996362
 30
0.0
 11
-347.00000000000182
 21
-351.9211603333224
 31
0.0
  0
LINE
  5
963C0
  8
SIZE
 10
-400.0000000000145
 20
-1.999999999994543
 30
0.0
 11
-400.0000000000145
 21
-351.9211603333224
 31
0.0
  0
LINE
  5
963C1
  8
SIZE
 10
-359.00000000000182
 20
-331.92116033332229
 30
0.0
 11
-388.0000000000145
 21
-331.92116033332229
 31
0.0
  0
LINE
  5
963C2
  8
SIZE
 10
-400.0000000000145
 20
-331.92116033332229
 30
0.0
 11
-504.85714285715738
 21
-331.92116033332229
 31
0.0
  0
LINE
  5
963C6
  8
SIZE
 10
346.99999999999812
 20
-59.0
 30
0.0
 11
346.99999999999812
 21
-143.209771432168
 31
0.0
  0
LINE
  5
963C7
  8
SIZE
 10
-0.0000000000018193
 20
-24.999999999994539
 30
0.0
 11
-0.0000000000018265
 21
-143.209771432168
 31
0.0
  0
LINE
  5
963C8
  8
SIZE
 10
334.99999999999812
 20
-123.209771432168
 30
0.0
 11
11.99999999999817
 21
-123.209771432168
 31
0.0
  0
LINE
  5
963CC
  8
SIZE
 10
399.99999999999812
 20
-1.999999999994543
 30
0.0
 11
399.99999999999812
 21
-466.47048554844332
 31
0.0
  0
LINE
  5
963CD
  8
SIZE
 10
-400.00000000000182
 20
-1.999999999994543
 30
0.0
 11
-400.00000000000182
 21
-466.47048554844332
 31
0.0
  0
LINE
  5
963CE
  8
SIZE
 10
387.99999999999812
 20
-446.47048554844332
 30
0.0
 11
-388.00000000000182
 21
-446.47048554844332
 31
0.0
  0
LINE
  5
963D2
  8
SIZE
 10
346.99999999999812
 20
-58.999654982859283
 30
0.0
 11
346.99999999999812
 21
-351.9211603333224
 31
0.0
  0
LINE
  5
963D3
  8
SIZE
 10
-347.00000000000182
 20
-58.999999999996362
 30
0.0
 11
-347.00000000000182
 21
-351.9211603333224
 31
0.0
  0
LINE
  5
963D4
  8
SIZE
 10
334.99999999999812
 20
-331.92116033332229
 30
0.0
 11
-335.00000000000182
 21
-331.92116033332229
 31
0.0
  0
LINE
  5
963D8
  8
SIZE
 10
299.69999999999891
 20
66.988548704617642
 30
0.0
 11
299.69999999999891
 21
-241.1300608084693
 31
0.0
  0
LINE
  5
963D9
  8
SIZE
 10
-59.300000000001091
 20
66.98855628770616
 30
0.0
 11
-59.300000000001113
 21
-241.1300608084693
 31
0.0
  0
LINE
  5
963DA
  8
SIZE
 10
287.69999999999891
 20
-221.1300608084693
 30
0.0
 11
-47.300000000001113
 21
-221.1300608084693
 31
0.0
  0
LINE
  5
963DE
  8
SIZE
 10
-59.300000000001091
 20
66.98855628770616
 30
0.0
 11
-59.300000000001113
 21
-241.1300608084693
 31
0.0
  0
LINE
  5
963DF
  8
SIZE
 10
-400.0000000000145
 20
-1.999999999994543
 30
0.0
 11
-400.0000000000145
 21
-241.1300608084693
 31
0.0
  0
LINE
  5
963E0
  8
SIZE
 10
-71.30000000000112
 20
-221.1300608084693
 30
0.0
 11
-388.0000000000145
 21
-221.1300608084693
 31
0.0
  0
LINE
  5
963E4
  8
SIZE
 10
402.04549707432852
 20
0.0003450171407152
 30
0.0
 11
526.05048534030175
 21
0.0003450171406801
 31
0.0
  0
LINE
  5
963E5
  8
SIZE
 10
417.2614437122993
 20
184.5500000000047
 30
0.0
 11
526.05048534030175
 21
184.5500000000047
 31
0.0
  0
LINE
  5
963E6
  8
SIZE
 10
506.05048534030158
 20
12.000345017140679
 30
0.0
 11
506.05048534030169
 21
172.5500000000047
 31
0.0
  0
LINE
  5
963EA
  8
SIZE
 10
346.99999999999812
 20
-58.999654982859283
 30
0.0
 11
346.99999999999812
 21
-351.9211603333224
 31
0.0
  0
LINE
  5
963EB
  8
SIZE
 10
399.99999999999812
 20
-1.999999999994543
 30
0.0
 11
399.99999999999812
 21
-351.9211603333224
 31
0.0
  0
LINE
  5
963EC
  8
SIZE
 10
358.99999999999818
 20
-331.92116033332229
 30
0.0
 11
387.99999999999812
 21
-331.92116033332229
 31
0.0
  0
LINE
  5
963ED
  8
SIZE
 10
399.99999999999812
 20
-331.92116033332229
 30
0.0
 11
504.85714285714113
 21
-331.92116033332229
 31
0.0
  0
LINE
  5
963F1
  8
SIZE
 10
299.69999999999891
 20
66.988548704617642
 30
0.0
 11
299.69999999999891
 21
-241.1300608084693
 31
0.0
  0
LINE
  5
963F2
  8
SIZE
 10
399.99999999999812
 20
-1.999999999994543
 30
0.0
 11
399.99999999999812
 21
-241.1300608084693
 31
0.0
  0
LINE
  5
963F3
  8
SIZE
 10
311.69999999999891
 20
-221.1300608084693
 30
0.0
 11
387.99999999999812
 21
-221.1300608084693
 31
0.0
  0
LINE
  5
963F4
  8
SIZE
 10
399.99999999999812
 20
-221.1300608084693
 30
0.0
 11
539.14285714285518
 21
-221.1300608084693
 31
0.0
  0
LINE
  5
963F8
  8
SIZE
 10
417.2614437122993
 20
184.5500000000047
 30
0.0
 11
526.05048534030141
 21
184.5500000000047
 31
0.0
  0
LINE
  5
963F9
  8
SIZE
 10
417.2614437122993
 20
781.55000000000473
 30
0.0
 11
526.05048534030175
 21
781.55000000000473
 31
0.0
  0
LINE
  5
963FA
  8
SIZE
 10
506.05048534030158
 20
196.5500000000047
 30
0.0
 11
506.05048534030169
 21
769.55000000000473
 31
0.0
  0
TEXT
  5
963FE
  8
SIZE
 10
-494.85714285715738
 20
-321.9211603333224
 30
0.0
 40
50.0
  1
53
 41
0.9
  0
CIRCLE
  5
963FF
  8
SIZE
 10
-400.00000000000182
 20
-446.47048554844332
 30
0.0
 40
6.0
  0
LINE
  5
96400
  8
SIZE
 10
-394.00000000000182
 20
-446.47048554844332
 30
0.0
 11
-388.00000000000182
 21
-446.47048554844332
 31
0.0
  0
TEXT
  5
96401
  8
SIZE
 10
-277.86428571429349
 20
-211.1300608084693
 30
0.0
 40
50.0
  1
341
 41
0.9
  0
CIRCLE
  5
96402
  8
SIZE
 10
-347.00000000000182
 20
-331.92116033332229
 30
0.0
 40
6.0
  0
LINE
  5
96403
  8
SIZE
 10
-353.00000000000182
 20
-331.92116033332229
 30
0.0
 11
-359.00000000000182
 21
-331.92116033332229
 31
0.0
  0
CIRCLE
  5
96404
  8
SIZE
 10
-400.0000000000145
 20
-221.1300608084693
 30
0.0
 40
6.0
  0
LINE
  5
96405
  8
SIZE
 10
-394.0000000000145
 20
-221.1300608084693
 30
0.0
 11
-388.0000000000145
 21
-221.1300608084693
 31
0.0
  0
CIRCLE
  5
96406
  8
SIZE
 10
-400.0000000000145
 20
-331.92116033332229
 30
0.0
 40
6.0
  0
LINE
  5
96407
  8
SIZE
 10
-394.0000000000145
 20
-331.92116033332229
 30
0.0
 11
-388.0000000000145
 21
-331.92116033332229
 31
0.0
  0
CIRCLE
  5
96408
  8
SIZE
 10
-347.00000000000182
 20
-331.92116033332229
 30
0.0
 40
6.0
  0
LINE
  5
96409
  8
SIZE
 10
-341.00000000000182
 20
-331.92116033332229
 30
0.0
 11
-335.00000000000182
 21
-331.92116033332229
 31
0.0
  0
TEXT
  5
9640A
  8
SIZE
 10
-57.857142857144687
 20
-436.47048554844332
 30
0.0
 40
50.0
  1
800
 41
0.9
  0
TEXT
  5
9640B
  8
SIZE
 10
63.414285714284617
 20
-211.1300608084693
 30
0.0
 40
50.0
  1
359
 41
0.9
  0
TEXT
  5
9640C
  8
SIZE
 10
-58.928571428573228
 20
-321.9211603333224
 30
0.0
 40
50.0
  1
694
 41
0.9
  0
CIRCLE
  5
9640D
  8
SIZE
 10
-59.300000000001113
 20
-221.1300608084693
 30
0.0
 40
6.0
  0
LINE
  5
9640E
  8
SIZE
 10
-65.30000000000112
 20
-221.1300608084693
 30
0.0
 11
-71.30000000000112
 21
-221.1300608084693
 31
0.0
  0
CIRCLE
  5
9640F
  8
SIZE
 10
-59.300000000001113
 20
-221.1300608084693
 30
0.0
 40
6.0
  0
LINE
  5
96410
  8
SIZE
 10
-53.300000000001113
 20
-221.1300608084693
 30
0.0
 11
-47.300000000001113
 21
-221.1300608084693
 31
0.0
  0
CIRCLE
  5
96411
  8
SIZE
 10
-0.0000000000018253
 20
-123.209771432168
 30
0.0
 40
6.0
  0
LINE
  5
96412
  8
SIZE
 10
5.9999999999981739
 20
-123.209771432168
 30
0.0
 11
11.99999999999817
 21
-123.209771432168
 31
0.0
  0
TEXT
  5
96413
  8
SIZE
 10
115.64285714285531
 20
-113.209771432168
 30
0.0
 40
50.0
  1
347
 41
0.9
  0
TEXT
  5
96414
  8
SIZE
 10
496.05048534030158
 20
38.70374393714421
 30
0.0
 40
50.0
  1
185
 50
90.0
 41
0.9
  0
CIRCLE
  5
96415
  8
SIZE
 10
616.54565464803954
 20
0.0003450171406556
 30
0.0
 40
6.0
  0
LINE
  5
96416
  8
SIZE
 10
616.54565464803954
 20
6.0003450171406554
 30
0.0
 11
616.54565464803954
 21
12.000345017140649
 31
0.0
  0
CIRCLE
  5
96417
  8
SIZE
 10
399.99999999999812
 20
-446.47048554844332
 30
0.0
 40
6.0
  0
LINE
  5
96418
  8
SIZE
 10
393.99999999999812
 20
-446.47048554844332
 30
0.0
 11
387.99999999999812
 21
-446.47048554844332
 31
0.0
  0
TEXT
  5
96419
  8
SIZE
 10
421.99999999999812
 20
-211.1300608084693
 30
0.0
 40
50.0
  1
100
 41
0.9
  0
TEXT
  5
9641A
  8
SIZE
 10
421.99999999999812
 20
-321.9211603333224
 30
0.0
 40
50.0
  1
53
 41
0.9
  0
CIRCLE
  5
9641B
  8
SIZE
 10
346.99999999999812
 20
-331.92116033332229
 30
0.0
 40
6.0
  0
LINE
  5
9641C
  8
SIZE
 10
352.99999999999818
 20
-331.92116033332229
 30
0.0
 11
358.99999999999818
 21
-331.92116033332229
 31
0.0
  0
CIRCLE
  5
9641D
  8
SIZE
 10
299.69999999999891
 20
-221.1300608084693
 30
0.0
 40
6.0
  0
LINE
  5
9641E
  8
SIZE
 10
305.69999999999891
 20
-221.1300608084693
 30
0.0
 11
311.69999999999891
 21
-221.1300608084693
 31
0.0
  0
CIRCLE
  5
9641F
  8
SIZE
 10
299.69999999999891
 20
-221.1300608084693
 30
0.0
 40
6.0
  0
LINE
  5
96420
  8
SIZE
 10
293.69999999999891
 20
-221.1300608084693
 30
0.0
 11
287.69999999999891
 21
-221.1300608084693
 31
0.0
  0
CIRCLE
  5
96421
  8
SIZE
 10
346.99999999999812
 20
-331.92116033332229
 30
0.0
 40
6.0
  0
LINE
  5
96422
  8
SIZE
 10
340.99999999999812
 20
-331.92116033332229
 30
0.0
 11
334.99999999999812
 21
-331.92116033332229
 31
0.0
  0
CIRCLE
  5
96423
  8
SIZE
 10
399.99999999999812
 20
-221.1300608084693
 30
0.0
 40
6.0
  0
LINE
  5
96424
  8
SIZE
 10
393.99999999999812
 20
-221.1300608084693
 30
0.0
 11
387.99999999999812
 21
-221.1300608084693
 31
0.0
  0
CIRCLE
  5
96425
  8
SIZE
 10
399.99999999999812
 20
-331.92116033332229
 30
0.0
 40
6.0
  0
LINE
  5
96426
  8
SIZE
 10
393.99999999999812
 20
-331.92116033332229
 30
0.0
 11
387.99999999999812
 21
-331.92116033332229
 31
0.0
  0
CIRCLE
  5
96427
  8
SIZE
 10
346.99999999999812
 20
-123.209771432168
 30
0.0
 40
6.0
  0
LINE
  5
96428
  8
SIZE
 10
340.99999999999812
 20
-123.209771432168
 30
0.0
 11
334.99999999999812
 21
-123.209771432168
 31
0.0
  0
CIRCLE
  5
96429
  8
SIZE
 10
506.05048534030158
 20
0.0003450171406858
 30
0.0
 40
6.0
  0
LINE
  5
9642A
  8
SIZE
 10
506.05048534030158
 20
6.0003450171406847
 30
0.0
 11
506.05048534030158
 21
12.000345017140679
 31
0.0
  0
TEXT
  5
9642B
  8
SIZE
 10
496.05048534030158
 20
425.1928571428619
 30
0.0
 40
50.0
  1
597
 50
90.0
 41
0.9
  0
CIRCLE
  5
9642C
  8
SIZE
 10
506.05048534030158
 20
184.5500000000047
 30
0.0
 40
6.0
  0
LINE
  5
9642D
  8
SIZE
 10
506.05048534030158
 20
190.5500000000047
 30
0.0
 11
506.05048534030158
 21
196.5500000000047
 31
0.0
  0
CIRCLE
  5
9642E
  8
SIZE
 10
506.05048534030169
 20
184.5500000000047
 30
0.0
 40
6.0
  0
LINE
  5
9642F
  8
SIZE
 10
506.05048534030169
 20
178.55000000000459
 30
0.0
 11
506.05048534030169
 21
172.5500000000047
 31
0.0
  0
CIRCLE
  5
96430
  8
SIZE
 10
506.05048534030169
 20
781.55000000000473
 30
0.0
 40
6.0
  0
LINE
  5
96431
  8
SIZE
 10
506.05048534030169
 20
775.55000000000473
 30
0.0
 11
506.05048534030169
 21
769.55000000000473
 31
0.0
  0
TEXT
  5
96432
  8
SIZE
 10
606.54565464803966
 20
800.00017250857309
 30
0.0
 40
50.0
  1
1750
 50
90.0
 41
0.9
  0
CIRCLE
  5
96433
  8
SIZE
 10
616.54565464804
 20
1750.000000000005
 30
0.0
 40
6.0
  0
LINE
  5
96434
  8
SIZE
 10
616.54565464804
 20
1744.000000000005
 30
0.0
 11
616.54565464804
 21
1738.000000000005
 31
0.0
  0
LINE
  5
96435
  8
OUTLINE
 10
397.0
 20
567.49999999999989
 30
0.0
 11
397.0
 21
1165.0
 31
0.0
  0
LINE
  5
96436
  8
OUTLINE
 10
-2.2000000000007272
 20
567.49999999999989
 30
0.0
 11
-2.2000000000007272
 21
1165.0
 31
0.0
  0
LINE
  5
96437
  8
OUTLINE
 10
2.0
 20
1165.0
 30
0.0
 11
2.0
 21
567.49999999999989
 31
0.0
  0
ARC
  5
96438
  8
OUTLINE
 10
-272.0
 20
968.30678499999885
 30
0.0
 40
17.0
 50
180.0
 51
0.000000000000007
  0
CIRCLE
  5
96439
  8
OUTLINE
 10
-272.0
 20
968.30678499999885
 30
0.0
 40
15.0
  0
ARC
  5
9643A
  8
OUTLINE
 10
-222.0
 20
968.30678499999885
 30
0.0
 40
17.0
 50
180.0
 51
0.000000000000007
  0
CIRCLE
  5
9643B
  8
OUTLINE
 10
-222.0
 20
968.30678499999885
 30
0.0
 40
15.0
  0
LINE
  5
9643C
  8
OUTLINE
 10
-397.20000000000073
 20
1165.0
 30
0.0
 11
-397.20000000000073
 21
567.49999999999989
 31
0.0
  0
LINE
  5
9643D
  8
OUTLINE
 10
399.99999999999812
 20
1748.0
 30
0.0
 11
399.99999999999812
 21
550.0
 31
0.0
  0
LINE
  5
9643E
  8
OUTLINE
 10
-400.0
 20
1748.0
 30
0.0
 11
-400.0
 21
550.0
 31
0.0
  0
LINE
  5
9643F
  8
OUTLINE
 10
243.4997713229495
 20
475.70000000000073
 30
0.0
 11
283.49977132294953
 21
475.70000000000073
 31
0.0
  0
LINE
  5
96440
  8
OUTLINE
 10
297.0
 20
495.70000000000249
 30
0.0
 11
204.4832958627685
 21
495.70000000000249
 31
0.0
  0
ARC
  5
96441
  8
OUTLINE
 10
233.4997711359301
 20
312.6500000000014
 30
0.0
 40
37.950000000000273
 50
270.0
 51
0.000000000000007
  0
LINE
  5
96442
  8
OUTLINE
 10
297.0
 20
467.70000000000073
 30
0.0
 11
224.4832670283995
 21
467.70000000000073
 31
0.0
  0
ARC
  5
96443
  8
OUTLINE
 10
278.80000000151807
 20
177.05000000068321
 30
0.0
 40
14.300000000681379
 50
269.99999999390297
 51
90.000000006096911
  0
LINE
  5
96444
  8
OUTLINE
 10
278.79999999999558
 20
162.75000000000179
 30
0.0
 11
198.79999999999561
 21
162.75000000000179
 31
0.0
  0
LINE
  5
96445
  8
OUTLINE
 10
278.79999999999558
 20
191.35000000136461
 30
0.0
 11
198.79999999999561
 21
191.35000000136461
 31
0.0
  0
ARC
  5
96446
  8
OUTLINE
 10
233.4997711359301
 20
312.6500000000014
 30
0.0
 40
57.95000000000072
 50
270.0
 51
0.000000000000007
  0
LINE
  5
96447
  8
OUTLINE
 10
2.0
 20
567.49999999999989
 30
0.0
 11
397.0
 21
567.49999999999989
 31
0.0
  0
LINE
  5
96448
  8
OUTLINE
 10
397.0
 20
3.0
 30
0.0
 11
-397.0
 21
3.0
 31
0.0
  0
LINE
  5
96449
  8
OUTLINE
 10
-297.0
 20
83.0
 30
0.0
 11
297.0
 21
83.0
 31
0.0
  0
LINE
  5
9644A
  8
OUTLINE
 10
297.0
 20
380.20000000000073
 30
0.0
 11
-297.0
 21
380.20000000000073
 31
0.0
  0
LINE
  5
9644B
  8
OUTLINE
 10
297.0
 20
377.20000000000073
 30
0.0
 11
-297.0
 21
377.20000000000073
 31
0.0
  0
LINE
  5
9644C
  8
OUTLINE
 10
-397.0
 20
0.0
 30
0.0
 11
397.0
 21
0.0
 31
0.0
  0
LINE
  5
9644D
  8
OUTLINE
 10
297.0
 20
80.0
 30
0.0
 11
-297.0
 21
80.0
 31
0.0
  0
LINE
  5
9644E
  8
OUTLINE
 10
-42.100000000000357
 20
463.20000000000073
 30
0.0
 11
297.0
 21
463.20000000000073
 31
0.0
  0
LINE
  5
9644F
  8
OUTLINE
 10
400.0
 20
550.0
 30
0.0
 11
-400.0
 21
550.0
 31
0.0
  0
LINE
  5
96450
  8
OUTLINE
 10
-109.89999999999959
 20
433.20000000000061
 30
0.0
 11
297.0
 21
433.20000000000061
 31
0.0
  0
LINE
  5
96451
  8
OUTLINE
 10
-112.5945287076956
 20
430.20000000000073
 30
0.0
 11
297.0
 21
430.20000000000073
 31
0.0
  0
LINE
  5
96452
  8
OUTLINE
 10
297.0
 20
347.20000000000073
 30
0.0
 11
-297.0
 21
347.20000000000073
 31
0.0
  0
LINE
  5
96453
  8
OUTLINE
 10
-39.200000000002539
 20
83.0
 30
0.0
 11
-39.200000000002539
 21
135.05000000000291
 31
0.0
  0
ARC
  5
96454
  8
OUTLINE
 10
-170.00022873041411
 20
80.999999999996376
 30
0.0
 40
17.00000000000119
 50
6.7563270305807803
 51
144.99331353505099
  0
LINE
  5
96455
  8
OUTLINE
 10
-129.20000000000249
 20
83.0
 30
0.0
 11
-129.20000000000249
 21
135.05000000000291
 31
0.0
  0
ARC
  5
96456
  8
OUTLINE
 10
-170.0002287304178
 20
80.999999999994543
 30
0.0
 40
7.9500000000031674
 50
14.570573920999371
 51
82.874983651072355
  0
ARC
  5
96457
  8
OUTLINE
 10
-170.0002287304178
 20
80.999999999994543
 30
0.0
 40
10.702297591763919
 50
10.77051300096392
 51
124.9018360380304
  0
ARC
  5
96458
  8
OUTLINE
 10
-250.00022873036141
 20
90.999999999947249
 30
0.0
 40
38.00000000007384
 50
4.9510747431636002
 51
192.15319746893201
  0
ARC
  5
96459
  8
OUTLINE
 10
-250.0002287304159
 20
91.000000000012733
 30
0.0
 40
7.9499999999998092
 50
82.874983651072355
 51
262.8749836510982
  0
LINE
  5
9645A
  8
OUTLINE
 10
-260.96988384500941
 20
83.0
 30
0.0
 11
-265.5886859985348
 21
91.000000000012733
 31
0.0
  0
ARC
  5
9645B
  8
OUTLINE
 10
-250.0002287304159
 20
91.000000000012733
 30
0.0
 40
12.000000000003441
 50
36.134991812769009
 51
221.8103148958545
  0
LINE
  5
9645C
  8
OUTLINE
 10
-297.0
 20
380.79999999999922
 30
0.0
 11
-297.0
 21
80.0
 31
0.0
  0
LINE
  5
9645D
  8
OUTLINE
 10
-300.0
 20
80.0
 30
0.0
 11
-300.0
 21
380.79999999999922
 31
0.0
  0
LINE
  5
9645E
  8
OUTLINE
 10
-397.0
 20
550.0
 30
0.0
 11
-397.0
 21
0.0
 31
0.0
  0
LINE
  5
9645F
  8
OUTLINE
 10
-394.0
 20
80.0
 30
0.0
 11
-394.0
 21
350.0
 31
0.0
  0
LINE
  5
96460
  8
OUTLINE
 10
-297.0
 20
80.0
 30
0.0
 11
-397.0
 21
80.0
 31
0.0
  0
LINE
  5
96461
  8
OUTLINE
 10
-397.0
 20
83.0
 30
0.0
 11
-400.0
 21
83.0
 31
0.0
  0
ARC
  5
96462
  8
OUTLINE
 10
-397.0
 20
3.0
 30
0.0
 40
3.000000000000226
 50
180.0
 51
270.0
  0
LINE
  5
96463
  8
OUTLINE
 10
-400.0
 20
3.0
 30
0.0
 11
-400.0
 21
83.0
 31
0.0
  0
LINE
  5
96464
  8
OUTLINE
 10
-103.89999999999959
 20
388.19999999999891
 30
0.0
 11
-72.899999999999636
 21
388.19999999999891
 31
0.0
  0
LINE
  5
96465
  8
OUTLINE
 10
-103.89999999999959
 20
381.79999999999922
 30
0.0
 11
-72.899999999999636
 21
381.79999999999922
 31
0.0
  0
LINE
  5
96466
  8
OUTLINE
 10
-57.100000000000357
 20
390.19999999999879
 30
0.0
 11
-116.19999999999889
 21
390.19999999999879
 31
0.0
  0
LINE
  5
96467
  8
OUTLINE
 10
-57.100000000000357
 20
392.59999999999849
 30
0.0
 11
-116.19999999999889
 21
392.59999999999849
 31
0.0
  0
LINE
  5
96468
  8
OUTLINE
 10
-98.328692494294955
 20
457.0
 30
0.0
 11
-67.100000000000364
 21
457.0
 31
0.0
  0
LINE
  5
96469
  8
OUTLINE
 10
-170.0002287304159
 20
306.00000000000182
 30
0.0
 11
-48.862815739721547
 21
306.00000000000182
 31
0.0
  0
LINE
  5
9646A
  8
OUTLINE
 10
-42.02376123613066
 20
290.10000000000218
 30
0.0
 11
-170.0002287304159
 21
290.10000000000218
 31
0.0
  0
CIRCLE
  5
9646B
  8
OUTLINE
 10
-119.39999999999959
 20
491.0
 30
0.0
 40
40.0
  0
CIRCLE
  5
9646C
  8
OUTLINE
 10
-119.39999999999959
 20
491.0
 30
0.0
 40
32.5
  0
CIRCLE
  5
9646D
  8
OUTLINE
 10
-88.223085464780524
 20
473.0000000005893
 30
0.0
 40
2.25
  0
LINE
  5
9646E
  8
OUTLINE
 10
-269.39999999999958
 20
549.29999999999927
 30
0.0
 11
-69.399999999999636
 21
549.29999999999927
 31
0.0
  0
ARC
  5
9646F
  8
OUTLINE
 10
-84.200000001503227
 20
177.05000000000101
 30
0.0
 40
14.300000000681379
 50
89.999999993981277
 51
270.00000000601869
  0
ARC
  5
96470
  8
OUTLINE
 10
-84.200000000002547
 20
177.05000000000101
 30
0.0
 40
16.000000000000931
 50
63.348319926260388
 51
296.65168008464599
  0
ARC
  5
96471
  8
OUTLINE
 10
-84.200000000180808
 20
177.05000000068321
 30
0.0
 40
14.300000000681379
 50
89.999999999296506
 51
270.00000000072947
  0
ARC
  5
96472
  8
OUTLINE
 10
-84.200000000004366
 20
177.05000000000101
 30
0.0
 40
22.999999999998231
 50
134.07920984791909
 51
321.55675348711208
  0
LINE
  5
96473
  8
OUTLINE
 10
-68.200000000004366
 20
161.04999999999919
 30
0.0
 11
-100.20000000000429
 21
161.04999999999919
 31
0.0
  0
ARC
  5
96474
  8
OUTLINE
 10
-84.200000000000713
 20
177.0500000000047
 30
0.0
 40
21.000000000000892
 50
229.63240645582869
 51
310.3675935441712
  0
LINE
  5
96475
  8
OUTLINE
 10
-100.2000000000025
 20
138.05000000000101
 30
0.0
 11
-68.200000000002547
 21
138.05000000000101
 31
0.0
  0
LINE
  5
96476
  8
OUTLINE
 10
-65.200000000002547
 20
141.05000000000101
 30
0.0
 11
-103.2000000000025
 21
141.05000000000101
 31
0.0
  0
LINE
  5
96477
  8
OUTLINE
 10
-100.20000000000429
 20
201.04999999999919
 30
0.0
 11
-68.200000000004366
 21
201.04999999999919
 31
0.0
  0
LINE
  5
96478
  8
OUTLINE
 10
-70.920943807030199
 20
237.05000000000101
 30
0.0
 11
-97.479056192974895
 21
237.05000000000101
 31
0.0
  0
LINE
  5
96479
  8
OUTLINE
 10
-129.20000000000249
 20
135.05000000000101
 30
0.0
 11
-39.200000000002539
 21
135.05000000000101
 31
0.0
  0
LINE
  5
9647A
  8
OUTLINE
 10
-129.20000000000249
 20
132.05000000000101
 30
0.0
 11
-39.200000000002539
 21
132.05000000000101
 31
0.0
  0
LINE
  5
9647B
  8
OUTLINE
 10
-67.100000000000364
 20
547.0
 30
0.0
 11
-394.00000000000182
 21
547.0
 31
0.0
  0
LINE
  5
9647C
  8
OUTLINE
 10
-397.20000000000073
 20
567.49999999999989
 30
0.0
 11
-2.2000000000007272
 21
567.49999999999989
 31
0.0
  0
LINE
  5
9647D
  8
OUTLINE
 10
-280.20000000000073
 20
527.0
 30
0.0
 11
-280.20000000000073
 21
520.5
 31
0.0
  0
LINE
  5
9647E
  8
OUTLINE
 10
-300.70000000000073
 20
527.0
 30
0.0
 11
-300.70000000000073
 21
467.0
 31
0.0
  0
LINE
  5
9647F
  8
OUTLINE
 10
-302.70000000000073
 20
525.375
 30
0.0
 11
-302.70000000000073
 21
468.625
 31
0.0
  0
LINE
  5
96480
  8
OUTLINE
 10
-271.70000000000073
 20
457.0
 30
0.0
 11
-271.70000000000073
 21
547.0
 31
0.0
  0
LINE
  5
96481
  8
OUTLINE
 10
-269.39999999999958
 20
457.0
 30
0.0
 11
-269.39999999999958
 21
547.0
 31
0.0
  0
LINE
  5
96482
  8
OUTLINE
 10
-317.20000000000073
 20
525.39999999999964
 30
0.0
 11
-317.20000000000073
 21
467.20000000000073
 31
0.0
  0
LINE
  5
96483
  8
OUTLINE
 10
-376.20000000000073
 20
525.39999999999964
 30
0.0
 11
-376.20000000000073
 21
467.20000000000073
 31
0.0
  0
CIRCLE
  5
96484
  8
OUTLINE
 10
-219.39999999999961
 20
492.0
 30
0.0
 40
40.0
  0
CIRCLE
  5
96485
  8
OUTLINE
 10
-219.39999999999961
 20
492.0
 30
0.0
 40
32.5
  0
CIRCLE
  5
96486
  8
OUTLINE
 10
-219.39999999999961
 20
492.0
 30
0.0
 40
30.0
  0
LINE
  5
96487
  8
OUTLINE
 10
-394.00000000000182
 20
349.99999999999812
 30
0.0
 11
-394.00000000000182
 21
546.99999999999807
 31
0.0
  0
LINE
  5
96488
  8
OUTLINE
 10
-391.70000000000073
 20
457.0
 30
0.0
 11
-391.70000000000073
 21
546.99999999999625
 31
0.0
  0
LINE
  5
96489
  8
OUTLINE
 10
-226.20547129230539
 20
430.20000000000073
 30
0.0
 11
-297.0
 21
430.20000000000073
 31
0.0
  0
LINE
  5
9648A
  8
OUTLINE
 10
-228.89999999999961
 20
433.20000000000061
 30
0.0
 11
-297.0
 21
433.20000000000061
 31
0.0
  0
LINE
  5
9648B
  8
OUTLINE
 10
-354.00000000000182
 20
394.59999999999849
 30
0.0
 11
-234.89999999999961
 21
394.59999999999849
 31
0.0
  0
LINE
  5
9648C
  8
OUTLINE
 10
-349.924637187847
 20
457.0
 30
0.0
 11
-238.76491673103729
 21
457.0
 31
0.0
  0
LINE
  5
9648D
  8
OUTLINE
 10
-354.00000000000182
 20
388.19999999999891
 30
0.0
 11
-134.89999999999961
 21
388.19999999999891
 31
0.0
  0
LINE
  5
9648E
  8
OUTLINE
 10
-280.100000000004
 20
381.79999999999922
 30
0.0
 11
-134.89999999999961
 21
381.79999999999922
 31
0.0
  0
LINE
  5
9648F
  8
OUTLINE
 10
-297.0
 20
93.136897228678194
 30
0.0
 11
-287.858441525861
 21
94.279592037946713
 31
0.0
  0
LINE
  5
96490
  8
OUTLINE
 10
-296.99999999999091
 20
166.1347259145295
 30
0.0
 11
-296.99999999999091
 21
93.136868637377134
 31
0.0
  0
ARC
  5
96491
  8
OUTLINE
 10
-357.20000000000249
 20
385.0
 30
0.0
 40
3.1999999999998181
 50
180.0
 51
0.000000000000007
  0
LINE
  5
96492
  8
OUTLINE
 10
-357.20000000000073
 20
381.79999999999922
 30
0.0
 11
-310.20000000000249
 21
381.79999999999922
 31
0.0
  0
LINE
  5
96493
  8
OUTLINE
 10
-353.20000000000073
 20
430.71870884215599
 30
0.0
 11
-361.20000000000073
 21
430.71870884215599
 31
0.0
  0
LINE
  5
96494
  8
OUTLINE
 10
-317.20000000000073
 20
467.20000000000073
 30
0.0
 11
-376.20000000000073
 21
467.20000000000073
 31
0.0
  0
LINE
  5
96495
  8
OUTLINE
 10
-347.70000000000073
 20
446.21870884215599
 30
0.0
 11
-366.70000000000073
 21
446.21870884215599
 31
0.0
  0
LINE
  5
96496
  8
OUTLINE
 10
-366.70000000000073
 20
435.21870884215599
 30
0.0
 11
-347.70000000000073
 21
435.21870884215599
 31
0.0
  0
LINE
  5
96497
  8
OUTLINE
 10
-364.47536281215611
 20
450.469564625413
 30
0.0
 11
-349.924637187847
 21
450.469564625413
 31
0.0
  0
LINE
  5
96498
  8
OUTLINE
 10
-364.47536281215611
 20
457.5
 30
0.0
 11
-349.924637187847
 21
457.5
 31
0.0
  0
LINE
  5
96499
  8
OUTLINE
 10
-370.11584159893391
 20
460.78202073424831
 30
0.0
 11
-344.28415840106749
 21
460.78202073424831
 31
0.0
  0
LINE
  5
9649A
  8
OUTLINE
 10
-397.00000000000182
 20
350.0
 30
0.0
 11
-347.0
 21
350.0
 31
0.0
  0
LINE
  5
9649B
  8
OUTLINE
 10
-360.4000000000014
 20
385.0
 30
0.0
 11
-360.4000000000014
 21
430.71870884215599
 31
0.0
  0
LINE
  5
9649C
  8
OUTLINE
 10
-366.70000000000073
 20
446.21870884215599
 30
0.0
 11
-366.70000000000073
 21
435.21870884215599
 31
0.0
  0
LINE
  5
9649D
  8
OUTLINE
 10
-364.47536281215611
 20
457.5
 30
0.0
 11
-364.47536281215611
 21
450.469564625413
 31
0.0
  0
LINE
  5
9649E
  8
OUTLINE
 10
-370.11584159893391
 20
467.20000000000073
 30
0.0
 11
-370.11584159893391
 21
460.78202073424831
 31
0.0
  0
LINE
  5
9649F
  8
OUTLINE
 10
-361.70000000000073
 20
435.21870884215599
 30
0.0
 11
-361.70000000000073
 21
446.21870884215599
 31
0.0
  0
LINE
  5
964A0
  8
OUTLINE
 10
-360.20000000000073
 20
450.469564625413
 30
0.0
 11
-360.20000000000073
 21
457.5
 31
0.0
  0
LINE
  5
964A1
  8
OUTLINE
 10
-354.20000000000073
 20
450.469564625413
 30
0.0
 11
-354.20000000000073
 21
457.5
 31
0.0
  0
LINE
  5
964A2
  8
OUTLINE
 10
-362.47536281215611
 20
450.469564625413
 30
0.0
 11
-362.47536281215611
 21
446.21870884215599
 31
0.0
  0
LINE
  5
964A3
  8
OUTLINE
 10
-362.47536281215611
 20
460.78202073424831
 30
0.0
 11
-362.47536281215611
 21
457.5
 31
0.0
  0
LINE
  5
964A4
  8
OUTLINE
 10
-361.20000000000073
 20
430.71870884215599
 30
0.0
 11
-366.70000000000073
 21
435.21870884215599
 31
0.0
  0
LINE
  5
964A5
  8
OUTLINE
 10
-394.00000000000182
 20
457.0
 30
0.0
 11
-364.47536281215611
 21
457.0
 31
0.0
  0
ARC
  5
964A6
  8
OUTLINE
 10
-291.70000000000073
 20
517.0
 30
0.0
 40
3.5
 50
90.0
 51
270.0
  0
ARC
  5
964A7
  8
OUTLINE
 10
-291.70000000000073
 20
497.0
 30
0.0
 40
3.5
 50
90.0
 51
270.0
  0
LINE
  5
964A8
  8
OUTLINE
 10
-280.20000000000073
 20
513.50000000000182
 30
0.0
 11
-280.20000000000073
 21
500.49999999999989
 31
0.0
  0
LINE
  5
964A9
  8
OUTLINE
 10
-280.20000000000073
 20
493.5
 30
0.0
 11
-280.20000000000073
 21
480.49999999999989
 31
0.0
  0
LINE
  5
964AA
  8
OUTLINE
 10
-280.20000000000073
 20
480.49999999999989
 30
0.0
 11
-291.70000000000073
 21
480.49999999999989
 31
0.0
  0
LINE
  5
964AB
  8
OUTLINE
 10
-280.20000000000073
 20
493.5
 30
0.0
 11
-291.70000000000073
 21
493.5
 31
0.0
  0
LINE
  5
964AC
  8
OUTLINE
 10
-280.20000000000073
 20
500.49999999999989
 30
0.0
 11
-291.70000000000073
 21
500.49999999999989
 31
0.0
  0
LINE
  5
964AD
  8
OUTLINE
 10
-280.20000000000073
 20
520.5
 30
0.0
 11
-291.70000000000073
 21
520.5
 31
0.0
  0
LINE
  5
964AE
  8
OUTLINE
 10
-280.20000000000073
 20
513.49999999999989
 30
0.0
 11
-291.70000000000073
 21
513.49999999999989
 31
0.0
  0
LINE
  5
964AF
  8
OUTLINE
 10
-297.0
 20
457.0
 30
0.0
 11
-297.0
 21
394.59999999999849
 31
0.0
  0
LINE
  5
964B0
  8
OUTLINE
 10
-279.20000000000249
 20
388.20000000000073
 30
0.0
 11
-279.20000000000249
 21
380.79999999999922
 31
0.0
  0
LINE
  5
964B1
  8
OUTLINE
 10
-280.20000000000073
 20
467.0
 30
0.0
 11
-280.20000000000073
 21
473.5
 31
0.0
  0
LINE
  5
964B2
  8
OUTLINE
 10
-280.20000000000073
 20
473.5
 30
0.0
 11
-291.70000000000073
 21
473.5
 31
0.0
  0
LINE
  5
964B3
  8
OUTLINE
 10
-300.70000000000073
 20
468.37499999999989
 30
0.0
 11
-317.20000000000073
 21
470.43749999999989
 31
0.0
  0
LINE
  5
964B4
  8
OUTLINE
 10
-300.0
 20
457.0
 30
0.0
 11
-300.0
 21
394.59999999999849
 31
0.0
  0
LINE
  5
964B5
  8
OUTLINE
 10
-302.70000000000073
 20
468.625
 30
0.0
 11
-302.70000000000073
 21
467.0
 31
0.0
  0
LINE
  5
964B6
  8
OUTLINE
 10
-354.00000000000182
 20
385.0
 30
0.0
 11
-354.00000000000182
 21
430.71870884215599
 31
0.0
  0
LINE
  5
964B7
  8
OUTLINE
 10
-347.00000000000182
 20
457.0
 30
0.0
 11
-347.00000000000182
 21
394.59999999999849
 31
0.0
  0
LINE
  5
964B8
  8
OUTLINE
 10
-310.20000000000249
 20
388.20000000000073
 30
0.0
 11
-310.20000000000249
 21
380.79999999999922
 31
0.0
  0
LINE
  5
964B9
  8
OUTLINE
 10
-347.00000000000182
 20
381.79999999999922
 30
0.0
 11
-347.00000000000182
 21
350.0
 31
0.0
  0
LINE
  5
964BA
  8
OUTLINE
 10
-347.70000000000073
 20
435.21870884215599
 30
0.0
 11
-347.70000000000073
 21
446.21870884215599
 31
0.0
  0
LINE
  5
964BB
  8
OUTLINE
 10
-347.70000000000073
 20
435.21870884215599
 30
0.0
 11
-353.20000000000073
 21
430.71870884215599
 31
0.0
  0
LINE
  5
964BC
  8
OUTLINE
 10
-352.70000000000073
 20
446.21870884215599
 30
0.0
 11
-352.70000000000073
 21
435.21870884215599
 31
0.0
  0
LINE
  5
964BD
  8
OUTLINE
 10
-351.92463718784711
 20
450.469564625413
 30
0.0
 11
-351.92463718784711
 21
446.21870884215599
 31
0.0
  0
LINE
  5
964BE
  8
OUTLINE
 10
-349.924637187847
 20
450.469564625413
 30
0.0
 11
-349.924637187847
 21
457.5
 31
0.0
  0
LINE
  5
964BF
  8
OUTLINE
 10
-344.28415840106749
 20
467.20000000000073
 30
0.0
 11
-344.28415840106749
 21
460.78202073424831
 31
0.0
  0
LINE
  5
964C0
  8
OUTLINE
 10
-351.92463718784711
 20
460.78202073424831
 30
0.0
 11
-351.92463718784711
 21
457.5
 31
0.0
  0
LINE
  5
964C1
  8
OUTLINE
 10
-279.20000000000249
 20
380.79999999999922
 30
0.0
 11
-310.20000000000249
 21
380.79999999999922
 31
0.0
  0
LINE
  5
964C2
  8
OUTLINE
 10
-280.20000000000073
 20
467.0
 30
0.0
 11
-302.70000000000073
 21
467.0
 31
0.0
  0
ARC
  5
964C3
  8
OUTLINE
 10
-291.70000000000073
 20
477.0
 30
0.0
 40
3.5
 50
90.0
 51
270.0
  0
ARC
  5
964C4
  8
OUTLINE
 10
-170.0002287304159
 20
298.05000000000098
 30
0.0
 40
7.9499999999993616
 50
90.0
 51
270.0
  0
LINE
  5
964C5
  8
OUTLINE
 10
-156.5002287304159
 20
127.9999999999981
 30
0.0
 11
-183.5002287304159
 21
127.9999999999981
 31
0.0
  0
LINE
  5
964C6
  8
OUTLINE
 10
-169.01415259042909
 20
88.888609119871035
 30
0.0
 11
-249.01415259042909
 21
98.888609119885587
 31
0.0
  0
LINE
  5
964C7
  8
OUTLINE
 10
-183.5002287304159
 20
91.331989159887598
 30
0.0
 11
-183.5002287304159
 21
127.9999999999981
 31
0.0
  0
LINE
  5
964C8
  8
OUTLINE
 10
-257.79445736447451
 20
104.5000000000127
 30
0.0
 11
-242.20600009635561
 21
104.5000000000127
 31
0.0
  0
LINE
  5
964C9
  8
OUTLINE
 10
-257.79445736447451
 20
104.5000000000127
 30
0.0
 11
-265.5886859985348
 21
91.000000000012733
 31
0.0
  0
LINE
  5
964CA
  8
OUTLINE
 10
-238.3936056865677
 20
97.896739183768659
 30
0.0
 11
-242.20600009635561
 21
104.5000000000127
 31
0.0
  0
LINE
  5
964CB
  8
OUTLINE
 10
-177.95022873041489
 20
127.9999999999981
 30
0.0
 11
-177.95022873041489
 21
298.05000000000098
 31
0.0
  0
LINE
  5
964CC
  8
OUTLINE
 10
-100.20000000000429
 20
201.04999999999919
 30
0.0
 11
-100.20000000000429
 21
161.04999999999919
 31
0.0
  0
ARC
  5
964CD
  8
OUTLINE
 10
-84.200000000002547
 20
177.05000000000291
 30
0.0
 40
20.999999999997339
 50
139.6324064558456
 51
220.3675935441544
  0
LINE
  5
964CE
  8
OUTLINE
 10
-100.2000000000025
 20
135.05000000000101
 30
0.0
 11
-100.2000000000025
 21
138.05000000000101
 31
0.0
  0
LINE
  5
964CF
  8
OUTLINE
 10
-103.2000000000025
 20
141.05000000000101
 30
0.0
 11
-103.2000000000025
 21
138.05000000000101
 31
0.0
  0
LINE
  5
964D0
  8
OUTLINE
 10
-115.7000000000025
 20
151.9244612393467
 30
0.0
 11
-115.7000000000025
 21
121.2306229693385
 31
0.0
  0
LINE
  5
964D1
  8
OUTLINE
 10
-90.839528096488721
 20
201.04999999999919
 30
0.0
 11
-90.839528096488721
 21
237.05000000000101
 31
0.0
  0
LINE
  5
964D2
  8
OUTLINE
 10
-97.479056192974895
 20
201.04999999999919
 30
0.0
 11
-97.479056192974895
 21
237.05000000000101
 31
0.0
  0
LINE
  5
964D3
  8
OUTLINE
 10
-123.2000000000025
 20
138.05000000000101
 30
0.0
 11
-123.2000000000025
 21
135.05000000000101
 31
0.0
  0
LINE
  5
964D4
  8
OUTLINE
 10
-156.5002287304159
 20
91.331989159880322
 30
0.0
 11
-156.5002287304159
 21
127.9999999999981
 31
0.0
  0
LINE
  5
964D5
  8
OUTLINE
 10
-123.2000000000025
 20
138.05000000000101
 30
0.0
 11
-103.2000000000025
 21
138.05000000000101
 31
0.0
  0
LINE
  5
964D6
  8
OUTLINE
 10
-162.0502287304152
 20
127.9999999999981
 30
0.0
 11
-162.0502287304152
 21
290.10000000000218
 31
0.0
  0
LINE
  5
964D7
  8
OUTLINE
 10
-200.03508326896369
 20
457.0
 30
0.0
 11
-140.47130750570611
 21
457.0
 31
0.0
  0
LINE
  5
964D8
  8
OUTLINE
 10
-203.89999999999961
 20
394.59999999999849
 30
0.0
 11
-172.89999999999961
 21
394.59999999999849
 31
0.0
  0
LINE
  5
964D9
  8
OUTLINE
 10
-128.89999999999961
 20
433.20000000000061
 30
0.0
 11
-209.89999999999961
 21
433.20000000000061
 31
0.0
  0
LINE
  5
964DA
  8
OUTLINE
 10
-212.59452870769559
 20
430.20000000000073
 30
0.0
 11
-126.2054712923036
 21
430.20000000000073
 31
0.0
  0
LINE
  5
964DB
  8
OUTLINE
 10
-203.89999999999961
 20
388.19999999999891
 30
0.0
 11
-203.89999999999961
 21
395.59999999999849
 31
0.0
  0
LINE
  5
964DC
  8
OUTLINE
 10
-201.7219999999997
 20
474.32229999999981
 30
0.0
 11
-206.05199999999959
 21
476.82229999999981
 31
0.0
  0
LINE
  5
964DD
  8
OUTLINE
 10
-201.7219999999997
 20
474.32219999999859
 30
0.0
 11
-204.2219999999997
 21
478.65229999999968
 31
0.0
  0
CIRCLE
  5
964DE
  8
OUTLINE
 10
-188.2230854647805
 20
474.0000000005893
 30
0.0
 40
2.25
  0
LINE
  5
964DF
  8
OUTLINE
 10
-209.89999999999961
 20
432.40461439720627
 30
0.0
 11
-215.39999999999961
 21
427.90461439720627
 31
0.0
  0
LINE
  5
964E0
  8
OUTLINE
 10
-223.39999999999961
 20
427.90461439720627
 30
0.0
 11
-228.89999999999961
 21
432.40461439720627
 31
0.0
  0
LINE
  5
964E1
  8
OUTLINE
 10
-234.89999999999961
 20
395.59999999999849
 30
0.0
 11
-222.60000000000389
 21
395.59999999999849
 31
0.0
  0
ARC
  5
964E2
  8
OUTLINE
 10
-219.4000000000014
 20
391.39999999999782
 30
0.0
 40
3.2000000000007272
 50
180.0
 51
0.000000000000007
  0
ARC
  5
964E3
  8
OUTLINE
 10
-219.39999999999961
 20
391.39999999999782
 30
0.0
 40
4.2000000000005651
 50
310.36759354421088
 51
40.367593544171257
  0
ARC
  5
964E4
  8
OUTLINE
 10
-219.39999999999961
 20
391.39999999999958
 30
0.0
 40
4.2000000000016922
 50
139.6324064558456
 51
229.63240645578901
  0
LINE
  5
964E5
  8
OUTLINE
 10
-215.39999999999961
 20
427.90461439720627
 30
0.0
 11
-223.39999999999961
 21
427.90461439720627
 31
0.0
  0
LINE
  5
964E6
  8
OUTLINE
 10
-222.60000000000389
 20
427.90461439720627
 30
0.0
 11
-222.60000000000389
 21
391.39999999999782
 31
0.0
  0
LINE
  5
964E7
  8
OUTLINE
 10
-216.2000000000007
 20
427.90461439720627
 30
0.0
 11
-216.2000000000007
 21
391.39999999999958
 31
0.0
  0
LINE
  5
964E8
  8
OUTLINE
 10
-234.89999999999961
 20
388.19999999999891
 30
0.0
 11
-234.89999999999961
 21
395.59999999999849
 31
0.0
  0
LINE
  5
964E9
  8
OUTLINE
 10
-209.89999999999961
 20
443.40461439720627
 30
0.0
 11
-228.89999999999961
 21
443.40461439720627
 31
0.0
  0
LINE
  5
964EA
  8
OUTLINE
 10
-228.89999999999961
 20
432.40461439720627
 30
0.0
 11
-209.89999999999961
 21
432.40461439720627
 31
0.0
  0
LINE
  5
964EB
  8
OUTLINE
 10
-228.39999999999961
 20
460.77149999999892
 30
0.0
 11
-228.39999999999961
 21
450.0
 31
0.0
  0
LINE
  5
964EC
  8
OUTLINE
 10
-210.39999999999961
 20
460.77149999999892
 30
0.0
 11
-210.39999999999961
 21
450.0
 31
0.0
  0
LINE
  5
964ED
  8
OUTLINE
 10
-228.39999999999961
 20
450.0
 30
0.0
 11
-210.39999999999961
 21
450.0
 31
0.0
  0
LINE
  5
964EE
  8
OUTLINE
 10
-223.89999999999961
 20
432.40461439720627
 30
0.0
 11
-223.89999999999961
 21
443.40461439720627
 31
0.0
  0
LINE
  5
964EF
  8
OUTLINE
 10
-214.89999999999961
 20
443.40461439720627
 30
0.0
 11
-214.89999999999961
 21
432.40461439720627
 31
0.0
  0
LINE
  5
964F0
  8
OUTLINE
 10
-209.89999999999961
 20
432.40461439720627
 30
0.0
 11
-209.89999999999961
 21
443.40461439720627
 31
0.0
  0
LINE
  5
964F1
  8
OUTLINE
 10
-223.89999999999961
 20
443.40461439720627
 30
0.0
 11
-223.89999999999961
 21
450.0
 31
0.0
  0
LINE
  5
964F2
  8
OUTLINE
 10
-214.89999999999961
 20
443.40461439720627
 30
0.0
 11
-214.89999999999961
 21
450.0
 31
0.0
  0
LINE
  5
964F3
  8
OUTLINE
 10
-228.89999999999961
 20
443.40461439720627
 30
0.0
 11
-228.89999999999961
 21
432.40461439720627
 31
0.0
  0
CIRCLE
  5
964F4
  8
OUTLINE
 10
-250.57691453555341
 20
474.00000000039648
 30
0.0
 40
2.25
  0
CIRCLE
  5
964F5
  8
OUTLINE
 10
-250.57691453555341
 20
474.00000000039648
 30
0.0
 40
2.25
  0
LINE
  5
964F6
  8
OUTLINE
 10
-216.2000000000007
 20
395.59999999999849
 30
0.0
 11
-203.89999999999961
 21
395.59999999999849
 31
0.0
  0
LINE
  5
964F7
  8
OUTLINE
 10
-230.006389993212
 20
502.60621000016903
 30
0.0
 11
-201.7219999999997
 21
474.32229999999981
 31
0.0
  0
LINE
  5
964F8
  8
OUTLINE
 10
-109.89999999999959
 20
432.40461439720627
 30
0.0
 11
-115.39999999999959
 21
427.90461439720627
 31
0.0
  0
LINE
  5
964F9
  8
OUTLINE
 10
-103.89999999999959
 20
389.19999999999891
 30
0.0
 11
-103.89999999999959
 21
380.79999999999922
 31
0.0
  0
LINE
  5
964FA
  8
OUTLINE
 10
-116.19999999999889
 20
389.19999999999891
 30
0.0
 11
-103.89999999999959
 21
389.19999999999891
 31
0.0
  0
LINE
  5
964FB
  8
OUTLINE
 10
-116.19999999999889
 20
427.90461439720627
 30
0.0
 11
-116.19999999999889
 21
385.0
 31
0.0
  0
LINE
  5
964FC
  8
OUTLINE
 10
-110.39999999999959
 20
459.77149999999892
 30
0.0
 11
-110.39999999999959
 21
449.0
 31
0.0
  0
LINE
  5
964FD
  8
OUTLINE
 10
-109.89999999999959
 20
432.40461439720627
 30
0.0
 11
-109.89999999999959
 21
443.40461439720627
 31
0.0
  0
LINE
  5
964FE
  8
OUTLINE
 10
-114.89999999999959
 20
443.40461439720627
 30
0.0
 11
-114.89999999999959
 21
432.40461439720627
 31
0.0
  0
LINE
  5
964FF
  8
OUTLINE
 10
-114.89999999999959
 20
443.40461439720627
 30
0.0
 11
-114.89999999999959
 21
449.0
 31
0.0
  0
LINE
  5
96500
  8
OUTLINE
 10
-122.60000000000031
 20
390.19999999999879
 30
0.0
 11
-159.89999999999961
 21
390.19999999999879
 31
0.0
  0
LINE
  5
96501
  8
OUTLINE
 10
-122.60000000000031
 20
392.59999999999849
 30
0.0
 11
-159.89999999999961
 21
392.59999999999849
 31
0.0
  0
LINE
  5
96502
  8
OUTLINE
 10
-123.39999999999959
 20
427.90461439720627
 30
0.0
 11
-128.89999999999961
 21
432.40461439720627
 31
0.0
  0
LINE
  5
96503
  8
OUTLINE
 10
-134.89999999999961
 20
389.19999999999891
 30
0.0
 11
-134.89999999999961
 21
380.79999999999922
 31
0.0
  0
LINE
  5
96504
  8
OUTLINE
 10
-134.89999999999961
 20
389.19999999999891
 30
0.0
 11
-122.60000000000031
 21
389.19999999999891
 31
0.0
  0
LINE
  5
96505
  8
OUTLINE
 10
-122.60000000000031
 20
427.90461439720627
 30
0.0
 11
-122.60000000000031
 21
384.99999999999631
 31
0.0
  0
LINE
  5
96506
  8
OUTLINE
 10
-128.39999999999961
 20
459.77149999999892
 30
0.0
 11
-128.39999999999961
 21
449.0
 31
0.0
  0
LINE
  5
96507
  8
OUTLINE
 10
-128.89999999999961
 20
443.40461439720627
 30
0.0
 11
-128.89999999999961
 21
432.40461439720627
 31
0.0
  0
LINE
  5
96508
  8
OUTLINE
 10
-123.89999999999959
 20
432.40461439720627
 30
0.0
 11
-123.89999999999959
 21
443.40461439720627
 31
0.0
  0
LINE
  5
96509
  8
OUTLINE
 10
-123.89999999999959
 20
443.40461439720627
 30
0.0
 11
-123.89999999999959
 21
449.0
 31
0.0
  0
LINE
  5
9650A
  8
OUTLINE
 10
-172.89999999999961
 20
394.59999999999849
 30
0.0
 11
-169.89999999999961
 21
393.59999999999849
 31
0.0
  0
LINE
  5
9650B
  8
OUTLINE
 10
-169.89999999999961
 20
389.19999999999891
 30
0.0
 11
-172.89999999999961
 21
388.19999999999891
 31
0.0
  0
LINE
  5
9650C
  8
OUTLINE
 10
-169.89999999999961
 20
393.59999999999849
 30
0.0
 11
-159.89999999999961
 21
393.59999999999849
 31
0.0
  0
LINE
  5
9650D
  8
OUTLINE
 10
-159.89999999999961
 20
393.59999999999849
 30
0.0
 11
-159.89999999999961
 21
389.19999999999891
 31
0.0
  0
LINE
  5
9650E
  8
OUTLINE
 10
-169.89999999999961
 20
389.19999999999891
 30
0.0
 11
-159.89999999999961
 21
389.19999999999891
 31
0.0
  0
LINE
  5
9650F
  8
OUTLINE
 10
-103.89999999999959
 20
380.79999999999922
 30
0.0
 11
-134.89999999999961
 21
380.79999999999922
 31
0.0
  0
ARC
  5
96510
  8
OUTLINE
 10
-119.39999999999959
 20
384.99999999999812
 30
0.0
 40
3.2000000000007272
 50
180.0
 51
0.000000000000007
  0
ARC
  5
96511
  8
OUTLINE
 10
-119.39999999999959
 20
384.99999999999812
 30
0.0
 40
4.2000000000005651
 50
139.6324064558456
 51
40.367593544171257
  0
LINE
  5
96512
  8
OUTLINE
 10
-115.39999999999959
 20
427.90461439720627
 30
0.0
 11
-123.39999999999959
 21
427.90461439720627
 31
0.0
  0
LINE
  5
96513
  8
OUTLINE
 10
-110.39999999999959
 20
449.0
 30
0.0
 11
-128.39999999999961
 21
449.0
 31
0.0
  0
LINE
  5
96514
  8
OUTLINE
 10
-109.89999999999959
 20
443.40461439720627
 30
0.0
 11
-128.89999999999961
 21
443.40461439720627
 31
0.0
  0
LINE
  5
96515
  8
OUTLINE
 10
-128.89999999999961
 20
432.40461439720627
 30
0.0
 11
-109.89999999999959
 21
432.40461439720627
 31
0.0
  0
CIRCLE
  5
96516
  8
OUTLINE
 10
-150.57691453555341
 20
473.00000000039648
 30
0.0
 40
2.25
  0
CIRCLE
  5
96517
  8
OUTLINE
 10
-150.57691453555341
 20
473.00000000039648
 30
0.0
 40
2.25
  0
LINE
  5
96518
  8
OUTLINE
 10
-101.7219999999997
 20
473.3222999999997
 30
0.0
 11
-106.05199999999959
 21
475.82229999999981
 31
0.0
  0
LINE
  5
96519
  8
OUTLINE
 10
-101.7219999999997
 20
473.3221999999987
 30
0.0
 11
-104.2219999999997
 21
477.65229999999968
 31
0.0
  0
CIRCLE
  5
9651A
  8
OUTLINE
 10
-119.39999999999959
 20
491.0
 30
0.0
 40
30.0
  0
LINE
  5
9651B
  8
OUTLINE
 10
-130.00638999321191
 20
501.60621000016909
 30
0.0
 11
-101.7219999999997
 21
473.3222999999997
 31
0.0
  0
LINE
  5
9651C
  8
OUTLINE
 10
-376.20000000000073
 20
525.39999999999964
 30
0.0
 11
-317.20000000000073
 21
525.39999999999964
 31
0.0
  0
LINE
  5
9651D
  8
OUTLINE
 10
-347.00000000000182
 20
546.99999999999807
 30
0.0
 11
-394.00000000000182
 21
546.99999999999807
 31
0.0
  0
LINE
  5
9651E
  8
OUTLINE
 10
-269.39999999999958
 20
547.0
 30
0.0
 11
-269.39999999999958
 21
549.29999999999927
 31
0.0
  0
LINE
  5
9651F
  8
OUTLINE
 10
-300.70000000000073
 20
525.625
 30
0.0
 11
-317.20000000000073
 21
523.56249999999989
 31
0.0
  0
LINE
  5
96520
  8
OUTLINE
 10
-302.70000000000073
 20
525.375
 30
0.0
 11
-302.70000000000073
 21
527.0
 31
0.0
  0
LINE
  5
96521
  8
OUTLINE
 10
-280.20000000000073
 20
527.0
 30
0.0
 11
-302.70000000000073
 21
527.0
 31
0.0
  0
LINE
  5
96522
  8
OUTLINE
 10
-337.8668020000004
 20
937.0
 30
0.0
 11
-337.8668020000004
 21
927.0
 31
0.0
  0
LINE
  5
96523
  8
OUTLINE
 10
-337.8668020000004
 20
927.0
 30
0.0
 11
-306.3668020000004
 21
927.0
 31
0.0
  0
LINE
  5
96524
  8
OUTLINE
 10
-306.3668020000004
 20
927.0
 30
0.0
 11
-306.3668020000004
 21
937.0
 31
0.0
  0
LINE
  5
96525
  8
OUTLINE
 10
-306.3668020000004
 20
937.0
 30
0.0
 11
-337.8668020000004
 21
937.0
 31
0.0
  0
ARC
  5
96526
  8
OUTLINE
 10
-321.95837700000078
 20
899.67345299999943
 30
0.0
 40
2.0699939999999959
 50
9.0244720000504337
 51
170.50312699996991
  0
ARC
  5
96527
  8
OUTLINE
 10
-322.00000000000182
 20
893.30678499999885
 30
0.0
 40
6.9999999999997904
 50
106.16449700002011
 51
72.834116999981958
  0
ARC
  5
96528
  8
OUTLINE
 10
-322.00000000000182
 20
893.30678499999885
 30
0.0
 40
3.999999999999901
 50
115.79164100000661
 51
62.619217000027781
  0
LINE
  5
96529
  8
OUTLINE
 10
-323.49999999999989
 20
893.30678499999885
 30
0.0
 11
-323.9603530000004
 21
900.20355100000063
 31
0.0
  0
LINE
  5
9652A
  8
OUTLINE
 10
-320.41675300000128
 20
893.30678499999885
 30
0.0
 11
-319.91675300000128
 21
900.23427900000013
 31
0.0
  0
ARC
  5
9652B
  8
OUTLINE
 10
-321.95837700000078
 20
893.30678499999885
 30
0.0
 40
1.541623000000071
 50
180.0
 51
0.000000000000007
  0
LINE
  5
9652C
  8
OUTLINE
 10
-331.49999999999989
 20
909.9067849999991
 30
0.0
 11
-331.49999999999989
 21
876.70678500000031
 31
0.0
  0
LINE
  5
9652D
  8
OUTLINE
 10
-331.49999999999989
 20
876.70678500000031
 30
0.0
 11
-312.5
 21
876.70678500000031
 31
0.0
  0
LINE
  5
9652E
  8
OUTLINE
 10
-312.5
 20
876.70678500000031
 30
0.0
 11
-312.5
 21
909.9067849999991
 31
0.0
  0
LINE
  5
9652F
  8
OUTLINE
 10
-312.5
 20
909.9067849999991
 30
0.0
 11
-331.49999999999989
 21
909.9067849999991
 31
0.0
  0
CIRCLE
  5
96530
  8
OUTLINE
 10
-219.39999999999961
 20
527.9999999999618
 30
0.0
 40
2.25
  0
CIRCLE
  5
96531
  8
OUTLINE
 10
-219.39999999999961
 20
527.9999999999618
 30
0.0
 40
2.25
  0
CIRCLE
  5
96532
  8
OUTLINE
 10
-119.39999999999959
 20
526.9999999999618
 30
0.0
 40
2.25
  0
CIRCLE
  5
96533
  8
OUTLINE
 10
-119.39999999999959
 20
526.9999999999618
 30
0.0
 40
2.25
  0
LINE
  5
96534
  8
OUTLINE
 10
249.19977113592901
 20
550.0
 30
0.0
 11
249.19977113592901
 21
475.70000000000073
 31
0.0
  0
LINE
  5
96535
  8
OUTLINE
 10
229.19977113592901
 20
550.0
 30
0.0
 11
229.19977113592901
 21
495.70000000000249
 31
0.0
  0
LINE
  5
96536
  8
OUTLINE
 10
18.799999999995631
 20
524.05000000000098
 30
0.0
 11
18.799999999995631
 21
512.05000000000109
 31
0.0
  0
LINE
  5
96537
  8
OUTLINE
 10
-13.20000000000436
 20
524.05000000000098
 30
0.0
 11
-13.20000000000436
 21
512.05000000000109
 31
0.0
  0
LINE
  5
96538
  8
OUTLINE
 10
-69.399999999999636
 20
457.0
 30
0.0
 11
-69.399999999999636
 21
547.0
 31
0.0
  0
LINE
  5
96539
  8
OUTLINE
 10
-67.100000000000364
 20
437.0
 30
0.0
 11
-67.100000000000364
 21
547.0
 31
0.0
  0
LINE
  5
9653A
  8
OUTLINE
 10
233.49977113593189
 20
290.60000000000031
 30
0.0
 11
-11.500000000007271
 21
290.60000000000031
 31
0.0
  0
LINE
  5
9653B
  8
OUTLINE
 10
233.49977113593189
 20
274.69999999999891
 30
0.0
 11
-11.500000000007271
 21
274.69999999999891
 31
0.0
  0
LINE
  5
9653C
  8
OUTLINE
 10
233.49977113593189
 20
310.60000000000031
 30
0.0
 11
-11.500000000007271
 21
310.60000000000031
 31
0.0
  0
LINE
  5
9653D
  8
OUTLINE
 10
233.49977113593189
 20
254.69999999999891
 30
0.0
 11
-11.500000000007271
 21
254.69999999999891
 31
0.0
  0
LINE
  5
9653E
  8
OUTLINE
 10
30.438189822623819
 20
151.65000000000319
 30
0.0
 11
164.16181017736741
 21
151.65000000000319
 31
0.0
  0
LINE
  5
9653F
  8
OUTLINE
 10
30.438189822623819
 20
202.45000000000431
 30
0.0
 11
164.16181017736741
 21
202.45000000000431
 31
0.0
  0
LINE
  5
96540
  8
OUTLINE
 10
17.099999999996719
 20
290.60000000000031
 30
0.0
 11
17.099999999996719
 21
316.05000000000098
 31
0.0
  0
LINE
  5
96541
  8
OUTLINE
 10
-28.199999999995271
 20
298.2516494000065
 30
0.0
 11
-28.199999999995271
 21
307.50000000000182
 31
0.0
  0
ARC
  5
96542
  8
OUTLINE
 10
-11.50000000000181
 20
312.6500000000014
 30
0.0
 40
57.950000000002099
 50
180.0
 51
270.0
  0
ARC
  5
96543
  8
OUTLINE
 10
-11.500000000007271
 20
312.6500000000014
 30
0.0
 40
22.050000000000178
 50
180.0
 51
270.0
  0
ARC
  5
96544
  8
OUTLINE
 10
-11.50000000000545
 20
312.6500000000014
 30
0.0
 40
37.95000000000072
 50
180.0
 51
270.0
  0
LINE
  5
96545
  8
OUTLINE
 10
10.799999999999271
 20
193.35000000000389
 30
0.0
 11
-4.2000000000043647
 21
193.35000000000389
 31
0.0
  0
LINE
  5
96546
  8
OUTLINE
 10
10.799999999999271
 20
160.75000000000179
 30
0.0
 11
-4.2000000000043647
 21
160.75000000000179
 31
0.0
  0
LINE
  5
96547
  8
OUTLINE
 10
-13.500000000003631
 20
257.05000000000109
 30
0.0
 11
19.099999999996719
 21
257.05000000000109
 31
0.0
  0
ARC
  5
96548
  8
OUTLINE
 10
62.799999999988351
 20
237.04999999999919
 30
0.0
 40
74.299999999992338
 50
180.0
 51
216.02627004643489
  0
LINE
  5
96549
  8
OUTLINE
 10
-4.2000000000043647
 20
160.75000000000179
 30
0.0
 11
-4.2000000000043647
 21
193.35000000000389
 31
0.0
  0
LINE
  5
9654A
  8
OUTLINE
 10
-11.500000000003631
 20
257.05000000000109
 30
0.0
 11
-11.500000000003631
 21
237.05000000000291
 31
0.0
  0
LINE
  5
9654B
  8
OUTLINE
 10
-13.500000000003631
 20
274.75273756588649
 30
0.0
 11
-13.500000000003631
 21
257.05000000000109
 31
0.0
  0
LINE
  5
9654C
  8
OUTLINE
 10
-68.200000000004366
 20
162.75000000000179
 30
0.0
 11
-68.200000000004366
 21
161.04999999999919
 31
0.0
  0
LINE
  5
9654D
  8
OUTLINE
 10
-68.200000000002547
 20
138.05000000000101
 30
0.0
 11
-68.200000000002547
 21
135.05000000000101
 31
0.0
  0
LINE
  5
9654E
  8
OUTLINE
 10
-45.200000000002539
 20
135.05000000000101
 30
0.0
 11
-45.200000000002539
 21
138.05000000000101
 31
0.0
  0
LINE
  5
9654F
  8
OUTLINE
 10
-45.200000000002539
 20
138.05000000000101
 30
0.0
 11
-65.200000000002547
 21
138.05000000000101
 31
0.0
  0
LINE
  5
96550
  8
OUTLINE
 10
-65.200000000002547
 20
138.05000000000101
 30
0.0
 11
-65.200000000002547
 21
141.05000000000101
 31
0.0
  0
LINE
  5
96551
  8
OUTLINE
 10
-52.700000000002547
 20
121.2306229693385
 30
0.0
 11
-52.700000000002547
 21
151.9244612393467
 31
0.0
  0
LINE
  5
96552
  8
OUTLINE
 10
-68.200000000004366
 20
201.04999999999919
 30
0.0
 11
-68.200000000004366
 21
191.35000000136461
 31
0.0
  0
LINE
  5
96553
  8
OUTLINE
 10
-70.920943807030199
 20
201.04999999999919
 30
0.0
 11
-70.920943807030199
 21
237.05000000000101
 31
0.0
  0
LINE
  5
96554
  8
OUTLINE
 10
-84.200000000002547
 20
201.04999999999919
 30
0.0
 11
-84.200000000002547
 21
237.05000000000101
 31
0.0
  0
LINE
  5
96555
  8
OUTLINE
 10
-77.560471903516373
 20
201.04999999999919
 30
0.0
 11
-77.560471903516373
 21
237.05000000000101
 31
0.0
  0
LINE
  5
96556
  8
OUTLINE
 10
-84.200000000002547
 20
162.75000000000179
 30
0.0
 11
-4.2000000000043647
 21
162.75000000000179
 31
0.0
  0
LINE
  5
96557
  8
OUTLINE
 10
-84.200000000002547
 20
191.35000000136461
 30
0.0
 11
-4.2000000000043647
 21
191.35000000136461
 31
0.0
  0
ARC
  5
96558
  8
OUTLINE
 10
30.438189822618369
 20
177.39002744556271
 30
0.0
 40
25.740027445562649
 50
220.27560696514149
 51
270.00000000002598
  0
ARC
  5
96559
  8
OUTLINE
 10
30.438189822618369
 20
176.709972554443
 30
0.0
 40
25.740027445562649
 50
90.0
 51
139.72439303485839
  0
LINE
  5
9655A
  8
OUTLINE
 10
17.099999999996719
 20
257.05000000000109
 30
0.0
 11
17.099999999996719
 21
237.05000000000291
 31
0.0
  0
ARC
  5
9655B
  8
OUTLINE
 10
62.79999999999017
 20
237.0499999999974
 30
0.0
 40
45.699999999993238
 50
180.0
 51
226.9143912799633
  0
LINE
  5
9655C
  8
OUTLINE
 10
19.099999999996719
 20
274.69999999999891
 30
0.0
 11
19.099999999996719
 21
257.05000000000109
 31
0.0
  0
ARC
  5
9655D
  8
OUTLINE
 10
2.799999999995634
 20
500.05000000000109
 30
0.0
 40
12.700000000000729
 50
0.000000000000007
 51
180.0
  0
ARC
  5
9655E
  8
OUTLINE
 10
2.799999999997453
 20
500.05000000000109
 30
0.0
 40
14.20000000000203
 50
333.4271355277869
 51
206.5728644722131
  0
LINE
  5
9655F
  8
OUTLINE
 10
19.099999999996719
 20
339.05000000000098
 30
0.0
 11
-13.500000000003631
 21
339.05000000000098
 31
0.0
  0
LINE
  5
96560
  8
OUTLINE
 10
-4.79210115844944
 20
512.05000000000109
 30
0.0
 11
-19.200000000004358
 21
512.05000000000109
 31
0.0
  0
LINE
  5
96561
  8
OUTLINE
 10
-13.20000000000436
 20
488.05000000000109
 30
0.0
 11
-13.20000000000436
 21
477.05000000000098
 31
0.0
  0
LINE
  5
96562
  8
OUTLINE
 10
-9.9000000000032742
 20
488.05000000000109
 30
0.0
 11
-19.200000000004358
 21
488.05000000000109
 31
0.0
  0
LINE
  5
96563
  8
OUTLINE
 10
-9.9000000000032742
 20
477.05000000000098
 30
0.0
 11
-13.20000000000436
 21
477.05000000000098
 31
0.0
  0
LINE
  5
96564
  8
OUTLINE
 10
-19.200000000004358
 20
512.05000000000109
 30
0.0
 11
-19.200000000004358
 21
488.05000000000109
 31
0.0
  0
LINE
  5
96565
  8
OUTLINE
 10
-13.500000000003631
 20
318.05000000000098
 30
0.0
 11
-11.500000000003631
 21
316.05000000000098
 31
0.0
  0
LINE
  5
96566
  8
OUTLINE
 10
-11.50000000000545
 20
316.05000000000098
 30
0.0
 11
-11.50000000000545
 21
310.50000000000182
 31
0.0
  0
LINE
  5
96567
  8
OUTLINE
 10
-28.199999999995271
 20
307.50000000000182
 30
0.0
 11
-14.50000000000545
 21
307.50000000000182
 31
0.0
  0
ARC
  5
96568
  8
OUTLINE
 10
-14.50000000000545
 20
310.50000000000182
 30
0.0
 40
2.9999999999995448
 50
270.0
 51
0.000000000000007
  0
LINE
  5
96569
  8
OUTLINE
 10
-32.523320384761973
 20
306.00000000000182
 30
0.0
 11
-28.199999999997079
 21
306.00000000000182
 31
0.0
  0
LINE
  5
9656A
  8
OUTLINE
 10
-13.500000000003631
 20
318.05000000000098
 30
0.0
 11
-13.500000000003631
 21
339.05000000000098
 31
0.0
  0
LINE
  5
9656B
  8
OUTLINE
 10
-11.500000000003631
 20
339.05000000000098
 30
0.0
 11
-9.9000000000050932
 21
340.64999999999782
 31
0.0
  0
LINE
  5
9656C
  8
OUTLINE
 10
-9.9000000000050932
 20
347.20000000000073
 30
0.0
 11
-9.9000000000050932
 21
340.64999999999782
 31
0.0
  0
LINE
  5
9656D
  8
OUTLINE
 10
-13.549999999999271
 20
312.64999999999958
 30
0.0
 11
-13.549999999999271
 21
347.20000000000073
 31
0.0
  0
ARC
  5
9656E
  8
OUTLINE
 10
-11.50000000000545
 20
312.6500000000014
 30
0.0
 40
2.0500000000010901
 50
180.0
 51
270.0
  0
LINE
  5
9656F
  8
OUTLINE
 10
-24.0
 20
463.4000000000014
 30
0.0
 11
-24.0
 21
500.8136606355892
 31
0.0
  0
LINE
  5
96570
  8
OUTLINE
 10
-9.9000000000032742
 20
500.05000000000109
 30
0.0
 11
-9.9000000000032742
 21
463.20000000000073
 31
0.0
  0
LINE
  5
96571
  8
OUTLINE
 10
-57.800000000001091
 20
502.0
 30
0.0
 11
-36.399999999999629
 21
502.0
 31
0.0
  0
ARC
  5
96572
  8
OUTLINE
 10
-49.999999999998181
 20
500.81366063558738
 30
0.0
 40
9.0000000000009095
 50
90.0
 51
180.0
  0
LINE
  5
96573
  8
OUTLINE
 10
-39.138530450709361
 20
510.55691854760869
 30
0.0
 11
-39.138530450709361
 21
511.6500000000014
 31
0.0
  0
LINE
  5
96574
  8
OUTLINE
 10
-47.238460764343472
 20
509.81366063558738
 30
0.0
 11
-47.238460764343472
 21
510.55691854760869
 31
0.0
  0
LINE
  5
96575
  8
OUTLINE
 10
-43.861469549290632
 20
510.55691854760869
 30
0.0
 11
-43.861469549290632
 21
511.6500000000014
 31
0.0
  0
LINE
  5
96576
  8
OUTLINE
 10
-39.138530450709361
 20
511.6500000000014
 30
0.0
 11
-43.861469549290632
 21
511.6500000000014
 31
0.0
  0
LINE
  5
96577
  8
OUTLINE
 10
-35.761539235660159
 20
509.81366063558738
 30
0.0
 11
-35.761539235660159
 21
510.55691854760869
 31
0.0
  0
LINE
  5
96578
  8
OUTLINE
 10
-33.0
 20
509.8136606355892
 30
0.0
 11
-50.0
 21
509.8136606355892
 31
0.0
  0
LINE
  5
96579
  8
OUTLINE
 10
-35.761539235660159
 20
510.55691854760869
 30
0.0
 11
-47.238460764343472
 21
510.55691854760869
 31
0.0
  0
LINE
  5
9657A
  8
OUTLINE
 10
-60.400000000001448
 20
480.29999999999922
 30
0.0
 11
-57.800000000001091
 21
482.9000000000014
 31
0.0
  0
LINE
  5
9657B
  8
OUTLINE
 10
-36.399999999999629
 20
482.9000000000014
 30
0.0
 11
-57.800000000001091
 21
482.9000000000014
 31
0.0
  0
LINE
  5
9657C
  8
OUTLINE
 10
-60.399999999999629
 20
480.29999999999922
 30
0.0
 11
-33.799999999999272
 21
480.29999999999922
 31
0.0
  0
LINE
  5
9657D
  8
OUTLINE
 10
-33.799999999999272
 20
480.29999999999922
 30
0.0
 11
-36.399999999999629
 21
482.9000000000014
 31
0.0
  0
LINE
  5
9657E
  8
OUTLINE
 10
-57.800000000001091
 20
482.9000000000014
 30
0.0
 11
-57.800000000001091
 21
502.0
 31
0.0
  0
LINE
  5
9657F
  8
OUTLINE
 10
-36.399999999999629
 20
482.9000000000014
 30
0.0
 11
-36.399999999999629
 21
502.0
 31
0.0
  0
LINE
  5
96580
  8
OUTLINE
 10
-45.899999999999629
 20
458.49999999999989
 30
0.0
 11
-45.899999999999629
 21
385.0
 31
0.0
  0
LINE
  5
96581
  8
OUTLINE
 10
-48.300000000001091
 20
458.49999999999989
 30
0.0
 11
-48.300000000001091
 21
385.0
 31
0.0
  0
LINE
  5
96582
  8
OUTLINE
 10
-72.899999999999636
 20
388.19999999999891
 30
0.0
 11
-69.899999999999636
 21
387.19999999999891
 31
0.0
  0
LINE
  5
96583
  8
OUTLINE
 10
-69.899999999999636
 20
382.79999999999922
 30
0.0
 11
-72.899999999999636
 21
381.79999999999922
 31
0.0
  0
LINE
  5
96584
  8
OUTLINE
 10
-69.899999999999636
 20
387.19999999999891
 30
0.0
 11
-59.899999999999629
 21
387.19999999999891
 31
0.0
  0
LINE
  5
96585
  8
OUTLINE
 10
-59.899999999999629
 20
387.19999999999891
 30
0.0
 11
-59.899999999999629
 21
382.79999999999922
 31
0.0
  0
LINE
  5
96586
  8
OUTLINE
 10
-69.899999999999636
 20
382.79999999999922
 30
0.0
 11
-59.899999999999629
 21
382.79999999999922
 31
0.0
  0
ARC
  5
96587
  8
OUTLINE
 10
-47.100000000000357
 20
385.0
 30
0.0
 40
1.200000000000728
 50
180.0
 51
0.000000000000007
  0
LINE
  5
96588
  8
OUTLINE
 10
-48.300000000001091
 20
386.19999999999891
 30
0.0
 11
-59.899999999999629
 21
386.19999999999891
 31
0.0
  0
LINE
  5
96589
  8
OUTLINE
 10
-47.100000000000357
 20
383.79999999999922
 30
0.0
 11
-59.899999999999629
 21
383.79999999999922
 31
0.0
  0
ARC
  5
9658A
  8
OUTLINE
 10
-57.099999999998552
 20
401.39999999999782
 30
0.0
 40
8.7999999999976808
 50
270.0
 51
0.000000000000007
  0
ARC
  5
9658B
  8
OUTLINE
 10
-57.099999999998552
 20
401.39999999999412
 30
0.0
 40
11.1999999999948
 50
270.0
 51
321.78678929829442
  0
LINE
  5
9658C
  8
OUTLINE
 10
-49.450000000000728
 20
312.64999999999958
 30
0.0
 11
-49.450000000000728
 21
347.20000000000073
 31
0.0
  0
LINE
  5
9658D
  8
OUTLINE
 10
-69.450000000000728
 20
312.64999999999958
 30
0.0
 11
-69.450000000000728
 21
347.20000000000073
 31
0.0
  0
LINE
  5
9658E
  8
OUTLINE
 10
-33.549999999999272
 20
312.64999999999958
 30
0.0
 11
-33.549999999999272
 21
347.20000000000073
 31
0.0
  0
LINE
  5
9658F
  8
OUTLINE
 10
-69.399999999999636
 20
457.0
 30
0.0
 11
-69.399999999999636
 21
437.0
 31
0.0
  0
LINE
  5
96590
  8
OUTLINE
 10
-67.100000000000364
 20
437.0
 30
0.0
 11
-69.399999999999636
 21
437.0
 31
0.0
  0
LINE
  5
96591
  8
OUTLINE
 10
-52.100000000000357
 20
458.49999999999989
 30
0.0
 11
-42.100000000000357
 21
458.49999999999989
 31
0.0
  0
LINE
  5
96592
  8
OUTLINE
 10
-42.100000000000357
 20
468.5
 30
0.0
 11
-42.100000000000357
 21
458.49999999999989
 31
0.0
  0
LINE
  5
96593
  8
OUTLINE
 10
-52.100000000000357
 20
468.5
 30
0.0
 11
-52.100000000000357
 21
458.49999999999989
 31
0.0
  0
LINE
  5
96594
  8
OUTLINE
 10
-37.100000000000357
 20
473.29999999999922
 30
0.0
 11
-37.100000000000357
 21
470.5
 31
0.0
  0
ARC
  5
96595
  8
OUTLINE
 10
-39.100000000000357
 20
470.49999999999818
 30
0.0
 40
1.9999999999990901
 50
269.99999999997391
 51
0.000000000000007
  0
LINE
  5
96596
  8
OUTLINE
 10
-39.100000000000357
 20
468.5
 30
0.0
 11
-55.100000000000371
 21
468.5
 31
0.0
  0
LINE
  5
96597
  8
OUTLINE
 10
-57.100000000000357
 20
473.29999999999922
 30
0.0
 11
-57.100000000000357
 21
470.5
 31
0.0
  0
ARC
  5
96598
  8
OUTLINE
 10
-55.100000000000371
 20
470.49999999999818
 30
0.0
 40
1.9999999999990901
 50
180.0
 51
270.00000000002598
  0
LINE
  5
96599
  8
OUTLINE
 10
-67.100000000000364
 20
463.20000000000073
 30
0.0
 11
-52.100000000000357
 21
463.20000000000073
 31
0.0
  0
LINE
  5
9659A
  8
OUTLINE
 10
-33.799999999999272
 20
473.29999999999922
 30
0.0
 11
-60.399999999999629
 21
473.29999999999922
 31
0.0
  0
LINE
  5
9659B
  8
OUTLINE
 10
-60.399999999999629
 20
473.29999999999922
 30
0.0
 11
-60.399999999999629
 21
480.29999999999922
 31
0.0
  0
LINE
  5
9659C
  8
OUTLINE
 10
-33.799999999999272
 20
473.29999999999922
 30
0.0
 11
-33.799999999999272
 21
480.29999999999922
 31
0.0
  0
LINE
  5
9659D
  8
OUTLINE
 10
-59.0
 20
463.4000000000014
 30
0.0
 11
-59.0
 21
500.8136606355892
 31
0.0
  0
ARC
  5
9659E
  8
OUTLINE
 10
-33.000000000001812
 20
500.81366063558738
 30
0.0
 40
9.0000000000009095
 50
0.000000000000007
 51
90.0
  0
LINE
  5
9659F
  8
OUTLINE
 10
10.39210115844798
 20
512.05000000000109
 30
0.0
 11
24.799999999995631
 21
512.05000000000109
 31
0.0
  0
LINE
  5
965A0
  8
OUTLINE
 10
18.799999999995631
 20
488.05000000000109
 30
0.0
 11
18.799999999995631
 21
477.05000000000098
 31
0.0
  0
LINE
  5
965A1
  8
OUTLINE
 10
24.799999999995631
 20
488.05000000000109
 30
0.0
 11
15.49999999999636
 21
488.05000000000109
 31
0.0
  0
LINE
  5
965A2
  8
OUTLINE
 10
18.799999999995631
 20
477.05000000000098
 30
0.0
 11
15.49999999999636
 21
477.05000000000098
 31
0.0
  0
LINE
  5
965A3
  8
OUTLINE
 10
24.799999999995631
 20
488.05000000000109
 30
0.0
 11
24.799999999995631
 21
512.05000000000109
 31
0.0
  0
LINE
  5
965A4
  8
OUTLINE
 10
19.099999999996719
 20
318.05000000000098
 30
0.0
 11
17.099999999996719
 21
316.05000000000098
 31
0.0
  0
LINE
  5
965A5
  8
OUTLINE
 10
19.099999999996719
 20
318.05000000000098
 30
0.0
 11
19.099999999996719
 21
339.05000000000098
 31
0.0
  0
LINE
  5
965A6
  8
OUTLINE
 10
17.0999999999949
 20
339.05000000000098
 30
0.0
 11
15.49999999999636
 21
340.64999999999782
 31
0.0
  0
LINE
  5
965A7
  8
OUTLINE
 10
15.49999999999636
 20
347.20000000000073
 30
0.0
 11
15.49999999999636
 21
340.64999999999782
 31
0.0
  0
LINE
  5
965A8
  8
OUTLINE
 10
15.49999999999636
 20
500.05000000000109
 30
0.0
 11
15.49999999999636
 21
463.20000000000073
 31
0.0
  0
ARC
  5
965A9
  8
OUTLINE
 10
233.49977113593189
 20
312.6500000000014
 30
0.0
 40
22.049999999999962
 50
270.0
 51
0.000000000000007
  0
ARC
  5
965AA
  8
OUTLINE
 10
164.16181017737651
 20
177.39002744556271
 30
0.0
 40
25.740027445562649
 50
270.0
 51
319.72439303485839
  0
ARC
  5
965AB
  8
OUTLINE
 10
164.1618101773729
 20
176.70997255443939
 30
0.0
 40
25.740027445567652
 50
40.275606965141549
 51
90.0
  0
LINE
  5
965AC
  8
OUTLINE
 10
198.79999999999561
 20
160.75000000000361
 30
0.0
 11
198.79999999999561
 21
193.35000000000389
 31
0.0
  0
LINE
  5
965AD
  8
OUTLINE
 10
183.79999999999561
 20
160.75000000000179
 30
0.0
 11
198.79999999999561
 21
160.75000000000179
 31
0.0
  0
LINE
  5
965AE
  8
OUTLINE
 10
183.79999999999561
 20
193.35000000000389
 30
0.0
 11
198.79999999999561
 21
193.35000000000389
 31
0.0
  0
LINE
  5
965AF
  8
OUTLINE
 10
255.54977113593119
 20
347.20000000000073
 30
0.0
 11
255.54977113593119
 21
312.64999999999958
 31
0.0
  0
ARC
  5
965B0
  8
OUTLINE
 10
233.4997711359301
 20
312.6500000000014
 30
0.0
 40
2.0500000000010901
 50
270.00000000005213
 51
359.99999999989581
  0
LINE
  5
965B1
  8
OUTLINE
 10
235.54977113593119
 20
347.20000000000073
 30
0.0
 11
235.54977113593119
 21
312.64999999999958
 31
0.0
  0
LINE
  5
965B2
  8
OUTLINE
 10
224.4832670283995
 20
463.20000000000073
 30
0.0
 11
224.4832670283995
 21
467.70000000000073
 31
0.0
  0
LINE
  5
965B3
  8
OUTLINE
 10
242.4997713229495
 20
467.70000000000073
 30
0.0
 11
243.4997713229495
 21
475.70000000000073
 31
0.0
  0
LINE
  5
965B4
  8
OUTLINE
 10
204.4832958627685
 20
463.20000000000073
 30
0.0
 11
204.4832958627685
 21
495.70000000000249
 31
0.0
  0
LINE
  5
965B5
  8
OUTLINE
 10
-18.700000000004358
 20
524.05000000000098
 30
0.0
 11
24.299999999995631
 21
524.05000000000098
 31
0.0
  0
LINE
  5
965B6
  8
OUTLINE
 10
-18.700000000004358
 20
534.05000000000109
 30
0.0
 11
24.299999999995631
 21
534.05000000000109
 31
0.0
  0
LINE
  5
965B7
  8
OUTLINE
 10
-17.200000000004358
 20
539.05000000000098
 30
0.0
 11
22.799999999995631
 21
539.05000000000098
 31
0.0
  0
LINE
  5
965B8
  8
OUTLINE
 10
-17.200000000004358
 20
540.55000000000098
 30
0.0
 11
22.799999999995631
 21
540.55000000000098
 31
0.0
  0
LINE
  5
965B9
  8
OUTLINE
 10
-18.700000000004358
 20
524.05000000000098
 30
0.0
 11
-18.700000000004358
 21
534.05000000000109
 31
0.0
  0
LINE
  5
965BA
  8
OUTLINE
 10
-14.70000000000436
 20
534.05000000000109
 30
0.0
 11
-14.70000000000436
 21
539.05000000000098
 31
0.0
  0
LINE
  5
965BB
  8
OUTLINE
 10
-17.200000000004358
 20
540.55000000000098
 30
0.0
 11
-17.200000000004358
 21
539.05000000000098
 31
0.0
  0
LINE
  5
965BC
  8
OUTLINE
 10
-14.70000000000436
 20
550.0
 30
0.0
 11
-14.70000000000436
 21
540.55000000000098
 31
0.0
  0
LINE
  5
965BD
  8
OUTLINE
 10
-69.399999999999636
 20
547.0
 30
0.0
 11
-69.399999999999636
 21
549.29999999999927
 31
0.0
  0
LINE
  5
965BE
  8
OUTLINE
 10
24.299999999995631
 20
534.05000000000109
 30
0.0
 11
24.299999999995631
 21
524.05000000000098
 31
0.0
  0
LINE
  5
965BF
  8
OUTLINE
 10
22.799999999995631
 20
539.05000000000098
 30
0.0
 11
22.799999999995631
 21
540.55000000000098
 31
0.0
  0
LINE
  5
965C0
  8
OUTLINE
 10
20.299999999995631
 20
534.05000000000109
 30
0.0
 11
20.299999999995631
 21
539.05000000000098
 31
0.0
  0
LINE
  5
965C1
  8
OUTLINE
 10
20.299999999995631
 20
550.0
 30
0.0
 11
20.299999999995631
 21
540.55000000000098
 31
0.0
  0
ARC
  5
965C2
  8
OUTLINE
 10
-67.400000000001455
 20
867.54999999999916
 30
0.0
 40
11.0
 50
0.000000000000007
 51
180.0
  0
LINE
  5
965C3
  8
OUTLINE
 10
-80.900000000001455
 20
884.54999999999916
 30
0.0
 11
-53.900000000001462
 21
884.54999999999916
 31
0.0
  0
CIRCLE
  5
965C4
  8
OUTLINE
 10
-67.400000000001455
 20
809.54999999999916
 30
0.0
 40
7.0
  0
LINE
  5
965C5
  8
OUTLINE
 10
-59.400000000001462
 20
779.54999999999916
 30
0.0
 11
-75.400000000001455
 21
779.54999999999916
 31
0.0
  0
LINE
  5
965C6
  8
OUTLINE
 10
-59.400000000001462
 20
796.54999999999916
 30
0.0
 11
-75.400000000001455
 21
796.54999999999916
 31
0.0
  0
LINE
  5
965C7
  8
OUTLINE
 10
-56.400000000001462
 20
786.54999999999916
 30
0.0
 11
-78.400000000001455
 21
786.54999999999916
 31
0.0
  0
LINE
  5
965C8
  8
OUTLINE
 10
-53.900000000001462
 20
774.54999999999916
 30
0.0
 11
-80.900000000001455
 21
774.54999999999916
 31
0.0
  0
ARC
  5
965C9
  8
OUTLINE
 10
-53.899999999999643
 20
880.55000000000098
 30
0.0
 40
3.9999999999995448
 50
0.000000000000007
 51
90.000000000026048
  0
LINE
  5
965CA
  8
OUTLINE
 10
-56.400000000001462
 20
796.54999999999916
 30
0.0
 11
-59.400000000001462
 21
796.54999999999916
 31
0.0
  0
LINE
  5
965CB
  8
OUTLINE
 10
-56.400000000001462
 20
799.54999999999916
 30
0.0
 11
-56.400000000001462
 21
782.54999999999916
 31
0.0
  0
ARC
  5
965CC
  8
OUTLINE
 10
-59.399999999999629
 20
799.54999999999916
 30
0.0
 40
2.9999999999995448
 50
270.0
 51
0.000000000000007
  0
ARC
  5
965CD
  8
OUTLINE
 10
-59.399999999999629
 20
782.54999999999916
 30
0.0
 40
2.9999999999995448
 50
270.0
 51
0.000000000000007
  0
ARC
  5
965CE
  8
OUTLINE
 10
-53.899999999999643
 20
778.54999999999916
 30
0.0
 40
3.9999999999990901
 50
270.0
 51
0.000000000000007
  0
LINE
  5
965CF
  8
OUTLINE
 10
-56.400000000001462
 20
867.54999999999916
 30
0.0
 11
-56.400000000001462
 21
799.54999999999916
 31
0.0
  0
LINE
  5
965D0
  8
OUTLINE
 10
-49.900000000001448
 20
880.54999999999927
 30
0.0
 11
-49.900000000001448
 21
778.54999999999916
 31
0.0
  0
ARC
  5
965D1
  8
OUTLINE
 10
-80.899999999999636
 20
880.54999999999745
 30
0.0
 40
4.0000000000022728
 50
90.000000000026048
 51
180.0
  0
LINE
  5
965D2
  8
OUTLINE
 10
-75.400000000001455
 20
796.54999999999916
 30
0.0
 11
-78.400000000001455
 21
796.54999999999916
 31
0.0
  0
LINE
  5
965D3
  8
OUTLINE
 10
-78.400000000001455
 20
782.54999999999916
 30
0.0
 11
-78.400000000001455
 21
799.54999999999916
 31
0.0
  0
ARC
  5
965D4
  8
OUTLINE
 10
-75.399999999999636
 20
799.55000000000291
 30
0.0
 40
3.000000000002728
 50
180.00000000010419
 51
269.99999999994782
  0
ARC
  5
965D5
  8
OUTLINE
 10
-75.399999999999636
 20
782.55000000000291
 30
0.0
 40
3.000000000002728
 50
180.00000000010419
 51
269.99999999994782
  0
ARC
  5
965D6
  8
OUTLINE
 10
-80.899999999999636
 20
778.55000000000291
 30
0.0
 40
4.0000000000022728
 50
180.0
 51
269.99999999997391
  0
LINE
  5
965D7
  8
OUTLINE
 10
-78.400000000001455
 20
867.54999999999916
 30
0.0
 11
-78.400000000001455
 21
799.54999999999916
 31
0.0
  0
LINE
  5
965D8
  8
OUTLINE
 10
-84.900000000001455
 20
778.54999999999916
 30
0.0
 11
-84.900000000001455
 21
880.54999999999927
 31
0.0
  0
LINE
  5
965D9
  8
OUTLINE
 10
394.0
 20
350.0
 30
0.0
 11
394.0
 21
83.0
 31
0.0
  0
LINE
  5
965DA
  8
OUTLINE
 10
397.0
 20
550.0
 30
0.0
 11
397.0
 21
0.0
 31
0.0
  0
LINE
  5
965DB
  8
OUTLINE
 10
297.0
 20
550.0
 30
0.0
 11
297.0
 21
80.0
 31
0.0
  0
LINE
  5
965DC
  8
OUTLINE
 10
300.0
 20
80.0
 30
0.0
 11
300.0
 21
550.0
 31
0.0
  0
LINE
  5
965DD
  8
OUTLINE
 10
397.0
 20
80.0
 30
0.0
 11
297.0
 21
80.0
 31
0.0
  0
LINE
  5
965DE
  8
OUTLINE
 10
400.0
 20
83.0
 30
0.0
 11
397.0
 21
83.0
 31
0.0
  0
ARC
  5
965DF
  8
OUTLINE
 10
397.00000000000182
 20
3.0
 30
0.0
 40
2.9999999999988631
 50
269.99999999997391
 51
0.000000000000007
  0
LINE
  5
965E0
  8
OUTLINE
 10
400.0
 20
3.0
 30
0.0
 11
400.0
 21
83.0
 31
0.0
  0
LINE
  5
965E1
  8
OUTLINE
 10
347.0
 20
350.0
 30
0.0
 11
347.0
 21
550.0
 31
0.0
  0
LINE
  5
965E2
  8
OUTLINE
 10
394.0
 20
349.99999999999812
 30
0.0
 11
394.0
 21
547.0
 31
0.0
  0
LINE
  5
965E3
  8
OUTLINE
 10
277.7997711359294
 20
550.0
 30
0.0
 11
277.7997711359294
 21
475.70000000000073
 31
0.0
  0
LINE
  5
965E4
  8
OUTLINE
 10
397.0
 20
350.0
 30
0.0
 11
346.99999999999812
 21
350.0
 31
0.0
  0
LINE
  5
965E5
  8
OUTLINE
 10
271.4497711359308
 20
347.20000000000073
 30
0.0
 11
271.4497711359308
 21
312.64999999999958
 31
0.0
  0
LINE
  5
965E6
  8
OUTLINE
 10
291.4497711359308
 20
347.20000000000073
 30
0.0
 11
291.4497711359308
 21
312.64999999999958
 31
0.0
  0
LINE
  5
965E7
  8
OUTLINE
 10
284.49977132294953
 20
467.70000000000073
 30
0.0
 11
283.49977132294953
 21
475.70000000000073
 31
0.0
  0
LINE
  5
965E8
  8
OUTLINE
 10
347.0
 20
547.0
 30
0.0
 11
394.0
 21
547.0
 31
0.0
  0
LINE
  5
965E9
  8
OUTLINE
 10
397.0
 20
1742.5
 30
0.0
 11
-397.0
 21
1742.5
 31
0.0
  0
LINE
  5
965EA
  8
OUTLINE
 10
402.0
 20
1750.0
 30
0.0
 11
-402.0
 21
1750.0
 31
0.0
  0
LINE
  5
965EB
  8
OUTLINE
 10
400.0
 20
1748.0
 30
0.0
 11
-400.0
 21
1748.0
 31
0.0
  0
LINE
  5
965EC
  8
OUTLINE
 10
397.0
 20
1165.0
 30
0.0
 11
2.0
 21
1165.0
 31
0.0
  0
LINE
  5
965ED
  8
OUTLINE
 10
-397.0
 20
1172.5
 30
0.0
 11
397.0
 21
1172.5
 31
0.0
  0
LINE
  5
965EE
  8
OUTLINE
 10
-2.2000000000007272
 20
1165.0
 30
0.0
 11
-397.20000000000073
 21
1165.0
 31
0.0
  0
LINE
  5
965EF
  8
OUTLINE
 10
-397.0
 20
1742.5
 30
0.0
 11
-397.0
 21
1172.5
 31
0.0
  0
LINE
  5
965F0
  8
OUTLINE
 10
-253.78350400000079
 20
1077.8599719999979
 30
0.0
 11
-276.93745699999999
 21
1077.8599719999979
 31
0.0
  0
LINE
  5
965F1
  8
OUTLINE
 10
-276.93745699999999
 20
1066.372010999999
 30
0.0
 11
-253.78350400000079
 21
1066.372010999999
 31
0.0
  0
CIRCLE
  5
965F2
  8
OUTLINE
 10
-272.0
 20
968.30678499999885
 30
0.0
 40
10.0
  0
LINE
  5
965F3
  8
OUTLINE
 10
-255.0
 20
992.30678499999885
 30
0.0
 11
-289.0
 21
992.30678499999885
 31
0.0
  0
LINE
  5
965F4
  8
OUTLINE
 10
-177.0
 20
1080.0
 30
0.0
 11
-287.0
 21
1080.0
 31
0.0
  0
LINE
  5
965F5
  8
OUTLINE
 10
-167.0
 20
1090.0
 30
0.0
 11
-297.0
 21
1090.0
 31
0.0
  0
LINE
  5
965F6
  8
OUTLINE
 10
-287.0
 20
1041.0
 30
0.0
 11
-177.0
 21
1041.0
 31
0.0
  0
LINE
  5
965F7
  8
OUTLINE
 10
-297.0
 20
1031.0
 30
0.0
 11
-167.0
 21
1031.0
 31
0.0
  0
LINE
  5
965F8
  8
OUTLINE
 10
-289.0
 20
992.30678499999885
 30
0.0
 11
-289.0
 21
968.30678499999885
 31
0.0
  0
LINE
  5
965F9
  8
OUTLINE
 10
-276.93745699999999
 20
1077.8599719999979
 30
0.0
 11
-276.93745699999999
 21
1066.372010999999
 31
0.0
  0
LINE
  5
965FA
  8
OUTLINE
 10
-287.0
 20
1080.0
 30
0.0
 11
-287.0
 21
1041.0
 31
0.0
  0
LINE
  5
965FB
  8
OUTLINE
 10
-297.0
 20
1090.0
 30
0.0
 11
-297.0
 21
1031.0
 31
0.0
  0
LINE
  5
965FC
  8
OUTLINE
 10
-306.25
 20
1080.0
 30
0.0
 11
-337.74999999999989
 21
1080.0
 31
0.0
  0
LINE
  5
965FD
  8
OUTLINE
 10
-337.74999999999989
 20
1090.0
 30
0.0
 11
-306.25
 21
1090.0
 31
0.0
  0
LINE
  5
965FE
  8
OUTLINE
 10
-306.25
 20
980.0
 30
0.0
 11
-337.74999999999989
 21
980.0
 31
0.0
  0
LINE
  5
965FF
  8
OUTLINE
 10
-337.74999999999989
 20
990.0
 30
0.0
 11
-306.25
 21
990.0
 31
0.0
  0
LINE
  5
96600
  8
OUTLINE
 10
-306.25
 20
1030.0
 30
0.0
 11
-337.74999999999989
 21
1030.0
 31
0.0
  0
LINE
  5
96601
  8
OUTLINE
 10
-337.74999999999989
 20
1040.0
 30
0.0
 11
-306.25
 21
1040.0
 31
0.0
  0
LINE
  5
96602
  8
OUTLINE
 10
-306.25
 20
1090.0
 30
0.0
 11
-306.25
 21
1080.0
 31
0.0
  0
LINE
  5
96603
  8
OUTLINE
 10
-306.25
 20
990.0
 30
0.0
 11
-306.25
 21
980.0
 31
0.0
  0
LINE
  5
96604
  8
OUTLINE
 10
-306.25
 20
1040.0
 30
0.0
 11
-306.25
 21
1030.0
 31
0.0
  0
LINE
  5
96605
  8
OUTLINE
 10
-337.74999999999989
 20
1080.0
 30
0.0
 11
-337.74999999999989
 21
1090.0
 31
0.0
  0
CIRCLE
  5
96606
  8
OUTLINE
 10
-322.0
 20
968.30678499999885
 30
0.0
 40
6.0
  0
CIRCLE
  5
96607
  8
OUTLINE
 10
-322.0
 20
1068.3067849999979
 30
0.0
 40
6.0
  0
CIRCLE
  5
96608
  8
OUTLINE
 10
-322.0
 20
1018.3067849999979
 30
0.0
 40
6.0
  0
LINE
  5
96609
  8
OUTLINE
 10
-337.74999999999989
 20
980.0
 30
0.0
 11
-337.74999999999989
 21
990.0
 31
0.0
  0
LINE
  5
9660A
  8
OUTLINE
 10
-337.74999999999989
 20
1030.0
 30
0.0
 11
-337.74999999999989
 21
1040.0
 31
0.0
  0
LINE
  5
9660B
  8
OUTLINE
 10
-205.0
 20
968.30678499999885
 30
0.0
 11
-205.0
 21
992.30678499999885
 31
0.0
  0
CIRCLE
  5
9660C
  8
OUTLINE
 10
-222.0
 20
968.30678499999885
 30
0.0
 40
10.0
  0
LINE
  5
9660D
  8
OUTLINE
 10
-255.0
 20
968.30678499999885
 30
0.0
 11
-255.0
 21
992.30678499999885
 31
0.0
  0
LINE
  5
9660E
  8
OUTLINE
 10
-239.0
 20
992.30678499999885
 30
0.0
 11
-239.0
 21
968.30678499999885
 31
0.0
  0
LINE
  5
9660F
  8
OUTLINE
 10
-253.78350400000079
 20
1066.372010999999
 30
0.0
 11
-253.78350400000079
 21
1077.8599719999979
 31
0.0
  0
LINE
  5
96610
  8
OUTLINE
 10
-205.0
 20
992.30678499999885
 30
0.0
 11
-239.0
 21
992.30678499999885
 31
0.0
  0
LINE
  5
96611
  8
OUTLINE
 10
-177.0
 20
1041.0
 30
0.0
 11
-177.0
 21
1080.0
 31
0.0
  0
LINE
  5
96612
  8
OUTLINE
 10
-167.0
 20
1031.0
 30
0.0
 11
-167.0
 21
1090.0
 31
0.0
  0
LINE
  5
96613
  8
OUTLINE
 10
-402.0
 20
1725.0
 30
0.0
 11
-400.4000000000014
 21
1725.0
 31
0.0
  0
LINE
  5
96614
  8
OUTLINE
 10
-402.0
 20
1725.0
 30
0.0
 11
-402.0
 21
1750.0
 31
0.0
  0
LINE
  5
96615
  8
OUTLINE
 10
397.0
 20
1172.5
 30
0.0
 11
397.0
 21
1742.5
 31
0.0
  0
LINE
  5
96616
  8
OUTLINE
 10
397.0
 20
1163.400000000001
 30
0.0
 11
397.0
 21
1063.400000000001
 31
0.0
  0
LINE
  5
96617
  8
OUTLINE
 10
402.0
 20
1725.0
 30
0.0
 11
402.0
 21
1750.0
 31
0.0
  0
LINE
  5
96618
  8
OUTLINE
 10
402.0
 20
1725.0
 30
0.0
 11
400.39999999999958
 21
1725.0
 31
0.0
  0
ENDSEC
  0
EOF
