  0
SECTION
  2
HEADER
  9
$ACADVER
  1
AC1009
  9
$INSBASE
 10
0.0
 20
0.0
 30
0.0
  9
$EXTMIN
 10
-1329.5950835142171
 20
-466.66950454139442
 30
-0.0015258207003583
  9
$EXTMAX
 10
1179.4700941024601
 20
2489.7632415126059
 30
0.0000000349246037
  9
$LIMMIN
 10
-1476.0567943588969
 20
-869.26577936882666
  9
$LIMMAX
 10
1320.606233409329
 20
2776.3219242860719
  9
$ORTHOMODE
 70
     0
  9
$REGENMODE
 70
     1
  9
$FILLMODE
 70
     1
  9
$QTEXTMODE
 70
     0
  9
$MIRRTEXT
 70
     0
  9
$DRAGMODE
 70
     2
  9
$LTSCALE
 40
20.0
  9
$OSMODE
 70
   119
  9
$ATTMODE
 70
     1
  9
$TEXTSIZE
 40
64.0
  9
$TRACEWID
 40
0.05
  9
$TEXTSTYLE
  7
STANDARD
  9
$CLAYER
  8
SIZE
  9
$CELTYPE
  6
BYLAYER
  9
$CECOLOR
 62
   256
  9
$DIMSCALE
 40
1.0
  9
$DIMASZ
 40
12.0
  9
$DIMEXO
 40
5.0
  9
$DIMDLI
 40
10.0
  9
$DIMRND
 40
0.0
  9
$DIMDLE
 40
0.0
  9
$DIMEXE
 40
20.0
  9
$DIMTP
 40
0.0
  9
$DIMTM
 40
0.0
  9
$DIMTXT
 40
50.0
  9
$DIMCEN
 40
0.0
  9
$DIMTSZ
 40
0.0
  9
$DIMTOL
 70
     0
  9
$DIMLIM
 70
     0
  9
$DIMTIH
 70
     0
  9
$DIMTOH
 70
     0
  9
$DIMSE1
 70
     0
  9
$DIMSE2
 70
     0
  9
$DIMTAD
 70
     1
  9
$DIMZIN
 70
     0
  9
$DIMBLK
  1
DOTBLANK
  9
$DIMASO
 70
     1
  9
$DIMSHO
 70
     0
  9
$DIMPOST
  1

  9
$DIMAPOST
  1

  9
$DIMALT
 70
     0
  9
$DIMALTD
 70
     2
  9
$DIMALTF
 40
25.399999999999999
  9
$DIMLFAC
 40
1.0
  9
$DIMTOFL
 70
     1
  9
$DIMTVP
 40
0.0
  9
$DIMTIX
 70
     0
  9
$DIMSOXD
 70
     0
  9
$DIMSAH
 70
     0
  9
$DIMBLK1
  1

  9
$DIMBLK2
  1

  9
$DIMSTYLE
  2
STANDARD
  9
$DIMCLRD
 70
     0
  9
$DIMCLRE
 70
     0
  9
$DIMCLRT
 70
     0
  9
$DIMTFAC
 40
1.0
  9
$DIMGAP
 40
10.0
  9
$LUNITS
 70
     2
  9
$LUPREC
 70
     4
  9
$SKETCHINC
 40
0.1
  9
$FILLETRAD
 40
10.0
  9
$AUNITS
 70
     1
  9
$AUPREC
 70
     3
  9
$MENU
  1
ACAD
  9
$ELEVATION
 40
0.0
  9
$PELEVATION
 40
0.0
  9
$THICKNESS
 40
0.0
  9
$LIMCHECK
 70
     0
  9
$BLIPMODE
 70
     0
  9
$CHAMFERA
 40
0.0
  9
$CHAMFERB
 40
0.0
  9
$SKPOLY
 70
     0
  9
$TDCREATE
 40
2449761.4936226849
  9
$TDUPDATE
 40
2453822.5733005898
  9
$TDINDWG
 40
10.0573792708
  9
$TDUSRTIMER
 40
10.0573738542
  9
$USRTIMER
 70
     1
  9
$ANGBASE
 50
0.0
  9
$ANGDIR
 70
     0
  9
$PDMODE
 70
    35
  9
$PDSIZE
 40
20.0
  9
$PLINEWID
 40
0.0
  9
$COORDS
 70
     0
  9
$SPLFRAME
 70
     0
  9
$SPLINETYPE
 70
     6
  9
$SPLINESEGS
 70
     8
  9
$ATTDIA
 70
     0
  9
$ATTREQ
 70
     1
  9
$HANDLING
 70
-16383
  9
$HANDSEED
  5
9B071
  9
$SURFTAB1
 70
     6
  9
$SURFTAB2
 70
     6
  9
$SURFTYPE
 70
     6
  9
$SURFU
 70
     6
  9
$SURFV
 70
     6
  9
$UCSNAME
  2

  9
$UCSORG
 10
0.0
 20
0.0
 30
0.0
  9
$UCSXDIR
 10
1.0
 20
0.0
 30
0.0
  9
$UCSYDIR
 10
0.0
 20
1.0
 30
0.0
  9
$PUCSNAME
  2

  9
$PUCSORG
 10
0.0
 20
0.0
 30
0.0
  9
$PUCSXDIR
 10
1.0
 20
0.0
 30
0.0
  9
$PUCSYDIR
 10
0.0
 20
1.0
 30
0.0
  9
$USERI1
 70
     0
  9
$USERI2
 70
     0
  9
$USERI3
 70
     0
  9
$USERI4
 70
     0
  9
$USERI5
 70
     0
  9
$USERR1
 40
20.0
  9
$USERR2
 40
0.0
  9
$USERR3
 40
0.0
  9
$USERR4
 40
0.0
  9
$USERR5
 40
0.0
  9
$WORLDVIEW
 70
     1
  9
$SHADEDGE
 70
     3
  9
$SHADEDIF
 70
    70
  9
$TILEMODE
 70
     1
  9
$MAXACTVP
 70
    64
  9
$PLIMCHECK
 70
     0
  9
$PEXTMIN
 10
1.0000000000000000E+020
 20
1.0000000000000000E+020
 30
1.0000000000000000E+020
  9
$PEXTMAX
 10
-1.0000000000000000E+020
 20
-1.0000000000000000E+020
 30
-1.0000000000000000E+020
  9
$PLIMMIN
 10
0.0
 20
0.0
  9
$PLIMMAX
 10
12.0
 20
9.0
  9
$UNITMODE
 70
     0
  9
$VISRETAIN
 70
     1
  9
$PLINEGEN
 70
     0
  9
$PSLTSCALE
 70
     1
  0
ENDSEC
  0
SECTION
  2
TABLES
  0
TABLE
  2
VPORT
 70
     3
  0
VPORT
  2
*ACTIVE
 70
     0
 10
0.0
 20
0.0
 11
1.0
 21
1.0
 12
1687.782985988697
 22
1020.812402562743
 13
0.0
 23
0.0
 14
50.0
 24
50.0
 15
100.0
 25
100.0
 16
0.0
 26
0.0
 36
1.0
 17
0.0
 27
0.0
 37
0.0
 40
4789.4213941251282
 41
1.57544757033248
 42
50.0
 43
0.0
 44
0.0
 50
0.0
 51
0.0
 71
     0
 72
  1000
 73
     1
 74
     0
 75
     0
 76
     0
 77
     0
 78
     0
  0
ENDTAB
  0
TABLE
  2
LTYPE
 70
     2
  0
LTYPE
  2
CONTINUOUS
 70
     0
  3
実線
 72
    65
 73
     0
 40
0.0
  0
LTYPE
  2
DASHDOT
 70
     0
  3
____ _ ____ _ ____ _ ____ _ ____ _ ____ _ ____
 72
    65
 73
     4
 40
5.5
 49
4.0
 49
-0.6
 49
0.3
 49
-0.6
  0
ENDTAB
  0
TABLE
  2
LAYER
 70
    11
  0
LAYER
  2
0
 70
     0
 62
     7
  6
CONTINUOUS
  0
LAYER
  2
SIZE
 70
     0
 62
    30
  6
CONTINUOUS
  0
LAYER
  2
DETAIL
 70
     0
 62
     5
  6
CONTINUOUS
  0
LAYER
  2
BASIS
 70
     0
 62
     6
  6
DASHDOT
  0
LAYER
  2
NOTE
 70
     0
 62
     4
  6
CONTINUOUS
  0
LAYER
  2
ARRANGE
 70
     0
 62
     1
  6
CONTINUOUS
  0
LAYER
  2
FIX
 70
     0
 62
    11
  6
CONTINUOUS
  0
LAYER
  2
ETC
 70
     0
 62
    61
  6
CONTINUOUS
  0
LAYER
  2
DEFPOINTS
 70
     0
 62
     7
  6
CONTINUOUS
  0
LAYER
  2
OUTLINE
 70
     0
 62
     3
  6
CONTINUOUS
  0
LAYER
  2
SERVICESPACE
 70
     0
 62
     2
  6
DASHDOT
  0
ENDTAB
  0
TABLE
  2
STYLE
 70
     1
  0
STYLE
  2
STANDARD
 70
     0
 40
0.0
 41
0.9
 50
0.0
 71
     0
 42
64.0
  3
SIMPLEX
  4
BIGFONT
  0
ENDTAB
  0
TABLE
  2
VIEW
 70
     1
  0
VIEW
  2
ALL
 70
     0
 40
6056.2300320000013
 10
0.0
 20
58.11501599999999
 41
8400.0
 11
0.0
 21
0.0
 31
1.0
 12
0.0
 22
0.0
 32
0.0
 42
50.0
 43
0.0
 44
0.0
 50
0.0
 71
     0
  0
ENDTAB
  0
TABLE
  2
UCS
 70
     0
  0
ENDTAB
  0
TABLE
  2
APPID
 70
     1
  0
APPID
  2
ACAD
 70
     0
  0
ENDTAB
  0
TABLE
  2
DIMSTYLE
 70
     1
  0
DIMSTYLE
  2
STANDARD
 70
     0
  3

  4

  5

  6

  7

 40
1.0
 41
0.18
 42
0.0625
 43
0.38
 44
0.18
 45
0.0
 46
0.0
 47
0.0
 48
0.0
140
0.18
141
0.09
142
0.0
143
25.399999999999999
144
1.0
145
0.0
146
1.0
147
0.09
 71
     0
 72
     0
 73
     1
 74
     1
 75
     0
 76
     0
 77
     0
 78
     0
170
     0
171
     2
172
     0
173
     0
174
     0
175
     0
176
     0
177
     0
178
     0
  0
ENDTAB
  0
ENDSEC
  0
SECTION
  2
BLOCKS
  0
BLOCK
  8
0
  2
$MODEL_SPACE
 70
     0
 10
0.0
 20
0.0
 30
0.0
  3
$MODEL_SPACE
  1

  0
ENDBLK
  5
20
  8
0
  0
BLOCK
 67
     1
  8
0
  2
$PAPER_SPACE
 70
     0
 10
0.0
 20
0.0
 30
0.0
  3
$PAPER_SPACE
  1

  0
ENDBLK
  5
1C
 67
     1
  8
0
  0
BLOCK
  8
0
  2
_DOTBLANK
 70
     0
 10
0.0
 20
0.0
 30
0.0
  3
_DOTBLANK
  1

  0
CIRCLE
  5
53E7
  8
0
  6
BYBLOCK
 62
     0
 10
0.0
 20
0.0
 30
0.0
 40
0.5
  0
LINE
  5
53E8
  8
0
  6
BYBLOCK
 62
     0
 10
-0.5
 20
0.0
 30
0.0
 11
-1.0
 21
0.0
 31
0.0
  0
ENDBLK
  5
53EA
  8
0
  0
ENDSEC
  0
SECTION
  2
ENTITIES
  0
TEXT
  5
8AA3C
  8
NOTE
 10
-827.01369931224326
 20
-123.3291848024309
 30
0.0
 40
50.0
  1
AH 4-%%c24
 50
0.0000000000006247
 41
0.9
  0
LINE
  5
8AA3D
  8
NOTE
 10
-848.46450040498894
 20
-139.32230364114361
 30
0.0
 11
-479.05574633988181
 21
-139.32230364113451
 31
0.0
  0
LINE
  5
8AA3E
  8
NOTE
 10
-346.99981782444229
 20
0.0004174588993919
 30
0.0
 11
-479.05574633988181
 21
-139.32230364113451
 31
0.0
  0
LINE
  5
8AA3F
  8
NOTE
 10
-347.0
 20
0.000000000001819
 30
0.0
 11
-369.95268885403851
 21
-42.333236543563537
 31
0.0
  0
LINE
  5
8AA40
  8
NOTE
 10
-347.00005938725371
 20
0.0003796745622822
 30
0.0
 11
-388.04428929179988
 21
-25.184934169563348
 31
0.0
  0
LINE
  5
9473C
  8
BASIS
 10
59.299999999999272
 20
71.988556287702522
 30
0.0
 11
59.299999999999272
 21
297.11144371230142
 31
0.0
  0
LINE
  5
94742
  8
BASIS
 10
-299.70000000000073
 20
297.1114361292129
 30
0.0
 11
-299.70000000000073
 21
71.988548704614004
 31
0.0
  0
LINE
  5
947E6
  8
BASIS
 10
-53.261443712302928
 20
184.55000000000109
 30
0.0
 11
171.86144371229599
 21
184.55000000000109
 31
0.0
  0
LINE
  5
947E7
  8
BASIS
 10
169.27945488118519
 20
781.55000000000098
 30
0.0
 11
-50.679454881186757
 21
781.55000000000098
 31
0.0
  0
LINE
  5
947EB
  8
BASIS
 10
-412.26144371230112
 20
184.55000000000109
 30
0.0
 11
-187.13855628770389
 21
184.55000000000109
 31
0.0
  0
LINE
  5
947F5
  8
BASIS
 10
-412.26144371230112
 20
781.55000000000098
 30
0.0
 11
-187.13855628770389
 21
781.55000000000098
 31
0.0
  0
LINE
  5
94802
  8
BASIS
 10
-299.70000000000073
 20
894.11143612921285
 30
0.0
 11
-299.70000000000073
 21
668.988548704614
 31
0.0
  0
LINE
  5
9482C
  8
BASIS
 10
59.299999999999272
 20
668.98855628770252
 30
0.0
 11
59.299999999999272
 21
894.11144371230148
 31
0.0
  0
LINE
  5
94EA8
  8
BASIS
 10
0.0
 20
1804.075232614179
 30
0.0
 11
0.0
 21
-19.999999999998181
 31
0.0
  0
LINE
  5
94F01
  8
SERVICESPACE
 10
-400.0
 20
1750.0000000000009
 30
0.0
 11
400.0
 21
1750.0
 31
0.0
  0
LINE
  5
94F02
  8
SERVICESPACE
 10
-400.0
 20
2250.0000000000009
 30
0.0
 11
400.0
 21
2250.0
 31
0.0
  0
LINE
  5
94F03
  8
SERVICESPACE
 10
-400.0
 20
1750.0000000000009
 30
0.0
 11
-400.0
 21
2250.0000000000009
 31
0.0
  0
LINE
  5
94F04
  8
SERVICESPACE
 10
400.0
 20
1750.0
 30
0.0
 11
400.0
 21
2250.0
 31
0.0
  0
LINE
  5
94F05
  8
SERVICESPACE
 10
-400.0
 20
1750.0000000000009
 30
0.0
 11
400.0
 21
2250.0
 31
0.0
  0
LINE
  5
94F06
  8
SERVICESPACE
 10
-400.0
 20
2250.0000000000009
 30
0.0
 11
400.0
 21
1750.0
 31
0.0
  0
TEXT
  5
94F07
  8
NOTE
  6
CONTINUOUS
 10
-263.8485378130826
 20
2181.4341854198442
 30
0.0
 40
60.0
  1
サービススペース
 50
0.0000000000006247
 41
0.9
  0
TEXT
  5
94F08
  8
ETC
  6
CONTINUOUS
 10
639.13733216444405
 20
2425.2278574792231
 30
0.0
 40
64.0
  1
CBCL4942
 41
0.9
  0
LINE
  5
94F0A
  8
NOTE
 10
-293.0
 20
0.0003450171370787
 30
0.0
 11
-401.0
 21
0.0003450171370787
 31
0.0
  0
CIRCLE
  5
94F0B
  8
FIX
 10
-347.0
 20
0.000000000001819
 30
0.0
 40
8.0
  0
LINE
  5
94F0C
  8
NOTE
 10
-347.0
 20
-53.999654982862921
 30
0.0
 11
-347.0
 21
54.000345017137079
 31
0.0
  0
LINE
  5
94F0D
  8
NOTE
 10
401.0
 20
0.0
 30
0.0
 11
293.0
 21
0.0
 31
0.0
  0
CIRCLE
  5
94F0E
  8
FIX
 10
347.0
 20
-0.0003450171352597
 30
0.0
 40
8.0
  0
LINE
  5
94F0F
  8
NOTE
 10
347.0
 20
-54.0
 30
0.0
 11
347.0
 21
54.0
 31
0.0
  0
LINE
  5
94F10
  8
NOTE
 10
-299.70000000000073
 20
130.54999241691431
 30
0.0
 11
-299.70000000000073
 21
238.54999241691439
 31
0.0
  0
LINE
  5
94F11
  8
NOTE
 10
-245.7000000000007
 20
184.54999241691431
 30
0.0
 11
-353.70000000000073
 21
184.54999241691431
 31
0.0
  0
LINE
  5
94F12
  8
NOTE
 10
59.299999999995627
 20
130.55000000000101
 30
0.0
 11
59.299999999995627
 21
238.55000000000109
 31
0.0
  0
LINE
  5
94F13
  8
NOTE
 10
113.29999999999561
 20
184.55000000000109
 30
0.0
 11
5.2999999999956344
 21
184.55000000000109
 31
0.0
  0
LINE
  5
94F14
  8
NOTE
 10
-299.70000000000073
 20
727.55033743404965
 30
0.0
 11
-299.70000000000073
 21
835.55033743404965
 31
0.0
  0
LINE
  5
94F15
  8
NOTE
 10
-245.7000000000007
 20
781.55033743404965
 30
0.0
 11
-353.70000000000073
 21
781.55033743404965
 31
0.0
  0
LINE
  5
94F16
  8
NOTE
 10
59.299999999999272
 20
727.55000000000098
 30
0.0
 11
59.299999999999272
 21
835.55000000000109
 31
0.0
  0
LINE
  5
94F17
  8
NOTE
 10
113.2999999999992
 20
781.55000000000098
 30
0.0
 11
5.2999999999992724
 21
781.55000000000098
 31
0.0
  0
POINT
  5
94F18
  8
ARRANGE
  6
CONTINUOUS
 10
-0.0000406227736676
 20
0.000036503197407
 30
0.0
  0
LINE
  5
95130
  8
NOTE
 10
59.292767313367222
 20
184.55832063852171
 30
0.0
 11
575.64394387371055
 21
404.50464179055228
 31
0.0
  0
LINE
  5
95131
  8
NOTE
 10
59.293297173304381
 20
781.5508812923872
 30
0.0
 11
595.21813529533017
 21
556.45811514091474
 31
0.0
  0
TEXT
  5
95132
  8
NOTE
 10
619.67666736144201
 20
422.16696184271859
 30
0.0
 40
50.0
  1
BR JIS 10K-80A
 50
0.0000000000006247
 41
0.9
  0
LINE
  5
95133
  8
NOTE
 10
575.64394387371055
 20
404.50464179055228
 30
0.0
 11
1179.4487530644581
 21
404.5046417905632
 31
0.0
  0
LINE
  5
95134
  8
NOTE
 10
595.21813529533017
 20
556.45811514091474
 30
0.0
 11
1161.0999928098261
 21
556.45811514091838
 31
0.0
  0
TEXT
  5
95135
  8
NOTE
 10
620.76704563406008
 20
575.70429216537559
 30
0.0
 40
50.0
  1
B JIS 10K-80A
 50
0.0000000000006247
 41
0.9
  0
LINE
  5
95136
  8
NOTE
 10
59.293002997634183
 20
184.55825557558089
 30
0.0
 11
107.06735942268639
 21
190.60306409661641
 31
0.0
  0
LINE
  5
95137
  8
NOTE
 10
59.29281377343068
 20
184.55798895195761
 30
0.0
 11
94.432134065566075
 21
217.48452857109621
 31
0.0
  0
LINE
  5
95138
  8
NOTE
 10
59.294092660846218
 20
781.55048082968278
 30
0.0
 11
94.081939650033746
 21
748.25281508955777
 31
0.0
  0
LINE
  5
95139
  8
NOTE
 10
59.29375205578981
 20
781.5508580158039
 30
0.0
 11
107.0012554652112
 21
774.99929634513683
 31
0.0
  0
LINE
  5
9513A
  8
NOTE
 10
-1329.5736736152121
 20
506.73377661510489
 30
0.0
 11
-702.09496124832003
 21
506.73377661510852
 31
0.0
  0
TEXT
  5
9513B
  8
NOTE
 10
-1311.535661727517
 20
525.97995363956761
 30
0.0
 40
50.0
  1
CDR JIS 10K-80A
 50
0.0000000000006247
 41
0.9
  0
LINE
  5
9513C
  8
NOTE
 10
-1298.789598621735
 20
364.24035433342033
 30
0.0
 11
-708.07645406839765
 21
364.24035433342573
 31
0.0
  0
TEXT
  5
9513D
  8
NOTE
 10
-1267.053962656116
 20
381.9026743855847
 30
0.0
 40
50.0
  1
CD JIS 10K-80A
 50
0.0000000000006247
 41
0.9
  0
LINE
  5
9513E
  8
NOTE
 10
-299.69998986599961
 20
781.54987487819915
 30
0.0
 11
-702.09496124832003
 21
506.73377661510852
 31
0.0
  0
LINE
  5
9513F
  8
NOTE
 10
-299.69999243308109
 20
184.5499919220037
 30
0.0
 11
-708.07645406839765
 21
364.24035433342573
 31
0.0
  0
LINE
  5
95140
  8
NOTE
 10
-299.70023371759987
 20
781.54989267307064
 30
0.0
 11
-345.37494704642808
 21
766.29376589681124
 31
0.0
  0
LINE
  5
95141
  8
NOTE
 10
-299.70078104710592
 20
184.5504057561829
 30
0.0
 11
-333.92157685232269
 21
218.43057659905199
 31
0.0
  0
LINE
  5
95142
  8
NOTE
 10
-299.70010019170871
 20
781.55019111032016
 30
0.0
 11
-327.73444785964779
 21
742.39659366746309
 31
0.0
  0
LINE
  5
95143
  8
NOTE
 10
-299.70044685781971
 20
184.5500228740911
 30
0.0
 11
-347.29055613105987
 21
191.90599604191439
 31
0.0
  0
LINE
  5
99766
  8
DETAIL
 10
335.04999999999922
 20
1242.5
 30
0.0
 11
335.04999999999922
 21
1065.0000000000009
 31
0.0
  0
LINE
  5
99767
  8
DETAIL
 10
194.54999999999919
 20
1065.0000000000009
 30
0.0
 11
194.54999999999919
 21
1223.0499999998101
 31
0.0
  0
LINE
  5
99768
  8
DETAIL
 10
234.54999999999919
 20
1242.5
 30
0.0
 11
234.54999999999919
 21
1065.0000000000009
 31
0.0
  0
LINE
  5
99769
  8
DETAIL
 10
295.04999999999922
 20
1242.5
 30
0.0
 11
295.04999999999922
 21
1065.0000000000009
 31
0.0
  0
ARC
  5
9976A
  8
DETAIL
 10
364.25
 20
1094.1999999995751
 30
0.0
 40
29.199999999998909
 50
180.0
 51
359.99999998718079
  0
LINE
  5
9976B
  8
DETAIL
 10
-287.30000000000291
 20
1067.3000000000011
 30
0.0
 11
-287.30000000000291
 21
1087.3000000000011
 31
0.0
  0
LINE
  5
9976C
  8
DETAIL
 10
-285.0
 20
1065.0000000000009
 30
0.0
 11
-285.0
 21
1087.3000000000011
 31
0.0
  0
LINE
  5
9976D
  8
DETAIL
 10
187.29999999999919
 20
1087.3000000000011
 30
0.0
 11
187.29999999999919
 21
1067.3000000000011
 31
0.0
  0
LINE
  5
9976E
  8
DETAIL
 10
185.0
 20
1065.0000000000009
 30
0.0
 11
185.0
 21
1087.3000000000011
 31
0.0
  0
LINE
  5
9976F
  8
DETAIL
 10
397.0
 20
1065.0
 30
0.0
 11
397.0
 21
1110.2
 31
0.0
  0
LINE
  5
99770
  8
DETAIL
 10
393.79999999999922
 20
1110.2
 30
0.0
 11
393.79999999999922
 21
1068.2
 31
0.0
  0
LINE
  5
99771
  8
DETAIL
 10
-400.0
 20
1018.199999999999
 30
0.0
 11
-400.0
 21
1750.0000000000009
 31
0.0
  0
LINE
  5
99772
  8
DETAIL
 10
400.0
 20
1018.199999999999
 30
0.0
 11
400.0
 21
1750.0000000000009
 31
0.0
  0
LINE
  5
997F9
  8
DETAIL
 10
350.0
 20
80.0
 30
0.0
 11
350.0
 21
500.00000000000182
 31
0.0
  0
LINE
  5
997FA
  8
DETAIL
 10
347.0
 20
500.00000000000182
 30
0.0
 11
347.0
 21
80.0
 31
0.0
  0
ARC
  5
997FB
  8
DETAIL
 10
-90.700000000004366
 20
184.54999999999919
 30
0.0
 40
47.5
 50
90.0
 51
270.0
  0
LINE
  5
997FC
  8
DETAIL
 10
-394.0
 20
3.0000000000018181
 30
0.0
 11
-394.0
 21
500.00000000000182
 31
0.0
  0
LINE
  5
997FD
  8
DETAIL
 10
394.0
 20
3.0000000000018181
 30
0.0
 11
394.0
 21
500.00000000000182
 31
0.0
  0
LINE
  5
997FE
  8
DETAIL
 10
397.0
 20
1065.0000000000009
 30
0.0
 11
397.0
 21
0.0
 31
0.0
  0
LINE
  5
997FF
  8
DETAIL
 10
-397.0
 20
1065.0000000000009
 30
0.0
 11
-397.0
 21
0.000000000001819
 31
0.0
  0
LINE
  5
99800
  8
DETAIL
 10
59.299999999999272
 20
71.988556287702522
 30
0.0
 11
59.299999999999272
 21
297.11144371230142
 31
0.0
  0
CIRCLE
  5
99801
  8
DETAIL
 10
-9.990905919466968
 20
155.84876410318421
 30
0.0
 40
9.5
  0
CIRCLE
  5
99802
  8
DETAIL
 10
128.59096126901201
 20
155.84889772883429
 30
0.0
 40
9.5
  0
CIRCLE
  5
99803
  8
DETAIL
 10
59.299999999999272
 20
184.55000000000109
 30
0.0
 40
44.549999999999997
  0
CIRCLE
  5
99804
  8
DETAIL
 10
59.299999999999272
 20
184.54999241691249
 30
0.0
 40
92.5
  0
ARC
  5
99805
  8
DETAIL
 10
-87.200000000002547
 20
180.05000000000291
 30
0.0
 40
44.000000000000902
 50
270.0
 51
0.0
  0
LINE
  5
99806
  8
DETAIL
 10
-299.70000000000073
 20
297.1114361292129
 30
0.0
 11
-299.70000000000073
 21
71.988548704614004
 31
0.0
  0
CIRCLE
  5
99807
  8
DETAIL
 10
-368.99090591946691
 20
155.84876410318421
 30
0.0
 40
9.5
  0
CIRCLE
  5
99808
  8
DETAIL
 10
-230.4090387309879
 20
155.84889772883429
 30
0.0
 40
9.5
  0
CIRCLE
  5
99809
  8
DETAIL
 10
-299.70000000000073
 20
184.55000000000109
 30
0.0
 40
44.549999999999997
  0
CIRCLE
  5
9980A
  8
DETAIL
 10
-299.70000000000073
 20
184.54999241691249
 30
0.0
 40
92.5
  0
LINE
  5
9980B
  8
DETAIL
 10
-36.120732174746081
 20
120.8838308705744
 30
0.0
 11
-46.249382313053502
 21
136.87643635211671
 31
0.0
  0
LINE
  5
9980C
  8
DETAIL
 10
12.299999999999271
 20
115.0560365053679
 30
0.0
 11
-48.200000000000728
 21
115.0560365053679
 31
0.0
  0
LINE
  5
9980D
  8
DETAIL
 10
12.299999999999271
 20
79.570373282031142
 30
0.0
 11
-48.200000000000728
 21
79.570373282031142
 31
0.0
  0
LINE
  5
9980E
  8
DETAIL
 10
29.44620915530686
 20
97.000000000001819
 30
0.0
 11
-49.700000000000728
 21
97.000000000001819
 31
0.0
  0
LINE
  5
9980F
  8
DETAIL
 10
21.78268689924516
 20
100.0000000000018
 30
0.0
 11
-49.700000000000728
 21
100.0000000000018
 31
0.0
  0
LINE
  5
99810
  8
DETAIL
 10
-43.200000000000728
 20
137.04999999999919
 30
0.0
 11
-90.700000000004366
 21
137.04999999999919
 31
0.0
  0
LINE
  5
99811
  8
DETAIL
 10
168.29999999999919
 20
46.000000000001812
 30
0.0
 11
-49.700000000000728
 21
46.000000000001812
 31
0.0
  0
LINE
  5
99812
  8
DETAIL
 10
397.0
 20
0.0
 30
0.0
 11
-397.0
 21
0.000000000001819
 31
0.0
  0
LINE
  5
99813
  8
DETAIL
 10
397.0
 20
3.0000000000018181
 30
0.0
 11
-397.0
 21
3.0000000000018181
 31
0.0
  0
LINE
  5
99814
  8
DETAIL
 10
-396.80000000000291
 20
46.000000000001812
 30
0.0
 11
-202.60000000000221
 21
46.000000000001812
 31
0.0
  0
LINE
  5
99815
  8
DETAIL
 10
-397.0
 20
6.0000000000018181
 30
0.0
 11
-347.0
 21
6.0000000000018181
 31
0.0
  0
LINE
  5
99816
  8
DETAIL
 10
-403.50000000000171
 20
35.850000000002183
 30
0.0
 11
-403.50000000000171
 21
20.150000000001452
 31
0.0
  0
LINE
  5
99817
  8
DETAIL
 10
-401.50000000000182
 20
40.000000000001819
 30
0.0
 11
-401.50000000000182
 21
16.000000000001808
 31
0.0
  0
LINE
  5
99818
  8
DETAIL
 10
-410.00000000000182
 20
20.500000000001808
 30
0.0
 11
-410.00000000000182
 21
35.500000000001812
 31
0.0
  0
LINE
  5
99819
  8
DETAIL
 10
-400.0
 20
3.0000000000018181
 30
0.0
 11
-400.0
 21
80.000000000001819
 31
0.0
  0
LINE
  5
9981A
  8
DETAIL
 10
-403.50000000000171
 20
24.000000000001808
 30
0.0
 11
-410.00000000000358
 21
24.000000000001808
 31
0.0
  0
LINE
  5
9981B
  8
DETAIL
 10
-401.50000000000182
 20
20.150000000001452
 30
0.0
 11
-403.50000000000171
 21
20.150000000001452
 31
0.0
  0
LINE
  5
9981C
  8
DETAIL
 10
-400.00000000000182
 20
16.000000000001808
 30
0.0
 11
-401.50000000000182
 21
16.000000000001808
 31
0.0
  0
LINE
  5
9981D
  8
DETAIL
 10
-410.00000000000182
 20
20.500000000001808
 30
0.0
 11
-403.50000000000171
 21
20.500000000001808
 31
0.0
  0
ARC
  5
9981E
  8
DETAIL
 10
-397.00000000000182
 20
3.0000000000018181
 30
0.0
 40
2.9999999999990901
 50
180.0
 51
270.0
  0
LINE
  5
9981F
  8
DETAIL
 10
-397.0
 20
80.000000000001819
 30
0.0
 11
-400.0
 21
80.000000000001819
 31
0.0
  0
LINE
  5
99820
  8
DETAIL
 10
-401.50000000000182
 20
40.000000000001819
 30
0.0
 11
-400.00000000000182
 21
40.000000000001819
 31
0.0
  0
LINE
  5
99821
  8
DETAIL
 10
-403.50000000000171
 20
32.000000000001819
 30
0.0
 11
-410.00000000000358
 21
32.000000000001819
 31
0.0
  0
LINE
  5
99822
  8
DETAIL
 10
-401.50000000000182
 20
35.850000000002183
 30
0.0
 11
-403.50000000000171
 21
35.850000000002183
 31
0.0
  0
LINE
  5
99823
  8
DETAIL
 10
-410.00000000000182
 20
35.500000000001812
 30
0.0
 11
-403.50000000000171
 21
35.500000000001812
 31
0.0
  0
LINE
  5
99824
  8
DETAIL
 10
-401.50000000000182
 20
73.000000000001805
 30
0.0
 11
-400.00000000000182
 21
73.000000000001805
 31
0.0
  0
LINE
  5
99825
  8
DETAIL
 10
-403.50000000000171
 20
57.000000000001819
 30
0.0
 11
-410.00000000000358
 21
57.000000000001819
 31
0.0
  0
LINE
  5
99826
  8
DETAIL
 10
-403.50000000000171
 20
65.000000000001819
 30
0.0
 11
-410.00000000000358
 21
65.000000000001819
 31
0.0
  0
LINE
  5
99827
  8
DETAIL
 10
-401.50000000000182
 20
53.150000000001462
 30
0.0
 11
-403.50000000000171
 21
53.150000000001462
 31
0.0
  0
LINE
  5
99828
  8
DETAIL
 10
-403.50000000000171
 20
68.850000000002183
 30
0.0
 11
-403.50000000000171
 21
53.150000000001462
 31
0.0
  0
LINE
  5
99829
  8
DETAIL
 10
-401.50000000000182
 20
68.850000000002183
 30
0.0
 11
-403.50000000000171
 21
68.850000000002183
 31
0.0
  0
LINE
  5
9982A
  8
DETAIL
 10
-401.50000000000182
 20
73.000000000001805
 30
0.0
 11
-401.50000000000182
 21
49.000000000001819
 31
0.0
  0
LINE
  5
9982B
  8
DETAIL
 10
-400.00000000000182
 20
49.000000000001819
 30
0.0
 11
-401.50000000000182
 21
49.000000000001819
 31
0.0
  0
LINE
  5
9982C
  8
DETAIL
 10
-410.00000000000182
 20
53.500000000001819
 30
0.0
 11
-410.00000000000182
 21
68.500000000001819
 31
0.0
  0
LINE
  5
9982D
  8
DETAIL
 10
-410.00000000000182
 20
68.500000000001819
 30
0.0
 11
-403.50000000000171
 21
68.500000000001819
 31
0.0
  0
LINE
  5
9982E
  8
DETAIL
 10
-410.00000000000182
 20
53.500000000001819
 30
0.0
 11
-403.50000000000171
 21
53.500000000001819
 31
0.0
  0
LINE
  5
9982F
  8
DETAIL
 10
-379.04260029235218
 20
137.00000000000179
 30
0.0
 11
-396.80000000000291
 21
137.00000000000179
 31
0.0
  0
LINE
  5
99830
  8
DETAIL
 10
-380.76508604604891
 20
140.00000000000179
 30
0.0
 11
-396.80000000000291
 21
140.00000000000179
 31
0.0
  0
LINE
  5
99831
  8
DETAIL
 10
-202.60000000000221
 20
137.00000000000179
 30
0.0
 11
-220.93452066063759
 21
137.00000000000179
 31
0.0
  0
LINE
  5
99832
  8
DETAIL
 10
-202.60000000000221
 20
140.00000000000179
 30
0.0
 11
-218.63491395395249
 21
140.00000000000179
 31
0.0
  0
CIRCLE
  5
99834
  8
DETAIL
 10
-327.65936741351459
 20
117.0500017323774
 30
0.0
 40
9.5
  0
CIRCLE
  5
99835
  8
DETAIL
 10
-270.9986444157293
 20
115.2590624253662
 30
0.0
 40
9.5
  0
LINE
  5
99836
  8
DETAIL
 10
-202.60000000000221
 20
136.05000000000101
 30
0.0
 11
-87.19999999999709
 21
136.05000000000101
 31
0.0
  0
LINE
  5
99837
  8
DETAIL
 10
-202.60000000000221
 20
86.050000000001077
 30
0.0
 11
-49.700000000000728
 21
86.050000000001077
 31
0.0
  0
LINE
  5
99838
  8
DETAIL
 10
-202.60000000000221
 20
80.000000000001819
 30
0.0
 11
-49.700000000000728
 21
80.000000000001819
 31
0.0
  0
LINE
  5
99839
  8
DETAIL
 10
-202.60000000000221
 20
83.000000000001805
 30
0.0
 11
-49.700000000000728
 21
83.000000000001805
 31
0.0
  0
LINE
  5
9983A
  8
DETAIL
 10
-202.60000000000221
 20
140.00000000000179
 30
0.0
 11
-202.60000000000221
 21
46.000000000001812
 31
0.0
  0
LINE
  5
9983B
  8
DETAIL
 10
-59.908500023535453
 20
106.0222673490734
 30
0.0
 11
-100.80700552077541
 21
112.6519165171721
 31
0.0
  0
LINE
  5
9983C
  8
DETAIL
 10
-59.908500023535453
 20
106.0222673490734
 30
0.0
 11
-98.585930350000126
 21
91.166413844770432
 31
0.0
  0
LINE
  5
9983D
  8
DETAIL
 10
-84.111641443279964
 20
136.87643635211671
 30
0.0
 11
-46.249382313053502
 21
136.87643635211671
 31
0.0
  0
LINE
  5
9983E
  8
DETAIL
 10
-48.200000000000728
 20
86.631407542314264
 30
0.0
 11
-51.716571470740753
 21
85.891076706371663
 31
0.0
  0
LINE
  5
9983F
  8
DETAIL
 10
-51.716571470740753
 20
92.313204893698625
 30
0.0
 11
-61.716571470740753
 21
92.313204893698625
 31
0.0
  0
LINE
  5
99840
  8
DETAIL
 10
-51.716571470740753
 20
102.3132048936986
 30
0.0
 11
-61.716571470740753
 21
102.3132048936986
 31
0.0
  0
LINE
  5
99841
  8
DETAIL
 10
-61.716571470740753
 20
102.3132048936986
 30
0.0
 11
-61.716571470740753
 21
92.313204893698625
 31
0.0
  0
LINE
  5
99842
  8
DETAIL
 10
-48.200000000000728
 20
107.995002245083
 30
0.0
 11
-51.716571470740753
 21
108.7353330810292
 31
0.0
  0
LINE
  5
99843
  8
DETAIL
 10
-51.716571470740753
 20
108.7353330810292
 30
0.0
 11
-51.716571470740753
 21
85.891076706371663
 31
0.0
  0
LINE
  5
99844
  8
DETAIL
 10
-48.200000000000728
 20
115.0560365053679
 30
0.0
 11
-48.200000000000728
 21
79.570373282031142
 31
0.0
  0
LINE
  5
99845
  8
DETAIL
 10
-49.700000000000728
 20
100.0000000000018
 30
0.0
 11
-49.700000000000728
 21
46.000000000001812
 31
0.0
  0
ARC
  5
99846
  8
DETAIL
 10
271.79999999999922
 20
180.05000000000101
 30
0.0
 40
84.0
 50
270.0
 51
333.5390287725931
  0
LINE
  5
99847
  8
DETAIL
 10
168.29999999999919
 20
86.05000000000291
 30
0.0
 11
315.7999999999974
 21
86.05000000000291
 31
0.0
  0
LINE
  5
99848
  8
DETAIL
 10
168.29999999999919
 20
80.000000000001819
 30
0.0
 11
347.0
 21
80.0
 31
0.0
  0
LINE
  5
99849
  8
DETAIL
 10
347.0
 20
83.0
 30
0.0
 11
168.29999999999919
 21
83.000000000001805
 31
0.0
  0
LINE
  5
9984A
  8
DETAIL
 10
168.29999999999919
 20
97.000000000001819
 30
0.0
 11
89.153790844691684
 21
97.000000000001819
 31
0.0
  0
LINE
  5
9984B
  8
DETAIL
 10
168.29999999999919
 20
100.0000000000018
 30
0.0
 11
96.817313100753381
 21
100.0000000000018
 31
0.0
  0
LINE
  5
9984C
  8
DETAIL
 10
48.44999999999709
 20
110.913204893699
 30
0.0
 11
32.299999999999272
 21
110.913204893699
 31
0.0
  0
LINE
  5
9984D
  8
DETAIL
 10
60.149999999997817
 20
83.713204893698276
 30
0.0
 11
32.299999999999272
 21
83.713204893698276
 31
0.0
  0
CIRCLE
  5
9984E
  8
DETAIL
 10
31.340632586485292
 20
117.0500017323774
 30
0.0
 40
9.5
  0
LINE
  5
9984F
  8
DETAIL
 10
-2.562624645997857
 20
120.8838308705744
 30
0.0
 11
-36.120732174746081
 21
120.8838308705744
 31
0.0
  0
LINE
  5
99850
  8
DETAIL
 10
12.299999999999271
 20
115.0560365053679
 30
0.0
 11
12.299999999999271
 21
79.570373282031142
 31
0.0
  0
LINE
  5
99851
  8
DETAIL
 10
27.299999999999269
 20
111.1632048936989
 30
0.0
 11
27.299999999999269
 21
83.463204893698276
 31
0.0
  0
LINE
  5
99852
  8
DETAIL
 10
17.299999999999269
 20
111.1632048936989
 30
0.0
 11
17.299999999999269
 21
83.463204893698276
 31
0.0
  0
LINE
  5
99853
  8
DETAIL
 10
30.139999999999421
 20
108.163204893699
 30
0.0
 11
30.139999999999421
 21
86.463204893698276
 31
0.0
  0
LINE
  5
99854
  8
DETAIL
 10
14.45999999999912
 20
108.163204893699
 30
0.0
 11
14.45999999999912
 21
86.463204893698276
 31
0.0
  0
LINE
  5
99855
  8
DETAIL
 10
32.299999999999272
 20
110.913204893699
 30
0.0
 11
32.299999999999272
 21
83.713204893698276
 31
0.0
  0
LINE
  5
99856
  8
DETAIL
 10
12.299999999999271
 20
107.87945489369849
 30
0.0
 11
14.45999999999912
 21
107.9469548936995
 31
0.0
  0
LINE
  5
99857
  8
DETAIL
 10
12.299999999999271
 20
106.71745489369999
 30
0.0
 11
14.45999999999912
 21
106.784954893701
 31
0.0
  0
LINE
  5
99858
  8
DETAIL
 10
32.299999999999272
 20
106.71745489369999
 30
0.0
 11
30.139999999999421
 21
106.784954893701
 31
0.0
  0
LINE
  5
99859
  8
DETAIL
 10
32.299999999999272
 20
107.87945489369849
 30
0.0
 11
30.139999999999421
 21
107.9469548936995
 31
0.0
  0
LINE
  5
9985A
  8
DETAIL
 10
27.299999999999269
 20
105.163204893699
 30
0.0
 11
17.299999999999269
 21
105.163204893699
 31
0.0
  0
LINE
  5
9985B
  8
DETAIL
 10
17.299999999999269
 20
108.163204893699
 30
0.0
 11
14.45999999999912
 21
108.163204893699
 31
0.0
  0
LINE
  5
9985C
  8
DETAIL
 10
30.139999999999421
 20
108.163204893699
 30
0.0
 11
27.299999999999269
 21
108.163204893699
 31
0.0
  0
LINE
  5
9985D
  8
DETAIL
 10
27.299999999999269
 20
111.1632048936989
 30
0.0
 11
17.299999999999269
 21
111.1632048936989
 31
0.0
  0
LINE
  5
9985E
  8
DETAIL
 10
11.79999999999745
 20
100.0000000000018
 30
0.0
 11
11.79999999999745
 21
105.1774530849779
 31
0.0
  0
LINE
  5
9985F
  8
DETAIL
 10
12.299999999999271
 20
87.908954893699047
 30
0.0
 11
14.45999999999912
 21
87.841454893699847
 31
0.0
  0
LINE
  5
99860
  8
DETAIL
 10
12.299999999999271
 20
86.746954893700604
 30
0.0
 11
14.45999999999912
 21
86.679454893699585
 31
0.0
  0
LINE
  5
99861
  8
DETAIL
 10
32.299999999999272
 20
86.746954893700604
 30
0.0
 11
30.139999999999421
 21
86.679454893699585
 31
0.0
  0
LINE
  5
99862
  8
DETAIL
 10
32.299999999999272
 20
87.908954893699047
 30
0.0
 11
30.139999999999421
 21
87.841454893699847
 31
0.0
  0
LINE
  5
99863
  8
DETAIL
 10
27.299999999999269
 20
89.463204893698276
 30
0.0
 11
17.299999999999269
 21
89.463204893698276
 31
0.0
  0
LINE
  5
99864
  8
DETAIL
 10
27.299999999999269
 20
86.463204893698276
 30
0.0
 11
30.139999999999421
 21
86.463204893698276
 31
0.0
  0
LINE
  5
99865
  8
DETAIL
 10
14.45999999999912
 20
86.463204893698276
 30
0.0
 11
17.299999999999269
 21
86.463204893698276
 31
0.0
  0
LINE
  5
99866
  8
DETAIL
 10
17.299999999999269
 20
83.463204893698276
 30
0.0
 11
27.299999999999269
 21
83.463204893698276
 31
0.0
  0
LINE
  5
99867
  8
DETAIL
 10
-25.25
 20
147.03269640560751
 30
0.0
 11
-25.25
 21
100.0
 31
0.0
  0
LINE
  5
99868
  8
DETAIL
 10
-43.200000000000728
 20
100.0000000000018
 30
0.0
 11
-43.200000000000728
 21
137.04999999999919
 31
0.0
  0
ARC
  5
99869
  8
DETAIL
 10
60.149999999997817
 20
93.713204893701914
 30
0.0
 40
10.000000000000909
 50
270.0
 51
0.0
  0
LINE
  5
9986A
  8
DETAIL
 10
48.44999999999709
 20
124.1532048937006
 30
0.0
 11
70.149999999997817
 21
124.1532048937006
 31
0.0
  0
LINE
  5
9986B
  8
DETAIL
 10
72.799999999999272
 20
126.3132048936986
 30
0.0
 11
45.799999999999272
 21
126.3132048936986
 31
0.0
  0
LINE
  5
9986C
  8
DETAIL
 10
72.799999999999272
 20
142.09469997750779
 30
0.0
 11
72.799999999999272
 21
126.3132048936986
 31
0.0
  0
LINE
  5
9986D
  8
DETAIL
 10
69.866249999999127
 20
126.3132048936986
 30
0.0
 11
69.933750000000146
 21
124.1532048937006
 31
0.0
  0
LINE
  5
9986E
  8
DETAIL
 10
68.704249999997046
 20
126.3132048936986
 30
0.0
 11
68.771749999998065
 21
124.1532048937006
 31
0.0
  0
LINE
  5
9986F
  8
DETAIL
 10
70.149999999997817
 20
124.1532048937006
 30
0.0
 11
70.149999999997817
 21
93.713204893698276
 31
0.0
  0
LINE
  5
99870
  8
DETAIL
 10
45.799999999999272
 20
142.09469997750779
 30
0.0
 11
45.799999999999272
 21
126.3132048936986
 31
0.0
  0
LINE
  5
99871
  8
DETAIL
 10
49.89574999999968
 20
126.3132048936986
 30
0.0
 11
49.828249999996842
 21
124.1532048937006
 31
0.0
  0
LINE
  5
99872
  8
DETAIL
 10
48.733749999999418
 20
126.3132048936986
 30
0.0
 11
48.666249999998399
 21
124.1532048937006
 31
0.0
  0
LINE
  5
99873
  8
DETAIL
 10
48.44999999999709
 20
124.1532048937006
 30
0.0
 11
48.44999999999709
 21
110.913204893699
 31
0.0
  0
CIRCLE
  5
99874
  8
DETAIL
 10
88.001355584270627
 20
115.2590624253662
 30
0.0
 40
9.5
  0
LINE
  5
99875
  8
DETAIL
 10
168.29999999999919
 20
96.050000000001106
 30
0.0
 11
271.80000000000831
 21
96.050000000001106
 31
0.0
  0
LINE
  5
99876
  8
DETAIL
 10
143.84999999999849
 20
147.03269640560751
 30
0.0
 11
143.84999999999849
 21
100.0
 31
0.0
  0
LINE
  5
99877
  8
DETAIL
 10
168.29999999999919
 20
100.0000000000018
 30
0.0
 11
168.29999999999919
 21
46.000000000001812
 31
0.0
  0
LINE
  5
99878
  8
DETAIL
 10
403.5
 20
20.150000000003271
 30
0.0
 11
403.5
 21
35.850000000002183
 31
0.0
  0
LINE
  5
99879
  8
DETAIL
 10
401.49999999999989
 20
16.000000000001808
 30
0.0
 11
401.49999999999989
 21
40.000000000001819
 31
0.0
  0
LINE
  5
9987A
  8
DETAIL
 10
410.0
 20
35.500000000001812
 30
0.0
 11
410.0
 21
20.500000000001808
 31
0.0
  0
LINE
  5
9987B
  8
DETAIL
 10
400.0
 20
3.0000000000018181
 30
0.0
 11
400.0
 21
80.0
 31
0.0
  0
LINE
  5
9987C
  8
DETAIL
 10
397.0
 20
6.0000000000018181
 30
0.0
 11
347.0
 21
6.0000000000018181
 31
0.0
  0
LINE
  5
9987E
  8
DETAIL
 10
401.49999999999989
 20
16.000000000001808
 30
0.0
 11
400.0
 21
16.000000000001808
 31
0.0
  0
LINE
  5
9987F
  8
DETAIL
 10
403.5
 20
24.000000000001808
 30
0.0
 11
410.00000000000182
 21
24.000000000001808
 31
0.0
  0
LINE
  5
99880
  8
DETAIL
 10
401.49999999999989
 20
20.150000000003271
 30
0.0
 11
403.5
 21
20.150000000003271
 31
0.0
  0
LINE
  5
99881
  8
DETAIL
 10
410.0
 20
20.500000000001808
 30
0.0
 11
403.5
 21
20.500000000001808
 31
0.0
  0
LINE
  5
99882
  8
DETAIL
 10
386.79999999999558
 20
6.4000000000014552
 30
0.0
 11
386.79999999999558
 21
3.2000000000025461
 31
0.0
  0
ARC
  5
99883
  8
DETAIL
 10
396.99999999999631
 20
3.0000000000018181
 30
0.0
 40
3.0000000000018181
 50
270.00000000005213
 51
0.0
  0
ARC
  5
99884
  8
DETAIL
 10
397.00000000001091
 20
3.0000000000018181
 30
0.0
 40
3.0000000000018181
 50
270.00000000005213
 51
0.0
  0
LINE
  5
99885
  8
DETAIL
 10
400.0
 20
80.0
 30
0.0
 11
347.0
 21
80.0
 31
0.0
  0
LINE
  5
99886
  8
DETAIL
 10
315.7999999999974
 20
108.4958247200065
 30
0.0
 11
315.7999999999974
 21
80.050000000002925
 31
0.0
  0
LINE
  5
99887
  8
DETAIL
 10
401.49999999999989
 20
49.000000000001819
 30
0.0
 11
400.0
 21
49.000000000001819
 31
0.0
  0
LINE
  5
99888
  8
DETAIL
 10
403.5
 20
65.000000000001819
 30
0.0
 11
410.00000000000182
 21
65.000000000001819
 31
0.0
  0
LINE
  5
99889
  8
DETAIL
 10
403.5
 20
57.000000000001819
 30
0.0
 11
410.00000000000182
 21
57.000000000001819
 31
0.0
  0
LINE
  5
9988A
  8
DETAIL
 10
401.49999999999989
 20
68.850000000002183
 30
0.0
 11
403.5
 21
68.850000000002183
 31
0.0
  0
LINE
  5
9988B
  8
DETAIL
 10
403.5
 20
53.150000000003281
 30
0.0
 11
403.5
 21
68.850000000002183
 31
0.0
  0
LINE
  5
9988C
  8
DETAIL
 10
401.49999999999989
 20
53.150000000003281
 30
0.0
 11
403.5
 21
53.150000000003281
 31
0.0
  0
LINE
  5
9988D
  8
DETAIL
 10
401.49999999999989
 20
49.000000000001819
 30
0.0
 11
401.49999999999989
 21
73.000000000001805
 31
0.0
  0
LINE
  5
9988E
  8
DETAIL
 10
400.0
 20
73.000000000001805
 30
0.0
 11
401.49999999999989
 21
73.000000000001805
 31
0.0
  0
LINE
  5
9988F
  8
DETAIL
 10
410.0
 20
68.500000000001819
 30
0.0
 11
410.0
 21
53.500000000001819
 31
0.0
  0
LINE
  5
99890
  8
DETAIL
 10
410.0
 20
53.500000000001819
 30
0.0
 11
403.5
 21
53.500000000001819
 31
0.0
  0
LINE
  5
99891
  8
DETAIL
 10
410.0
 20
68.500000000001819
 30
0.0
 11
403.5
 21
68.500000000001819
 31
0.0
  0
LINE
  5
99892
  8
DETAIL
 10
403.5
 20
32.000000000001819
 30
0.0
 11
410.00000000000182
 21
32.000000000001819
 31
0.0
  0
LINE
  5
99893
  8
DETAIL
 10
401.49999999999989
 20
35.850000000002183
 30
0.0
 11
403.5
 21
35.850000000002183
 31
0.0
  0
LINE
  5
99894
  8
DETAIL
 10
400.0
 20
40.000000000001819
 30
0.0
 11
401.49999999999989
 21
40.000000000001819
 31
0.0
  0
LINE
  5
99895
  8
DETAIL
 10
410.0
 20
35.500000000001812
 30
0.0
 11
403.5
 21
35.500000000001812
 31
0.0
  0
LINE
  5
99896
  8
DETAIL
 10
-285.0
 20
1067.3000000000011
 30
0.0
 11
185.0
 21
1067.3000000000011
 31
0.0
  0
LINE
  5
99897
  8
DETAIL
 10
29.446209155305041
 20
694.00000000000182
 30
0.0
 11
-149.5
 21
694.00000000000182
 31
0.0
  0
LINE
  5
99898
  8
DETAIL
 10
21.782686899241519
 20
697.00000000000182
 30
0.0
 11
-144.7000000000007
 21
697.00000000000182
 31
0.0
  0
LINE
  5
99899
  8
DETAIL
 10
-43.200000000000728
 20
287.04999999999922
 30
0.0
 11
-347.20000000000073
 21
287.04999999999922
 31
0.0
  0
LINE
  5
9989A
  8
DETAIL
 10
-90.700000000004366
 20
232.04999999999919
 30
0.0
 11
-43.200000000000728
 21
232.04999999999919
 31
0.0
  0
LINE
  5
9989B
  8
DETAIL
 10
-344.0
 20
497.00000000000182
 30
0.0
 11
344.0
 21
497.00000000000182
 31
0.0
  0
LINE
  5
9989C
  8
DETAIL
 10
-344.0
 20
500.00000000000182
 30
0.0
 11
344.0
 21
500.00000000000182
 31
0.0
  0
LINE
  5
9989D
  8
DETAIL
 10
397.0
 20
1065.0000000000009
 30
0.0
 11
-397.0
 21
1065.0000000000009
 31
0.0
  0
LINE
  5
9989E
  8
DETAIL
 10
-397.0
 20
1061.8000000000011
 30
0.0
 11
397.0
 21
1061.8000000000011
 31
0.0
  0
LINE
  5
9989F
  8
DETAIL
 10
-400.0
 20
918.00000000000193
 30
0.0
 11
400.0
 21
918.00000000000193
 31
0.0
  0
LINE
  5
998A0
  8
DETAIL
 10
-397.0
 20
1015.000000000001
 30
0.0
 11
397.0
 21
1015.000000000001
 31
0.0
  0
LINE
  5
998A1
  8
DETAIL
 10
-397.0
 20
1018.2
 30
0.0
 11
397.0
 21
1018.2
 31
0.0
  0
ARC
  5
998A2
  8
DETAIL
 10
-44.70252531694495
 20
827.54747468305504
 30
0.0
 40
17.50000000000227
 50
0.0
 51
90.0
  0
CIRCLE
  5
998A3
  8
DETAIL
 10
-44.702525316941312
 20
827.54747468305868
 30
0.0
 40
10.5
  0
LINE
  5
998A4
  8
DETAIL
 10
397.0
 20
1012.000000000002
 30
0.0
 11
-397.0
 21
1012.000000000002
 31
0.0
  0
LINE
  5
998A5
  8
DETAIL
 10
-53.261443712302928
 20
184.55000000000109
 30
0.0
 11
171.86144371229599
 21
184.55000000000109
 31
0.0
  0
LINE
  5
998A6
  8
DETAIL
 10
171.86144371229599
 20
781.55000000000098
 30
0.0
 11
-48.097466050076029
 21
781.55000000000098
 31
0.0
  0
ARC
  5
998A7
  8
DETAIL
 10
-87.19999999999709
 20
786.05000000000291
 30
0.0
 40
43.999999999997733
 50
0.0
 51
90.0
  0
LINE
  5
998A8
  8
DETAIL
 10
-394.0
 20
737.00000000000182
 30
0.0
 11
-394.0
 21
500.00000000000182
 31
0.0
  0
LINE
  5
998A9
  8
DETAIL
 10
-344.0
 20
500.00000000000182
 30
0.0
 11
-394.0
 21
500.00000000000182
 31
0.0
  0
LINE
  5
998AA
  8
DETAIL
 10
-412.26144371230112
 20
184.55000000000109
 30
0.0
 11
-187.13855628770389
 21
184.55000000000109
 31
0.0
  0
CIRCLE
  5
998AB
  8
DETAIL
 10
-368.99096126902077
 20
213.2512529916402
 30
0.0
 40
9.5
  0
LINE
  5
998AC
  8
DETAIL
 10
-350.0
 20
500.00000000000182
 30
0.0
 11
-350.0
 21
262.1783377554566
 31
0.0
  0
LINE
  5
998AD
  8
DETAIL
 10
-347.0
 20
500.00000000000182
 30
0.0
 11
-347.0
 21
264.04187879533669
 31
0.0
  0
ARC
  5
998AE
  8
DETAIL
 10
-253.6999999990166
 20
267.05000000176551
 30
0.0
 40
6.0000000018406574
 50
310.08458014248117
 51
171.62946837363569
  0
CIRCLE
  5
998AF
  8
DETAIL
 10
-328.40131125705011
 20
253.84098127969619
 30
0.0
 40
9.5
  0
CIRCLE
  5
998B0
  8
DETAIL
 10
-230.4090940805435
 20
213.25138661728849
 30
0.0
 40
9.5
  0
CIRCLE
  5
998B1
  8
DETAIL
 10
-270.99868874294771
 20
253.84090591946551
 30
0.0
 40
9.5
  0
CIRCLE
  5
998B2
  8
DETAIL
 10
-136.7000000000007
 20
267.05000000000098
 30
0.0
 40
6.0
  0
LINE
  5
998B3
  8
DETAIL
 10
-344.0
 20
497.00000000000182
 30
0.0
 11
-344.0
 21
500.00000000000182
 31
0.0
  0
LINE
  5
998B4
  8
DETAIL
 10
-412.26144371230112
 20
781.55000000000098
 30
0.0
 11
-187.13855628770389
 21
781.55000000000098
 31
0.0
  0
CIRCLE
  5
998B5
  8
DETAIL
 10
-368.99096126902077
 20
810.25125299164029
 30
0.0
 40
9.5
  0
CIRCLE
  5
998B6
  8
DETAIL
 10
-368.99090591946691
 20
752.84876410318418
 30
0.0
 40
9.5
  0
CIRCLE
  5
998B7
  8
DETAIL
 10
-299.70000000000073
 20
781.54999241691257
 30
0.0
 40
92.5
  0
LINE
  5
998B8
  8
DETAIL
 10
-394.0
 20
918.00000000000193
 30
0.0
 11
-394.0
 21
737.00000000000182
 31
0.0
  0
LINE
  5
998B9
  8
DETAIL
 10
-394.0
 20
737.00000000000182
 30
0.0
 11
-379.04260029235218
 21
737.00000000000182
 31
0.0
  0
LINE
  5
998BA
  8
DETAIL
 10
-379.04260029235218
 20
734.00000000000182
 30
0.0
 11
-394.0
 21
734.00000000000182
 31
0.0
  0
LINE
  5
998BB
  8
DETAIL
 10
-400.0
 20
1011.800000000001
 30
0.0
 11
-400.0
 21
918.00000000000193
 31
0.0
  0
LINE
  5
998BC
  8
DETAIL
 10
-396.80000000000291
 20
918.00000000000193
 30
0.0
 11
-400.0
 21
918.00000000000193
 31
0.0
  0
ARC
  5
998BD
  8
DETAIL
 10
-396.80000000000291
 20
1011.800000000004
 30
0.0
 40
3.199999999997543
 50
89.999999999947889
 51
180.0
  0
POLYLINE
  5
998BE
  8
DETAIL
 66
     1
 10
0.0
 20
0.0
 30
0.0
  0
VERTEX
  5
9AC91
  8
DETAIL
 10
-219.04999999999919
 20
878.04999854298137
 30
0.0
  0
VERTEX
  5
9AC92
  8
DETAIL
 10
-219.04339328190869
 20
876.40318408488565
 30
0.0
  0
VERTEX
  5
9AC93
  8
DETAIL
 10
-219.02357441527781
 20
874.7566847615999
 30
0.0
  0
VERTEX
  5
9AC94
  8
DETAIL
 10
-218.99054719264669
 20
873.11081564734548
 30
0.0
  0
VERTEX
  5
9AC95
  8
DETAIL
 10
-218.94431793410689
 20
871.46589169575418
 30
0.0
  0
VERTEX
  5
9AC96
  8
DETAIL
 10
-218.8848954860895
 20
869.82222767958399
 30
0.0
  0
VERTEX
  5
9AC97
  8
DETAIL
 10
-218.81229121968309
 20
868.18013813049765
 30
0.0
  0
VERTEX
  5
9AC98
  8
DETAIL
 10
-218.7265190284451
 20
866.539937278867
 30
0.0
  0
VERTEX
  5
9AC99
  8
DETAIL
 10
-218.6275953257427
 20
864.90193899363658
 30
0.0
  0
VERTEX
  5
9AC9A
  8
DETAIL
 10
-218.51553904162751
 20
863.26645672227642
 30
0.0
  0
VERTEX
  5
9AC9B
  8
DETAIL
 10
-218.3903716191962
 20
861.63380343078461
 30
0.0
  0
VERTEX
  5
9AC9C
  8
DETAIL
 10
-218.25211701049551
 20
860.00429154381163
 30
0.0
  0
VERTEX
  5
9AC9D
  8
DETAIL
 10
-218.1008016719388
 20
858.37823288486288
 30
0.0
  0
VERTEX
  5
9AC9E
  8
DETAIL
 10
-217.9364545592361
 20
856.75593861663765
 30
0.0
  0
VERTEX
  5
9AC9F
  8
DETAIL
 10
-217.759107121863
 20
855.13771918147904
 30
0.0
  0
VERTEX
  5
9ACA0
  8
DETAIL
 10
-217.56879329703949
 20
853.52388424197125
 30
0.0
  0
VERTEX
  5
9ACA1
  8
DETAIL
 10
-217.36554950323259
 20
851.91474262168038
 30
0.0
  0
VERTEX
  5
9ACA2
  8
DETAIL
 10
-217.14941463318789
 20
850.31060224605972
 30
0.0
  0
VERTEX
  5
9ACA3
  8
DETAIL
 10
-216.92043004648801
 20
848.71177008352242
 30
0.0
  0
VERTEX
  5
9ACA4
  8
DETAIL
 10
-216.67863956164001
 20
847.11855208670374
 30
0.0
  0
VERTEX
  5
9ACA5
  8
DETAIL
 10
-216.4240894476861
 20
845.53125313390763
 30
0.0
  0
VERTEX
  5
9ACA6
  8
DETAIL
 10
-216.15682841535809
 20
843.95017697077299
 30
0.0
  0
VERTEX
  5
9ACA7
  8
DETAIL
 10
-215.87690760774601
 20
842.37562615214483
 30
0.0
  0
VERTEX
  5
9ACA8
  8
DETAIL
 10
-215.5843805905096
 20
840.8079019841789
 30
0.0
  0
VERTEX
  5
9ACA9
  8
DETAIL
 10
-215.27930334164191
 20
839.24730446667672
 30
0.0
  0
VERTEX
  5
9ACAA
  8
DETAIL
 10
-214.96173424074911
 20
837.69413223569234
 30
0.0
  0
VERTEX
  5
9ACAB
  8
DETAIL
 10
-214.6317340578716
 20
836.14868250636925
 30
0.0
  0
VERTEX
  5
9ACAC
  8
DETAIL
 10
-214.2893659418732
 20
834.61125101607638
 30
0.0
  0
VERTEX
  5
9ACAD
  8
DETAIL
 10
-213.93469540833391
 20
833.08213196780878
 30
0.0
  0
VERTEX
  5
9ACAE
  8
DETAIL
 10
-213.5677903270352
 20
831.56161797389723
 30
0.0
  0
VERTEX
  5
9ACAF
  8
DETAIL
 10
-213.18872090895999
 20
830.05000000000098
 30
0.0
  0
SEQEND
  5
9ACB0
  8
DETAIL
  0
POLYLINE
  5
998BF
  8
DETAIL
 66
     1
 10
0.0
 20
0.0
 30
0.0
  0
VERTEX
  5
9ACB1
  8
DETAIL
 10
-180.94999999999891
 20
878.05000000000302
 30
0.0
  0
VERTEX
  5
9ACB2
  8
DETAIL
 10
-180.9430729641189
 20
876.33741971090603
 30
0.0
  0
VERTEX
  5
9ACB3
  8
DETAIL
 10
-180.92229495721031
 20
874.62560601987946
 30
0.0
  0
VERTEX
  5
9ACB4
  8
DETAIL
 10
-180.88767528007699
 20
872.91532518183703
 30
0.0
  0
VERTEX
  5
9ACB5
  8
DETAIL
 10
-180.83922942944619
 20
871.20734276555413
 30
0.0
  0
VERTEX
  5
9ACB6
  8
DETAIL
 10
-180.77697909100601
 20
869.50242331096172
 30
0.0
  0
VERTEX
  5
9ACB7
  8
DETAIL
 10
-180.70095212972589
 20
867.8013299869308
 30
0.0
  0
VERTEX
  5
9ACB8
  8
DETAIL
 10
-180.6111825773678
 20
866.10482424964709
 30
0.0
  0
VERTEX
  5
9ACB9
  8
DETAIL
 10
-180.50771061725021
 20
864.41366550176463
 30
0.0
  0
VERTEX
  5
9ACBA
  8
DETAIL
 10
-180.3905825662695
 20
862.72861075248511
 30
0.0
  0
VERTEX
  5
9ACBB
  8
DETAIL
 10
-180.2598508541686
 20
861.05041427868673
 30
0.0
  0
VERTEX
  5
9ACBC
  8
DETAIL
 10
-180.11557400005759
 20
859.37982728729355
 30
0.0
  0
VERTEX
  5
9ACBD
  8
DETAIL
 10
-179.95781658622579
 20
857.71759757901953
 30
0.0
  0
VERTEX
  5
9ACBE
  8
DETAIL
 10
-179.78664922923409
 20
856.0644692136301
 30
0.0
  0
VERTEX
  5
9ACBF
  8
DETAIL
 10
-179.60214854830329
 20
854.42118217687312
 30
0.0
  0
VERTEX
  5
9ACC0
  8
DETAIL
 10
-179.4043971310129
 20
852.78847204925285
 30
0.0
  0
VERTEX
  5
9ACC1
  8
DETAIL
 10
-179.19348349634311
 20
851.16706967675407
 30
0.0
  0
VERTEX
  5
9ACC2
  8
DETAIL
 10
-178.969502055037
 20
849.55770084370306
 30
0.0
  0
VERTEX
  5
9ACC3
  8
DETAIL
 10
-178.7325530673551
 20
847.9610859478762
 30
0.0
  0
VERTEX
  5
9ACC4
  8
DETAIL
 10
-178.48274259818569
 20
846.37793967804271
 30
0.0
  0
VERTEX
  5
9ACC5
  8
DETAIL
 10
-178.22018246956941
 20
844.80897069404273
 30
0.0
  0
VERTEX
  5
9ACC6
  8
DETAIL
 10
-177.94499021064249
 20
843.25488130957285
 30
0.0
  0
VERTEX
  5
9ACC7
  8
DETAIL
 10
-177.65728900503561
 20
841.71636717780893
 30
0.0
  0
VERTEX
  5
9ACC8
  8
DETAIL
 10
-177.35720763572681
 20
840.19411698001738
 30
0.0
  0
VERTEX
  5
9ACC9
  8
DETAIL
 10
-177.04488042739459
 20
838.68881211727967
 30
0.0
  0
VERTEX
  5
9ACCA
  8
DETAIL
 10
-176.72044718629141
 20
837.20112640548166
 30
0.0
  0
VERTEX
  5
9ACCB
  8
DETAIL
 10
-176.38405313766989
 20
835.73172577368859
 30
0.0
  0
VERTEX
  5
9ACCC
  8
DETAIL
 10
-176.0358488607562
 20
834.28126796606011
 30
0.0
  0
VERTEX
  5
9ACCD
  8
DETAIL
 10
-175.67599022137429
 20
832.85040224743159
 30
0.0
  0
VERTEX
  5
9ACCE
  8
DETAIL
 10
-175.3046383021501
 20
831.43976911267407
 30
0.0
  0
VERTEX
  5
9ACCF
  8
DETAIL
 10
-174.92195933042419
 20
830.05000000000098
 30
0.0
  0
SEQEND
  5
9ACD0
  8
DETAIL
  0
ARC
  5
998C0
  8
DETAIL
 10
-143.69747468305641
 20
827.54747468305675
 30
0.0
 40
17.500000000001819
 50
90.0
 51
171.7784355291343
  0
LINE
  5
998C1
  8
DETAIL
 10
-299.70000000000073
 20
894.11143612921285
 30
0.0
 11
-299.70000000000073
 21
668.988548704614
 31
0.0
  0
CIRCLE
  5
998C2
  8
DETAIL
 10
-270.99868874294771
 20
850.8409059194654
 30
0.0
 40
9.5
  0
CIRCLE
  5
998C3
  8
DETAIL
 10
-328.40131125705011
 20
850.84098127969617
 30
0.0
 40
9.5
  0
LINE
  5
998C4
  8
DETAIL
 10
-218.63491395395249
 20
737.00000000000182
 30
0.0
 11
-149.7000000000007
 21
737.00000000000182
 31
0.0
  0
LINE
  5
998C5
  8
DETAIL
 10
-220.3573997076509
 20
734.00000000000182
 30
0.0
 11
-149.7000000000007
 21
734.00000000000182
 31
0.0
  0
LINE
  5
998C6
  8
DETAIL
 10
-220.9345299992419
 20
830.05000000000098
 30
0.0
 11
-87.19999999999709
 21
830.05000000000098
 31
0.0
  0
CIRCLE
  5
998C7
  8
DETAIL
 10
-327.65936741351459
 20
714.05000173237738
 30
0.0
 40
9.5
  0
CIRCLE
  5
998C8
  8
DETAIL
 10
-270.9986444157293
 20
712.2590624253661
 30
0.0
 40
9.5
  0
CIRCLE
  5
998C9
  8
DETAIL
 10
-299.70000000000073
 20
781.55000000000098
 30
0.0
 40
44.549999999999997
  0
CIRCLE
  5
998CA
  8
DETAIL
 10
-230.4090387309879
 20
752.84889772883434
 30
0.0
 40
9.5
  0
CIRCLE
  5
998CB
  8
DETAIL
 10
-230.4090940805435
 20
810.2513866172884
 30
0.0
 40
9.5
  0
LINE
  5
998CC
  8
DETAIL
 10
-149.7000000000007
 20
693.80000000000109
 30
0.0
 11
-149.7000000000007
 21
737.00000000000182
 31
0.0
  0
LINE
  5
998CD
  8
DETAIL
 10
-144.7000000000007
 20
693.80000000000109
 30
0.0
 11
-144.7000000000007
 21
697.00000000000182
 31
0.0
  0
ARC
  5
998CE
  8
DETAIL
 10
-143.69747468305829
 20
827.54747468305868
 30
0.0
 40
10.49999999999962
 50
13.7883354508885
 51
166.2116645491115
  0
LINE
  5
998CF
  8
DETAIL
 10
-350.0
 20
918.00000000000193
 30
0.0
 11
-350.0
 21
859.1783377554566
 31
0.0
  0
LINE
  5
998D0
  8
DETAIL
 10
-347.0
 20
918.00000000000193
 30
0.0
 11
-347.0
 21
861.04187879533674
 31
0.0
  0
LINE
  5
998D1
  8
DETAIL
 10
-219.04999999999919
 20
878.05000145702434
 30
0.0
 11
-219.04999999999919
 21
918.00000000000193
 31
0.0
  0
ARC
  5
998D2
  8
DETAIL
 10
-285.0
 20
1067.3000000000011
 30
0.0
 40
2.300000000000181
 50
180.0
 51
270.0
  0
LINE
  5
998D3
  8
DETAIL
 10
-44.702525316941312
 20
845.04747468305857
 30
0.0
 11
-143.69747468306011
 21
845.04747468305857
 31
0.0
  0
LINE
  5
998D4
  8
DETAIL
 10
-180.94999999999891
 20
878.05000000000302
 30
0.0
 11
-180.94999999999891
 21
918.00000000000193
 31
0.0
  0
LINE
  5
998D5
  8
DETAIL
 10
394.0
 20
697.00000000000182
 30
0.0
 11
394.0
 21
500.00000000000182
 31
0.0
  0
LINE
  5
998D6
  8
DETAIL
 10
-28.200000000000731
 20
214.54999241691249
 30
0.0
 11
-28.200000000000731
 21
497.00000000000182
 31
0.0
  0
LINE
  5
998D7
  8
DETAIL
 10
-43.200000000000728
 20
497.00000000000182
 30
0.0
 11
-43.200000000000728
 21
180.04999999999919
 31
0.0
  0
CIRCLE
  5
998D8
  8
DETAIL
 10
128.59090591945639
 20
213.25138661728849
 30
0.0
 40
9.5
  0
CIRCLE
  5
998D9
  8
DETAIL
 10
30.598688742949889
 20
253.84098127969619
 30
0.0
 40
9.5
  0
CIRCLE
  5
998DA
  8
DETAIL
 10
-9.9909612690207723
 20
213.2512529916402
 30
0.0
 40
9.5
  0
CIRCLE
  5
998DB
  8
DETAIL
 10
88.001311257052294
 20
253.84090591946551
 30
0.0
 40
9.5
  0
LINE
  5
998DC
  8
DETAIL
 10
344.0
 20
500.00000000000182
 30
0.0
 11
394.0
 21
500.00000000000182
 31
0.0
  0
LINE
  5
998DD
  8
DETAIL
 10
344.0
 20
500.00000000000182
 30
0.0
 11
344.0
 21
497.00000000000182
 31
0.0
  0
ARC
  5
998DE
  8
DETAIL
 10
264.79999999999922
 20
778.05000000000109
 30
0.0
 40
70.249999999999091
 50
180.0
 51
0.0
  0
ARC
  5
998DF
  8
DETAIL
 10
264.7999999999974
 20
778.05000000000825
 30
0.0
 40
48.999999999798113
 50
128.12265167567469
 51
51.877348324325212
  0
ARC
  5
998E0
  8
DETAIL
 10
264.79999999999922
 20
778.05000000000291
 30
0.0
 40
46.999999999790099
 50
130.06206350049641
 51
49.937936499503579
  0
ARC
  5
998E1
  8
DETAIL
 10
264.79999999999922
 20
778.05000000000109
 30
0.0
 40
30.25
 50
180.0
 51
0.0
  0
LINE
  5
998E2
  8
DETAIL
 10
394.0
 20
694.00000000000182
 30
0.0
 11
89.153790844691684
 21
694.00000000000182
 31
0.0
  0
LINE
  5
998E3
  8
DETAIL
 10
394.0
 20
697.00000000000182
 30
0.0
 11
96.817313100757019
 21
697.00000000000182
 31
0.0
  0
LINE
  5
998E4
  8
DETAIL
 10
215.30252531693981
 20
711.05252531694157
 30
0.0
 11
314.29747468305862
 21
711.05252531694157
 31
0.0
  0
ARC
  5
998E5
  8
DETAIL
 10
215.3025253169489
 20
827.54747468305504
 30
0.0
 40
57.500000000008619
 50
111.1563067857012
 51
180.0
  0
LINE
  5
998E6
  8
DETAIL
 10
194.54999999999919
 20
778.05000000000109
 30
0.0
 11
194.54999999999919
 21
918.00000000000193
 31
0.0
  0
LINE
  5
998E7
  8
DETAIL
 10
234.54999999999919
 20
918.00000000000193
 30
0.0
 11
234.54999999999919
 21
778.05000000000109
 31
0.0
  0
ARC
  5
998E8
  8
DETAIL
 10
215.3025253169435
 20
827.54747468305504
 30
0.0
 40
17.500000000001819
 50
90.0
 51
180.0
  0
LINE
  5
998E9
  8
DETAIL
 10
59.299999999999272
 20
668.98855628770252
 30
0.0
 11
59.299999999999272
 21
894.11144371230148
 31
0.0
  0
CIRCLE
  5
998EA
  8
DETAIL
 10
88.001311257052294
 20
850.8409059194654
 30
0.0
 40
9.5
  0
CIRCLE
  5
998EB
  8
DETAIL
 10
30.598688742949889
 20
850.84098127969617
 30
0.0
 40
9.5
  0
CIRCLE
  5
998EC
  8
DETAIL
 10
59.299999999999272
 20
781.54999241691257
 30
0.0
 40
92.5
  0
CIRCLE
  5
998ED
  8
DETAIL
 10
128.59096126901201
 20
752.84889772883434
 30
0.0
 40
9.5
  0
CIRCLE
  5
998EE
  8
DETAIL
 10
128.59090591945639
 20
810.2513866172884
 30
0.0
 40
9.5
  0
LINE
  5
998EF
  8
DETAIL
 10
-28.200000000000731
 20
697.00000000000182
 30
0.0
 11
-28.200000000000731
 21
751.54999241691439
 31
0.0
  0
LINE
  5
998F0
  8
DETAIL
 10
-43.200000000000728
 20
786.05000000000655
 30
0.0
 11
-43.200000000000728
 21
697.00000000000182
 31
0.0
  0
ARC
  5
998F1
  8
DETAIL
 10
-44.702525316941312
 20
728.55252531694157
 30
0.0
 40
10.49999999999984
 50
278.2271337480181
 51
81.772866251981867
  0
CIRCLE
  5
998F2
  8
DETAIL
 10
31.340632586485292
 20
714.05000173237738
 30
0.0
 40
9.5
  0
ARC
  5
998F3
  8
DETAIL
 10
-44.70252531694495
 20
728.55252531694157
 30
0.0
 40
17.499999999999829
 50
274.925398928042
 51
340.56187840901788
  0
CIRCLE
  5
998F4
  8
DETAIL
 10
88.001355584270627
 20
712.2590624253661
 30
0.0
 40
9.5
  0
CIRCLE
  5
998F5
  8
DETAIL
 10
59.299999999999272
 20
781.55000000000098
 30
0.0
 40
44.549999999999997
  0
LINE
  5
998F6
  8
DETAIL
 10
-27.202525316941319
 20
814.31526540207221
 30
0.0
 11
-27.202525316941319
 21
827.54747468305868
 31
0.0
  0
CIRCLE
  5
998F7
  8
DETAIL
 10
-9.9909612690207723
 20
810.25125299164029
 30
0.0
 40
9.5
  0
CIRCLE
  5
998F8
  8
DETAIL
 10
-9.990905919466968
 20
752.84876410318418
 30
0.0
 40
9.5
  0
ARC
  5
998F9
  8
DETAIL
 10
215.30252531693441
 20
728.55252531694157
 30
0.0
 40
57.499999999993634
 50
180.0
 51
213.2805851585461
  0
CIRCLE
  5
998FA
  8
DETAIL
 10
215.30252531693981
 20
728.55252531694157
 30
0.0
 40
10.5
  0
ARC
  5
998FB
  8
DETAIL
 10
215.30252531693981
 20
728.55252531694157
 30
0.0
 40
17.499999999999091
 50
180.0
 51
270.0
  0
LINE
  5
998FC
  8
DETAIL
 10
197.80252531693981
 20
827.54747468305868
 30
0.0
 11
197.80252531693981
 21
728.55252531694157
 31
0.0
  0
LINE
  5
998FD
  8
DETAIL
 10
157.80252531693981
 20
827.54747468305868
 30
0.0
 11
157.80252531693981
 21
728.55252531694157
 31
0.0
  0
CIRCLE
  5
998FE
  8
DETAIL
 10
215.30252531693981
 20
827.54747468305868
 30
0.0
 40
10.5
  0
LINE
  5
998FF
  8
DETAIL
 10
176.5754631809813
 20
870.05000000000098
 30
0.0
 11
86.207223152772713
 21
870.05000000000098
 31
0.0
  0
LINE
  5
99900
  8
DETAIL
 10
9.9000000000014552
 20
969.8000000000028
 30
0.0
 11
13.099999999998539
 21
969.8000000000028
 31
0.0
  0
LINE
  5
99901
  8
DETAIL
 10
13.099999999998539
 20
1015.000000000001
 30
0.0
 11
13.099999999998539
 21
969.8000000000028
 31
0.0
  0
LINE
  5
99902
  8
DETAIL
 10
-7.0999999999985439
 20
1015.000000000001
 30
0.0
 11
13.099999999998539
 21
1015.000000000001
 31
0.0
  0
LINE
  5
99903
  8
DETAIL
 10
-7.0999999999985439
 20
1011.800000000002
 30
0.0
 11
-7.0999999999985439
 21
1015.000000000001
 31
0.0
  0
LINE
  5
99904
  8
DETAIL
 10
9.9000000000014552
 20
1011.800000000002
 30
0.0
 11
-7.0999999999985439
 21
1011.800000000002
 31
0.0
  0
LINE
  5
99905
  8
DETAIL
 10
9.9000000000014552
 20
969.8000000000028
 30
0.0
 11
9.9000000000014552
 21
1011.800000000002
 31
0.0
  0
LINE
  5
99906
  8
DETAIL
 10
234.54999999999919
 20
845.04747468305857
 30
0.0
 11
215.30252531693981
 21
845.04747468305857
 31
0.0
  0
ARC
  5
99907
  8
DETAIL
 10
185.0
 20
1067.299999999999
 30
0.0
 40
2.2999999999979082
 50
269.99999999994782
 51
0.0
  0
LINE
  5
99908
  8
DETAIL
 10
335.04999999999922
 20
918.00000000000193
 30
0.0
 11
335.04999999999922
 21
778.05000000000109
 31
0.0
  0
ARC
  5
99909
  8
DETAIL
 10
314.29747468305499
 20
827.54747468305675
 30
0.0
 40
57.500000000001819
 50
0.0
 51
68.843693214298781
  0
LINE
  5
9990A
  8
DETAIL
 10
295.04999999999922
 20
918.00000000000193
 30
0.0
 11
295.04999999999922
 21
778.05000000000109
 31
0.0
  0
LINE
  5
9990B
  8
DETAIL
 10
394.0
 20
918.00000000000193
 30
0.0
 11
394.0
 21
697.00000000000182
 31
0.0
  0
LINE
  5
9990C
  8
DETAIL
 10
350.0
 20
918.00000000000193
 30
0.0
 11
350.0
 21
697.00000000000182
 31
0.0
  0
LINE
  5
9990D
  8
DETAIL
 10
347.0
 20
918.00000000000193
 30
0.0
 11
347.0
 21
697.00000000000182
 31
0.0
  0
ARC
  5
9990E
  8
DETAIL
 10
314.29747468305499
 20
827.54747468305504
 30
0.0
 40
17.50000000000227
 50
0.0
 51
90.0
  0
ARC
  5
9990F
  8
DETAIL
 10
314.29747468304407
 20
728.5525253169435
 30
0.0
 40
57.500000000011823
 50
326.71941484145373
 51
0.0
  0
CIRCLE
  5
99910
  8
DETAIL
 10
314.29747468305862
 20
728.55252531694157
 30
0.0
 40
10.5
  0
ARC
  5
99911
  8
DETAIL
 10
314.29747468305499
 20
728.5525253169435
 30
0.0
 40
17.500000000001819
 50
270.0
 51
0.0
  0
CIRCLE
  5
99912
  8
DETAIL
 10
314.29747468305862
 20
827.54747468305868
 30
0.0
 40
10.5
  0
LINE
  5
99913
  8
DETAIL
 10
331.79747468305862
 20
728.55252531694157
 30
0.0
 11
331.79747468305862
 21
827.54747468305868
 31
0.0
  0
LINE
  5
99914
  8
DETAIL
 10
371.79747468305868
 20
728.55252531694157
 30
0.0
 11
371.79747468305868
 21
827.54747468305868
 31
0.0
  0
LINE
  5
99915
  8
DETAIL
 10
400.0
 20
1011.800000000001
 30
0.0
 11
400.0
 21
918.00000000000193
 31
0.0
  0
LINE
  5
99916
  8
DETAIL
 10
295.04999999999922
 20
845.04747468305857
 30
0.0
 11
314.29747468305862
 21
845.04747468305857
 31
0.0
  0
LINE
  5
99917
  8
DETAIL
 10
376.79999999999922
 20
1065.0
 30
0.0
 11
397.0
 21
1065.0
 31
0.0
  0
LINE
  5
99918
  8
DETAIL
 10
376.79999999999922
 20
1068.2
 30
0.0
 11
376.79999999999922
 21
1065.0
 31
0.0
  0
LINE
  5
99919
  8
DETAIL
 10
393.79999999999922
 20
1068.2
 30
0.0
 11
376.79999999999922
 21
1068.2
 31
0.0
  0
ARC
  5
9991A
  8
DETAIL
 10
396.79999999999922
 20
1011.800000000001
 30
0.0
 40
3.2000000000007272
 50
0.0
 51
90.0
  0
LINE
  5
99B3C
  8
DETAIL
 10
400.0
 20
1750.0000000000009
 30
0.0
 11
-400.0
 21
1750.0000000000009
 31
0.0
  0
POLYLINE
  5
99B3D
  8
DETAIL
 66
     1
 10
0.0
 20
0.0
 30
0.0
  0
VERTEX
  5
9ACD1
  8
DETAIL
 10
-30.951559054641621
 20
1601.0999999999999
 30
0.0
  0
VERTEX
  5
9ACD2
  8
DETAIL
 10
-31.069560293170071
 20
1607.3027267269799
 30
0.0
  0
VERTEX
  5
9ACD3
  8
DETAIL
 10
-31.374882367337701
 20
1613.486423303742
 30
0.0
  0
VERTEX
  5
9ACD4
  8
DETAIL
 10
-31.866695553930182
 20
1619.6342853226099
 30
0.0
  0
VERTEX
  5
9ACD5
  8
DETAIL
 10
-32.543663333730358
 20
1625.729605757547
 30
0.0
  0
VERTEX
  5
9ACD6
  8
DETAIL
 10
-33.403946023568999
 20
1631.7558203660799
 30
0.0
  0
VERTEX
  5
9ACD7
  8
DETAIL
 10
-34.445205775706199
 20
1637.6965527031821
 30
0.0
  0
VERTEX
  5
9ACD8
  8
DETAIL
 10
-35.664612931032018
 20
1643.5356586248411
 30
0.0
  0
VERTEX
  5
9ACD9
  8
DETAIL
 10
-37.058853708746021
 20
1649.2572701603131
 30
0.0
  0
VERTEX
  5
9ACDA
  8
DETAIL
 10
-38.624139211689901
 20
1654.845838633875
 30
0.0
  0
VERTEX
  5
9ACDB
  8
DETAIL
 10
-40.356215722782508
 20
1660.2861769189051
 30
0.0
  0
VERTEX
  5
9ACDC
  8
DETAIL
 10
-42.250376264662911
 20
1665.5635007093949
 30
0.0
  0
VERTEX
  5
9ACDD
  8
DETAIL
 10
-44.301473391045867
 20
1670.66346869682
 30
0.0
  0
VERTEX
  5
9ACDE
  8
DETAIL
 10
-46.503933175097693
 20
1675.5722215431449
 30
0.0
  0
VERTEX
  5
9ACDF
  8
DETAIL
 10
-48.851770356766792
 20
1680.276419544032
 30
0.0
  0
VERTEX
  5
9ACE0
  8
DETAIL
 10
-51.338604607930392
 20
1684.763278879971
 30
0.0
  0
VERTEX
  5
9ACE1
  8
DETAIL
 10
-53.957677871163469
 20
1689.0206063567159
 30
0.0
  0
VERTEX
  5
9ACE2
  8
DETAIL
 10
-56.701872724981513
 20
1693.036832540741
 30
0.0
  0
VERTEX
  5
9ACE3
  8
DETAIL
 10
-59.563731725691468
 20
1696.801043199549
 30
0.0
  0
VERTEX
  5
9ACE4
  8
DETAIL
 10
-62.535477673231071
 20
1700.3030089614861
 30
0.0
  0
VERTEX
  5
9ACE5
  8
DETAIL
 10
-65.609034746001271
 20
1703.5332131144
 30
0.0
  0
VERTEX
  5
9ACE6
  8
DETAIL
 10
-68.776050447169837
 20
1706.4828774676489
 30
0.0
  0
VERTEX
  5
9ACE7
  8
DETAIL
 10
-72.02791830287606
 20
1709.143986207114
 30
0.0
  0
VERTEX
  5
9ACE8
  8
DETAIL
 10
-75.355801250610966
 20
1711.5093076784681
 30
0.0
  0
VERTEX
  5
9ACE9
  8
DETAIL
 10
-78.750655654253933
 20
1713.57241403943
 30
0.0
  0
VERTEX
  5
9ACEA
  8
DETAIL
 10
-82.203255880445795
 20
1715.3276987276579
 30
0.0
  0
VERTEX
  5
9ACEB
  8
DETAIL
 10
-85.704219369577899
 20
1716.770391696771
 30
0.0
  0
VERTEX
  5
9ACEC
  8
DETAIL
 10
-89.244032133217843
 20
1717.8965723791091
 30
0.0
  0
VERTEX
  5
9ACED
  8
DETAIL
 10
-92.813074608682655
 20
1718.7031803400189
 30
0.0
  0
VERTEX
  5
9ACEE
  8
DETAIL
 10
-96.401647800557825
 20
1719.188023594683
 30
0.0
  0
VERTEX
  5
9ACEF
  8
DETAIL
 10
-99.999999638035675
 20
1719.3497845649119
 30
0.0
  0
SEQEND
  5
9ACF0
  8
DETAIL
  0
LINE
  5
99B3E
  8
DETAIL
 10
-287.30000000000291
 20
1087.3000000000011
 30
0.0
 11
187.29999999999919
 21
1087.3000000000011
 31
0.0
  0
ARC
  5
99B3F
  8
DETAIL
 10
-50.0
 20
1293.3000000000029
 30
0.0
 40
161.99999999999849
 50
24.42993964306212
 51
155.57006035693789
  0
ARC
  5
99B40
  8
DETAIL
 10
-50.000000000003638
 20
1293.299999999997
 30
0.0
 40
157.00000000000421
 50
25.261583961445179
 51
90.0
  0
LINE
  5
99B41
  8
DETAIL
 10
-171.22503561260959
 20
1353.3000000000011
 30
0.0
 11
71.225035612606007
 21
1353.299999999999
 31
0.0
  0
CIRCLE
  5
99B42
  8
DETAIL
 10
-50.0
 20
1468.3000000000011
 30
0.0
 40
6.750000000000111
  0
ARC
  5
99B43
  8
DETAIL
 10
-50.0
 20
1293.299999999952
 30
0.0
 40
132.60000000004851
 50
85.241487963166435
 51
94.758512036833579
  0
LINE
  5
99B44
  8
DETAIL
 10
-61.0
 20
1447.3000000000011
 30
0.0
 11
-39.0
 21
1447.299999999999
 31
0.0
  0
CIRCLE
  5
99B45
  8
DETAIL
 10
-50.0
 20
1293.3000000000011
 30
0.0
 40
17.5
  0
CIRCLE
  5
99B46
  8
DETAIL
 10
-50.0
 20
1293.3000000000011
 30
0.0
 40
8.8250000000002213
  0
CIRCLE
  5
99B47
  8
DETAIL
 10
-50.0
 20
1293.3000000000011
 30
0.0
 40
7.2500000000002292
  0
ARC
  5
99B48
  8
DETAIL
 10
-50.000000000001819
 20
1293.3000000000011
 30
0.0
 40
189.99999999999929
 50
20.648358966777039
 51
159.3516410332229
  0
ARC
  5
99B49
  8
DETAIL
 10
-50.0
 20
1293.3000000000011
 30
0.0
 40
190.0000000000004
 50
200.64835896677701
 51
339.3516410332229
  0
ARC
  5
99B4A
  8
DETAIL
 10
-50.0
 20
1293.299999999999
 30
0.0
 40
161.99999999999849
 50
204.42993964306211
 51
335.57006035693792
  0
LINE
  5
99B4B
  8
DETAIL
 10
-171.22503561260959
 20
1233.3000000000011
 30
0.0
 11
71.225035612606007
 21
1233.299999999999
 31
0.0
  0
ARC
  5
99B4C
  8
DETAIL
 10
-50.0
 20
1293.299999999997
 30
0.0
 40
156.99999999999639
 50
270.0
 51
334.73841603855482
  0
CIRCLE
  5
99B4D
  8
DETAIL
 10
-50.0
 20
1118.3000000000011
 30
0.0
 40
6.750000000000111
  0
ARC
  5
99B4E
  8
DETAIL
 10
-50.0
 20
1293.299999999917
 30
0.0
 40
132.5999999999176
 50
265.24148796316632
 51
274.75851203683351
  0
ARC
  5
99B4F
  8
DETAIL
 10
-50.0
 20
1499.5500000000011
 30
0.0
 40
6.25
 50
180.0
 51
0.0
  0
ARC
  5
99B50
  8
DETAIL
 10
-50.0
 20
1547.0500000000011
 30
0.0
 40
6.25
 50
0.0
 51
180.0
  0
LINE
  5
99B51
  8
DETAIL
 10
-65.0
 20
1493.3000000000011
 30
0.0
 11
-35.0
 21
1493.3000000000011
 31
0.0
  0
LINE
  5
99B52
  8
DETAIL
 10
-208.00000000000361
 20
1601.0999999999999
 30
0.0
 11
107.99999999999631
 21
1601.0999999999999
 31
0.0
  0
LINE
  5
99B53
  8
DETAIL
 10
-210.00000000000361
 20
1593.0999999999999
 30
0.0
 11
109.99999999999631
 21
1593.0999999999999
 31
0.0
  0
LINE
  5
99B54
  8
DETAIL
 10
47.19615242270811
 20
1493.3000000000011
 30
0.0
 11
-147.19615242270811
 21
1493.3000000000029
 31
0.0
  0
LINE
  5
99B55
  8
DETAIL
 10
-164.0
 20
1093.3000000000011
 30
0.0
 11
64.0
 21
1093.3000000000011
 31
0.0
  0
LINE
  5
99B56
  8
DETAIL
 10
-56.25
 20
1499.5500000000011
 30
0.0
 11
-56.25
 21
1547.0500000000011
 31
0.0
  0
LINE
  5
99B57
  8
DETAIL
 10
-210.00000000000361
 20
1518.0999999999999
 30
0.0
 11
-210.00000000000361
 21
1599.0999999999999
 31
0.0
  0
LINE
  5
99B58
  8
DETAIL
 10
-177.0
 20
1229.3000000000011
 30
0.0
 11
-177.0
 21
1357.3000000000011
 31
0.0
  0
LINE
  5
99B59
  8
DETAIL
 10
-257.5
 20
1225.299999999999
 30
0.0
 11
-257.5
 21
1361.299999999999
 31
0.0
  0
LINE
  5
99B5A
  8
DETAIL
 10
-232.0
 20
1229.3000000000011
 30
0.0
 11
-232.0
 21
1357.3000000000011
 31
0.0
  0
LINE
  5
99B5B
  8
DETAIL
 10
-236.5
 20
1240.799999999999
 30
0.0
 11
-236.5
 21
1361.299999999999
 31
0.0
  0
LINE
  5
99B5C
  8
DETAIL
 10
-180.0
 20
1226.3000000000011
 30
0.0
 11
-229.0
 21
1226.3000000000011
 31
0.0
  0
CIRCLE
  5
99B5D
  8
DETAIL
 10
-205.92614173296531
 20
1213.8516625455809
 30
0.0
 40
9.0000000000000604
  0
LINE
  5
99B5E
  8
DETAIL
 10
-223.19999999999891
 20
1163.3000000000011
 30
0.0
 11
-195.19087606936219
 21
1163.3000000000011
 31
0.0
  0
LINE
  5
99B5F
  8
DETAIL
 10
-223.19999999999891
 20
1178.3000000000011
 30
0.0
 11
-201.24483462254281
 21
1178.3000000000011
 31
0.0
  0
LINE
  5
99B60
  8
DETAIL
 10
-225.196152422708
 20
1178.3000000000011
 30
0.0
 11
-201.24483462254281
 21
1178.3000000000011
 31
0.0
  0
LINE
  5
99B61
  8
DETAIL
 10
-192.431456169179
 20
1167.549134024742
 30
0.0
 11
-239.5160117038358
 21
1095.045276620159
 31
0.0
  0
LINE
  5
99B62
  8
DETAIL
 10
-237.0
 20
1094.3000000000011
 30
0.0
 11
-196.91535288356309
 21
1094.3000000000011
 31
0.0
  0
LINE
  5
99B63
  8
DETAIL
 10
-230.0
 20
1190.3000000000011
 30
0.0
 11
-230.0
 21
1226.471572875254
 31
0.0
  0
LINE
  5
99B64
  8
DETAIL
 10
-230.79999999999919
 20
1190.3000000000011
 30
0.0
 11
-230.79999999999919
 21
1226.899999999999
 31
0.0
  0
LINE
  5
99B65
  8
DETAIL
 10
-246.80000000000291
 20
1225.299999999999
 30
0.0
 11
-246.80000000000291
 21
1191.3000000000011
 31
0.0
  0
LINE
  5
99B66
  8
DETAIL
 10
-219.04999999999919
 20
1163.3000000000011
 30
0.0
 11
-219.04999999999919
 21
1126.5601709919099
 31
0.0
  0
LINE
  5
99B67
  8
DETAIL
 10
-240.0
 20
1087.3000000000011
 30
0.0
 11
-240.0
 21
1093.4113595151171
 31
0.0
  0
LINE
  5
99B68
  8
DETAIL
 10
-230.0
 20
1190.3000000000011
 30
0.0
 11
-230.79999999999919
 21
1190.3000000000011
 31
0.0
  0
LINE
  5
99B69
  8
DETAIL
 10
-224.0
 20
1164.0999999999999
 30
0.0
 11
-224.0
 21
1177.5000000000009
 31
0.0
  0
LINE
  5
99B6A
  8
DETAIL
 10
-223.19999999999891
 20
1178.3000000000011
 30
0.0
 11
-224.0
 21
1177.5000000000009
 31
0.0
  0
LINE
  5
99B6B
  8
DETAIL
 10
-223.19999999999891
 20
1163.3000000000011
 30
0.0
 11
-224.0
 21
1164.0999999999999
 31
0.0
  0
LINE
  5
99B6C
  8
DETAIL
 10
-246.80000000000291
 20
1191.3000000000011
 30
0.0
 11
-245.79999999999919
 21
1190.3000000000011
 31
0.0
  0
LINE
  5
99B6D
  8
DETAIL
 10
-231.30000000000291
 20
1190.3000000000011
 30
0.0
 11
-245.79999999999919
 21
1190.3000000000011
 31
0.0
  0
LINE
  5
99B6E
  8
DETAIL
 10
-230.79999999999919
 20
1190.8000000000011
 30
0.0
 11
-231.30000000000291
 21
1190.3000000000011
 31
0.0
  0
ARC
  5
99B6F
  8
DETAIL
 10
-233.50000000001091
 20
1185.0084380241069
 30
0.0
 40
6.0000000000100044
 50
0.0
 51
54.314665287292343
  0
LINE
  5
99B70
  8
DETAIL
 10
-227.49999999999989
 20
1181.362177826491
 30
0.0
 11
-227.49999999999989
 21
1185.008438024113
 31
0.0
  0
LINE
  5
99B71
  8
DETAIL
 10
-225.196152422708
 20
1178.3000000000011
 30
0.0
 11
-226.0
 21
1178.764101615139
 31
0.0
  0
ARC
  5
99B72
  8
DETAIL
 10
-224.49999999999631
 20
1181.3621778264951
 30
0.0
 40
3.0000000000054561
 50
180.00000000010419
 51
239.99999999994449
  0
ARC
  5
99B73
  8
DETAIL
 10
-237.00000000000909
 20
1093.4113595151171
 30
0.0
 40
2.9999999999909281
 50
146.99999999997371
 51
180.0
  0
ARC
  5
99B74
  8
DETAIL
 10
-237.00000000000179
 20
1091.300000000002
 30
0.0
 40
2.9999999999986362
 50
90.0
 51
180.0
  0
LINE
  5
99B75
  8
DETAIL
 10
-280.79999999999922
 20
1282.3000000000011
 30
0.0
 11
-295.30000000000291
 21
1282.3000000000011
 31
0.0
  0
LINE
  5
99B76
  8
DETAIL
 10
-283.80000000000291
 20
1298.3000000000011
 30
0.0
 11
-295.30000000000291
 21
1298.3000000000011
 31
0.0
  0
LINE
  5
99B77
  8
DETAIL
 10
-280.79999999999922
 20
1303.3000000000011
 30
0.0
 11
-295.30000000000291
 21
1303.3000000000011
 31
0.0
  0
LINE
  5
99B78
  8
DETAIL
 10
-295.30000000000291
 20
1282.3000000000011
 30
0.0
 11
-295.30000000000291
 21
1303.3000000000011
 31
0.0
  0
ARC
  5
99B79
  8
DETAIL
 10
-293.79999999999558
 20
1273.639745962153
 30
0.0
 40
11.24999999999271
 50
329.99999999998971
 51
0.0
  0
LINE
  5
99B7A
  8
DETAIL
 10
-283.80000000000291
 20
1297.0999999999999
 30
0.0
 11
-284.80000000000291
 21
1297.0999999999999
 31
0.0
  0
LINE
  5
99B7B
  8
DETAIL
 10
-284.80000000000291
 20
1289.5
 30
0.0
 11
-283.80000000000291
 21
1289.5
 31
0.0
  0
LINE
  5
99B7C
  8
DETAIL
 10
-284.80000000000291
 20
1289.5
 30
0.0
 11
-284.80000000000291
 21
1297.0999999999999
 31
0.0
  0
LINE
  5
99B7D
  8
DETAIL
 10
-283.80000000000291
 20
1289.5
 30
0.0
 11
-283.80000000000291
 21
1297.0999999999999
 31
0.0
  0
LINE
  5
99B7E
  8
DETAIL
 10
-280.79999999999922
 20
1295.95
 30
0.0
 11
-280.79999999999922
 21
1290.650000000001
 31
0.0
  0
LINE
  5
99B7F
  8
DETAIL
 10
-257.5
 20
1295.95
 30
0.0
 11
-280.79999999999922
 21
1295.95
 31
0.0
  0
LINE
  5
99B80
  8
DETAIL
 10
-257.5
 20
1290.650000000001
 30
0.0
 11
-280.79999999999922
 21
1290.650000000001
 31
0.0
  0
POLYLINE
  5
99B81
  8
DETAIL
 66
     1
 10
0.0
 20
0.0
 30
0.0
  0
VERTEX
  5
9ACF1
  8
DETAIL
 10
-270.30000000000291
 20
1287.7434723072779
 30
0.0
  0
VERTEX
  5
9ACF2
  8
DETAIL
 10
-270.32882207939468
 20
1287.9503968417409
 30
0.0
  0
VERTEX
  5
9ACF3
  8
DETAIL
 10
-270.41418070123291
 20
1288.1493693823879
 30
0.0
  0
VERTEX
  5
9ACF4
  8
DETAIL
 10
-270.55279558154689
 20
1288.332743526068
 30
0.0
  0
VERTEX
  5
9ACF5
  8
DETAIL
 10
-270.739339828222
 20
1288.4934723072779
 30
0.0
  0
VERTEX
  5
9ACF6
  8
DETAIL
 10
-270.96664465047058
 20
1288.6253790090921
 30
0.0
  0
VERTEX
  5
9ACF7
  8
DETAIL
 10
-271.22597485145519
 20
1288.723394530934
 30
0.0
  0
VERTEX
  5
9ACF8
  8
DETAIL
 10
-271.50736451697588
 20
1288.7837521912691
 30
0.0
  0
VERTEX
  5
9ACF9
  8
DETAIL
 10
-271.80000000000291
 20
1288.804132479057
 30
0.0
  0
VERTEX
  5
9ACFA
  8
DETAIL
 10
-272.09263548302619
 20
1288.7837521912691
 30
0.0
  0
VERTEX
  5
9ACFB
  8
DETAIL
 10
-272.37402514854688
 20
1288.723394530934
 30
0.0
  0
VERTEX
  5
9ACFC
  8
DETAIL
 10
-272.63335534953143
 20
1288.6253790090921
 30
0.0
  0
VERTEX
  5
9ACFD
  8
DETAIL
 10
-272.86066017178013
 20
1288.4934723072779
 30
0.0
  0
VERTEX
  5
9ACFE
  8
DETAIL
 10
-273.04720441845529
 20
1288.332743526068
 30
0.0
  0
VERTEX
  5
9ACFF
  8
DETAIL
 10
-273.1858192987674
 20
1288.1493693823879
 30
0.0
  0
VERTEX
  5
9AD00
  8
DETAIL
 10
-273.27117792060562
 20
1287.9503968417409
 30
0.0
  0
VERTEX
  5
9AD01
  8
DETAIL
 10
-273.29999999999922
 20
1287.7434723072779
 30
0.0
  0
VERTEX
  5
9AD02
  8
DETAIL
 10
-273.27117792060562
 20
1287.5365477728151
 30
0.0
  0
VERTEX
  5
9AD03
  8
DETAIL
 10
-273.1858192987674
 20
1287.3375752321681
 30
0.0
  0
VERTEX
  5
9AD04
  8
DETAIL
 10
-273.04720441845529
 20
1287.154201088488
 30
0.0
  0
VERTEX
  5
9AD05
  8
DETAIL
 10
-272.86066017178013
 20
1286.9934723072779
 30
0.0
  0
VERTEX
  5
9AD06
  8
DETAIL
 10
-272.63335534953143
 20
1286.8615656054619
 30
0.0
  0
VERTEX
  5
9AD07
  8
DETAIL
 10
-272.37402514854688
 20
1286.76355008362
 30
0.0
  0
VERTEX
  5
9AD08
  8
DETAIL
 10
-272.09263548302619
 20
1286.703192423287
 30
0.0
  0
VERTEX
  5
9AD09
  8
DETAIL
 10
-271.80000000000291
 20
1286.682812135499
 30
0.0
  0
VERTEX
  5
9AD0A
  8
DETAIL
 10
-271.50736451697588
 20
1286.703192423287
 30
0.0
  0
VERTEX
  5
9AD0B
  8
DETAIL
 10
-271.22597485145519
 20
1286.76355008362
 30
0.0
  0
VERTEX
  5
9AD0C
  8
DETAIL
 10
-270.96664465047058
 20
1286.8615656054619
 30
0.0
  0
VERTEX
  5
9AD0D
  8
DETAIL
 10
-270.739339828222
 20
1286.9934723072779
 30
0.0
  0
VERTEX
  5
9AD0E
  8
DETAIL
 10
-270.55279558154689
 20
1287.154201088488
 30
0.0
  0
VERTEX
  5
9AD0F
  8
DETAIL
 10
-270.41418070123291
 20
1287.3375752321681
 30
0.0
  0
VERTEX
  5
9AD10
  8
DETAIL
 10
-270.32882207939468
 20
1287.5365477728151
 30
0.0
  0
VERTEX
  5
9AD11
  8
DETAIL
 10
-270.30000000000291
 20
1287.7434723072779
 30
0.0
  0
SEQEND
  5
9AD12
  8
DETAIL
  0
POLYLINE
  5
99B82
  8
DETAIL
 66
     1
 10
0.0
 20
0.0
 30
0.0
  0
VERTEX
  5
9AD13
  8
DETAIL
 10
-270.55000000000291
 20
1287.7126258403439
 30
0.0
  0
VERTEX
  5
9AD14
  8
DETAIL
 10
-270.57401839949489
 20
1287.8850629523949
 30
0.0
  0
VERTEX
  5
9AD15
  8
DETAIL
 10
-270.64515058436149
 20
1288.0508734029349
 30
0.0
  0
VERTEX
  5
9AD16
  8
DETAIL
 10
-270.76066298462308
 20
1288.2036851893349
 30
0.0
  0
VERTEX
  5
9AD17
  8
DETAIL
 10
-270.91611652351639
 20
1288.3376258403439
 30
0.0
  0
VERTEX
  5
9AD18
  8
DETAIL
 10
-271.10553720872838
 20
1288.447548091855
 30
0.0
  0
VERTEX
  5
9AD19
  8
DETAIL
 10
-271.3216457095441
 20
1288.5292276933919
 30
0.0
  0
VERTEX
  5
9AD1A
  8
DETAIL
 10
-271.55613709748098
 20
1288.579525743671
 30
0.0
  0
VERTEX
  5
9AD1B
  8
DETAIL
 10
-271.80000000000291
 20
1288.596509316827
 30
0.0
  0
VERTEX
  5
9AD1C
  8
DETAIL
 10
-272.04386290251932
 20
1288.579525743671
 30
0.0
  0
VERTEX
  5
9AD1D
  8
DETAIL
 10
-272.27835429045808
 20
1288.5292276933919
 30
0.0
  0
VERTEX
  5
9AD1E
  8
DETAIL
 10
-272.49446279127369
 20
1288.447548091855
 30
0.0
  0
VERTEX
  5
9AD1F
  8
DETAIL
 10
-272.68388347648568
 20
1288.3376258403439
 30
0.0
  0
VERTEX
  5
9AD20
  8
DETAIL
 10
-272.83933701537887
 20
1288.2036851893349
 30
0.0
  0
VERTEX
  5
9AD21
  8
DETAIL
 10
-272.95484941564058
 20
1288.0508734029349
 30
0.0
  0
VERTEX
  5
9AD22
  8
DETAIL
 10
-273.02598160050542
 20
1287.8850629523949
 30
0.0
  0
VERTEX
  5
9AD23
  8
DETAIL
 10
-273.05000000000291
 20
1287.7126258403439
 30
0.0
  0
VERTEX
  5
9AD24
  8
DETAIL
 10
-273.02598160050542
 20
1287.540188728291
 30
0.0
  0
VERTEX
  5
9AD25
  8
DETAIL
 10
-272.95484941564058
 20
1287.3743782777519
 30
0.0
  0
VERTEX
  5
9AD26
  8
DETAIL
 10
-272.83933701537887
 20
1287.2215664913531
 30
0.0
  0
VERTEX
  5
9AD27
  8
DETAIL
 10
-272.68388347648568
 20
1287.0876258403439
 30
0.0
  0
VERTEX
  5
9AD28
  8
DETAIL
 10
-272.49446279127369
 20
1286.9777035888319
 30
0.0
  0
VERTEX
  5
9AD29
  8
DETAIL
 10
-272.27835429045808
 20
1286.896023987297
 30
0.0
  0
VERTEX
  5
9AD2A
  8
DETAIL
 10
-272.04386290251932
 20
1286.845725937018
 30
0.0
  0
VERTEX
  5
9AD2B
  8
DETAIL
 10
-271.80000000000291
 20
1286.828742363861
 30
0.0
  0
VERTEX
  5
9AD2C
  8
DETAIL
 10
-271.55613709748098
 20
1286.845725937018
 30
0.0
  0
VERTEX
  5
9AD2D
  8
DETAIL
 10
-271.3216457095441
 20
1286.896023987297
 30
0.0
  0
VERTEX
  5
9AD2E
  8
DETAIL
 10
-271.10553720872838
 20
1286.9777035888319
 30
0.0
  0
VERTEX
  5
9AD2F
  8
DETAIL
 10
-270.91611652351639
 20
1287.0876258403439
 30
0.0
  0
VERTEX
  5
9AD30
  8
DETAIL
 10
-270.76066298462308
 20
1287.2215664913531
 30
0.0
  0
VERTEX
  5
9AD31
  8
DETAIL
 10
-270.64515058436149
 20
1287.3743782777519
 30
0.0
  0
VERTEX
  5
9AD32
  8
DETAIL
 10
-270.57401839949489
 20
1287.540188728291
 30
0.0
  0
VERTEX
  5
9AD33
  8
DETAIL
 10
-270.55000000000291
 20
1287.7126258403439
 30
0.0
  0
SEQEND
  5
9AD34
  8
DETAIL
  0
LINE
  5
99B83
  8
DETAIL
 10
-264.8000000000028
 20
1285.5999999999999
 30
0.0
 11
-264.8000000000028
 21
1290.650000000001
 31
0.0
  0
LINE
  5
99B84
  8
DETAIL
 10
-257.80000000000291
 20
1285.5999999999999
 30
0.0
 11
-257.80000000000291
 21
1290.650000000001
 31
0.0
  0
LINE
  5
99B85
  8
DETAIL
 10
-274.80000000000291
 20
1285.5999999999999
 30
0.0
 11
-274.80000000000291
 21
1290.650000000001
 31
0.0
  0
LINE
  5
99B86
  8
DETAIL
 10
-258.10000000000213
 20
1301.3000000000011
 30
0.0
 11
-264.5
 21
1301.3000000000011
 31
0.0
  0
LINE
  5
99B87
  8
DETAIL
 10
-258.10000000000213
 20
1285.3000000000011
 30
0.0
 11
-264.5
 21
1285.3000000000011
 31
0.0
  0
LINE
  5
99B88
  8
DETAIL
 10
-267.80000000000291
 20
1288.8000000000011
 30
0.0
 11
-267.80000000000291
 21
1290.650000000001
 31
0.0
  0
LINE
  5
99B89
  8
DETAIL
 10
-274.5
 20
1301.3000000000011
 30
0.0
 11
-266.66602540378511
 21
1301.3000000000011
 31
0.0
  0
LINE
  5
99B8A
  8
DETAIL
 10
-268.10000000000213
 20
1285.3000000000011
 30
0.0
 11
-274.5
 21
1285.3000000000011
 31
0.0
  0
ARC
  5
99B8B
  8
DETAIL
 10
-274.5
 20
1301.0
 30
0.0
 40
0.2999999999997272
 50
90.0
 51
180.00000000010419
  0
ARC
  5
99B8C
  8
DETAIL
 10
-258.10000000000031
 20
1301.0000000000009
 30
0.0
 40
0.2999999999983629
 50
359.9999999996873
 51
90.000000000156334
  0
ARC
  5
99B8D
  8
DETAIL
 10
-274.5
 20
1285.600000000004
 30
0.0
 40
0.3000000000029104
 50
180.0000000004168
 51
269.99999999963518
  0
ARC
  5
99B8E
  8
DETAIL
 10
-264.5
 20
1301.0
 30
0.0
 40
0.2999999999997272
 50
90.0
 51
180.00000000010419
  0
ARC
  5
99B8F
  8
DETAIL
 10
-264.5
 20
1285.600000000004
 30
0.0
 40
0.3000000000029104
 50
180.0000000004168
 51
269.99999999963518
  0
ARC
  5
99B90
  8
DETAIL
 10
-258.10000000000031
 20
1285.5999999999981
 30
0.0
 40
0.2999999999983629
 50
269.99999999984362
 51
0.0000000003126612
  0
POLYLINE
  5
99B91
  8
DETAIL
 66
     1
 10
0.0
 20
0.0
 30
0.0
  0
VERTEX
  5
9AD35
  8
DETAIL
 10
-259.54999999999922
 20
1287.7126258403439
 30
0.0
  0
VERTEX
  5
9AD36
  8
DETAIL
 10
-259.57401839949659
 20
1287.8850629523949
 30
0.0
  0
VERTEX
  5
9AD37
  8
DETAIL
 10
-259.64515058436149
 20
1288.0508734029349
 30
0.0
  0
VERTEX
  5
9AD38
  8
DETAIL
 10
-259.76066298462308
 20
1288.2036851893349
 30
0.0
  0
VERTEX
  5
9AD39
  8
DETAIL
 10
-259.91611652351997
 20
1288.3376258403439
 30
0.0
  0
VERTEX
  5
9AD3A
  8
DETAIL
 10
-260.10553720872849
 20
1288.447548091855
 30
0.0
  0
VERTEX
  5
9AD3B
  8
DETAIL
 10
-260.3216457095441
 20
1288.5292276933919
 30
0.0
  0
VERTEX
  5
9AD3C
  8
DETAIL
 10
-260.55613709748098
 20
1288.579525743671
 30
0.0
  0
VERTEX
  5
9AD3D
  8
DETAIL
 10
-260.79999999999922
 20
1288.596509316827
 30
0.0
  0
VERTEX
  5
9AD3E
  8
DETAIL
 10
-261.0438629025229
 20
1288.579525743671
 30
0.0
  0
VERTEX
  5
9AD3F
  8
DETAIL
 10
-261.27835429045803
 20
1288.5292276933919
 30
0.0
  0
VERTEX
  5
9AD40
  8
DETAIL
 10
-261.49446279127727
 20
1288.447548091855
 30
0.0
  0
VERTEX
  5
9AD41
  8
DETAIL
 10
-261.68388347648579
 20
1288.3376258403439
 30
0.0
  0
VERTEX
  5
9AD42
  8
DETAIL
 10
-261.83933701537899
 20
1288.2036851893349
 30
0.0
  0
VERTEX
  5
9AD43
  8
DETAIL
 10
-261.95484941564058
 20
1288.0508734029349
 30
0.0
  0
VERTEX
  5
9AD44
  8
DETAIL
 10
-262.02598160050542
 20
1287.8850629523949
 30
0.0
  0
VERTEX
  5
9AD45
  8
DETAIL
 10
-262.04999999999922
 20
1287.7126258403439
 30
0.0
  0
VERTEX
  5
9AD46
  8
DETAIL
 10
-262.02598160050542
 20
1287.540188728291
 30
0.0
  0
VERTEX
  5
9AD47
  8
DETAIL
 10
-261.95484941564058
 20
1287.3743782777519
 30
0.0
  0
VERTEX
  5
9AD48
  8
DETAIL
 10
-261.83933701537899
 20
1287.2215664913531
 30
0.0
  0
VERTEX
  5
9AD49
  8
DETAIL
 10
-261.68388347648579
 20
1287.0876258403439
 30
0.0
  0
VERTEX
  5
9AD4A
  8
DETAIL
 10
-261.49446279127727
 20
1286.9777035888319
 30
0.0
  0
VERTEX
  5
9AD4B
  8
DETAIL
 10
-261.27835429045803
 20
1286.896023987297
 30
0.0
  0
VERTEX
  5
9AD4C
  8
DETAIL
 10
-261.0438629025229
 20
1286.845725937018
 30
0.0
  0
VERTEX
  5
9AD4D
  8
DETAIL
 10
-260.79999999999922
 20
1286.828742363861
 30
0.0
  0
VERTEX
  5
9AD4E
  8
DETAIL
 10
-260.55613709748098
 20
1286.845725937018
 30
0.0
  0
VERTEX
  5
9AD4F
  8
DETAIL
 10
-260.3216457095441
 20
1286.896023987297
 30
0.0
  0
VERTEX
  5
9AD50
  8
DETAIL
 10
-260.10553720872849
 20
1286.9777035888319
 30
0.0
  0
VERTEX
  5
9AD51
  8
DETAIL
 10
-259.91611652351997
 20
1287.0876258403439
 30
0.0
  0
VERTEX
  5
9AD52
  8
DETAIL
 10
-259.76066298462308
 20
1287.2215664913531
 30
0.0
  0
VERTEX
  5
9AD53
  8
DETAIL
 10
-259.64515058436149
 20
1287.3743782777519
 30
0.0
  0
VERTEX
  5
9AD54
  8
DETAIL
 10
-259.57401839949659
 20
1287.540188728291
 30
0.0
  0
VERTEX
  5
9AD55
  8
DETAIL
 10
-259.54999999999922
 20
1287.7126258403439
 30
0.0
  0
SEQEND
  5
9AD56
  8
DETAIL
  0
POLYLINE
  5
99B92
  8
DETAIL
 66
     1
 10
0.0
 20
0.0
 30
0.0
  0
VERTEX
  5
9AD57
  8
DETAIL
 10
-259.30000000000291
 20
1287.7434723072779
 30
0.0
  0
VERTEX
  5
9AD58
  8
DETAIL
 10
-259.32882207939832
 20
1287.9503968417409
 30
0.0
  0
VERTEX
  5
9AD59
  8
DETAIL
 10
-259.41418070123279
 20
1288.1493693823879
 30
0.0
  0
VERTEX
  5
9AD5A
  8
DETAIL
 10
-259.55279558154689
 20
1288.332743526068
 30
0.0
  0
VERTEX
  5
9AD5B
  8
DETAIL
 10
-259.73933982822189
 20
1288.4934723072779
 30
0.0
  0
VERTEX
  5
9AD5C
  8
DETAIL
 10
-259.9666446504707
 20
1288.6253790090921
 30
0.0
  0
VERTEX
  5
9AD5D
  8
DETAIL
 10
-260.22597485145519
 20
1288.723394530934
 30
0.0
  0
VERTEX
  5
9AD5E
  8
DETAIL
 10
-260.50736451697588
 20
1288.7837521912691
 30
0.0
  0
VERTEX
  5
9AD5F
  8
DETAIL
 10
-260.79999999999922
 20
1288.804132479057
 30
0.0
  0
VERTEX
  5
9AD60
  8
DETAIL
 10
-261.09263548302619
 20
1288.7837521912691
 30
0.0
  0
VERTEX
  5
9AD61
  8
DETAIL
 10
-261.3740251485487
 20
1288.723394530934
 30
0.0
  0
VERTEX
  5
9AD62
  8
DETAIL
 10
-261.63335534953143
 20
1288.6253790090921
 30
0.0
  0
VERTEX
  5
9AD63
  8
DETAIL
 10
-261.86066017178018
 20
1288.4934723072779
 30
0.0
  0
VERTEX
  5
9AD64
  8
DETAIL
 10
-262.04720441845518
 20
1288.332743526068
 30
0.0
  0
VERTEX
  5
9AD65
  8
DETAIL
 10
-262.1858192987674
 20
1288.1493693823879
 30
0.0
  0
VERTEX
  5
9AD66
  8
DETAIL
 10
-262.27117792060562
 20
1287.9503968417409
 30
0.0
  0
VERTEX
  5
9AD67
  8
DETAIL
 10
-262.30000000000291
 20
1287.7434723072779
 30
0.0
  0
VERTEX
  5
9AD68
  8
DETAIL
 10
-262.27117792060562
 20
1287.5365477728151
 30
0.0
  0
VERTEX
  5
9AD69
  8
DETAIL
 10
-262.1858192987674
 20
1287.3375752321681
 30
0.0
  0
VERTEX
  5
9AD6A
  8
DETAIL
 10
-262.04720441845518
 20
1287.154201088488
 30
0.0
  0
VERTEX
  5
9AD6B
  8
DETAIL
 10
-261.86066017178018
 20
1286.9934723072779
 30
0.0
  0
VERTEX
  5
9AD6C
  8
DETAIL
 10
-261.63335534953143
 20
1286.8615656054619
 30
0.0
  0
VERTEX
  5
9AD6D
  8
DETAIL
 10
-261.3740251485487
 20
1286.76355008362
 30
0.0
  0
VERTEX
  5
9AD6E
  8
DETAIL
 10
-261.09263548302619
 20
1286.703192423287
 30
0.0
  0
VERTEX
  5
9AD6F
  8
DETAIL
 10
-260.79999999999922
 20
1286.682812135499
 30
0.0
  0
VERTEX
  5
9AD70
  8
DETAIL
 10
-260.50736451697588
 20
1286.703192423287
 30
0.0
  0
VERTEX
  5
9AD71
  8
DETAIL
 10
-260.22597485145519
 20
1286.76355008362
 30
0.0
  0
VERTEX
  5
9AD72
  8
DETAIL
 10
-259.9666446504707
 20
1286.8615656054619
 30
0.0
  0
VERTEX
  5
9AD73
  8
DETAIL
 10
-259.73933982822189
 20
1286.9934723072779
 30
0.0
  0
VERTEX
  5
9AD74
  8
DETAIL
 10
-259.55279558154689
 20
1287.154201088488
 30
0.0
  0
VERTEX
  5
9AD75
  8
DETAIL
 10
-259.41418070123279
 20
1287.3375752321681
 30
0.0
  0
VERTEX
  5
9AD76
  8
DETAIL
 10
-259.32882207939832
 20
1287.5365477728151
 30
0.0
  0
VERTEX
  5
9AD77
  8
DETAIL
 10
-259.30000000000291
 20
1287.7434723072779
 30
0.0
  0
SEQEND
  5
9AD78
  8
DETAIL
  0
POLYLINE
  5
99B93
  8
DETAIL
 66
     1
 10
0.0
 20
0.0
 30
0.0
  0
VERTEX
  5
9AD79
  8
DETAIL
 10
-259.30000000000291
 20
1298.8565276927229
 30
0.0
  0
VERTEX
  5
9AD7A
  8
DETAIL
 10
-259.32882207939832
 20
1299.063452227186
 30
0.0
  0
VERTEX
  5
9AD7B
  8
DETAIL
 10
-259.41418070123279
 20
1299.2624247678341
 30
0.0
  0
VERTEX
  5
9AD7C
  8
DETAIL
 10
-259.55279558154689
 20
1299.445798911514
 30
0.0
  0
VERTEX
  5
9AD7D
  8
DETAIL
 10
-259.73933982822189
 20
1299.6065276927241
 30
0.0
  0
VERTEX
  5
9AD7E
  8
DETAIL
 10
-259.9666446504707
 20
1299.7384343945389
 30
0.0
  0
VERTEX
  5
9AD7F
  8
DETAIL
 10
-260.22597485145519
 20
1299.8364499163811
 30
0.0
  0
VERTEX
  5
9AD80
  8
DETAIL
 10
-260.50736451697588
 20
1299.896807576715
 30
0.0
  0
VERTEX
  5
9AD81
  8
DETAIL
 10
-260.79999999999922
 20
1299.9171878645041
 30
0.0
  0
VERTEX
  5
9AD82
  8
DETAIL
 10
-261.09263548302619
 20
1299.896807576715
 30
0.0
  0
VERTEX
  5
9AD83
  8
DETAIL
 10
-261.3740251485487
 20
1299.8364499163811
 30
0.0
  0
VERTEX
  5
9AD84
  8
DETAIL
 10
-261.63335534953143
 20
1299.7384343945389
 30
0.0
  0
VERTEX
  5
9AD85
  8
DETAIL
 10
-261.86066017178018
 20
1299.6065276927241
 30
0.0
  0
VERTEX
  5
9AD86
  8
DETAIL
 10
-262.04720441845518
 20
1299.445798911514
 30
0.0
  0
VERTEX
  5
9AD87
  8
DETAIL
 10
-262.1858192987674
 20
1299.2624247678341
 30
0.0
  0
VERTEX
  5
9AD88
  8
DETAIL
 10
-262.27117792060562
 20
1299.063452227186
 30
0.0
  0
VERTEX
  5
9AD89
  8
DETAIL
 10
-262.30000000000291
 20
1298.8565276927229
 30
0.0
  0
VERTEX
  5
9AD8A
  8
DETAIL
 10
-262.27117792060562
 20
1298.649603158261
 30
0.0
  0
VERTEX
  5
9AD8B
  8
DETAIL
 10
-262.1858192987674
 20
1298.4506306176129
 30
0.0
  0
VERTEX
  5
9AD8C
  8
DETAIL
 10
-262.04720441845518
 20
1298.267256473933
 30
0.0
  0
VERTEX
  5
9AD8D
  8
DETAIL
 10
-261.86066017178018
 20
1298.1065276927229
 30
0.0
  0
VERTEX
  5
9AD8E
  8
DETAIL
 10
-261.63335534953143
 20
1297.974620990909
 30
0.0
  0
VERTEX
  5
9AD8F
  8
DETAIL
 10
-261.3740251485487
 20
1297.876605469067
 30
0.0
  0
VERTEX
  5
9AD90
  8
DETAIL
 10
-261.09263548302619
 20
1297.816247808732
 30
0.0
  0
VERTEX
  5
9AD91
  8
DETAIL
 10
-260.79999999999922
 20
1297.7958675209441
 30
0.0
  0
VERTEX
  5
9AD92
  8
DETAIL
 10
-260.50736451697588
 20
1297.816247808732
 30
0.0
  0
VERTEX
  5
9AD93
  8
DETAIL
 10
-260.22597485145519
 20
1297.876605469067
 30
0.0
  0
VERTEX
  5
9AD94
  8
DETAIL
 10
-259.9666446504707
 20
1297.974620990909
 30
0.0
  0
VERTEX
  5
9AD95
  8
DETAIL
 10
-259.73933982822189
 20
1298.1065276927229
 30
0.0
  0
VERTEX
  5
9AD96
  8
DETAIL
 10
-259.55279558154689
 20
1298.267256473933
 30
0.0
  0
VERTEX
  5
9AD97
  8
DETAIL
 10
-259.41418070123279
 20
1298.4506306176129
 30
0.0
  0
VERTEX
  5
9AD98
  8
DETAIL
 10
-259.32882207939832
 20
1298.649603158261
 30
0.0
  0
VERTEX
  5
9AD99
  8
DETAIL
 10
-259.30000000000291
 20
1298.8565276927229
 30
0.0
  0
SEQEND
  5
9AD9A
  8
DETAIL
  0
POLYLINE
  5
99B94
  8
DETAIL
 66
     1
 10
0.0
 20
0.0
 30
0.0
  0
VERTEX
  5
9AD9B
  8
DETAIL
 10
-259.54999999999922
 20
1298.8873741596581
 30
0.0
  0
VERTEX
  5
9AD9C
  8
DETAIL
 10
-259.57401839949659
 20
1299.0598112717089
 30
0.0
  0
VERTEX
  5
9AD9D
  8
DETAIL
 10
-259.64515058436149
 20
1299.2256217222489
 30
0.0
  0
VERTEX
  5
9AD9E
  8
DETAIL
 10
-259.76066298462308
 20
1299.3784335086491
 30
0.0
  0
VERTEX
  5
9AD9F
  8
DETAIL
 10
-259.91611652351997
 20
1299.5123741596581
 30
0.0
  0
VERTEX
  5
9ADA0
  8
DETAIL
 10
-260.10553720872849
 20
1299.6222964111689
 30
0.0
  0
VERTEX
  5
9ADA1
  8
DETAIL
 10
-260.3216457095441
 20
1299.7039760127041
 30
0.0
  0
VERTEX
  5
9ADA2
  8
DETAIL
 10
-260.55613709748098
 20
1299.7542740629831
 30
0.0
  0
VERTEX
  5
9ADA3
  8
DETAIL
 10
-260.79999999999922
 20
1299.7712576361409
 30
0.0
  0
VERTEX
  5
9ADA4
  8
DETAIL
 10
-261.0438629025229
 20
1299.7542740629831
 30
0.0
  0
VERTEX
  5
9ADA5
  8
DETAIL
 10
-261.27835429045803
 20
1299.7039760127041
 30
0.0
  0
VERTEX
  5
9ADA6
  8
DETAIL
 10
-261.49446279127727
 20
1299.6222964111689
 30
0.0
  0
VERTEX
  5
9ADA7
  8
DETAIL
 10
-261.68388347648579
 20
1299.5123741596581
 30
0.0
  0
VERTEX
  5
9ADA8
  8
DETAIL
 10
-261.83933701537899
 20
1299.3784335086491
 30
0.0
  0
VERTEX
  5
9ADA9
  8
DETAIL
 10
-261.95484941564058
 20
1299.2256217222489
 30
0.0
  0
VERTEX
  5
9ADAA
  8
DETAIL
 10
-262.02598160050542
 20
1299.0598112717089
 30
0.0
  0
VERTEX
  5
9ADAB
  8
DETAIL
 10
-262.04999999999922
 20
1298.8873741596581
 30
0.0
  0
VERTEX
  5
9ADAC
  8
DETAIL
 10
-262.02598160050542
 20
1298.714937047605
 30
0.0
  0
VERTEX
  5
9ADAD
  8
DETAIL
 10
-261.95484941564058
 20
1298.5491265970661
 30
0.0
  0
VERTEX
  5
9ADAE
  8
DETAIL
 10
-261.83933701537899
 20
1298.3963148106659
 30
0.0
  0
VERTEX
  5
9ADAF
  8
DETAIL
 10
-261.68388347648579
 20
1298.2623741596581
 30
0.0
  0
VERTEX
  5
9ADB0
  8
DETAIL
 10
-261.49446279127727
 20
1298.1524519081461
 30
0.0
  0
VERTEX
  5
9ADB1
  8
DETAIL
 10
-261.27835429045803
 20
1298.0707723066089
 30
0.0
  0
VERTEX
  5
9ADB2
  8
DETAIL
 10
-261.0438629025229
 20
1298.020474256331
 30
0.0
  0
VERTEX
  5
9ADB3
  8
DETAIL
 10
-260.79999999999922
 20
1298.003490683175
 30
0.0
  0
VERTEX
  5
9ADB4
  8
DETAIL
 10
-260.55613709748098
 20
1298.020474256331
 30
0.0
  0
VERTEX
  5
9ADB5
  8
DETAIL
 10
-260.3216457095441
 20
1298.0707723066089
 30
0.0
  0
VERTEX
  5
9ADB6
  8
DETAIL
 10
-260.10553720872849
 20
1298.1524519081461
 30
0.0
  0
VERTEX
  5
9ADB7
  8
DETAIL
 10
-259.91611652351997
 20
1298.2623741596581
 30
0.0
  0
VERTEX
  5
9ADB8
  8
DETAIL
 10
-259.76066298462308
 20
1298.3963148106659
 30
0.0
  0
VERTEX
  5
9ADB9
  8
DETAIL
 10
-259.64515058436149
 20
1298.5491265970661
 30
0.0
  0
VERTEX
  5
9ADBA
  8
DETAIL
 10
-259.57401839949659
 20
1298.714937047605
 30
0.0
  0
VERTEX
  5
9ADBB
  8
DETAIL
 10
-259.54999999999922
 20
1298.8873741596581
 30
0.0
  0
SEQEND
  5
9ADBC
  8
DETAIL
  0
LINE
  5
99B95
  8
DETAIL
 10
-257.80000000000291
 20
1295.95
 30
0.0
 11
-257.80000000000291
 21
1301.0
 31
0.0
  0
LINE
  5
99B96
  8
DETAIL
 10
-264.8000000000028
 20
1295.95
 30
0.0
 11
-264.8000000000028
 21
1301.0
 31
0.0
  0
LINE
  5
99B97
  8
DETAIL
 10
-267.80000000000291
 20
1295.95
 30
0.0
 11
-267.80000000000291
 21
1297.8000000000011
 31
0.0
  0
LINE
  5
99B98
  8
DETAIL
 10
-274.80000000000291
 20
1295.95
 30
0.0
 11
-274.80000000000291
 21
1301.0
 31
0.0
  0
LINE
  5
99B99
  8
DETAIL
 10
-265.79999999999922
 20
1298.954700538379
 30
0.0
 11
-265.79999999999922
 21
1300.8000000000011
 31
0.0
  0
LINE
  5
99B9A
  8
DETAIL
 10
-265.79999999999922
 20
1300.8000000000011
 30
0.0
 11
-266.66602540378511
 21
1301.3000000000011
 31
0.0
  0
LINE
  5
99B9B
  8
DETAIL
 10
-267.80000000000291
 20
1297.8000000000011
 30
0.0
 11
-265.79999999999922
 21
1298.954700538379
 31
0.0
  0
LINE
  5
99B9C
  8
DETAIL
 10
-266.66602540378511
 20
1285.3000000000011
 30
0.0
 11
-274.5
 21
1285.3000000000011
 31
0.0
  0
LINE
  5
99B9D
  8
DETAIL
 10
-265.79999999999922
 20
1287.645299461622
 30
0.0
 11
-265.79999999999922
 21
1285.8000000000011
 31
0.0
  0
LINE
  5
99B9E
  8
DETAIL
 10
-265.79999999999922
 20
1285.8000000000011
 30
0.0
 11
-266.66602540378511
 21
1285.3000000000011
 31
0.0
  0
LINE
  5
99B9F
  8
DETAIL
 10
-267.80000000000291
 20
1288.8000000000011
 30
0.0
 11
-265.79999999999922
 21
1287.645299461622
 31
0.0
  0
POLYLINE
  5
99BA0
  8
DETAIL
 66
     1
 10
0.0
 20
0.0
 30
0.0
  0
VERTEX
  5
9ADBD
  8
DETAIL
 10
-270.30000000000291
 20
1298.8565276927229
 30
0.0
  0
VERTEX
  5
9ADBE
  8
DETAIL
 10
-270.32882207939468
 20
1299.063452227186
 30
0.0
  0
VERTEX
  5
9ADBF
  8
DETAIL
 10
-270.41418070123291
 20
1299.2624247678341
 30
0.0
  0
VERTEX
  5
9ADC0
  8
DETAIL
 10
-270.55279558154689
 20
1299.445798911514
 30
0.0
  0
VERTEX
  5
9ADC1
  8
DETAIL
 10
-270.739339828222
 20
1299.6065276927241
 30
0.0
  0
VERTEX
  5
9ADC2
  8
DETAIL
 10
-270.96664465047058
 20
1299.7384343945389
 30
0.0
  0
VERTEX
  5
9ADC3
  8
DETAIL
 10
-271.22597485145519
 20
1299.8364499163811
 30
0.0
  0
VERTEX
  5
9ADC4
  8
DETAIL
 10
-271.50736451697588
 20
1299.896807576715
 30
0.0
  0
VERTEX
  5
9ADC5
  8
DETAIL
 10
-271.80000000000291
 20
1299.9171878645041
 30
0.0
  0
VERTEX
  5
9ADC6
  8
DETAIL
 10
-272.09263548302619
 20
1299.896807576715
 30
0.0
  0
VERTEX
  5
9ADC7
  8
DETAIL
 10
-272.37402514854688
 20
1299.8364499163811
 30
0.0
  0
VERTEX
  5
9ADC8
  8
DETAIL
 10
-272.63335534953143
 20
1299.7384343945389
 30
0.0
  0
VERTEX
  5
9ADC9
  8
DETAIL
 10
-272.86066017178013
 20
1299.6065276927241
 30
0.0
  0
VERTEX
  5
9ADCA
  8
DETAIL
 10
-273.04720441845529
 20
1299.445798911514
 30
0.0
  0
VERTEX
  5
9ADCB
  8
DETAIL
 10
-273.1858192987674
 20
1299.2624247678341
 30
0.0
  0
VERTEX
  5
9ADCC
  8
DETAIL
 10
-273.27117792060562
 20
1299.063452227186
 30
0.0
  0
VERTEX
  5
9ADCD
  8
DETAIL
 10
-273.29999999999922
 20
1298.8565276927229
 30
0.0
  0
VERTEX
  5
9ADCE
  8
DETAIL
 10
-273.27117792060562
 20
1298.649603158261
 30
0.0
  0
VERTEX
  5
9ADCF
  8
DETAIL
 10
-273.1858192987674
 20
1298.4506306176129
 30
0.0
  0
VERTEX
  5
9ADD0
  8
DETAIL
 10
-273.04720441845529
 20
1298.267256473933
 30
0.0
  0
VERTEX
  5
9ADD1
  8
DETAIL
 10
-272.86066017178013
 20
1298.1065276927229
 30
0.0
  0
VERTEX
  5
9ADD2
  8
DETAIL
 10
-272.63335534953143
 20
1297.974620990909
 30
0.0
  0
VERTEX
  5
9ADD3
  8
DETAIL
 10
-272.37402514854688
 20
1297.876605469067
 30
0.0
  0
VERTEX
  5
9ADD4
  8
DETAIL
 10
-272.09263548302619
 20
1297.816247808732
 30
0.0
  0
VERTEX
  5
9ADD5
  8
DETAIL
 10
-271.80000000000291
 20
1297.7958675209441
 30
0.0
  0
VERTEX
  5
9ADD6
  8
DETAIL
 10
-271.50736451697588
 20
1297.816247808732
 30
0.0
  0
VERTEX
  5
9ADD7
  8
DETAIL
 10
-271.22597485145519
 20
1297.876605469067
 30
0.0
  0
VERTEX
  5
9ADD8
  8
DETAIL
 10
-270.96664465047058
 20
1297.974620990909
 30
0.0
  0
VERTEX
  5
9ADD9
  8
DETAIL
 10
-270.739339828222
 20
1298.1065276927229
 30
0.0
  0
VERTEX
  5
9ADDA
  8
DETAIL
 10
-270.55279558154689
 20
1298.267256473933
 30
0.0
  0
VERTEX
  5
9ADDB
  8
DETAIL
 10
-270.41418070123291
 20
1298.4506306176129
 30
0.0
  0
VERTEX
  5
9ADDC
  8
DETAIL
 10
-270.32882207939468
 20
1298.649603158261
 30
0.0
  0
VERTEX
  5
9ADDD
  8
DETAIL
 10
-270.30000000000291
 20
1298.8565276927229
 30
0.0
  0
SEQEND
  5
9ADDE
  8
DETAIL
  0
POLYLINE
  5
99BA1
  8
DETAIL
 66
     1
 10
0.0
 20
0.0
 30
0.0
  0
VERTEX
  5
9ADDF
  8
DETAIL
 10
-270.55000000000291
 20
1298.8873741596581
 30
0.0
  0
VERTEX
  5
9ADE0
  8
DETAIL
 10
-270.57401839949489
 20
1299.0598112717089
 30
0.0
  0
VERTEX
  5
9ADE1
  8
DETAIL
 10
-270.64515058436149
 20
1299.2256217222489
 30
0.0
  0
VERTEX
  5
9ADE2
  8
DETAIL
 10
-270.76066298462308
 20
1299.3784335086491
 30
0.0
  0
VERTEX
  5
9ADE3
  8
DETAIL
 10
-270.91611652351639
 20
1299.5123741596581
 30
0.0
  0
VERTEX
  5
9ADE4
  8
DETAIL
 10
-271.10553720872838
 20
1299.6222964111689
 30
0.0
  0
VERTEX
  5
9ADE5
  8
DETAIL
 10
-271.3216457095441
 20
1299.7039760127041
 30
0.0
  0
VERTEX
  5
9ADE6
  8
DETAIL
 10
-271.55613709748098
 20
1299.7542740629831
 30
0.0
  0
VERTEX
  5
9ADE7
  8
DETAIL
 10
-271.80000000000291
 20
1299.7712576361409
 30
0.0
  0
VERTEX
  5
9ADE8
  8
DETAIL
 10
-272.04386290251932
 20
1299.7542740629831
 30
0.0
  0
VERTEX
  5
9ADE9
  8
DETAIL
 10
-272.27835429045808
 20
1299.7039760127041
 30
0.0
  0
VERTEX
  5
9ADEA
  8
DETAIL
 10
-272.49446279127369
 20
1299.6222964111689
 30
0.0
  0
VERTEX
  5
9ADEB
  8
DETAIL
 10
-272.68388347648568
 20
1299.5123741596581
 30
0.0
  0
VERTEX
  5
9ADEC
  8
DETAIL
 10
-272.83933701537887
 20
1299.3784335086491
 30
0.0
  0
VERTEX
  5
9ADED
  8
DETAIL
 10
-272.95484941564058
 20
1299.2256217222489
 30
0.0
  0
VERTEX
  5
9ADEE
  8
DETAIL
 10
-273.02598160050542
 20
1299.0598112717089
 30
0.0
  0
VERTEX
  5
9ADEF
  8
DETAIL
 10
-273.05000000000291
 20
1298.8873741596581
 30
0.0
  0
VERTEX
  5
9ADF0
  8
DETAIL
 10
-273.02598160050542
 20
1298.714937047605
 30
0.0
  0
VERTEX
  5
9ADF1
  8
DETAIL
 10
-272.95484941564058
 20
1298.5491265970661
 30
0.0
  0
VERTEX
  5
9ADF2
  8
DETAIL
 10
-272.83933701537887
 20
1298.3963148106659
 30
0.0
  0
VERTEX
  5
9ADF3
  8
DETAIL
 10
-272.68388347648568
 20
1298.2623741596581
 30
0.0
  0
VERTEX
  5
9ADF4
  8
DETAIL
 10
-272.49446279127369
 20
1298.1524519081461
 30
0.0
  0
VERTEX
  5
9ADF5
  8
DETAIL
 10
-272.27835429045808
 20
1298.0707723066089
 30
0.0
  0
VERTEX
  5
9ADF6
  8
DETAIL
 10
-272.04386290251932
 20
1298.020474256331
 30
0.0
  0
VERTEX
  5
9ADF7
  8
DETAIL
 10
-271.80000000000291
 20
1298.003490683175
 30
0.0
  0
VERTEX
  5
9ADF8
  8
DETAIL
 10
-271.55613709748098
 20
1298.020474256331
 30
0.0
  0
VERTEX
  5
9ADF9
  8
DETAIL
 10
-271.3216457095441
 20
1298.0707723066089
 30
0.0
  0
VERTEX
  5
9ADFA
  8
DETAIL
 10
-271.10553720872838
 20
1298.1524519081461
 30
0.0
  0
VERTEX
  5
9ADFB
  8
DETAIL
 10
-270.91611652351639
 20
1298.2623741596581
 30
0.0
  0
VERTEX
  5
9ADFC
  8
DETAIL
 10
-270.76066298462308
 20
1298.3963148106659
 30
0.0
  0
VERTEX
  5
9ADFD
  8
DETAIL
 10
-270.64515058436149
 20
1298.5491265970661
 30
0.0
  0
VERTEX
  5
9ADFE
  8
DETAIL
 10
-270.57401839949489
 20
1298.714937047605
 30
0.0
  0
VERTEX
  5
9ADFF
  8
DETAIL
 10
-270.55000000000291
 20
1298.8873741596581
 30
0.0
  0
SEQEND
  5
9AE00
  8
DETAIL
  0
ARC
  5
99BA2
  8
DETAIL
 10
-285.4000000000014
 20
1294.8000000000029
 30
0.0
 40
1.9999999999990901
 50
89.999999999947889
 51
180.0
  0
ARC
  5
99BA3
  8
DETAIL
 10
-285.4000000000014
 20
1291.799999999999
 30
0.0
 40
2.0
 50
180.0
 51
270.0
  0
LINE
  5
99BA4
  8
DETAIL
 10
-284.80000000000291
 20
1289.8000000000011
 30
0.0
 11
-284.80000000000291
 21
1296.8000000000011
 31
0.0
  0
LINE
  5
99BA5
  8
DETAIL
 10
-284.80000000000291
 20
1296.8000000000011
 30
0.0
 11
-285.4000000000014
 21
1296.8000000000011
 31
0.0
  0
LINE
  5
99BA6
  8
DETAIL
 10
-284.80000000000291
 20
1289.8000000000011
 30
0.0
 11
-285.4000000000014
 21
1289.8000000000011
 31
0.0
  0
LINE
  5
99BA7
  8
DETAIL
 10
-287.4000000000014
 20
1291.8000000000011
 30
0.0
 11
-287.4000000000014
 21
1294.8000000000011
 31
0.0
  0
LINE
  5
99BA8
  8
DETAIL
 10
-257.5
 20
1289.3000000000011
 30
0.0
 11
-257.80000000000291
 21
1289.3000000000011
 31
0.0
  0
LINE
  5
99BA9
  8
DETAIL
 10
-257.5
 20
1297.3000000000011
 30
0.0
 11
-257.80000000000291
 21
1297.3000000000011
 31
0.0
  0
LINE
  5
99BAA
  8
DETAIL
 10
-278.29999999999922
 20
1295.95
 30
0.0
 11
-278.29999999999922
 21
1299.3000000000011
 31
0.0
  0
LINE
  5
99BAB
  8
DETAIL
 10
-280.79999999999922
 20
1287.3000000000011
 30
0.0
 11
-282.80000000000291
 21
1287.3000000000011
 31
0.0
  0
LINE
  5
99BAC
  8
DETAIL
 10
-280.79999999999922
 20
1299.3000000000011
 30
0.0
 11
-282.80000000000291
 21
1299.3000000000011
 31
0.0
  0
LINE
  5
99BAD
  8
DETAIL
 10
-288.80000000000291
 20
1282.3000000000011
 30
0.0
 11
-288.80000000000291
 21
1274.979491924312
 31
0.0
  0
LINE
  5
99BAE
  8
DETAIL
 10
-283.80000000000291
 20
1287.3000000000011
 30
0.0
 11
-283.80000000000291
 21
1299.3000000000011
 31
0.0
  0
LINE
  5
99BAF
  8
DETAIL
 10
-274.94999999999891
 20
1290.3000000000011
 30
0.0
 11
-278.29999999999922
 21
1290.3000000000011
 31
0.0
  0
LINE
  5
99BB0
  8
DETAIL
 10
-280.79999999999922
 20
1282.3000000000011
 30
0.0
 11
-280.79999999999922
 21
1303.3000000000011
 31
0.0
  0
LINE
  5
99BB1
  8
DETAIL
 10
-278.29999999999922
 20
1287.3000000000011
 30
0.0
 11
-278.29999999999922
 21
1290.650000000001
 31
0.0
  0
LINE
  5
99BB2
  8
DETAIL
 10
-278.29999999999922
 20
1287.3000000000011
 30
0.0
 11
-279.80000000000291
 21
1287.3000000000011
 31
0.0
  0
LINE
  5
99BB3
  8
DETAIL
 10
-278.29999999999922
 20
1299.3000000000011
 30
0.0
 11
-279.80000000000291
 21
1299.3000000000011
 31
0.0
  0
LINE
  5
99BB4
  8
DETAIL
 10
-274.94999999999891
 20
1296.3000000000011
 30
0.0
 11
-278.29999999999922
 21
1296.3000000000011
 31
0.0
  0
ARC
  5
99BB5
  8
DETAIL
 10
-298.79999999999558
 20
1274.9794919243079
 30
0.0
 40
11.24999999999271
 50
329.99999999998971
 51
0.0
  0
ARC
  5
99BB6
  8
DETAIL
 10
-293.79999999999558
 20
1273.6397459621539
 30
0.0
 40
9.9999999999936087
 50
329.99999999998971
 51
0.0
  0
ARC
  5
99BB7
  8
DETAIL
 10
-296.29999999999558
 20
1274.309618943232
 30
0.0
 40
9.9999999999936087
 50
329.99999999998971
 51
0.0
  0
ARC
  5
99BB8
  8
DETAIL
 10
-298.79999999999558
 20
1274.97949192431
 30
0.0
 40
9.9999999999936087
 50
329.99999999998971
 51
0.0
  0
ARC
  5
99BB9
  8
DETAIL
 10
-296.29999999999558
 20
1274.3096189432299
 30
0.0
 40
11.24999999999271
 50
329.99999999998971
 51
0.0
  0
LINE
  5
99BBA
  8
DETAIL
 10
-282.55000000000291
 20
1282.3000000000011
 30
0.0
 11
-282.55000000000291
 21
1273.639745962158
 31
0.0
  0
LINE
  5
99BBB
  8
DETAIL
 10
-283.80000000000291
 20
1282.3000000000011
 30
0.0
 11
-283.80000000000291
 21
1273.639745962158
 31
0.0
  0
LINE
  5
99BBC
  8
DETAIL
 10
-285.05000000000291
 20
1282.3000000000011
 30
0.0
 11
-285.05000000000291
 21
1274.309618943234
 31
0.0
  0
LINE
  5
99BBD
  8
DETAIL
 10
-286.30000000000291
 20
1282.3000000000011
 30
0.0
 11
-286.30000000000291
 21
1274.309618943234
 31
0.0
  0
ARC
  5
99BBE
  8
DETAIL
 10
-279.79999999999922
 20
1286.3000000000011
 30
0.0
 40
0.9999999999995453
 50
90.000000000104208
 51
180.0
  0
ARC
  5
99BBF
  8
DETAIL
 10
-282.79999999999922
 20
1286.299999999997
 30
0.0
 40
1.000000000002728
 50
90.000000000156334
 51
179.9999999997915
  0
ARC
  5
99BC0
  8
DETAIL
 10
-279.79999999999922
 20
1300.299999999999
 30
0.0
 40
1.0
 50
180.0
 51
269.99999999989569
  0
ARC
  5
99BC1
  8
DETAIL
 10
-282.79999999999922
 20
1300.300000000004
 30
0.0
 40
1.000000000002728
 50
180.00000000010419
 51
269.99999999984362
  0
LINE
  5
99BC2
  8
DETAIL
 10
-287.55000000000291
 20
1282.3000000000011
 30
0.0
 11
-287.55000000000291
 21
1274.979491924312
 31
0.0
  0
ARC
  5
99BC3
  8
DETAIL
 10
-229.0
 20
1229.299999999999
 30
0.0
 40
3.0
 50
180.0
 51
270.0
  0
LINE
  5
99BC4
  8
DETAIL
 10
-232.0
 20
1240.799999999999
 30
0.0
 11
-236.5
 21
1240.799999999999
 31
0.0
  0
LINE
  5
99BC5
  8
DETAIL
 10
-236.5
 20
1225.299999999999
 30
0.0
 11
-257.5
 21
1225.299999999999
 31
0.0
  0
LINE
  5
99BC6
  8
DETAIL
 10
-236.5
 20
1240.799999999999
 30
0.0
 11
-236.5
 21
1225.299999999999
 31
0.0
  0
LINE
  5
99BC7
  8
DETAIL
 10
-267.5
 20
1257.149999999999
 30
0.0
 11
-267.5
 21
1231.45
 31
0.0
  0
LINE
  5
99BC8
  8
DETAIL
 10
-266.5
 20
1230.45
 30
0.0
 11
-257.5
 21
1230.45
 31
0.0
  0
ARC
  5
99BC9
  8
DETAIL
 10
-266.5
 20
1231.45
 30
0.0
 40
1.0
 50
180.0
 51
270.0
  0
LINE
  5
99BCA
  8
DETAIL
 10
-266.5
 20
1236.299999999999
 30
0.0
 11
-257.5
 21
1236.299999999999
 31
0.0
  0
ARC
  5
99BCB
  8
DETAIL
 10
-266.5
 20
1237.3000000000011
 30
0.0
 40
1.0
 50
180.0
 51
270.0
  0
LINE
  5
99BCC
  8
DETAIL
 10
-266.5
 20
1258.149999999999
 30
0.0
 11
-257.5
 21
1258.149999999999
 31
0.0
  0
ARC
  5
99BCD
  8
DETAIL
 10
-266.5
 20
1257.150000000001
 30
0.0
 40
0.9999999999995453
 50
90.0
 51
180.0
  0
LINE
  5
99BCE
  8
DETAIL
 10
-266.5
 20
1252.299999999999
 30
0.0
 11
-257.5
 21
1252.299999999999
 31
0.0
  0
ARC
  5
99BCF
  8
DETAIL
 10
-266.5
 20
1251.299999999999
 30
0.0
 40
1.0000000000004541
 50
90.0
 51
180.0
  0
LINE
  5
99BD0
  8
DETAIL
 10
-246.80000000000291
 20
1217.3000000000011
 30
0.0
 11
-248.80000000000291
 21
1217.3000000000011
 31
0.0
  0
LINE
  5
99BD1
  8
DETAIL
 10
-248.80000000000291
 20
1225.299999999999
 30
0.0
 11
-248.80000000000291
 21
1217.3000000000011
 31
0.0
  0
ARC
  5
99BD2
  8
DETAIL
 10
-50.0
 20
1293.3000000000029
 30
0.0
 40
157.00000000000159
 50
205.26158396144521
 51
270.0
  0
CIRCLE
  5
99BD3
  8
DETAIL
 10
-129.4483374544233
 20
1137.3738582670369
 30
0.0
 40
9.0000000000000604
  0
LINE
  5
99BD4
  8
DETAIL
 10
-170.0
 20
1087.3000000000011
 30
0.0
 11
-170.0
 21
1090.2730147324801
 31
0.0
  0
CIRCLE
  5
99BD5
  8
DETAIL
 10
-173.7436867076467
 20
1169.556313292356
 30
0.0
 40
9.0000000000000604
  0
LINE
  5
99BD6
  8
DETAIL
 10
-160.09901182538479
 20
1138.451016809687
 30
0.0
 11
-184.3352943643803
 21
1101.1304144747769
 31
0.0
  0
ARC
  5
99BD7
  8
DETAIL
 10
-196.91535288355951
 20
1109.299999999997
 30
0.0
 40
14.99999999999727
 50
270.0
 51
327.0000000000021
  0
ARC
  5
99BD8
  8
DETAIL
 10
-158.00000000003999
 20
1090.273014732491
 30
0.0
 40
11.99999999996097
 50
146.99999999997371
 51
180.0
  0
ARC
  5
99BD9
  8
DETAIL
 10
-164.0
 20
1087.299999999999
 30
0.0
 40
6.0000000000022728
 50
90.0
 51
180.0
  0
LINE
  5
99BDA
  8
DETAIL
 10
-146.680282738258
 20
1129.7367922494479
 30
0.0
 11
-168.0640468153469
 21
1096.8086831526589
 31
0.0
  0
CIRCLE
  5
99BDB
  8
DETAIL
 10
-77.376031382043948
 20
1120.4545403958521
 30
0.0
 40
9.0000000000000604
  0
CIRCLE
  5
99BDC
  8
DETAIL
 10
-50.000000000003638
 20
1118.3000000000011
 30
0.0
 40
4.0000000000000604
  0
ARC
  5
99BDD
  8
DETAIL
 10
-58.0
 20
1139.5079325842851
 30
0.0
 40
3.0
 50
180.0
 51
267.02225555376509
  0
LINE
  5
99BDE
  8
DETAIL
 10
-61.0
 20
1154.7
 30
0.0
 11
-61.0
 21
1139.5079325842851
 31
0.0
  0
ARC
  5
99BDF
  8
DETAIL
 10
-67.000000000003638
 20
1154.6999999999971
 30
0.0
 40
6.0000000000018181
 50
0.0
 51
90.0
  0
ARC
  5
99BE0
  8
DETAIL
 10
-180.0
 20
1229.299999999999
 30
0.0
 40
2.9999999999986362
 50
270.0
 51
0.0
  0
ARC
  5
99BE1
  8
DETAIL
 10
-171.22503561260959
 20
1227.3000000000011
 30
0.0
 40
6.0
 50
90.0
 51
167.16041159307329
  0
POINT
  5
99BE2
  8
DETAIL
 10
-50.0
 20
1293.3000000000011
 30
0.0
  0
LINE
  5
99BE3
  8
DETAIL
 10
-215.78984914659301
 20
1413.046040472334
 30
0.0
 11
-192.64134706342151
 21
1516.0999999999999
 31
0.0
  0
CIRCLE
  5
99BE4
  8
DETAIL
 10
-205.92614173296531
 20
1372.748337454422
 30
0.0
 40
9.0000000000000604
  0
LINE
  5
99BE5
  8
DETAIL
 10
-180.0
 20
1360.3000000000011
 30
0.0
 11
-229.0
 21
1360.3000000000011
 31
0.0
  0
ARC
  5
99BE6
  8
DETAIL
 10
-208.00000000000361
 20
1518.0999999999981
 30
0.0
 40
1.9999999999990901
 50
180.0
 51
270.0
  0
LINE
  5
99BE7
  8
DETAIL
 10
-201.24483462254281
 20
1408.3000000000011
 30
0.0
 11
-210.19615242270811
 21
1408.3000000000011
 31
0.0
  0
LINE
  5
99BE8
  8
DETAIL
 10
-201.81426803697829
 20
1407.5472232502691
 30
0.0
 11
-209.85599411519061
 21
1407.5472232502691
 31
0.0
  0
POLYLINE
  5
99BE9
  8
DETAIL
 66
     1
 10
0.0
 20
0.0
 30
0.0
  0
VERTEX
  5
9AE01
  8
DETAIL
 10
-216.32683316960171
 20
1413.1666605419789
 30
0.0
  0
VERTEX
  5
9AE02
  8
DETAIL
 10
-216.4427529331405
 20
1412.610758420509
 30
0.0
  0
VERTEX
  5
9AE03
  8
DETAIL
 10
-216.556178813782
 20
1412.0543085740021
 30
0.0
  0
VERTEX
  5
9AE04
  8
DETAIL
 10
-216.66710838225839
 20
1411.49732292008
 30
0.0
  0
VERTEX
  5
9AE05
  8
DETAIL
 10
-216.77553926276229
 20
1410.939813387844
 30
0.0
  0
VERTEX
  5
9AE06
  8
DETAIL
 10
-216.8814691330044
 20
1410.3817919176049
 30
0.0
  0
VERTEX
  5
9AE07
  8
DETAIL
 10
-216.9848957242574
 20
1409.8232704606521
 30
0.0
  0
VERTEX
  5
9AE08
  8
DETAIL
 10
-217.08581682140709
 20
1409.2642609789721
 30
0.0
  0
VERTEX
  5
9AE09
  8
DETAIL
 10
-217.18423026300661
 20
1408.70477544501
 30
0.0
  0
VERTEX
  5
9AE0A
  8
DETAIL
 10
-217.28013394130531
 20
1408.1448258414021
 30
0.0
  0
VERTEX
  5
9AE0B
  8
DETAIL
 10
-217.37352580231521
 20
1407.584424160726
 30
0.0
  0
VERTEX
  5
9AE0C
  8
DETAIL
 10
-217.46440384583909
 20
1407.0235824052429
 30
0.0
  0
VERTEX
  5
9AE0D
  8
DETAIL
 10
-217.55276612551819
 20
1406.4623125866381
 30
0.0
  0
VERTEX
  5
9AE0E
  8
DETAIL
 10
-217.638610748876
 20
1405.9006267257621
 30
0.0
  0
VERTEX
  5
9AE0F
  8
DETAIL
 10
-217.72193587736001
 20
1405.3385368523791
 30
0.0
  0
VERTEX
  5
9AE10
  8
DETAIL
 10
-217.802739726374
 20
1404.7760550049061
 30
0.0
  0
VERTEX
  5
9AE11
  8
DETAIL
 10
-217.88102056531889
 20
1404.213193230154
 30
0.0
  0
VERTEX
  5
9AE12
  8
DETAIL
 10
-217.9567767176413
 20
1403.649963583071
 30
0.0
  0
VERTEX
  5
9AE13
  8
DETAIL
 10
-218.0300065608462
 20
1403.086378126485
 30
0.0
  0
VERTEX
  5
9AE14
  8
DETAIL
 10
-218.10070852655909
 20
1402.52244893084
 30
0.0
  0
VERTEX
  5
9AE15
  8
DETAIL
 10
-218.1688811005333
 20
1401.958188073949
 30
0.0
  0
VERTEX
  5
9AE16
  8
DETAIL
 10
-218.23452282270219
 20
1401.3936076407219
 30
0.0
  0
VERTEX
  5
9AE17
  8
DETAIL
 10
-218.2976322872
 20
1400.8287197229199
 30
0.0
  0
VERTEX
  5
9AE18
  8
DETAIL
 10
-218.35820814239921
 20
1400.263536418882
 30
0.0
  0
VERTEX
  5
9AE19
  8
DETAIL
 10
-218.41624909092559
 20
1399.6980698332791
 30
0.0
  0
VERTEX
  5
9AE1A
  8
DETAIL
 10
-218.4717538897093
 20
1399.1323320768461
 30
0.0
  0
VERTEX
  5
9AE1B
  8
DETAIL
 10
-218.52472134998419
 20
1398.5663352661261
 30
0.0
  0
VERTEX
  5
9AE1C
  8
DETAIL
 10
-218.57515033733759
 20
1398.000091523214
 30
0.0
  0
VERTEX
  5
9AE1D
  8
DETAIL
 10
-218.62303977171899
 20
1397.4336129754879
 30
0.0
  0
VERTEX
  5
9AE1E
  8
DETAIL
 10
-218.66838862746579
 20
1396.8669117553579
 30
0.0
  0
VERTEX
  5
9AE1F
  8
DETAIL
 10
-218.71119593333421
 20
1396.3000000000011
 30
0.0
  0
SEQEND
  5
9AE20
  8
DETAIL
  0
LINE
  5
99BEA
  8
DETAIL
 10
-267.5
 20
1329.45
 30
0.0
 11
-267.5
 21
1355.149999999999
 31
0.0
  0
ARC
  5
99BEB
  8
DETAIL
 10
-266.5
 20
1349.3000000000011
 30
0.0
 40
0.9999999999995453
 50
90.0
 51
180.0
  0
LINE
  5
99BEC
  8
DETAIL
 10
-266.5
 20
1356.149999999999
 30
0.0
 11
-257.5
 21
1356.149999999999
 31
0.0
  0
ARC
  5
99BED
  8
DETAIL
 10
-266.5
 20
1355.150000000001
 30
0.0
 40
0.9999999999995453
 50
90.0
 51
180.0
  0
LINE
  5
99BEE
  8
DETAIL
 10
-266.5
 20
1350.299999999999
 30
0.0
 11
-257.5
 21
1350.299999999999
 31
0.0
  0
LINE
  5
99BEF
  8
DETAIL
 10
-232.0
 20
1345.799999999999
 30
0.0
 11
-236.5
 21
1345.799999999999
 31
0.0
  0
LINE
  5
99BF0
  8
DETAIL
 10
-266.5
 20
1328.450000000001
 30
0.0
 11
-257.5
 21
1328.450000000001
 31
0.0
  0
ARC
  5
99BF1
  8
DETAIL
 10
-266.5
 20
1329.45
 30
0.0
 40
1.0
 50
180.0
 51
270.0
  0
LINE
  5
99BF2
  8
DETAIL
 10
-266.5
 20
1334.299999999999
 30
0.0
 11
-257.5
 21
1334.299999999999
 31
0.0
  0
ARC
  5
99BF3
  8
DETAIL
 10
-266.5
 20
1335.299999999999
 30
0.0
 40
1.0
 50
180.0
 51
270.0
  0
ARC
  5
99BF4
  8
DETAIL
 10
-229.0
 20
1357.299999999999
 30
0.0
 40
3.0000000000004539
 50
90.0
 51
180.0
  0
LINE
  5
99BF5
  8
DETAIL
 10
-236.5
 20
1361.299999999999
 30
0.0
 11
-257.5
 21
1361.299999999999
 31
0.0
  0
LINE
  5
99BF6
  8
DETAIL
 10
-230.79999999999919
 20
1396.3000000000011
 30
0.0
 11
-230.79999999999919
 21
1359.700000000001
 31
0.0
  0
LINE
  5
99BF7
  8
DETAIL
 10
-230.0
 20
1396.3000000000011
 30
0.0
 11
-230.0
 21
1360.1284271247471
 31
0.0
  0
LINE
  5
99BF8
  8
DETAIL
 10
-230.0
 20
1396.3000000000011
 30
0.0
 11
-230.79999999999919
 21
1396.3000000000011
 31
0.0
  0
LINE
  5
99BF9
  8
DETAIL
 10
-230.79999999999919
 20
1395.8000000000011
 30
0.0
 11
-230.79999999999919
 21
1359.700000000001
 31
0.0
  0
LINE
  5
99BFA
  8
DETAIL
 10
-246.80000000000291
 20
1395.3000000000011
 30
0.0
 11
-246.80000000000291
 21
1361.299999999999
 31
0.0
  0
LINE
  5
99BFB
  8
DETAIL
 10
-248.80000000000291
 20
1369.3000000000011
 30
0.0
 11
-248.80000000000291
 21
1361.299999999999
 31
0.0
  0
LINE
  5
99BFC
  8
DETAIL
 10
-246.80000000000291
 20
1369.3000000000011
 30
0.0
 11
-248.80000000000291
 21
1369.3000000000011
 31
0.0
  0
LINE
  5
99BFD
  8
DETAIL
 10
-230.79999999999919
 20
1395.8000000000011
 30
0.0
 11
-231.30000000000291
 21
1396.3000000000011
 31
0.0
  0
LINE
  5
99BFE
  8
DETAIL
 10
-231.30000000000291
 20
1396.3000000000011
 30
0.0
 11
-245.79999999999919
 21
1396.3000000000011
 31
0.0
  0
LINE
  5
99BFF
  8
DETAIL
 10
-246.80000000000291
 20
1395.3000000000011
 30
0.0
 11
-245.79999999999919
 21
1396.3000000000011
 31
0.0
  0
LINE
  5
99C00
  8
DETAIL
 10
-230.0
 20
1396.3000000000011
 30
0.0
 11
-230.0
 21
1360.3000000000011
 31
0.0
  0
LINE
  5
99C01
  8
DETAIL
 10
-217.5
 20
1396.3000000000011
 30
0.0
 11
-230.0
 21
1396.3000000000011
 31
0.0
  0
ARC
  5
99C02
  8
DETAIL
 10
-217.50000000000361
 20
1402.300000000002
 30
0.0
 40
6.0000000000022728
 50
270.0
 51
0.0
  0
LINE
  5
99C03
  8
DETAIL
 10
-210.5355555301575
 20
1396.3000000000011
 30
0.0
 11
-217.5
 21
1396.3000000000011
 31
0.0
  0
ARC
  5
99C04
  8
DETAIL
 10
-208.50000000000179
 20
1405.8151724427
 30
0.0
 40
2.9999999999994329
 50
124.0779684093359
 51
180.0
  0
LINE
  5
99C05
  8
DETAIL
 10
-211.5
 20
1402.3000000000011
 30
0.0
 11
-211.5
 21
1405.8151724427
 31
0.0
  0
CIRCLE
  5
99C06
  8
DETAIL
 10
-173.7436867076467
 20
1417.043686707646
 30
0.0
 40
9.0000000000000604
  0
ARC
  5
99C07
  8
DETAIL
 10
-50.0
 20
1293.299999999997
 30
0.0
 40
157.0000000000031
 50
90.0
 51
154.73841603855479
  0
ARC
  5
99C08
  8
DETAIL
 10
-180.0
 20
1357.299999999999
 30
0.0
 40
3.0
 50
0.0
 51
90.0
  0
ARC
  5
99C09
  8
DETAIL
 10
-171.22503561260959
 20
1359.299999999999
 30
0.0
 40
5.9999999999989777
 50
192.83958840692659
 51
270.0
  0
CIRCLE
  5
99C0A
  8
DETAIL
 10
-129.44833745442151
 20
1449.2261417329639
 30
0.0
 40
9.0000000000000604
  0
LINE
  5
99C0B
  8
DETAIL
 10
-64.958073776573656
 20
1494.0999999999999
 30
0.0
 11
-148.00000000000361
 21
1494.0999999999999
 31
0.0
  0
LINE
  5
99C0C
  8
DETAIL
 10
-65.0
 20
1493.3000000000011
 30
0.0
 11
-148.00000000000361
 21
1493.3000000000011
 31
0.0
  0
LINE
  5
99C0D
  8
DETAIL
 10
-148.00000000000361
 20
1494.0999999999999
 30
0.0
 11
-70.0
 21
1494.0999999999999
 31
0.0
  0
LINE
  5
99C0E
  8
DETAIL
 10
-148.00000000000361
 20
1516.0999999999999
 30
0.0
 11
-64.853258218008705
 21
1516.0999999999999
 31
0.0
  0
LINE
  5
99C0F
  8
DETAIL
 10
-56.25
 20
1516.0999999999999
 30
0.0
 11
-208.00000000000361
 21
1516.0999999999999
 31
0.0
  0
LINE
  5
99C10
  8
DETAIL
 10
-148.02439392703491
 20
1490.5264973081059
 30
0.0
 11
-70.0
 21
1490.5264973081059
 31
0.0
  0
LINE
  5
99C11
  8
DETAIL
 10
-171.5795604041686
 20
1441.170486667429
 30
0.0
 11
-154.74851380081961
 21
1516.0999999999999
 31
0.0
  0
LINE
  5
99C12
  8
DETAIL
 10
-148.00000000000361
 20
1493.3000000000011
 30
0.0
 11
-148.00000000000361
 21
1494.0999999999999
 31
0.0
  0
LINE
  5
99C13
  8
DETAIL
 10
-148.00000000000361
 20
1494.0999999999999
 30
0.0
 11
-148.00000000000361
 21
1516.0999999999999
 31
0.0
  0
LINE
  5
99C14
  8
DETAIL
 10
-150.5
 20
1491.39252271189
 30
0.0
 11
-147.19615242270811
 21
1493.3000000000029
 31
0.0
  0
LINE
  5
99C15
  8
DETAIL
 10
-152.0
 20
1453.5997192761131
 30
0.0
 11
-152.0
 21
1488.794446500536
 31
0.0
  0
ARC
  5
99C16
  8
DETAIL
 10
-149.0000000000054
 20
1488.794446500538
 30
0.0
 40
2.9999999999952158
 50
119.9999999999651
 51
180.0
  0
ARC
  5
99C17
  8
DETAIL
 10
29.999999999767169
 20
1293.300000000193
 30
0.0
 40
249.99999999969961
 50
136.71898799754149
 51
145.0847937525279
  0
CIRCLE
  5
99C18
  8
DETAIL
 10
-77.376031382042129
 20
1466.145459604149
 30
0.0
 40
8.9999999999997691
  0
CIRCLE
  5
99C19
  8
DETAIL
 10
-104.0779740156176
 20
1459.734890351654
 30
0.0
 40
5.0
  0
CIRCLE
  5
99C1A
  8
DETAIL
 10
-104.0779740156176
 20
1459.734890351654
 30
0.0
 40
5.9999999999999396
  0
CIRCLE
  5
99C1B
  8
DETAIL
 10
-50.0
 20
1468.3000000000011
 30
0.0
 40
4.0000000000000604
  0
ARC
  5
99C1C
  8
DETAIL
 10
-67.000000000003638
 20
1431.900000000003
 30
0.0
 40
6.0000000000022728
 50
270.0
 51
0.0
  0
ARC
  5
99C1D
  8
DETAIL
 10
-58.0
 20
1447.0920674157171
 30
0.0
 40
2.9999999999997109
 50
92.977744446234809
 51
180.0
  0
LINE
  5
99C1E
  8
DETAIL
 10
-61.0
 20
1431.899999999999
 30
0.0
 11
-61.0
 21
1447.0920674157171
 31
0.0
  0
ARC
  5
99C1F
  8
DETAIL
 10
-50.000000000087311
 20
1430.050000000723
 30
0.0
 40
75.749999999274038
 50
94.732754733582624
 51
97.826765932540184
  0
LINE
  5
99C20
  8
DETAIL
 10
-62.409873186978082
 20
1504.3000000000011
 30
0.0
 11
-56.25
 21
1504.3000000000011
 31
0.0
  0
LINE
  5
99C21
  8
DETAIL
 10
-65.0
 20
1493.3000000000011
 30
0.0
 11
-64.627768701066074
 21
1500.4025962944161
 31
0.0
  0
ARC
  5
99C22
  8
DETAIL
 10
-59.634621027293178
 20
1500.1409165132
 30
0.0
 40
5.0000000000012683
 50
97.826765932540184
 51
176.9999999999938
  0
LINE
  5
99C23
  8
DETAIL
 10
-70.0
 20
1482.244436276912
 30
0.0
 11
-70.0
 21
1493.3000000000011
 31
0.0
  0
ARC
  5
99C24
  8
DETAIL
 10
-208.00000000000361
 20
1599.100000000004
 30
0.0
 40
1.9999999999959071
 50
89.999999999947889
 51
180.00000000010419
  0
POLYLINE
  5
99C25
  8
DETAIL
 66
     1
 10
0.0
 20
0.0
 30
0.0
  0
VERTEX
  5
9AE21
  8
DETAIL
 10
-69.051511436275163
 20
1601.0999999999999
 30
0.0
  0
VERTEX
  5
9AE22
  8
DETAIL
 10
-69.109300664109469
 20
1605.3086653840851
 30
0.0
  0
VERTEX
  5
9AE23
  8
DETAIL
 10
-69.250697331663105
 20
1609.5037745296211
 30
0.0
  0
VERTEX
  5
9AE24
  8
DETAIL
 10
-69.475318740784132
 20
1613.6739731344221
 30
0.0
  0
VERTEX
  5
9AE25
  8
DETAIL
 10
-69.782556940826893
 20
1617.8079743180999
 30
0.0
  0
VERTEX
  5
9AE26
  8
DETAIL
 10
-70.17158037406989
 20
1621.894589170651
 30
0.0
  0
VERTEX
  5
9AE27
  8
DETAIL
 10
-70.641336126407623
 20
1625.9227570358869
 30
0.0
  0
VERTEX
  5
9AE28
  8
DETAIL
 10
-71.190552777097764
 20
1629.8815754477141
 30
0.0
  0
VERTEX
  5
9AE29
  8
DETAIL
 10
-71.817743839954346
 20
1633.7603296382979
 30
0.0
  0
VERTEX
  5
9AE2A
  8
DETAIL
 10
-72.5212117865849
 20
1637.5485215381809
 30
0.0
  0
VERTEX
  5
9AE2B
  8
DETAIL
 10
-73.299052640872105
 20
1641.235898189914
 30
0.0
  0
VERTEX
  5
9AE2C
  8
DETAIL
 10
-74.149161132172594
 20
1644.812479498263
 30
0.0
  0
VERTEX
  5
9AE2D
  8
DETAIL
 10
-75.069236393370375
 20
1648.2685852419161
 30
0.0
  0
VERTEX
  5
9AE2E
  8
DETAIL
 10
-76.056788188285282
 20
1651.594861273544
 30
0.0
  0
VERTEX
  5
9AE2F
  8
DETAIL
 10
-77.109143651661725
 20
1654.782304837343
 30
0.0
  0
VERTEX
  5
9AE30
  8
DETAIL
 10
-78.223454523407781
 20
1657.8222889354979
 30
0.0
  0
VERTEX
  5
9AE31
  8
DETAIL
 10
-79.396704857594159
 20
1660.706585677651
 30
0.0
  0
VERTEX
  5
9AE32
  8
DETAIL
 10
-80.625719185269176
 20
1663.427388550153
 30
0.0
  0
VERTEX
  5
9AE33
  8
DETAIL
 10
-81.907171109050964
 20
1665.9773335448369
 30
0.0
  0
VERTEX
  5
9AE34
  8
DETAIL
 10
-83.237592306220904
 20
1668.349519090134
 30
0.0
  0
VERTEX
  5
9AE35
  8
DETAIL
 10
-84.61338191591858
 20
1670.537524730554
 30
0.0
  0
VERTEX
  5
9AE36
  8
DETAIL
 10
-86.030816285094275
 20
1672.535428504033
 30
0.0
  0
VERTEX
  5
9AE37
  8
DETAIL
 10
-87.486059046779715
 20
1674.33782297005
 30
0.0
  0
VERTEX
  5
9AE38
  8
DETAIL
 10
-88.975171503432648
 20
1675.939829845174
 30
0.0
  0
VERTEX
  5
9AE39
  8
DETAIL
 10
-90.494123287255206
 20
1677.3371132064219
 30
0.0
  0
VERTEX
  5
9AE3A
  8
DETAIL
 10
-92.038803268602337
 20
1678.52589122668
 30
0.0
  0
VERTEX
  5
9AE3B
  8
DETAIL
 10
-93.605030683000223
 20
1679.502946410428
 30
0.0
  0
VERTEX
  5
9AE3C
  8
DETAIL
 10
-95.188566446615368
 20
1680.2656343020819
 30
0.0
  0
VERTEX
  5
9AE3D
  8
DETAIL
 10
-96.785124629579514
 20
1680.811890643359
 30
0.0
  0
VERTEX
  5
9AE3E
  8
DETAIL
 10
-98.390384056108815
 20
1681.140236960314
 30
0.0
  0
VERTEX
  5
9AE3F
  8
DETAIL
 10
-100.0
 20
1681.249784564912
 30
0.0
  0
SEQEND
  5
9AE40
  8
DETAIL
  0
POLYLINE
  5
99C26
  8
DETAIL
 66
     1
 10
0.0
 20
0.0
 30
0.0
  0
VERTEX
  5
9AE41
  8
DETAIL
 10
-100.0000003619643
 20
1719.349784565434
 30
0.0
  0
VERTEX
  5
9AE42
  8
DETAIL
 10
-102.55054524464499
 20
1719.2685416445549
 30
0.0
  0
VERTEX
  5
9AE43
  8
DETAIL
 10
-105.0976090007097
 20
1719.024923812889
 30
0.0
  0
VERTEX
  5
9AE44
  8
DETAIL
 10
-107.6377152552777
 20
1718.6192635736679
 30
0.0
  0
VERTEX
  5
9AE45
  8
DETAIL
 10
-110.1673971294512
 20
1718.0521145946379
 30
0.0
  0
VERTEX
  5
9AE46
  8
DETAIL
 10
-112.6832019721077
 20
1717.3242509524109
 30
0.0
  0
VERTEX
  5
9AE47
  8
DETAIL
 10
-115.18169607227711
 20
1716.436666075937
 30
0.0
  0
VERTEX
  5
9AE48
  8
DETAIL
 10
-117.6594693456499
 20
1715.3905713906349
 30
0.0
  0
VERTEX
  5
9AE49
  8
DETAIL
 10
-120.11313998886899
 20
1714.1873946649609
 30
0.0
  0
VERTEX
  5
9AE4A
  8
DETAIL
 10
-122.53935909518439
 20
1712.828778061717
 30
0.0
  0
VERTEX
  5
9AE4B
  8
DETAIL
 10
-124.9348152252405
 20
1711.3165758967291
 30
0.0
  0
VERTEX
  5
9AE4C
  8
DETAIL
 10
-127.2962389267104
 20
1709.6528521079781
 30
0.0
  0
VERTEX
  5
9AE4D
  8
DETAIL
 10
-129.62040719662389
 20
1707.8398774386219
 30
0.0
  0
VERTEX
  5
9AE4E
  8
DETAIL
 10
-131.9041478803083
 20
1705.8801263377529
 30
0.0
  0
VERTEX
  5
9AE4F
  8
DETAIL
 10
-134.14434400091699
 20
1703.776273583142
 30
0.0
  0
VERTEX
  5
9AE50
  8
DETAIL
 10
-136.33793801365391
 20
1701.531190630539
 30
0.0
  0
VERTEX
  5
9AE51
  8
DETAIL
 10
-138.48193597888891
 20
1699.1479416945581
 30
0.0
  0
VERTEX
  5
9AE52
  8
DETAIL
 10
-140.57341164843811
 20
1696.6297795664721
 30
0.0
  0
VERTEX
  5
9AE53
  8
DETAIL
 10
-142.60951045948599
 20
1693.980141174605
 30
0.0
  0
VERTEX
  5
9AE54
  8
DETAIL
 10
-144.58745343064939
 20
1691.202642893433
 30
0.0
  0
VERTEX
  5
9AE55
  8
DETAIL
 10
-146.50454095487831
 20
1688.301075607752
 30
0.0
  0
VERTEX
  5
9AE56
  8
DETAIL
 10
-148.35815648403869
 20
1685.279399538663
 30
0.0
  0
VERTEX
  5
9AE57
  8
DETAIL
 10
-150.14577010011999
 20
1682.141738838448
 30
0.0
  0
VERTEX
  5
9AE58
  8
DETAIL
 10
-151.8649419682078
 20
1678.892375961688
 30
0.0
  0
VERTEX
  5
9AE59
  8
DETAIL
 10
-153.51332566651391
 20
1675.5357458203321
 30
0.0
  0
VERTEX
  5
9AE5A
  8
DETAIL
 10
-155.0886713888921
 20
1672.076429730688
 30
0.0
  0
VERTEX
  5
9AE5B
  8
DETAIL
 10
-156.5888290155053
 20
1668.5191491605819
 30
0.0
  0
VERTEX
  5
9AE5C
  8
DETAIL
 10
-158.01175104743371
 20
1664.868759285227
 30
0.0
  0
VERTEX
  5
9AE5D
  8
DETAIL
 10
-159.3554954012088
 20
1661.130242360628
 30
0.0
  0
VERTEX
  5
9AE5E
  8
DETAIL
 10
-160.61822805948029
 20
1657.3087009235021
 30
0.0
  0
VERTEX
  5
9AE5F
  8
DETAIL
 10
-161.79822557418441
 20
1653.409350827056
 30
0.0
  0
SEQEND
  5
9AE60
  8
DETAIL
  0
POLYLINE
  5
99C27
  8
DETAIL
 66
     1
 10
0.0
 20
0.0
 30
0.0
  0
VERTEX
  5
9AE61
  8
DETAIL
 10
-100.0
 20
1681.2497845654341
 30
0.0
  0
VERTEX
  5
9AE62
  8
DETAIL
 10
-101.0121466092386
 20
1681.206486608316
 30
0.0
  0
VERTEX
  5
9AE63
  8
DETAIL
 10
-102.0232104761198
 20
1681.076639054889
 30
0.0
  0
VERTEX
  5
9AE64
  8
DETAIL
 10
-103.03211001653101
 20
1680.8603808093831
 30
0.0
  0
VERTEX
  5
9AE65
  8
DETAIL
 10
-104.0377659616678
 20
1680.557943213742
 30
0.0
  0
VERTEX
  5
9AE66
  8
DETAIL
 10
-105.03910251254629
 20
1680.1696498001429
 30
0.0
  0
VERTEX
  5
9AE67
  8
DETAIL
 10
-106.03504849084121
 20
1679.6959159449029
 30
0.0
  0
VERTEX
  5
9AE68
  8
DETAIL
 10
-107.02453848479669
 20
1679.1372484241219
 30
0.0
  0
VERTEX
  5
9AE69
  8
DETAIL
 10
-108.00651398893019
 20
1678.494244871566
 30
0.0
  0
VERTEX
  5
9AE6A
  8
DETAIL
 10
-108.97992453637561
 20
1677.767593139353
 30
0.0
  0
VERTEX
  5
9AE6B
  8
DETAIL
 10
-109.94372882261629
 20
1676.9580705621131
 30
0.0
  0
VERTEX
  5
9AE6C
  8
DETAIL
 10
-110.89689581942
 20
1676.066543125449
 30
0.0
  0
VERTEX
  5
9AE6D
  8
DETAIL
 10
-111.8384058777774
 20
1675.0939645395331
 30
0.0
  0
VERTEX
  5
9AE6E
  8
DETAIL
 10
-112.7672518186755
 20
1674.041375218897
 30
0.0
  0
VERTEX
  5
9AE6F
  8
DETAIL
 10
-113.6824400105215
 20
1672.9099011694341
 30
0.0
  0
VERTEX
  5
9AE70
  8
DETAIL
 10
-114.58299143207471
 20
1671.7007527838589
 30
0.0
  0
VERTEX
  5
9AE71
  8
DETAIL
 10
-115.4679427197661
 20
1670.415223546901
 30
0.0
  0
VERTEX
  5
9AE72
  8
DETAIL
 10
-116.3363471982447
 20
1669.054688651587
 30
0.0
  0
VERTEX
  5
9AE73
  8
DETAIL
 10
-117.1872758930803
 20
1667.6206035281459
 30
0.0
  0
VERTEX
  5
9AE74
  8
DETAIL
 10
-118.0198185245426
 20
1666.114502287051
 30
0.0
  0
VERTEX
  5
9AE75
  8
DETAIL
 10
-118.83308448135899
 20
1664.5379960779101
 30
0.0
  0
VERTEX
  5
9AE76
  8
DETAIL
 10
-119.62620377345949
 20
1662.8927713659459
 30
0.0
  0
VERTEX
  5
9AE77
  8
DETAIL
 10
-120.3983279626336
 20
1661.1805881279049
 30
0.0
  0
VERTEX
  5
9AE78
  8
DETAIL
 10
-121.1486310701566
 20
1659.403277969308
 30
0.0
  0
VERTEX
  5
9AE79
  8
DETAIL
 10
-121.87631046036761
 20
1657.562742165115
 30
0.0
  0
VERTEX
  5
9AE7A
  8
DETAIL
 10
-122.58058769929811
 20
1655.6609496258241
 30
0.0
  0
VERTEX
  5
9AE7B
  8
DETAIL
 10
-123.2607093873975
 20
1653.6999347912349
 30
0.0
  0
VERTEX
  5
9AE7C
  8
DETAIL
 10
-123.9159479654808
 20
1651.6817954541129
 30
0.0
  0
VERTEX
  5
9AE7D
  8
DETAIL
 10
-124.54560249303169
 20
1649.6086905160771
 30
0.0
  0
VERTEX
  5
9AE7E
  8
DETAIL
 10
-125.1489993980358
 20
1647.4828376781199
 30
0.0
  0
VERTEX
  5
9AE7F
  8
DETAIL
 10
-125.72549319753119
 20
1645.3065110682201
 30
0.0
  0
SEQEND
  5
9AE80
  8
DETAIL
  0
LINE
  5
99C28
  8
DETAIL
 10
-135.6553835020149
 20
1601.0999999999999
 30
0.0
 11
-125.72549319753119
 21
1645.3065110682201
 31
0.0
  0
LINE
  5
99C29
  8
DETAIL
 10
-173.5482167646168
 20
1601.0999999999999
 30
0.0
 11
-161.79822557418441
 21
1653.4093508270589
 31
0.0
  0
ARC
  5
99C2A
  8
DETAIL
 10
127.94847084254791
 20
1383.5999999999999
 30
0.0
 40
146.4000000000002
 50
22.229621091267148
 51
90.0
  0
ARC
  5
99C2B
  8
DETAIL
 10
127.94847084254791
 20
1383.5999999999999
 30
0.0
 40
203.60000000000039
 50
22.229621091267148
 51
90.0
  0
LINE
  5
99C2C
  8
DETAIL
 10
-43.75
 20
1499.5500000000011
 30
0.0
 11
-43.75
 21
1547.0500000000011
 31
0.0
  0
LINE
  5
99C2D
  8
DETAIL
 10
109.99999999999631
 20
1518.0999999999999
 30
0.0
 11
109.99999999999631
 21
1599.0999999999999
 31
0.0
  0
LINE
  5
99C2E
  8
DETAIL
 10
263.46730882829792
 20
1438.985959872439
 30
0.0
 11
324.76883798575182
 21
1288.9928566148419
 31
0.0
  0
ARC
  5
99C2F
  8
DETAIL
 10
213.99999999995629
 20
1242.500000000018
 30
0.0
 40
121.0500000000429
 50
0.0
 51
89.999999999947889
  0
ARC
  5
99C30
  8
DETAIL
 10
213.9999999999545
 20
1242.500000000018
 30
0.0
 40
81.050000000043838
 50
0.0
 51
89.999999999947889
  0
LINE
  5
99C31
  8
DETAIL
 10
234.5499999995809
 20
1242.5
 30
0.0
 11
295.05000000008653
 21
1242.5
 31
0.0
  0
LINE
  5
99C32
  8
DETAIL
 10
165.99999999999631
 20
1229.299999999999
 30
0.0
 11
165.99999999999631
 21
1357.299999999999
 31
0.0
  0
LINE
  5
99C33
  8
DETAIL
 10
131.99999999999631
 20
1229.3000000000011
 30
0.0
 11
131.99999999999631
 21
1357.3000000000011
 31
0.0
  0
LINE
  5
99C34
  8
DETAIL
 10
136.0
 20
1335.8000000000011
 30
0.0
 11
135.99999999999631
 21
1240.8000000000011
 31
0.0
  0
LINE
  5
99C35
  8
DETAIL
 10
140.99999999999631
 20
1345.799999999999
 30
0.0
 11
140.99999999999631
 21
1229.299999999999
 31
0.0
  0
LINE
  5
99C36
  8
DETAIL
 10
134.49999999999989
 20
1335.799999999999
 30
0.0
 11
134.49999999999631
 21
1240.799999999999
 31
0.0
  0
LINE
  5
99C37
  8
DETAIL
 10
76.999999999996362
 20
1229.3000000000011
 30
0.0
 11
76.999999999996362
 21
1357.3000000000011
 31
0.0
  0
LINE
  5
99C38
  8
DETAIL
 10
163.999999999789
 20
1354.6178373599789
 30
0.0
 11
163.999999999789
 21
1244.1328069102419
 31
0.0
  0
LINE
  5
99C39
  8
DETAIL
 10
213.9999999999981
 20
1323.550000000077
 30
0.0
 11
213.9999999999981
 21
1263.0499999996391
 31
0.0
  0
LINE
  5
99C3A
  8
DETAIL
 10
79.999999999996362
 20
1226.3000000000011
 30
0.0
 11
128.99999999999631
 21
1226.3000000000011
 31
0.0
  0
LINE
  5
99C3B
  8
DETAIL
 10
117.5
 20
1190.3000000000011
 30
0.0
 11
130.0
 21
1190.3000000000011
 31
0.0
  0
LINE
  5
99C3C
  8
DETAIL
 10
137.0
 20
1094.3000000000011
 30
0.0
 11
96.91535288355773
 21
1094.3000000000011
 31
0.0
  0
LINE
  5
99C3D
  8
DETAIL
 10
92.431456169177181
 20
1167.549134024742
 30
0.0
 11
139.5160117038358
 21
1095.045276620159
 31
0.0
  0
CIRCLE
  5
99C3E
  8
DETAIL
 10
29.448337454417921
 20
1137.3738582670351
 30
0.0
 40
8.9999999999997691
  0
CIRCLE
  5
99C3F
  8
DETAIL
 10
-22.623968617961509
 20
1120.4545403958521
 30
0.0
 40
9.0000000000000604
  0
ARC
  5
99C40
  8
DETAIL
 10
-42.0
 20
1139.5079325842851
 30
0.0
 40
2.9999999999995688
 50
272.97774444618273
 51
0.0
  0
LINE
  5
99C41
  8
DETAIL
 10
-39.0
 20
1154.7
 30
0.0
 11
-39.0
 21
1139.5079325842851
 31
0.0
  0
ARC
  5
99C42
  8
DETAIL
 10
-33.000000000001812
 20
1154.7
 30
0.0
 40
5.9999999999990896
 50
90.0
 51
180.0
  0
CIRCLE
  5
99C43
  8
DETAIL
 10
4.077974015614017
 20
1126.86510964835
 30
0.0
 40
5.9999999999999396
  0
CIRCLE
  5
99C44
  8
DETAIL
 10
4.077974015614017
 20
1126.86510964835
 30
0.0
 40
5.0
  0
LINE
  5
99C45
  8
DETAIL
 10
70.0
 20
1087.3000000000011
 30
0.0
 11
70.0
 21
1090.2730147324801
 31
0.0
  0
CIRCLE
  5
99C46
  8
DETAIL
 10
73.743686707643064
 20
1169.556313292356
 30
0.0
 40
8.9999999999997691
  0
LINE
  5
99C47
  8
DETAIL
 10
101.24483462254101
 20
1178.3000000000011
 30
0.0
 11
110.19615242270621
 21
1178.3000000000011
 31
0.0
  0
LINE
  5
99C48
  8
DETAIL
 10
110.1809616326572
 20
1178.3000000000011
 30
0.0
 11
110.19615242270621
 21
1178.3000000000011
 31
0.0
  0
LINE
  5
99C49
  8
DETAIL
 10
101.81426803697831
 20
1179.0527767497331
 30
0.0
 11
109.63955721907401
 21
1179.0527767497331
 31
0.0
  0
ARC
  5
99C4A
  8
DETAIL
 10
117.5
 20
1184.299999999999
 30
0.0
 40
6.0000000000022728
 50
90.0
 51
180.0
  0
LINE
  5
99C4B
  8
DETAIL
 10
111.4999999999999
 20
1184.3000000000011
 30
0.0
 11
111.4999999999999
 21
1180.7848275573031
 31
0.0
  0
ARC
  5
99C4C
  8
DETAIL
 10
108.49999999999091
 20
1180.7848275573081
 30
0.0
 40
3.0000000000084062
 50
304.07796840943752
 51
359.99999999989581
  0
ARC
  5
99C4D
  8
DETAIL
 10
63.999999999996362
 20
1087.299999999999
 30
0.0
 40
6.0000000000018181
 50
0.0
 51
90.0
  0
ARC
  5
99C4E
  8
DETAIL
 10
57.999999999990912
 20
1090.273014732476
 30
0.0
 40
12.00000000000728
 50
0.0
 51
32.999999999997819
  0
ARC
  5
99C4F
  8
DETAIL
 10
96.91535288355773
 20
1109.299999999995
 30
0.0
 40
14.99999999999527
 50
212.9999999999977
 51
270.0
  0
LINE
  5
99C50
  8
DETAIL
 10
60.099011825383059
 20
1138.451016809687
 30
0.0
 11
84.33529436437675
 21
1101.1304144747769
 31
0.0
  0
LINE
  5
99C51
  8
DETAIL
 10
46.680282738258029
 20
1129.7367922494479
 30
0.0
 11
68.064046815345137
 21
1096.8086831526589
 31
0.0
  0
ARC
  5
99C52
  8
DETAIL
 10
80.0
 20
1229.300000000002
 30
0.0
 40
3.0000000000018181
 50
180.0
 51
269.99999999994782
  0
ARC
  5
99C53
  8
DETAIL
 10
71.225035612606007
 20
1227.299999999999
 30
0.0
 40
5.9999999999992824
 50
12.83958840692665
 51
90.0
  0
CIRCLE
  5
99C54
  8
DETAIL
 10
105.92614173295981
 20
1213.8516625455791
 30
0.0
 40
9.0000000000000604
  0
LINE
  5
99C55
  8
DETAIL
 10
130.79999999999919
 20
1190.3000000000011
 30
0.0
 11
130.79999999999919
 21
1226.899999999999
 31
0.0
  0
LINE
  5
99C56
  8
DETAIL
 10
130.0
 20
1190.3000000000011
 30
0.0
 11
130.0
 21
1226.471572875254
 31
0.0
  0
LINE
  5
99C57
  8
DETAIL
 10
130.79999999999919
 20
1226.899999999999
 30
0.0
 11
130.79999999999919
 21
1190.8000000000011
 31
0.0
  0
LINE
  5
99C58
  8
DETAIL
 10
146.79999999999919
 20
1229.299999999999
 30
0.0
 11
146.79999999999919
 21
1191.3000000000011
 31
0.0
  0
LINE
  5
99C59
  8
DETAIL
 10
130.0
 20
1190.3000000000011
 30
0.0
 11
130.0
 21
1226.471572875254
 31
0.0
  0
LINE
  5
99C5A
  8
DETAIL
 10
140.0
 20
1087.3000000000011
 30
0.0
 11
140.0
 21
1093.4113595151171
 31
0.0
  0
LINE
  5
99C5B
  8
DETAIL
 10
130.0
 20
1190.3000000000011
 30
0.0
 11
130.79999999999919
 21
1190.3000000000011
 31
0.0
  0
LINE
  5
99C5C
  8
DETAIL
 10
146.79999999999919
 20
1191.3000000000011
 30
0.0
 11
145.79999999999919
 21
1190.3000000000011
 31
0.0
  0
LINE
  5
99C5D
  8
DETAIL
 10
131.29999999999919
 20
1190.3000000000011
 30
0.0
 11
145.79999999999919
 21
1190.3000000000011
 31
0.0
  0
LINE
  5
99C5E
  8
DETAIL
 10
130.79999999999919
 20
1190.8000000000011
 30
0.0
 11
131.29999999999919
 21
1190.3000000000011
 31
0.0
  0
ARC
  5
99C5F
  8
DETAIL
 10
137.0
 20
1091.300000000002
 30
0.0
 40
2.9999999999990901
 50
0.0
 51
90.0
  0
ARC
  5
99C60
  8
DETAIL
 10
137.00000000000179
 20
1093.4113595151171
 30
0.0
 40
2.9999999999972711
 50
0.0
 51
33.000000000026198
  0
LINE
  5
99C61
  8
DETAIL
 10
163.999999999789
 20
1263.0499999998101
 30
0.0
 11
213.99999999978891
 21
1263.0499999998101
 31
0.0
  0
LINE
  5
99C62
  8
DETAIL
 10
135.99999999999631
 20
1250.8000000000011
 30
0.0
 11
134.49999999999631
 21
1250.8000000000011
 31
0.0
  0
LINE
  5
99C63
  8
DETAIL
 10
135.99999999999631
 20
1240.8000000000011
 30
0.0
 11
134.49999999999631
 21
1240.8000000000011
 31
0.0
  0
LINE
  5
99C64
  8
DETAIL
 10
140.99999999999631
 20
1240.799999999999
 30
0.0
 11
135.99999999999631
 21
1240.799999999999
 31
0.0
  0
LINE
  5
99C65
  8
DETAIL
 10
140.99999999999631
 20
1240.799999999999
 30
0.0
 11
140.99999999999631
 21
1229.299999999999
 31
0.0
  0
LINE
  5
99C66
  8
DETAIL
 10
140.99999999999631
 20
1240.799999999999
 30
0.0
 11
135.99999999999631
 21
1240.799999999999
 31
0.0
  0
LINE
  5
99C67
  8
DETAIL
 10
134.49999999999631
 20
1240.799999999999
 30
0.0
 11
131.99999999999631
 21
1240.799999999999
 31
0.0
  0
LINE
  5
99C68
  8
DETAIL
 10
165.99999999999631
 20
1229.299999999999
 30
0.0
 11
140.99999999999631
 21
1229.299999999999
 31
0.0
  0
LINE
  5
99C69
  8
DETAIL
 10
165.99999999999631
 20
1229.299999999999
 30
0.0
 11
140.99999999999631
 21
1229.299999999999
 31
0.0
  0
LINE
  5
99C6A
  8
DETAIL
 10
175.99999999999631
 20
1257.149999999999
 30
0.0
 11
175.99999999999631
 21
1231.45
 31
0.0
  0
LINE
  5
99C6B
  8
DETAIL
 10
174.99999999999631
 20
1230.45
 30
0.0
 11
165.99999999999631
 21
1230.45
 31
0.0
  0
ARC
  5
99C6C
  8
DETAIL
 10
174.99999999999631
 20
1231.45
 30
0.0
 40
0.9999999999995453
 50
270.0
 51
0.0
  0
LINE
  5
99C6D
  8
DETAIL
 10
174.99999999999631
 20
1236.299999999999
 30
0.0
 11
165.99999999999631
 21
1236.299999999999
 31
0.0
  0
ARC
  5
99C6E
  8
DETAIL
 10
174.99999999999631
 20
1237.299999999999
 30
0.0
 40
0.9999999999995453
 50
270.0
 51
0.0
  0
LINE
  5
99C6F
  8
DETAIL
 10
174.99999999999631
 20
1258.149999999999
 30
0.0
 11
165.99999999999631
 21
1258.149999999999
 31
0.0
  0
ARC
  5
99C70
  8
DETAIL
 10
175.0
 20
1257.1500000000051
 30
0.0
 40
0.999999999996362
 50
359.9999999997915
 51
90.000000000208431
  0
LINE
  5
99C71
  8
DETAIL
 10
174.99999999999631
 20
1252.299999999999
 30
0.0
 11
165.99999999999631
 21
1252.299999999999
 31
0.0
  0
ARC
  5
99C72
  8
DETAIL
 10
175.0
 20
1251.300000000004
 30
0.0
 40
0.9999999999972716
 50
359.9999999997915
 51
90.000000000156334
  0
ARC
  5
99C73
  8
DETAIL
 10
128.9999999999981
 20
1229.299999999999
 30
0.0
 40
2.9999999999986362
 50
270.0
 51
0.0
  0
LINE
  5
99C74
  8
DETAIL
 10
148.80000000000101
 20
1229.299999999999
 30
0.0
 11
148.80000000000101
 21
1217.3000000000011
 31
0.0
  0
LINE
  5
99C75
  8
DETAIL
 10
146.79999999999919
 20
1217.3000000000011
 30
0.0
 11
148.79999999999919
 21
1217.3000000000011
 31
0.0
  0
LINE
  5
99C76
  8
DETAIL
 10
163.999999999789
 20
1223.0499999998101
 30
0.0
 11
194.54999999999919
 21
1223.0499999998101
 31
0.0
  0
ARC
  5
99C77
  8
DETAIL
 10
213.9999999998162
 20
1242.4999999998199
 30
0.0
 40
20.549999999945602
 50
0.0000000005211021
 51
89.999999999478902
  0
LINE
  5
99C78
  8
DETAIL
 10
110.0
 20
1530.0
 30
0.0
 11
127.9484708425497
 21
1530.0
 31
0.0
  0
LINE
  5
99C79
  8
DETAIL
 10
79.999999999996362
 20
1360.3000000000011
 30
0.0
 11
128.99999999999631
 21
1360.3000000000011
 31
0.0
  0
LINE
  5
99C7A
  8
DETAIL
 10
123.199999999997
 20
1423.3000000000011
 30
0.0
 11
88.564064605508975
 21
1423.3000000000011
 31
0.0
  0
LINE
  5
99C7B
  8
DETAIL
 10
123.199999999997
 20
1408.3000000000011
 30
0.0
 11
101.24483462254101
 21
1408.3000000000011
 31
0.0
  0
LINE
  5
99C7C
  8
DETAIL
 10
125.19615242270621
 20
1408.3000000000011
 30
0.0
 11
101.24483462254101
 21
1408.3000000000011
 31
0.0
  0
LINE
  5
99C7D
  8
DETAIL
 10
102.24703601865249
 20
1406.96987298108
 30
0.0
 11
123.55373517603221
 21
1406.96987298108
 31
0.0
  0
CIRCLE
  5
99C7E
  8
DETAIL
 10
73.743686707643064
 20
1417.043686707646
 30
0.0
 40
9.0000000000000604
  0
LINE
  5
99C7F
  8
DETAIL
 10
93.75
 20
1431.3000000000011
 30
0.0
 11
93.75
 21
1423.3000000000011
 31
0.0
  0
CIRCLE
  5
99C80
  8
DETAIL
 10
105.92614173295981
 20
1372.7483374544199
 30
0.0
 40
9.0000000000000604
  0
ARC
  5
99C81
  8
DETAIL
 10
80.0
 20
1357.299999999997
 30
0.0
 40
3.000000000003638
 50
90.000000000052125
 51
179.99999999989569
  0
ARC
  5
99C82
  8
DETAIL
 10
71.225035612606007
 20
1359.3000000000011
 30
0.0
 40
6.0000000000004547
 50
270.0
 51
347.16041159307338
  0
CIRCLE
  5
99C83
  8
DETAIL
 10
29.448337454417921
 20
1449.2261417329639
 30
0.0
 40
9.0000000000000604
  0
LINE
  5
99C84
  8
DETAIL
 10
-35.0
 20
1493.3000000000011
 30
0.0
 11
47.999999999996362
 21
1493.3000000000011
 31
0.0
  0
LINE
  5
99C85
  8
DETAIL
 10
-30.000000000003642
 20
1494.0999999999999
 30
0.0
 11
47.999999999996362
 21
1494.0999999999999
 31
0.0
  0
LINE
  5
99C86
  8
DETAIL
 10
-35.041926223428163
 20
1494.0999999999999
 30
0.0
 11
47.999999999996362
 21
1494.0999999999999
 31
0.0
  0
LINE
  5
99C87
  8
DETAIL
 10
-35.146741781994933
 20
1516.0999999999999
 30
0.0
 11
47.999999999996362
 21
1516.0999999999999
 31
0.0
  0
LINE
  5
99C88
  8
DETAIL
 10
-43.75
 20
1516.0999999999999
 30
0.0
 11
108.0
 21
1516.0999999999999
 31
0.0
  0
LINE
  5
99C89
  8
DETAIL
 10
-30.0
 20
1490.5264973081059
 30
0.0
 11
47.965584253241097
 21
1490.5264973081059
 31
0.0
  0
CIRCLE
  5
99C8A
  8
DETAIL
 10
-22.623968617961509
 20
1466.145459604149
 30
0.0
 40
9.0000000000000604
  0
ARC
  5
99C8B
  8
DETAIL
 10
-33.000000000001812
 20
1431.899999999999
 30
0.0
 40
5.9999999999990896
 50
180.0
 51
270.0
  0
LINE
  5
99C8C
  8
DETAIL
 10
-39.0
 20
1431.899999999999
 30
0.0
 11
-39.0
 21
1447.0920674157171
 31
0.0
  0
ARC
  5
99C8D
  8
DETAIL
 10
-42.0
 20
1447.0920674157171
 30
0.0
 40
2.9999999999990901
 50
0.0
 51
87.022255553817203
  0
LINE
  5
99C8E
  8
DETAIL
 10
-43.75
 20
1504.3000000000011
 30
0.0
 11
-37.590126813023737
 21
1504.3000000000011
 31
0.0
  0
LINE
  5
99C8F
  8
DETAIL
 10
-35.0
 20
1493.3000000000011
 30
0.0
 11
-35.372231298935731
 21
1500.4025962944161
 31
0.0
  0
ARC
  5
99C90
  8
DETAIL
 10
-40.365378972706822
 20
1500.140916513202
 30
0.0
 40
4.9999999999981526
 50
3.0000000000061049
 51
82.173234067511444
  0
ARC
  5
99C91
  8
DETAIL
 10
-49.999999999941792
 20
1430.050000000517
 30
0.0
 40
75.749999999479783
 50
82.173234067459816
 51
85.267245266417362
  0
LINE
  5
99C92
  8
DETAIL
 10
-30.0
 20
1482.244436276912
 30
0.0
 11
-30.0
 21
1493.3000000000029
 31
0.0
  0
LINE
  5
99C93
  8
DETAIL
 10
47.999999999996362
 20
1493.3000000000011
 30
0.0
 11
47.999999999996362
 21
1494.0999999999999
 31
0.0
  0
LINE
  5
99C94
  8
DETAIL
 10
80.598621738514325
 20
1431.3000000000011
 30
0.0
 11
93.75
 21
1431.3000000000011
 31
0.0
  0
LINE
  5
99C95
  8
DETAIL
 10
47.999999999996362
 20
1494.0999999999999
 30
0.0
 11
47.999999999996362
 21
1516.0999999999999
 31
0.0
  0
ARC
  5
99C96
  8
DETAIL
 10
108.0000000000018
 20
1518.099999999996
 30
0.0
 40
1.9999999999968161
 50
269.99999999989569
 51
0.0000000001042204
  0
ARC
  5
99C97
  8
DETAIL
 10
-130.0000000002164
 20
1293.299999999826
 30
0.0
 40
250.0000000002764
 50
34.915206247472092
 51
43.281012002382539
  0
LINE
  5
99C98
  8
DETAIL
 10
50.5
 20
1491.39252271189
 30
0.0
 11
47.19615242270811
 21
1493.3000000000011
 31
0.0
  0
ARC
  5
99C99
  8
DETAIL
 10
48.999999999992717
 20
1488.794446500533
 30
0.0
 40
3.0000000000054561
 50
0.0000000001042204
 51
59.999999999944563
  0
LINE
  5
99C9A
  8
DETAIL
 10
52.0
 20
1453.5997192761131
 30
0.0
 11
52.0
 21
1488.794446500536
 31
0.0
  0
LINE
  5
99C9B
  8
DETAIL
 10
163.999999999789
 20
1363.5499999998101
 30
0.0
 11
213.99999999978891
 21
1363.5499999998101
 31
0.0
  0
LINE
  5
99C9C
  8
DETAIL
 10
163.999999999789
 20
1323.5499999998101
 30
0.0
 11
213.99999999978891
 21
1323.5499999998101
 31
0.0
  0
ARC
  5
99C9D
  8
DETAIL
 10
128.99999999999631
 20
1357.299999999999
 30
0.0
 40
3.0
 50
0.0
 51
90.0
  0
LINE
  5
99C9E
  8
DETAIL
 10
165.99999999999631
 20
1357.299999999999
 30
0.0
 11
140.99999999999631
 21
1357.299999999999
 31
0.0
  0
ARC
  5
99C9F
  8
DETAIL
 10
175.0
 20
1349.300000000004
 30
0.0
 40
0.9999999999972716
 50
359.9999999997915
 51
90.000000000156334
  0
LINE
  5
99CA0
  8
DETAIL
 10
174.99999999999631
 20
1350.299999999999
 30
0.0
 11
165.99999999999631
 21
1350.299999999999
 31
0.0
  0
ARC
  5
99CA1
  8
DETAIL
 10
175.0
 20
1355.1500000000051
 30
0.0
 40
0.999999999996362
 50
359.9999999997915
 51
90.000000000208431
  0
LINE
  5
99CA2
  8
DETAIL
 10
174.99999999999631
 20
1356.149999999999
 30
0.0
 11
165.99999999999631
 21
1356.149999999999
 31
0.0
  0
ARC
  5
99CA3
  8
DETAIL
 10
174.99999999999631
 20
1335.299999999999
 30
0.0
 40
0.9999999999995453
 50
270.0
 51
0.0
  0
LINE
  5
99CA4
  8
DETAIL
 10
174.99999999999631
 20
1334.299999999999
 30
0.0
 11
165.99999999999631
 21
1334.299999999999
 31
0.0
  0
ARC
  5
99CA5
  8
DETAIL
 10
174.99999999999631
 20
1329.45
 30
0.0
 40
0.9999999999995453
 50
270.0
 51
0.0
  0
LINE
  5
99CA6
  8
DETAIL
 10
174.99999999999631
 20
1328.450000000001
 30
0.0
 11
165.99999999999631
 21
1328.450000000001
 31
0.0
  0
LINE
  5
99CA7
  8
DETAIL
 10
175.99999999999631
 20
1329.45
 30
0.0
 11
175.99999999999631
 21
1355.149999999999
 31
0.0
  0
ARC
  5
99CA8
  8
DETAIL
 10
166.19999999998609
 20
1326.5927405778541
 30
0.0
 40
2.9999999994865729
 50
266.17744627026173
 51
270.00000000020839
  0
LINE
  5
99CA9
  8
DETAIL
 10
135.99999999999631
 20
1345.8000000000011
 30
0.0
 11
134.49999999999631
 21
1345.8000000000011
 31
0.0
  0
LINE
  5
99CAA
  8
DETAIL
 10
135.99999999999631
 20
1335.8000000000011
 30
0.0
 11
134.49999999999631
 21
1335.8000000000011
 31
0.0
  0
LINE
  5
99CAB
  8
DETAIL
 10
135.99999999999631
 20
1335.8000000000011
 30
0.0
 11
135.99999999999631
 21
1345.8000000000011
 31
0.0
  0
LINE
  5
99CAC
  8
DETAIL
 10
140.99999999999631
 20
1345.799999999999
 30
0.0
 11
140.99999999999631
 21
1357.299999999999
 31
0.0
  0
LINE
  5
99CAD
  8
DETAIL
 10
140.99999999999631
 20
1345.799999999999
 30
0.0
 11
135.99999999999631
 21
1345.799999999999
 31
0.0
  0
LINE
  5
99CAE
  8
DETAIL
 10
134.49999999999631
 20
1345.799999999999
 30
0.0
 11
131.99999999999631
 21
1345.799999999999
 31
0.0
  0
LINE
  5
99CAF
  8
DETAIL
 10
134.49999999999631
 20
1334.799999999999
 30
0.0
 11
134.49999999999631
 21
1345.799999999999
 31
0.0
  0
LINE
  5
99CB0
  8
DETAIL
 10
130.79999999999919
 20
1396.3000000000011
 30
0.0
 11
130.79999999999919
 21
1359.700000000001
 31
0.0
  0
LINE
  5
99CB1
  8
DETAIL
 10
130.0
 20
1396.3000000000011
 30
0.0
 11
130.0
 21
1360.1284271247471
 31
0.0
  0
LINE
  5
99CB2
  8
DETAIL
 10
130.0
 20
1396.3000000000011
 30
0.0
 11
130.79999999999919
 21
1396.3000000000011
 31
0.0
  0
LINE
  5
99CB3
  8
DETAIL
 10
123.199999999997
 20
1423.3000000000011
 30
0.0
 11
124.0
 21
1422.5
 31
0.0
  0
LINE
  5
99CB4
  8
DETAIL
 10
124.0
 20
1422.5
 30
0.0
 11
124.0
 21
1409.0999999999999
 31
0.0
  0
LINE
  5
99CB5
  8
DETAIL
 10
123.199999999997
 20
1408.3000000000011
 30
0.0
 11
124.0
 21
1409.0999999999999
 31
0.0
  0
LINE
  5
99CB6
  8
DETAIL
 10
148.79999999999919
 20
1369.3000000000011
 30
0.0
 11
148.79999999999919
 21
1357.299999999999
 31
0.0
  0
LINE
  5
99CB7
  8
DETAIL
 10
146.79999999999919
 20
1395.3000000000011
 30
0.0
 11
146.80000000000101
 21
1357.299999999999
 31
0.0
  0
LINE
  5
99CB8
  8
DETAIL
 10
130.79999999999919
 20
1395.8000000000011
 30
0.0
 11
130.79999999999919
 21
1359.700000000001
 31
0.0
  0
LINE
  5
99CB9
  8
DETAIL
 10
146.79999999999919
 20
1369.3000000000011
 30
0.0
 11
148.79999999999919
 21
1369.3000000000011
 31
0.0
  0
LINE
  5
99CBA
  8
DETAIL
 10
130.79999999999919
 20
1395.8000000000011
 30
0.0
 11
131.29999999999919
 21
1396.3000000000011
 31
0.0
  0
LINE
  5
99CBB
  8
DETAIL
 10
131.29999999999919
 20
1396.3000000000011
 30
0.0
 11
145.79999999999919
 21
1396.3000000000011
 31
0.0
  0
LINE
  5
99CBC
  8
DETAIL
 10
146.79999999999919
 20
1395.3000000000011
 30
0.0
 11
145.79999999999919
 21
1396.3000000000011
 31
0.0
  0
LINE
  5
99CBD
  8
DETAIL
 10
130.0
 20
1396.718164803485
 30
0.0
 11
130.0
 21
1360.1284271247471
 31
0.0
  0
ARC
  5
99CBE
  8
DETAIL
 10
133.49999999999631
 20
1401.5915619758871
 30
0.0
 40
5.999999999996362
 50
180.0
 51
234.3146652873954
  0
LINE
  5
99CBF
  8
DETAIL
 10
125.19615242270621
 20
1408.3000000000011
 30
0.0
 11
126.0
 21
1407.835898384863
 31
0.0
  0
ARC
  5
99CC0
  8
DETAIL
 10
124.49999999999091
 20
1405.237822173505
 30
0.0
 40
3.000000000007276
 50
0.0000000001042204
 51
59.99999999989943
  0
LINE
  5
99CC1
  8
DETAIL
 10
127.5
 20
1405.2378221735089
 30
0.0
 11
127.5
 21
1401.59156197589
 31
0.0
  0
ARC
  5
99CC2
  8
DETAIL
 10
189.24999999996899
 20
1233.6068967423989
 30
0.0
 40
203.60000000003129
 50
0.0
 51
22.229621091267148
  0
LINE
  5
99CC3
  8
DETAIL
 10
392.84999999999849
 20
1244.7870501580051
 30
0.0
 11
392.84999999999849
 21
1107.8500000001111
 31
0.0
  0
LINE
  5
99CC4
  8
DETAIL
 10
393.79999999999922
 20
1110.2
 30
0.0
 11
397.0
 21
1110.2
 31
0.0
  0
LINE
  5
99CC5
  8
DETAIL
 10
316.41592585552092
 20
1460.625829440085
 30
0.0
 11
377.71745501297301
 21
1310.6327261824899
 31
0.0
  0
LINE
  5
99CC6
  8
DETAIL
 10
110.0
 20
1587.2
 30
0.0
 11
127.9484708425497
 21
1587.2
 31
0.0
  0
ARC
  5
99CC7
  8
DETAIL
 10
107.9999999999981
 20
1599.0999999999999
 30
0.0
 40
1.9999999999990901
 50
0.0
 51
90.0
  0
LINE
  5
99E6C
  8
BASIS
 10
-347.0
 20
23.000000000001808
 30
0.0
 11
-347.0
 21
-19.999999999998181
 31
0.0
  0
LINE
  5
99E6D
  8
BASIS
 10
347.0
 20
22.99965498286474
 30
0.0
 11
347.0
 21
-20.00034501713526
 31
0.0
  0
LINE
  5
9A93A
  8
SIZE
 10
-406.0
 20
0.0003450171370801
 30
0.0
 11
-636.54565464804205
 21
0.0003450171371454
 31
0.0
  0
LINE
  5
9A93B
  8
SIZE
 10
-405.0
 20
1750.0000000000009
 30
0.0
 11
-636.54565464804182
 21
1750.000000000002
 31
0.0
  0
LINE
  5
9A93C
  8
SIZE
 10
-616.54565464804205
 20
12.00034501713713
 30
0.0
 11
-616.54565464804182
 21
1738.000000000002
 31
0.0
  0
LINE
  5
9A940
  8
SIZE
 10
-299.70000000000073
 20
66.988548704614004
 30
0.0
 11
-299.70000000000073
 21
-241.1300608084729
 31
0.0
  0
LINE
  5
9A941
  8
SIZE
 10
-400.0
 20
-1.999999999998181
 30
0.0
 11
-400.0
 21
-241.1300608084729
 31
0.0
  0
LINE
  5
9A942
  8
SIZE
 10
-311.70000000000073
 20
-221.13006080847299
 30
0.0
 11
-388.0
 21
-221.13006080847299
 31
0.0
  0
LINE
  5
9A943
  8
SIZE
 10
-400.0
 20
-221.13006080847299
 30
0.0
 11
-539.14285714285711
 21
-221.13006080847299
 31
0.0
  0
LINE
  5
9A947
  8
SIZE
 10
-347.0
 20
-58.999654982862921
 30
0.0
 11
-347.0
 21
-351.92116033332599
 31
0.0
  0
LINE
  5
9A948
  8
SIZE
 10
-400.0
 20
-1.999999999998181
 30
0.0
 11
-400.0
 21
-351.92116033332599
 31
0.0
  0
LINE
  5
9A949
  8
SIZE
 10
-359.0
 20
-331.92116033332599
 30
0.0
 11
-388.0
 21
-331.92116033332599
 31
0.0
  0
LINE
  5
9A94A
  8
SIZE
 10
-400.0
 20
-331.92116033332599
 30
0.0
 11
-504.85714285714278
 21
-331.92116033332599
 31
0.0
  0
LINE
  5
9A94E
  8
SIZE
 10
-402.04549707433029
 20
0.0003450171370801
 30
0.0
 11
-526.05048534030345
 21
0.0003450171371152
 31
0.0
  0
LINE
  5
9A94F
  8
SIZE
 10
-417.261443712301
 20
184.55000000000109
 30
0.0
 11
-526.05048534030345
 21
184.55000000000109
 31
0.0
  0
LINE
  5
9A950
  8
SIZE
 10
-506.05048534030362
 20
12.000345017137111
 30
0.0
 11
-506.05048534030362
 21
172.55000000000109
 31
0.0
  0
LINE
  5
9A954
  8
SIZE
 10
-417.261443712301
 20
184.55000000000109
 30
0.0
 11
-526.05048534030379
 21
184.55000000000109
 31
0.0
  0
LINE
  5
9A955
  8
SIZE
 10
-417.261443712301
 20
781.55000000000098
 30
0.0
 11
-526.05048534030345
 21
781.55000000000098
 31
0.0
  0
LINE
  5
9A956
  8
SIZE
 10
-506.05048534030368
 20
196.55000000000109
 30
0.0
 11
-506.05048534030362
 21
769.55000000000098
 31
0.0
  0
LINE
  5
9A95A
  8
SIZE
 10
-347.0
 20
-58.999654982862921
 30
0.0
 11
-347.0
 21
-351.92116033332599
 31
0.0
  0
LINE
  5
9A95B
  8
SIZE
 10
347.0
 20
-59.0
 30
0.0
 11
347.0
 21
-351.92116033332599
 31
0.0
  0
LINE
  5
9A95C
  8
SIZE
 10
-335.0
 20
-331.92116033332599
 30
0.0
 11
335.0
 21
-331.92116033332599
 31
0.0
  0
LINE
  5
9A960
  8
SIZE
 10
-400.0
 20
-1.999999999998181
 30
0.0
 11
-400.0
 21
-466.4704855484469
 31
0.0
  0
LINE
  5
9A961
  8
SIZE
 10
400.0
 20
-1.999999999998181
 30
0.0
 11
399.99999999999989
 21
-466.4704855484469
 31
0.0
  0
LINE
  5
9A962
  8
SIZE
 10
-388.0
 20
-446.4704855484469
 30
0.0
 11
388.0
 21
-446.4704855484469
 31
0.0
  0
LINE
  5
9A966
  8
SIZE
 10
59.299999999999272
 20
66.988556287702522
 30
0.0
 11
59.299999999999251
 21
-241.1300608084729
 31
0.0
  0
LINE
  5
9A967
  8
SIZE
 10
400.00000000001268
 20
-1.999999999998181
 30
0.0
 11
400.00000000001268
 21
-241.1300608084729
 31
0.0
  0
LINE
  5
9A968
  8
SIZE
 10
71.299999999999244
 20
-221.13006080847299
 30
0.0
 11
388.00000000001268
 21
-221.13006080847299
 31
0.0
  0
LINE
  5
9A96C
  8
SIZE
 10
-347.0
 20
-58.999654982862921
 30
0.0
 11
-347.0
 21
-145.7975360264499
 31
0.0
  0
LINE
  5
9A96D
  8
SIZE
 10
-0.0000000000000003
 20
-24.999999999998181
 30
0.0
 11
-0.0000000000000077
 21
-145.7975360264499
 31
0.0
  0
LINE
  5
9A96E
  8
SIZE
 10
-335.0
 20
-125.7975360264499
 30
0.0
 11
-12.0
 21
-125.7975360264499
 31
0.0
  0
LINE
  5
9A972
  8
SIZE
 10
-299.70000000000073
 20
66.988548704614004
 30
0.0
 11
-299.70000000000073
 21
-241.1300608084729
 31
0.0
  0
LINE
  5
9A973
  8
SIZE
 10
59.299999999999272
 20
66.988556287702522
 30
0.0
 11
59.299999999999251
 21
-241.1300608084729
 31
0.0
  0
LINE
  5
9A974
  8
SIZE
 10
-287.70000000000073
 20
-221.13006080847299
 30
0.0
 11
47.299999999999237
 21
-221.13006080847299
 31
0.0
  0
LINE
  5
9A978
  8
SIZE
 10
347.0
 20
-59.0
 30
0.0
 11
347.0
 21
-351.92116033332599
 31
0.0
  0
LINE
  5
9A979
  8
SIZE
 10
400.00000000001268
 20
-1.999999999998181
 30
0.0
 11
400.00000000001268
 21
-351.92116033332599
 31
0.0
  0
LINE
  5
9A97A
  8
SIZE
 10
359.0
 20
-331.92116033332599
 30
0.0
 11
388.00000000001268
 21
-331.92116033332599
 31
0.0
  0
LINE
  5
9A97B
  8
SIZE
 10
400.00000000001268
 20
-331.92116033332599
 30
0.0
 11
504.85714285715551
 21
-331.92116033332599
 31
0.0
  0
LINE
  5
9A97F
  8
SIZE
 10
-405.0
 20
1750.0000000000009
 30
0.0
 11
-636.54565464804193
 21
1750.000000000002
 31
0.0
  0
LINE
  5
9A980
  8
SIZE
 10
-405.0
 20
2250.0000000000009
 30
0.0
 11
-636.54565464804182
 21
2250.0000000000009
 31
0.0
  0
LINE
  5
9A981
  8
SIZE
 10
-616.54565464804193
 20
1762.000000000002
 30
0.0
 11
-616.54565464804182
 21
2238.0000000000018
 31
0.0
  0
LINE
  5
9A985
  8
SIZE
 10
-400.0
 20
2255.0000000000018
 30
0.0
 11
-400.0
 21
2360.3774041899351
 31
0.0
  0
LINE
  5
9A986
  8
SIZE
 10
400.0
 20
2255.0
 30
0.0
 11
400.0
 21
2360.3774041899351
 31
0.0
  0
LINE
  5
9A987
  8
SIZE
 10
-388.0
 20
2340.377404189936
 30
0.0
 11
388.0
 21
2340.377404189936
 31
0.0
  0
TEXT
  5
9A98B
  8
SIZE
 10
-494.85714285714289
 20
-321.92116033332599
 30
0.0
 40
50.0
  1
53
 41
0.9
  0
TEXT
  5
9A98C
  8
SIZE
 10
-529.142857142857
 20
-211.13006080847299
 30
0.0
 40
50.0
  1
100
 41
0.9
  0
TEXT
  5
9A98D
  8
SIZE
 10
-516.05048534030345
 20
38.703743937140459
 30
0.0
 40
50.0
  1
185
 50
90.0
 41
0.9
  0
CIRCLE
  5
9A98E
  8
SIZE
 10
-616.54565464804205
 20
0.0003450171371397
 30
0.0
 40
6.0
  0
LINE
  5
9A98F
  8
SIZE
 10
-616.54565464804205
 20
6.0003450171371391
 30
0.0
 11
-616.54565464804205
 21
12.00034501713713
 31
0.0
  0
CIRCLE
  5
9A990
  8
SIZE
 10
-506.05048534030362
 20
0.0003450171371096
 30
0.0
 40
6.0
  0
LINE
  5
9A991
  8
SIZE
 10
-506.05048534030362
 20
6.0003450171371089
 30
0.0
 11
-506.05048534030362
 21
12.000345017137111
 31
0.0
  0
TEXT
  5
9A992
  8
SIZE
 10
-516.05048534030379
 20
425.1928571428582
 30
0.0
 40
50.0
  1
597
 50
90.0
 41
0.9
  0
CIRCLE
  5
9A993
  8
SIZE
 10
-506.05048534030368
 20
184.55000000000109
 30
0.0
 40
6.0
  0
LINE
  5
9A994
  8
SIZE
 10
-506.05048534030368
 20
190.55000000000109
 30
0.0
 11
-506.05048534030368
 21
196.55000000000109
 31
0.0
  0
CIRCLE
  5
9A995
  8
SIZE
 10
-506.05048534030362
 20
184.55000000000109
 30
0.0
 40
6.0
  0
LINE
  5
9A996
  8
SIZE
 10
-506.05048534030362
 20
178.55000000000109
 30
0.0
 11
-506.05048534030362
 21
172.55000000000109
 31
0.0
  0
TEXT
  5
9A997
  8
SIZE
 10
-626.54565464804216
 20
800.00017250856934
 30
0.0
 40
50.0
  1
1750
 50
90.0
 41
0.9
  0
CIRCLE
  5
9A998
  8
SIZE
 10
-506.05048534030362
 20
781.55000000000098
 30
0.0
 40
6.0
  0
LINE
  5
9A999
  8
SIZE
 10
-506.05048534030362
 20
775.55000000000109
 30
0.0
 11
-506.05048534030362
 21
769.55000000000098
 31
0.0
  0
TEXT
  5
9A99A
  8
SIZE
 10
181.43571428572019
 20
-211.13006080847299
 30
0.0
 40
50.0
  1
341
 41
0.9
  0
TEXT
  5
9A99B
  8
SIZE
 10
-176.98571428571501
 20
-211.13006080847299
 30
0.0
 40
50.0
  1
359
 41
0.9
  0
CIRCLE
  5
9A99C
  8
SIZE
 10
-400.0
 20
-446.4704855484469
 30
0.0
 40
6.0
  0
LINE
  5
9A99D
  8
SIZE
 10
-394.0
 20
-446.4704855484469
 30
0.0
 11
-388.0
 21
-446.4704855484469
 31
0.0
  0
CIRCLE
  5
9A99E
  8
SIZE
 10
-347.0
 20
-125.7975360264499
 30
0.0
 40
6.0
  0
LINE
  5
9A99F
  8
SIZE
 10
-341.0
 20
-125.7975360264499
 30
0.0
 11
-335.0
 21
-125.7975360264499
 31
0.0
  0
CIRCLE
  5
9A9A0
  8
SIZE
 10
-347.0
 20
-331.92116033332599
 30
0.0
 40
6.0
  0
LINE
  5
9A9A1
  8
SIZE
 10
-353.0
 20
-331.92116033332599
 30
0.0
 11
-359.0
 21
-331.92116033332599
 31
0.0
  0
CIRCLE
  5
9A9A2
  8
SIZE
 10
-400.0
 20
-331.92116033332599
 30
0.0
 40
6.0
  0
LINE
  5
9A9A3
  8
SIZE
 10
-394.0
 20
-331.92116033332599
 30
0.0
 11
-388.0
 21
-331.92116033332599
 31
0.0
  0
CIRCLE
  5
9A9A4
  8
SIZE
 10
-400.0
 20
-221.13006080847299
 30
0.0
 40
6.0
  0
LINE
  5
9A9A5
  8
SIZE
 10
-394.0
 20
-221.13006080847299
 30
0.0
 11
-388.0
 21
-221.13006080847299
 31
0.0
  0
CIRCLE
  5
9A9A6
  8
SIZE
 10
-299.70000000000073
 20
-221.13006080847299
 30
0.0
 40
6.0
  0
LINE
  5
9A9A7
  8
SIZE
 10
-293.70000000000073
 20
-221.13006080847299
 30
0.0
 11
-287.70000000000073
 21
-221.13006080847299
 31
0.0
  0
CIRCLE
  5
9A9A8
  8
SIZE
 10
-347.0
 20
-331.92116033332599
 30
0.0
 40
6.0
  0
LINE
  5
9A9A9
  8
SIZE
 10
-341.0
 20
-331.92116033332599
 30
0.0
 11
-335.0
 21
-331.92116033332599
 31
0.0
  0
CIRCLE
  5
9A9AA
  8
SIZE
 10
-299.70000000000073
 20
-221.13006080847299
 30
0.0
 40
6.0
  0
LINE
  5
9A9AB
  8
SIZE
 10
-305.70000000000073
 20
-221.13006080847299
 30
0.0
 11
-311.70000000000073
 21
-221.13006080847299
 31
0.0
  0
TEXT
  5
9A9AC
  8
SIZE
 10
-231.3571428571428
 20
-115.7975360264499
 30
0.0
 40
50.0
  1
347
 41
0.9
  0
TEXT
  5
9A9AD
  8
SIZE
 10
-57.857142857142868
 20
-436.4704855484469
 30
0.0
 40
50.0
  1
800
 41
0.9
  0
CIRCLE
  5
9A9AE
  8
SIZE
 10
-0.0000000000000065
 20
-125.7975360264499
 30
0.0
 40
6.0
  0
LINE
  5
9A9AF
  8
SIZE
 10
-6.0000000000000062
 20
-125.7975360264499
 30
0.0
 11
-12.0
 21
-125.7975360264499
 31
0.0
  0
TEXT
  5
9A9B0
  8
SIZE
 10
-58.928571428571409
 20
-321.92116033332599
 30
0.0
 40
50.0
  1
694
 41
0.9
  0
CIRCLE
  5
9A9B1
  8
SIZE
 10
59.299999999999251
 20
-221.13006080847299
 30
0.0
 40
6.0
  0
LINE
  5
9A9B2
  8
SIZE
 10
53.299999999999251
 20
-221.13006080847299
 30
0.0
 11
47.299999999999237
 21
-221.13006080847299
 31
0.0
  0
CIRCLE
  5
9A9B3
  8
SIZE
 10
59.299999999999251
 20
-221.13006080847299
 30
0.0
 40
6.0
  0
LINE
  5
9A9B4
  8
SIZE
 10
65.299999999999244
 20
-221.13006080847299
 30
0.0
 11
71.299999999999244
 21
-221.13006080847299
 31
0.0
  0
CIRCLE
  5
9A9B5
  8
SIZE
 10
400.0
 20
-446.4704855484469
 30
0.0
 40
6.0
  0
LINE
  5
9A9B6
  8
SIZE
 10
394.0
 20
-446.4704855484469
 30
0.0
 11
388.0
 21
-446.4704855484469
 31
0.0
  0
TEXT
  5
9A9B7
  8
SIZE
 10
422.00000000001268
 20
-321.92116033332599
 30
0.0
 40
50.0
  1
53
 41
0.9
  0
CIRCLE
  5
9A9B8
  8
SIZE
 10
347.0
 20
-331.92116033332599
 30
0.0
 40
6.0
  0
LINE
  5
9A9B9
  8
SIZE
 10
353.0
 20
-331.92116033332599
 30
0.0
 11
359.0
 21
-331.92116033332599
 31
0.0
  0
CIRCLE
  5
9A9BA
  8
SIZE
 10
347.0
 20
-331.92116033332599
 30
0.0
 40
6.0
  0
LINE
  5
9A9BB
  8
SIZE
 10
341.0
 20
-331.92116033332599
 30
0.0
 11
335.0
 21
-331.92116033332599
 31
0.0
  0
CIRCLE
  5
9A9BC
  8
SIZE
 10
400.00000000001268
 20
-331.92116033332599
 30
0.0
 40
6.0
  0
LINE
  5
9A9BD
  8
SIZE
 10
394.00000000001268
 20
-331.92116033332599
 30
0.0
 11
388.00000000001268
 21
-331.92116033332599
 31
0.0
  0
CIRCLE
  5
9A9BE
  8
SIZE
 10
400.00000000001268
 20
-221.13006080847299
 30
0.0
 40
6.0
  0
LINE
  5
9A9BF
  8
SIZE
 10
394.00000000001268
 20
-221.13006080847299
 30
0.0
 11
388.00000000001268
 21
-221.13006080847299
 31
0.0
  0
CIRCLE
  5
9A9C0
  8
SIZE
 10
-616.54565464804193
 20
1750.000000000002
 30
0.0
 40
6.0
  0
LINE
  5
9A9C1
  8
SIZE
 10
-616.54565464804193
 20
1756.000000000002
 30
0.0
 11
-616.54565464804193
 21
1762.000000000002
 31
0.0
  0
CIRCLE
  5
9A9C2
  8
SIZE
 10
-616.54565464804182
 20
1750.000000000002
 30
0.0
 40
6.0
  0
LINE
  5
9A9C3
  8
SIZE
 10
-616.54565464804182
 20
1744.000000000002
 30
0.0
 11
-616.54565464804182
 21
1738.000000000002
 31
0.0
  0
CIRCLE
  5
9A9C4
  8
SIZE
 10
-616.54565464804182
 20
2250.0000000000009
 30
0.0
 40
6.0
  0
LINE
  5
9A9C5
  8
SIZE
 10
-616.54565464804182
 20
2244.0000000000009
 30
0.0
 11
-616.54565464804182
 21
2238.0000000000018
 31
0.0
  0
TEXT
  5
9A9C6
  8
SIZE
 10
-626.54565464804216
 20
1942.142857142858
 30
0.0
 40
50.0
  1
500
 50
90.0
 41
0.9
  0
CIRCLE
  5
9A9C7
  8
SIZE
 10
-400.0
 20
2340.377404189936
 30
0.0
 40
6.0
  0
LINE
  5
9A9C8
  8
SIZE
 10
-394.0
 20
2340.377404189936
 30
0.0
 11
-388.0
 21
2340.377404189936
 31
0.0
  0
TEXT
  5
9A9C9
  8
SIZE
 10
-57.857142857142868
 20
2350.377404189936
 30
0.0
 40
50.0
  1
800
 41
0.9
  0
CIRCLE
  5
9A9CA
  8
SIZE
 10
400.0
 20
2340.377404189936
 30
0.0
 40
6.0
  0
LINE
  5
9A9CB
  8
SIZE
 10
394.0
 20
2340.377404189936
 30
0.0
 11
388.0
 21
2340.377404189936
 31
0.0
  0
LINE
  5
9A9CC
  8
OUTLINE
 10
400.0
 20
1011.800000000001
 30
0.0
 11
400.0
 21
918.00000000000193
 31
0.0
  0
LINE
  5
9A9CD
  8
OUTLINE
 10
-400.0
 20
1011.800000000001
 30
0.0
 11
-400.0
 21
918.00000000000193
 31
0.0
  0
LINE
  5
9A9CE
  8
OUTLINE
 10
397.0
 20
1065.0000000000009
 30
0.0
 11
397.0
 21
0.0
 31
0.0
  0
LINE
  5
9A9CF
  8
OUTLINE
 10
-397.0
 20
1065.0000000000009
 30
0.0
 11
-397.0
 21
0.000000000001819
 31
0.0
  0
ARC
  5
9A9D0
  8
OUTLINE
 10
264.7999999999974
 20
778.05000000000825
 30
0.0
 40
48.999999999798113
 50
128.12265167567469
 51
51.877348324325212
  0
ARC
  5
9A9D1
  8
OUTLINE
 10
264.79999999999922
 20
778.05000000000291
 30
0.0
 40
46.999999999790099
 50
130.06206350049641
 51
49.937936499503579
  0
ARC
  5
9A9D2
  8
OUTLINE
 10
264.79999999999922
 20
778.05000000000109
 30
0.0
 40
30.25
 50
180.0
 51
0.0
  0
LINE
  5
9A9D3
  8
OUTLINE
 10
215.30252531693981
 20
711.05252531694157
 30
0.0
 11
314.29747468305862
 21
711.05252531694157
 31
0.0
  0
LINE
  5
9A9D4
  8
OUTLINE
 10
168.29999999999919
 20
86.05000000000291
 30
0.0
 11
315.7999999999974
 21
86.05000000000291
 31
0.0
  0
LINE
  5
9A9D5
  8
OUTLINE
 10
168.29999999999919
 20
80.000000000001819
 30
0.0
 11
347.0
 21
80.0
 31
0.0
  0
LINE
  5
9A9D6
  8
OUTLINE
 10
347.0
 20
83.0
 30
0.0
 11
168.29999999999919
 21
83.000000000001805
 31
0.0
  0
LINE
  5
9A9D7
  8
OUTLINE
 10
168.29999999999919
 20
96.050000000001106
 30
0.0
 11
271.80000000000831
 21
96.050000000001106
 31
0.0
  0
LINE
  5
9A9D8
  8
OUTLINE
 10
-344.0
 20
497.00000000000182
 30
0.0
 11
344.0
 21
497.00000000000182
 31
0.0
  0
LINE
  5
9A9D9
  8
OUTLINE
 10
-344.0
 20
500.00000000000182
 30
0.0
 11
344.0
 21
500.00000000000182
 31
0.0
  0
LINE
  5
9A9DA
  8
OUTLINE
 10
-400.0
 20
918.00000000000193
 30
0.0
 11
400.0
 21
918.00000000000193
 31
0.0
  0
ARC
  5
9A9DB
  8
OUTLINE
 10
264.79999999999922
 20
778.05000000000109
 30
0.0
 40
70.249999999999091
 50
180.0
 51
0.0
  0
LINE
  5
9A9DC
  8
OUTLINE
 10
394.0
 20
694.00000000000182
 30
0.0
 11
89.153790844691684
 21
694.00000000000182
 31
0.0
  0
LINE
  5
9A9DD
  8
OUTLINE
 10
394.0
 20
697.00000000000182
 30
0.0
 11
96.817313100757019
 21
697.00000000000182
 31
0.0
  0
LINE
  5
9A9DE
  8
OUTLINE
 10
397.0
 20
0.0
 30
0.0
 11
-397.0
 21
0.000000000001819
 31
0.0
  0
LINE
  5
9A9DF
  8
OUTLINE
 10
397.0
 20
3.0000000000018181
 30
0.0
 11
-397.0
 21
3.0000000000018181
 31
0.0
  0
LINE
  5
9A9E0
  8
OUTLINE
 10
27.299999999999269
 20
111.1632048936989
 30
0.0
 11
27.299999999999269
 21
83.463204893698276
 31
0.0
  0
LINE
  5
9A9E1
  8
OUTLINE
 10
30.139999999999421
 20
108.163204893699
 30
0.0
 11
30.139999999999421
 21
86.463204893698276
 31
0.0
  0
LINE
  5
9A9E2
  8
OUTLINE
 10
32.299999999999272
 20
110.913204893699
 30
0.0
 11
32.299999999999272
 21
83.713204893698276
 31
0.0
  0
ARC
  5
9A9E3
  8
OUTLINE
 10
60.149999999997817
 20
93.713204893701914
 30
0.0
 40
10.000000000000909
 50
270.0
 51
0.0
  0
LINE
  5
9A9E4
  8
OUTLINE
 10
59.299999999999272
 20
71.988556287702522
 30
0.0
 11
59.299999999999272
 21
297.11144371230142
 31
0.0
  0
LINE
  5
9A9E5
  8
OUTLINE
 10
-48.200000000000728
 20
86.631407542314264
 30
0.0
 11
-51.716571470740753
 21
85.891076706371663
 31
0.0
  0
LINE
  5
9A9E6
  8
OUTLINE
 10
-51.716571470740753
 20
108.7353330810292
 30
0.0
 11
-51.716571470740753
 21
85.891076706371663
 31
0.0
  0
LINE
  5
9A9E7
  8
OUTLINE
 10
-48.200000000000728
 20
115.0560365053679
 30
0.0
 11
-48.200000000000728
 21
79.570373282031142
 31
0.0
  0
LINE
  5
9A9E8
  8
OUTLINE
 10
12.299999999999271
 20
115.0560365053679
 30
0.0
 11
12.299999999999271
 21
79.570373282031142
 31
0.0
  0
LINE
  5
9A9E9
  8
OUTLINE
 10
17.299999999999269
 20
111.1632048936989
 30
0.0
 11
17.299999999999269
 21
83.463204893698276
 31
0.0
  0
LINE
  5
9A9EA
  8
OUTLINE
 10
14.45999999999912
 20
108.163204893699
 30
0.0
 11
14.45999999999912
 21
86.463204893698276
 31
0.0
  0
LINE
  5
9A9EB
  8
OUTLINE
 10
-299.70000000000073
 20
297.1114361292129
 30
0.0
 11
-299.70000000000073
 21
71.988548704614004
 31
0.0
  0
LINE
  5
9A9EC
  8
OUTLINE
 10
-394.0
 20
3.0000000000018181
 30
0.0
 11
-394.0
 21
500.00000000000182
 31
0.0
  0
LINE
  5
9A9ED
  8
OUTLINE
 10
-202.60000000000221
 20
140.00000000000179
 30
0.0
 11
-202.60000000000221
 21
46.000000000001812
 31
0.0
  0
LINE
  5
9A9EE
  8
OUTLINE
 10
-49.700000000000728
 20
100.0000000000018
 30
0.0
 11
-49.700000000000728
 21
46.000000000001812
 31
0.0
  0
LINE
  5
9A9EF
  8
OUTLINE
 10
168.29999999999919
 20
100.0000000000018
 30
0.0
 11
168.29999999999919
 21
46.000000000001812
 31
0.0
  0
LINE
  5
9A9F0
  8
OUTLINE
 10
-202.60000000000221
 20
86.050000000001077
 30
0.0
 11
-49.700000000000728
 21
86.050000000001077
 31
0.0
  0
LINE
  5
9A9F1
  8
OUTLINE
 10
-202.60000000000221
 20
80.000000000001819
 30
0.0
 11
-49.700000000000728
 21
80.000000000001819
 31
0.0
  0
LINE
  5
9A9F2
  8
OUTLINE
 10
-202.60000000000221
 20
83.000000000001805
 30
0.0
 11
-49.700000000000728
 21
83.000000000001805
 31
0.0
  0
LINE
  5
9A9F3
  8
OUTLINE
 10
-396.80000000000291
 20
46.000000000001812
 30
0.0
 11
-202.60000000000221
 21
46.000000000001812
 31
0.0
  0
LINE
  5
9A9F4
  8
OUTLINE
 10
-397.0
 20
6.0000000000018181
 30
0.0
 11
-347.0
 21
6.0000000000018181
 31
0.0
  0
LINE
  5
9A9F5
  8
OUTLINE
 10
-397.0
 20
80.000000000001819
 30
0.0
 11
-400.0
 21
80.000000000001819
 31
0.0
  0
LINE
  5
9A9F6
  8
OUTLINE
 10
-401.50000000000182
 20
73.000000000001805
 30
0.0
 11
-400.00000000000182
 21
73.000000000001805
 31
0.0
  0
LINE
  5
9A9F7
  8
OUTLINE
 10
-403.50000000000171
 20
57.000000000001819
 30
0.0
 11
-410.00000000000358
 21
57.000000000001819
 31
0.0
  0
LINE
  5
9A9F8
  8
OUTLINE
 10
-403.50000000000171
 20
65.000000000001819
 30
0.0
 11
-410.00000000000358
 21
65.000000000001819
 31
0.0
  0
LINE
  5
9A9F9
  8
OUTLINE
 10
-401.50000000000182
 20
53.150000000001462
 30
0.0
 11
-403.50000000000171
 21
53.150000000001462
 31
0.0
  0
LINE
  5
9A9FA
  8
OUTLINE
 10
-403.50000000000171
 20
68.850000000002183
 30
0.0
 11
-403.50000000000171
 21
53.150000000001462
 31
0.0
  0
LINE
  5
9A9FB
  8
OUTLINE
 10
-401.50000000000182
 20
68.850000000002183
 30
0.0
 11
-403.50000000000171
 21
68.850000000002183
 31
0.0
  0
LINE
  5
9A9FC
  8
OUTLINE
 10
-410.00000000000182
 20
53.500000000001819
 30
0.0
 11
-410.00000000000182
 21
68.500000000001819
 31
0.0
  0
LINE
  5
9A9FD
  8
OUTLINE
 10
-410.00000000000182
 20
68.500000000001819
 30
0.0
 11
-403.50000000000171
 21
68.500000000001819
 31
0.0
  0
LINE
  5
9A9FE
  8
OUTLINE
 10
-410.00000000000182
 20
53.500000000001819
 30
0.0
 11
-403.50000000000171
 21
53.500000000001819
 31
0.0
  0
LINE
  5
9A9FF
  8
OUTLINE
 10
-403.50000000000171
 20
35.850000000002183
 30
0.0
 11
-403.50000000000171
 21
20.150000000001452
 31
0.0
  0
LINE
  5
9AA00
  8
OUTLINE
 10
-401.50000000000182
 20
40.000000000001819
 30
0.0
 11
-401.50000000000182
 21
16.000000000001808
 31
0.0
  0
LINE
  5
9AA01
  8
OUTLINE
 10
-410.00000000000182
 20
20.500000000001808
 30
0.0
 11
-410.00000000000182
 21
35.500000000001812
 31
0.0
  0
LINE
  5
9AA02
  8
OUTLINE
 10
-403.50000000000171
 20
24.000000000001808
 30
0.0
 11
-410.00000000000358
 21
24.000000000001808
 31
0.0
  0
LINE
  5
9AA03
  8
OUTLINE
 10
-401.50000000000182
 20
20.150000000001452
 30
0.0
 11
-403.50000000000171
 21
20.150000000001452
 31
0.0
  0
LINE
  5
9AA04
  8
OUTLINE
 10
-400.00000000000182
 20
16.000000000001808
 30
0.0
 11
-401.50000000000182
 21
16.000000000001808
 31
0.0
  0
LINE
  5
9AA05
  8
OUTLINE
 10
-410.00000000000182
 20
20.500000000001808
 30
0.0
 11
-403.50000000000171
 21
20.500000000001808
 31
0.0
  0
ARC
  5
9AA06
  8
OUTLINE
 10
-397.00000000000182
 20
3.0000000000018181
 30
0.0
 40
2.9999999999990901
 50
180.0
 51
270.0
  0
LINE
  5
9AA07
  8
OUTLINE
 10
-401.50000000000182
 20
40.000000000001819
 30
0.0
 11
-400.00000000000182
 21
40.000000000001819
 31
0.0
  0
LINE
  5
9AA08
  8
OUTLINE
 10
-403.50000000000171
 20
32.000000000001819
 30
0.0
 11
-410.00000000000358
 21
32.000000000001819
 31
0.0
  0
LINE
  5
9AA09
  8
OUTLINE
 10
-401.50000000000182
 20
35.850000000002183
 30
0.0
 11
-403.50000000000171
 21
35.850000000002183
 31
0.0
  0
LINE
  5
9AA0A
  8
OUTLINE
 10
-410.00000000000182
 20
35.500000000001812
 30
0.0
 11
-403.50000000000171
 21
35.500000000001812
 31
0.0
  0
LINE
  5
9AA0B
  8
OUTLINE
 10
-400.00000000000182
 20
49.000000000001819
 30
0.0
 11
-401.50000000000182
 21
49.000000000001819
 31
0.0
  0
LINE
  5
9AA0C
  8
OUTLINE
 10
-400.0
 20
3.0000000000018181
 30
0.0
 11
-400.0
 21
80.000000000001819
 31
0.0
  0
LINE
  5
9AA0D
  8
OUTLINE
 10
-401.50000000000182
 20
73.000000000001805
 30
0.0
 11
-401.50000000000182
 21
49.000000000001819
 31
0.0
  0
LINE
  5
9AA0E
  8
OUTLINE
 10
168.29999999999919
 20
46.000000000001812
 30
0.0
 11
-49.700000000000728
 21
46.000000000001812
 31
0.0
  0
LINE
  5
9AA0F
  8
OUTLINE
 10
12.299999999999271
 20
79.570373282031142
 30
0.0
 11
-48.200000000000728
 21
79.570373282031142
 31
0.0
  0
LINE
  5
9AA10
  8
OUTLINE
 10
60.149999999997817
 20
83.713204893698276
 30
0.0
 11
32.299999999999272
 21
83.713204893698276
 31
0.0
  0
LINE
  5
9AA11
  8
OUTLINE
 10
27.299999999999269
 20
86.463204893698276
 30
0.0
 11
30.139999999999421
 21
86.463204893698276
 31
0.0
  0
LINE
  5
9AA12
  8
OUTLINE
 10
14.45999999999912
 20
86.463204893698276
 30
0.0
 11
17.299999999999269
 21
86.463204893698276
 31
0.0
  0
LINE
  5
9AA13
  8
OUTLINE
 10
17.299999999999269
 20
83.463204893698276
 30
0.0
 11
27.299999999999269
 21
83.463204893698276
 31
0.0
  0
LINE
  5
9AA14
  8
OUTLINE
 10
-44.702525316941312
 20
845.04747468305857
 30
0.0
 11
-143.69747468306011
 21
845.04747468305857
 31
0.0
  0
LINE
  5
9AA15
  8
OUTLINE
 10
21.782686899241519
 20
697.00000000000182
 30
0.0
 11
-144.7000000000007
 21
697.00000000000182
 31
0.0
  0
LINE
  5
9AA16
  8
OUTLINE
 10
29.446209155305041
 20
694.00000000000182
 30
0.0
 11
-149.5
 21
694.00000000000182
 31
0.0
  0
LINE
  5
9AA17
  8
OUTLINE
 10
-43.200000000000728
 20
137.04999999999919
 30
0.0
 11
-90.700000000004366
 21
137.04999999999919
 31
0.0
  0
LINE
  5
9AA18
  8
OUTLINE
 10
-59.908500023535453
 20
106.0222673490734
 30
0.0
 11
-100.80700552077541
 21
112.6519165171721
 31
0.0
  0
LINE
  5
9AA19
  8
OUTLINE
 10
-59.908500023535453
 20
106.0222673490734
 30
0.0
 11
-98.585930350000126
 21
91.166413844770432
 31
0.0
  0
LINE
  5
9AA1A
  8
OUTLINE
 10
-90.700000000004366
 20
232.04999999999919
 30
0.0
 11
-43.200000000000728
 21
232.04999999999919
 31
0.0
  0
LINE
  5
9AA1B
  8
OUTLINE
 10
-202.60000000000221
 20
136.05000000000101
 30
0.0
 11
-87.19999999999709
 21
136.05000000000101
 31
0.0
  0
LINE
  5
9AA1C
  8
OUTLINE
 10
-43.200000000000728
 20
287.04999999999922
 30
0.0
 11
-347.20000000000073
 21
287.04999999999922
 31
0.0
  0
LINE
  5
9AA1D
  8
OUTLINE
 10
-220.9345299992419
 20
830.05000000000098
 30
0.0
 11
-87.19999999999709
 21
830.05000000000098
 31
0.0
  0
LINE
  5
9AA1E
  8
OUTLINE
 10
-394.0
 20
737.00000000000182
 30
0.0
 11
-394.0
 21
500.00000000000182
 31
0.0
  0
CIRCLE
  5
9AA1F
  8
OUTLINE
 10
-270.9986444157293
 20
115.2590624253662
 30
0.0
 40
9.5
  0
CIRCLE
  5
9AA20
  8
OUTLINE
 10
-270.99868874294771
 20
253.84090591946551
 30
0.0
 40
9.5
  0
CIRCLE
  5
9AA21
  8
OUTLINE
 10
-299.70000000000073
 20
184.55000000000109
 30
0.0
 40
44.549999999999997
  0
CIRCLE
  5
9AA22
  8
OUTLINE
 10
-299.70000000000073
 20
184.54999241691249
 30
0.0
 40
92.5
  0
LINE
  5
9AA23
  8
OUTLINE
 10
-412.26144371230112
 20
184.55000000000109
 30
0.0
 11
-187.13855628770389
 21
184.55000000000109
 31
0.0
  0
LINE
  5
9AA24
  8
OUTLINE
 10
-350.0
 20
500.00000000000182
 30
0.0
 11
-350.0
 21
262.1783377554566
 31
0.0
  0
LINE
  5
9AA25
  8
OUTLINE
 10
-347.0
 20
500.00000000000182
 30
0.0
 11
-347.0
 21
264.04187879533669
 31
0.0
  0
CIRCLE
  5
9AA26
  8
OUTLINE
 10
-368.99090591946691
 20
155.84876410318421
 30
0.0
 40
9.5
  0
LINE
  5
9AA27
  8
OUTLINE
 10
-379.04260029235218
 20
137.00000000000179
 30
0.0
 11
-396.80000000000291
 21
137.00000000000179
 31
0.0
  0
LINE
  5
9AA28
  8
OUTLINE
 10
-380.76508604604891
 20
140.00000000000179
 30
0.0
 11
-396.80000000000291
 21
140.00000000000179
 31
0.0
  0
CIRCLE
  5
9AA29
  8
OUTLINE
 10
-368.99096126902077
 20
213.2512529916402
 30
0.0
 40
9.5
  0
CIRCLE
  5
9AA2A
  8
OUTLINE
 10
-327.65936741351459
 20
117.0500017323774
 30
0.0
 40
9.5
  0
CIRCLE
  5
9AA2B
  8
OUTLINE
 10
-328.40131125705011
 20
253.84098127969619
 30
0.0
 40
9.5
  0
LINE
  5
9AA2C
  8
OUTLINE
 10
-344.0
 20
500.00000000000182
 30
0.0
 11
-394.0
 21
500.00000000000182
 31
0.0
  0
LINE
  5
9AA2D
  8
OUTLINE
 10
-344.0
 20
497.00000000000182
 30
0.0
 11
-344.0
 21
500.00000000000182
 31
0.0
  0
LINE
  5
9AA2E
  8
OUTLINE
 10
-202.60000000000221
 20
137.00000000000179
 30
0.0
 11
-220.93452066063759
 21
137.00000000000179
 31
0.0
  0
LINE
  5
9AA2F
  8
OUTLINE
 10
-202.60000000000221
 20
140.00000000000179
 30
0.0
 11
-218.63491395395249
 21
140.00000000000179
 31
0.0
  0
CIRCLE
  5
9AA30
  8
OUTLINE
 10
-230.4090387309879
 20
155.84889772883429
 30
0.0
 40
9.5
  0
CIRCLE
  5
9AA31
  8
OUTLINE
 10
-230.4090940805435
 20
213.25138661728849
 30
0.0
 40
9.5
  0
ARC
  5
9AA32
  8
OUTLINE
 10
-253.6999999990166
 20
267.05000000176551
 30
0.0
 40
6.0000000018406574
 50
310.08458014248117
 51
171.62946837363569
  0
ARC
  5
9AA33
  8
OUTLINE
 10
-90.700000000004366
 20
184.54999999999919
 30
0.0
 40
47.5
 50
90.0
 51
270.0
  0
CIRCLE
  5
9AA34
  8
OUTLINE
 10
-136.7000000000007
 20
267.05000000000098
 30
0.0
 40
6.0
  0
CIRCLE
  5
9AA35
  8
OUTLINE
 10
-270.99868874294771
 20
850.8409059194654
 30
0.0
 40
9.5
  0
CIRCLE
  5
9AA36
  8
OUTLINE
 10
-270.9986444157293
 20
712.2590624253661
 30
0.0
 40
9.5
  0
LINE
  5
9AA37
  8
OUTLINE
 10
-412.26144371230112
 20
781.55000000000098
 30
0.0
 11
-187.13855628770389
 21
781.55000000000098
 31
0.0
  0
CIRCLE
  5
9AA38
  8
OUTLINE
 10
-299.70000000000073
 20
781.54999241691257
 30
0.0
 40
92.5
  0
CIRCLE
  5
9AA39
  8
OUTLINE
 10
-299.70000000000073
 20
781.55000000000098
 30
0.0
 40
44.549999999999997
  0
LINE
  5
9AA3A
  8
OUTLINE
 10
-299.70000000000073
 20
894.11143612921285
 30
0.0
 11
-299.70000000000073
 21
668.988548704614
 31
0.0
  0
LINE
  5
9AA3B
  8
OUTLINE
 10
-394.0
 20
918.00000000000193
 30
0.0
 11
-394.0
 21
737.00000000000182
 31
0.0
  0
LINE
  5
9AA3C
  8
OUTLINE
 10
-394.0
 20
737.00000000000182
 30
0.0
 11
-379.04260029235218
 21
737.00000000000182
 31
0.0
  0
LINE
  5
9AA3D
  8
OUTLINE
 10
-379.04260029235218
 20
734.00000000000182
 30
0.0
 11
-394.0
 21
734.00000000000182
 31
0.0
  0
CIRCLE
  5
9AA3E
  8
OUTLINE
 10
-327.65936741351459
 20
714.05000173237738
 30
0.0
 40
9.5
  0
CIRCLE
  5
9AA3F
  8
OUTLINE
 10
-368.99096126902077
 20
810.25125299164029
 30
0.0
 40
9.5
  0
CIRCLE
  5
9AA40
  8
OUTLINE
 10
-368.99090591946691
 20
752.84876410318418
 30
0.0
 40
9.5
  0
LINE
  5
9AA41
  8
OUTLINE
 10
-396.80000000000291
 20
918.00000000000193
 30
0.0
 11
-400.0
 21
918.00000000000193
 31
0.0
  0
LINE
  5
9AA42
  8
OUTLINE
 10
-350.0
 20
918.00000000000193
 30
0.0
 11
-350.0
 21
859.1783377554566
 31
0.0
  0
LINE
  5
9AA43
  8
OUTLINE
 10
-347.0
 20
918.00000000000193
 30
0.0
 11
-347.0
 21
861.04187879533674
 31
0.0
  0
CIRCLE
  5
9AA44
  8
OUTLINE
 10
-328.40131125705011
 20
850.84098127969617
 30
0.0
 40
9.5
  0
LINE
  5
9AA45
  8
OUTLINE
 10
-218.63491395395249
 20
737.00000000000182
 30
0.0
 11
-149.7000000000007
 21
737.00000000000182
 31
0.0
  0
LINE
  5
9AA46
  8
OUTLINE
 10
-220.3573997076509
 20
734.00000000000182
 30
0.0
 11
-149.7000000000007
 21
734.00000000000182
 31
0.0
  0
LINE
  5
9AA47
  8
OUTLINE
 10
-144.7000000000007
 20
693.80000000000109
 30
0.0
 11
-144.7000000000007
 21
697.00000000000182
 31
0.0
  0
LINE
  5
9AA48
  8
OUTLINE
 10
-149.7000000000007
 20
693.80000000000109
 30
0.0
 11
-149.7000000000007
 21
737.00000000000182
 31
0.0
  0
POLYLINE
  5
9AA49
  8
OUTLINE
 66
     1
 10
0.0
 20
0.0
 30
0.0
  0
VERTEX
  5
9AE81
  8
OUTLINE
 10
-180.94999999999891
 20
878.05000000000302
 30
0.0
  0
VERTEX
  5
9AE82
  8
OUTLINE
 10
-180.9430729641189
 20
876.33741971090603
 30
0.0
  0
VERTEX
  5
9AE83
  8
OUTLINE
 10
-180.92229495721031
 20
874.62560601987946
 30
0.0
  0
VERTEX
  5
9AE84
  8
OUTLINE
 10
-180.88767528007699
 20
872.91532518183703
 30
0.0
  0
VERTEX
  5
9AE85
  8
OUTLINE
 10
-180.83922942944619
 20
871.20734276555413
 30
0.0
  0
VERTEX
  5
9AE86
  8
OUTLINE
 10
-180.77697909100601
 20
869.50242331096172
 30
0.0
  0
VERTEX
  5
9AE87
  8
OUTLINE
 10
-180.70095212972589
 20
867.8013299869308
 30
0.0
  0
VERTEX
  5
9AE88
  8
OUTLINE
 10
-180.6111825773678
 20
866.10482424964709
 30
0.0
  0
VERTEX
  5
9AE89
  8
OUTLINE
 10
-180.50771061725021
 20
864.41366550176463
 30
0.0
  0
VERTEX
  5
9AE8A
  8
OUTLINE
 10
-180.3905825662695
 20
862.72861075248511
 30
0.0
  0
VERTEX
  5
9AE8B
  8
OUTLINE
 10
-180.2598508541686
 20
861.05041427868673
 30
0.0
  0
VERTEX
  5
9AE8C
  8
OUTLINE
 10
-180.11557400005759
 20
859.37982728729355
 30
0.0
  0
VERTEX
  5
9AE8D
  8
OUTLINE
 10
-179.95781658622579
 20
857.71759757901953
 30
0.0
  0
VERTEX
  5
9AE8E
  8
OUTLINE
 10
-179.78664922923409
 20
856.0644692136301
 30
0.0
  0
VERTEX
  5
9AE8F
  8
OUTLINE
 10
-179.60214854830329
 20
854.42118217687312
 30
0.0
  0
VERTEX
  5
9AE90
  8
OUTLINE
 10
-179.4043971310129
 20
852.78847204925285
 30
0.0
  0
VERTEX
  5
9AE91
  8
OUTLINE
 10
-179.19348349634311
 20
851.16706967675407
 30
0.0
  0
VERTEX
  5
9AE92
  8
OUTLINE
 10
-178.969502055037
 20
849.55770084370306
 30
0.0
  0
VERTEX
  5
9AE93
  8
OUTLINE
 10
-178.7325530673551
 20
847.9610859478762
 30
0.0
  0
VERTEX
  5
9AE94
  8
OUTLINE
 10
-178.48274259818569
 20
846.37793967804271
 30
0.0
  0
VERTEX
  5
9AE95
  8
OUTLINE
 10
-178.22018246956941
 20
844.80897069404273
 30
0.0
  0
VERTEX
  5
9AE96
  8
OUTLINE
 10
-177.94499021064249
 20
843.25488130957285
 30
0.0
  0
VERTEX
  5
9AE97
  8
OUTLINE
 10
-177.65728900503561
 20
841.71636717780893
 30
0.0
  0
VERTEX
  5
9AE98
  8
OUTLINE
 10
-177.35720763572681
 20
840.19411698001738
 30
0.0
  0
VERTEX
  5
9AE99
  8
OUTLINE
 10
-177.04488042739459
 20
838.68881211727967
 30
0.0
  0
VERTEX
  5
9AE9A
  8
OUTLINE
 10
-176.72044718629141
 20
837.20112640548166
 30
0.0
  0
VERTEX
  5
9AE9B
  8
OUTLINE
 10
-176.38405313766989
 20
835.73172577368859
 30
0.0
  0
VERTEX
  5
9AE9C
  8
OUTLINE
 10
-176.0358488607562
 20
834.28126796606011
 30
0.0
  0
VERTEX
  5
9AE9D
  8
OUTLINE
 10
-175.67599022137429
 20
832.85040224743159
 30
0.0
  0
VERTEX
  5
9AE9E
  8
OUTLINE
 10
-175.3046383021501
 20
831.43976911267407
 30
0.0
  0
VERTEX
  5
9AE9F
  8
OUTLINE
 10
-174.92195933042419
 20
830.05000000000098
 30
0.0
  0
SEQEND
  5
9AEA0
  8
OUTLINE
  0
POLYLINE
  5
9AA4A
  8
OUTLINE
 66
     1
 10
0.0
 20
0.0
 30
0.0
  0
VERTEX
  5
9AEA1
  8
OUTLINE
 10
-219.04999999999919
 20
878.04999854298137
 30
0.0
  0
VERTEX
  5
9AEA2
  8
OUTLINE
 10
-219.04339328190869
 20
876.40318408488565
 30
0.0
  0
VERTEX
  5
9AEA3
  8
OUTLINE
 10
-219.02357441527781
 20
874.7566847615999
 30
0.0
  0
VERTEX
  5
9AEA4
  8
OUTLINE
 10
-218.99054719264669
 20
873.11081564734548
 30
0.0
  0
VERTEX
  5
9AEA5
  8
OUTLINE
 10
-218.94431793410689
 20
871.46589169575418
 30
0.0
  0
VERTEX
  5
9AEA6
  8
OUTLINE
 10
-218.8848954860895
 20
869.82222767958399
 30
0.0
  0
VERTEX
  5
9AEA7
  8
OUTLINE
 10
-218.81229121968309
 20
868.18013813049765
 30
0.0
  0
VERTEX
  5
9AEA8
  8
OUTLINE
 10
-218.7265190284451
 20
866.539937278867
 30
0.0
  0
VERTEX
  5
9AEA9
  8
OUTLINE
 10
-218.6275953257427
 20
864.90193899363658
 30
0.0
  0
VERTEX
  5
9AEAA
  8
OUTLINE
 10
-218.51553904162751
 20
863.26645672227642
 30
0.0
  0
VERTEX
  5
9AEAB
  8
OUTLINE
 10
-218.3903716191962
 20
861.63380343078461
 30
0.0
  0
VERTEX
  5
9AEAC
  8
OUTLINE
 10
-218.25211701049551
 20
860.00429154381163
 30
0.0
  0
VERTEX
  5
9AEAD
  8
OUTLINE
 10
-218.1008016719388
 20
858.37823288486288
 30
0.0
  0
VERTEX
  5
9AEAE
  8
OUTLINE
 10
-217.9364545592361
 20
856.75593861663765
 30
0.0
  0
VERTEX
  5
9AEAF
  8
OUTLINE
 10
-217.759107121863
 20
855.13771918147904
 30
0.0
  0
VERTEX
  5
9AEB0
  8
OUTLINE
 10
-217.56879329703949
 20
853.52388424197125
 30
0.0
  0
VERTEX
  5
9AEB1
  8
OUTLINE
 10
-217.36554950323259
 20
851.91474262168038
 30
0.0
  0
VERTEX
  5
9AEB2
  8
OUTLINE
 10
-217.14941463318789
 20
850.31060224605972
 30
0.0
  0
VERTEX
  5
9AEB3
  8
OUTLINE
 10
-216.92043004648801
 20
848.71177008352242
 30
0.0
  0
VERTEX
  5
9AEB4
  8
OUTLINE
 10
-216.67863956164001
 20
847.11855208670374
 30
0.0
  0
VERTEX
  5
9AEB5
  8
OUTLINE
 10
-216.4240894476861
 20
845.53125313390763
 30
0.0
  0
VERTEX
  5
9AEB6
  8
OUTLINE
 10
-216.15682841535809
 20
843.95017697077299
 30
0.0
  0
VERTEX
  5
9AEB7
  8
OUTLINE
 10
-215.87690760774601
 20
842.37562615214483
 30
0.0
  0
VERTEX
  5
9AEB8
  8
OUTLINE
 10
-215.5843805905096
 20
840.8079019841789
 30
0.0
  0
VERTEX
  5
9AEB9
  8
OUTLINE
 10
-215.27930334164191
 20
839.24730446667672
 30
0.0
  0
VERTEX
  5
9AEBA
  8
OUTLINE
 10
-214.96173424074911
 20
837.69413223569234
 30
0.0
  0
VERTEX
  5
9AEBB
  8
OUTLINE
 10
-214.6317340578716
 20
836.14868250636925
 30
0.0
  0
VERTEX
  5
9AEBC
  8
OUTLINE
 10
-214.2893659418732
 20
834.61125101607638
 30
0.0
  0
VERTEX
  5
9AEBD
  8
OUTLINE
 10
-213.93469540833391
 20
833.08213196780878
 30
0.0
  0
VERTEX
  5
9AEBE
  8
OUTLINE
 10
-213.5677903270352
 20
831.56161797389723
 30
0.0
  0
VERTEX
  5
9AEBF
  8
OUTLINE
 10
-213.18872090895999
 20
830.05000000000098
 30
0.0
  0
SEQEND
  5
9AEC0
  8
OUTLINE
  0
LINE
  5
9AA4B
  8
OUTLINE
 10
-219.04999999999919
 20
878.05000145702434
 30
0.0
 11
-219.04999999999919
 21
918.00000000000193
 31
0.0
  0
LINE
  5
9AA4C
  8
OUTLINE
 10
-180.94999999999891
 20
878.05000000000302
 30
0.0
 11
-180.94999999999891
 21
918.00000000000193
 31
0.0
  0
CIRCLE
  5
9AA4D
  8
OUTLINE
 10
-230.4090387309879
 20
752.84889772883434
 30
0.0
 40
9.5
  0
CIRCLE
  5
9AA4E
  8
OUTLINE
 10
-230.4090940805435
 20
810.2513866172884
 30
0.0
 40
9.5
  0
ARC
  5
9AA4F
  8
OUTLINE
 10
-143.69747468305641
 20
827.54747468305675
 30
0.0
 40
17.500000000001819
 50
90.0
 51
171.7784355291343
  0
ARC
  5
9AA50
  8
OUTLINE
 10
-143.69747468305829
 20
827.54747468305868
 30
0.0
 40
10.49999999999962
 50
13.7883354508885
 51
166.2116645491115
  0
CIRCLE
  5
9AA51
  8
OUTLINE
 10
88.001355584270627
 20
115.2590624253662
 30
0.0
 40
9.5
  0
CIRCLE
  5
9AA52
  8
OUTLINE
 10
88.001311257052294
 20
253.84090591946551
 30
0.0
 40
9.5
  0
CIRCLE
  5
9AA53
  8
OUTLINE
 10
59.299999999999272
 20
184.55000000000109
 30
0.0
 40
44.549999999999997
  0
CIRCLE
  5
9AA54
  8
OUTLINE
 10
59.299999999999272
 20
184.54999241691249
 30
0.0
 40
92.5
  0
LINE
  5
9AA55
  8
OUTLINE
 10
-53.261443712302928
 20
184.55000000000109
 30
0.0
 11
171.86144371229599
 21
184.55000000000109
 31
0.0
  0
LINE
  5
9AA56
  8
OUTLINE
 10
-28.200000000000731
 20
214.54999241691249
 30
0.0
 11
-28.200000000000731
 21
497.00000000000182
 31
0.0
  0
LINE
  5
9AA57
  8
OUTLINE
 10
-43.200000000000728
 20
497.00000000000182
 30
0.0
 11
-43.200000000000728
 21
180.04999999999919
 31
0.0
  0
LINE
  5
9AA58
  8
OUTLINE
 10
12.299999999999271
 20
115.0560365053679
 30
0.0
 11
-48.200000000000728
 21
115.0560365053679
 31
0.0
  0
LINE
  5
9AA59
  8
OUTLINE
 10
21.78268689924516
 20
100.0000000000018
 30
0.0
 11
-49.700000000000728
 21
100.0000000000018
 31
0.0
  0
LINE
  5
9AA5A
  8
OUTLINE
 10
29.44620915530686
 20
97.000000000001819
 30
0.0
 11
-49.700000000000728
 21
97.000000000001819
 31
0.0
  0
CIRCLE
  5
9AA5B
  8
OUTLINE
 10
-9.990905919466968
 20
155.84876410318421
 30
0.0
 40
9.5
  0
LINE
  5
9AA5C
  8
OUTLINE
 10
-36.120732174746081
 20
120.8838308705744
 30
0.0
 11
-46.249382313053502
 21
136.87643635211671
 31
0.0
  0
LINE
  5
9AA5D
  8
OUTLINE
 10
-51.716571470740753
 20
92.313204893698625
 30
0.0
 11
-61.716571470740753
 21
92.313204893698625
 31
0.0
  0
LINE
  5
9AA5E
  8
OUTLINE
 10
-51.716571470740753
 20
102.3132048936986
 30
0.0
 11
-61.716571470740753
 21
102.3132048936986
 31
0.0
  0
LINE
  5
9AA5F
  8
OUTLINE
 10
-61.716571470740753
 20
102.3132048936986
 30
0.0
 11
-61.716571470740753
 21
92.313204893698625
 31
0.0
  0
LINE
  5
9AA60
  8
OUTLINE
 10
-48.200000000000728
 20
107.995002245083
 30
0.0
 11
-51.716571470740753
 21
108.7353330810292
 31
0.0
  0
LINE
  5
9AA61
  8
OUTLINE
 10
-2.562624645997857
 20
120.8838308705744
 30
0.0
 11
-36.120732174746081
 21
120.8838308705744
 31
0.0
  0
LINE
  5
9AA62
  8
OUTLINE
 10
-25.25
 20
147.03269640560751
 30
0.0
 11
-25.25
 21
100.0
 31
0.0
  0
LINE
  5
9AA63
  8
OUTLINE
 10
-43.200000000000728
 20
100.0000000000018
 30
0.0
 11
-43.200000000000728
 21
137.04999999999919
 31
0.0
  0
CIRCLE
  5
9AA64
  8
OUTLINE
 10
-9.9909612690207723
 20
213.2512529916402
 30
0.0
 40
9.5
  0
ARC
  5
9AA65
  8
OUTLINE
 10
-87.200000000002547
 20
180.05000000000291
 30
0.0
 40
44.000000000000902
 50
270.0
 51
0.0
  0
LINE
  5
9AA66
  8
OUTLINE
 10
-84.111641443279964
 20
136.87643635211671
 30
0.0
 11
-46.249382313053502
 21
136.87643635211671
 31
0.0
  0
LINE
  5
9AA67
  8
OUTLINE
 10
48.44999999999709
 20
110.913204893699
 30
0.0
 11
32.299999999999272
 21
110.913204893699
 31
0.0
  0
LINE
  5
9AA68
  8
OUTLINE
 10
32.299999999999272
 20
106.71745489369999
 30
0.0
 11
30.139999999999421
 21
106.784954893701
 31
0.0
  0
LINE
  5
9AA69
  8
OUTLINE
 10
32.299999999999272
 20
107.87945489369849
 30
0.0
 11
30.139999999999421
 21
107.9469548936995
 31
0.0
  0
LINE
  5
9AA6A
  8
OUTLINE
 10
30.139999999999421
 20
108.163204893699
 30
0.0
 11
27.299999999999269
 21
108.163204893699
 31
0.0
  0
LINE
  5
9AA6B
  8
OUTLINE
 10
32.299999999999272
 20
86.746954893700604
 30
0.0
 11
30.139999999999421
 21
86.679454893699585
 31
0.0
  0
LINE
  5
9AA6C
  8
OUTLINE
 10
32.299999999999272
 20
87.908954893699047
 30
0.0
 11
30.139999999999421
 21
87.841454893699847
 31
0.0
  0
LINE
  5
9AA6D
  8
OUTLINE
 10
48.44999999999709
 20
124.1532048937006
 30
0.0
 11
70.149999999997817
 21
124.1532048937006
 31
0.0
  0
LINE
  5
9AA6E
  8
OUTLINE
 10
72.799999999999272
 20
126.3132048936986
 30
0.0
 11
45.799999999999272
 21
126.3132048936986
 31
0.0
  0
LINE
  5
9AA6F
  8
OUTLINE
 10
72.799999999999272
 20
142.09469997750779
 30
0.0
 11
72.799999999999272
 21
126.3132048936986
 31
0.0
  0
LINE
  5
9AA70
  8
OUTLINE
 10
69.866249999999127
 20
126.3132048936986
 30
0.0
 11
69.933750000000146
 21
124.1532048937006
 31
0.0
  0
LINE
  5
9AA71
  8
OUTLINE
 10
68.704249999997046
 20
126.3132048936986
 30
0.0
 11
68.771749999998065
 21
124.1532048937006
 31
0.0
  0
LINE
  5
9AA72
  8
OUTLINE
 10
70.149999999997817
 20
124.1532048937006
 30
0.0
 11
70.149999999997817
 21
93.713204893698276
 31
0.0
  0
LINE
  5
9AA73
  8
OUTLINE
 10
45.799999999999272
 20
142.09469997750779
 30
0.0
 11
45.799999999999272
 21
126.3132048936986
 31
0.0
  0
LINE
  5
9AA74
  8
OUTLINE
 10
49.89574999999968
 20
126.3132048936986
 30
0.0
 11
49.828249999996842
 21
124.1532048937006
 31
0.0
  0
LINE
  5
9AA75
  8
OUTLINE
 10
48.733749999999418
 20
126.3132048936986
 30
0.0
 11
48.666249999998399
 21
124.1532048937006
 31
0.0
  0
LINE
  5
9AA76
  8
OUTLINE
 10
48.44999999999709
 20
124.1532048937006
 30
0.0
 11
48.44999999999709
 21
110.913204893699
 31
0.0
  0
LINE
  5
9AA77
  8
OUTLINE
 10
12.299999999999271
 20
107.87945489369849
 30
0.0
 11
14.45999999999912
 21
107.9469548936995
 31
0.0
  0
LINE
  5
9AA78
  8
OUTLINE
 10
12.299999999999271
 20
106.71745489369999
 30
0.0
 11
14.45999999999912
 21
106.784954893701
 31
0.0
  0
LINE
  5
9AA79
  8
OUTLINE
 10
17.299999999999269
 20
108.163204893699
 30
0.0
 11
14.45999999999912
 21
108.163204893699
 31
0.0
  0
LINE
  5
9AA7A
  8
OUTLINE
 10
11.79999999999745
 20
100.0000000000018
 30
0.0
 11
11.79999999999745
 21
105.1774530849779
 31
0.0
  0
LINE
  5
9AA7B
  8
OUTLINE
 10
12.299999999999271
 20
87.908954893699047
 30
0.0
 11
14.45999999999912
 21
87.841454893699847
 31
0.0
  0
LINE
  5
9AA7C
  8
OUTLINE
 10
12.299999999999271
 20
86.746954893700604
 30
0.0
 11
14.45999999999912
 21
86.679454893699585
 31
0.0
  0
CIRCLE
  5
9AA7D
  8
OUTLINE
 10
31.340632586485292
 20
117.0500017323774
 30
0.0
 40
9.5
  0
LINE
  5
9AA7E
  8
OUTLINE
 10
27.299999999999269
 20
105.163204893699
 30
0.0
 11
17.299999999999269
 21
105.163204893699
 31
0.0
  0
LINE
  5
9AA7F
  8
OUTLINE
 10
27.299999999999269
 20
111.1632048936989
 30
0.0
 11
17.299999999999269
 21
111.1632048936989
 31
0.0
  0
LINE
  5
9AA80
  8
OUTLINE
 10
27.299999999999269
 20
89.463204893698276
 30
0.0
 11
17.299999999999269
 21
89.463204893698276
 31
0.0
  0
CIRCLE
  5
9AA81
  8
OUTLINE
 10
30.598688742949889
 20
253.84098127969619
 30
0.0
 40
9.5
  0
CIRCLE
  5
9AA82
  8
OUTLINE
 10
128.59096126901201
 20
155.84889772883429
 30
0.0
 40
9.5
  0
LINE
  5
9AA83
  8
OUTLINE
 10
143.84999999999849
 20
147.03269640560751
 30
0.0
 11
143.84999999999849
 21
100.0
 31
0.0
  0
CIRCLE
  5
9AA84
  8
OUTLINE
 10
128.59090591945639
 20
213.25138661728849
 30
0.0
 40
9.5
  0
LINE
  5
9AA85
  8
OUTLINE
 10
168.29999999999919
 20
97.000000000001819
 30
0.0
 11
89.153790844691684
 21
97.000000000001819
 31
0.0
  0
LINE
  5
9AA86
  8
OUTLINE
 10
168.29999999999919
 20
100.0000000000018
 30
0.0
 11
96.817313100753381
 21
100.0000000000018
 31
0.0
  0
CIRCLE
  5
9AA87
  8
OUTLINE
 10
88.001311257052294
 20
850.8409059194654
 30
0.0
 40
9.5
  0
LINE
  5
9AA88
  8
OUTLINE
 10
176.5754631809813
 20
870.05000000000098
 30
0.0
 11
86.207223152772713
 21
870.05000000000098
 31
0.0
  0
CIRCLE
  5
9AA89
  8
OUTLINE
 10
88.001355584270627
 20
712.2590624253661
 30
0.0
 40
9.5
  0
LINE
  5
9AA8A
  8
OUTLINE
 10
171.86144371229599
 20
781.55000000000098
 30
0.0
 11
-48.097466050076029
 21
781.55000000000098
 31
0.0
  0
CIRCLE
  5
9AA8B
  8
OUTLINE
 10
59.299999999999272
 20
781.54999241691257
 30
0.0
 40
92.5
  0
CIRCLE
  5
9AA8C
  8
OUTLINE
 10
59.299999999999272
 20
781.55000000000098
 30
0.0
 40
44.549999999999997
  0
LINE
  5
9AA8D
  8
OUTLINE
 10
59.299999999999272
 20
668.98855628770252
 30
0.0
 11
59.299999999999272
 21
894.11144371230148
 31
0.0
  0
LINE
  5
9AA8E
  8
OUTLINE
 10
-28.200000000000731
 20
697.00000000000182
 30
0.0
 11
-28.200000000000731
 21
751.54999241691439
 31
0.0
  0
LINE
  5
9AA8F
  8
OUTLINE
 10
-43.200000000000728
 20
786.05000000000655
 30
0.0
 11
-43.200000000000728
 21
697.00000000000182
 31
0.0
  0
ARC
  5
9AA90
  8
OUTLINE
 10
-44.702525316941312
 20
728.55252531694157
 30
0.0
 40
10.49999999999984
 50
278.2271337480181
 51
81.772866251981867
  0
ARC
  5
9AA91
  8
OUTLINE
 10
-44.70252531694495
 20
728.55252531694157
 30
0.0
 40
17.499999999999829
 50
274.925398928042
 51
340.56187840901788
  0
CIRCLE
  5
9AA92
  8
OUTLINE
 10
31.340632586485292
 20
714.05000173237738
 30
0.0
 40
9.5
  0
ARC
  5
9AA93
  8
OUTLINE
 10
-44.70252531694495
 20
827.54747468305504
 30
0.0
 40
17.50000000000227
 50
0.0
 51
90.0
  0
CIRCLE
  5
9AA94
  8
OUTLINE
 10
-44.702525316941312
 20
827.54747468305868
 30
0.0
 40
10.5
  0
LINE
  5
9AA95
  8
OUTLINE
 10
-27.202525316941319
 20
814.31526540207221
 30
0.0
 11
-27.202525316941319
 21
827.54747468305868
 31
0.0
  0
CIRCLE
  5
9AA96
  8
OUTLINE
 10
-9.9909612690207723
 20
810.25125299164029
 30
0.0
 40
9.5
  0
CIRCLE
  5
9AA97
  8
OUTLINE
 10
-9.990905919466968
 20
752.84876410318418
 30
0.0
 40
9.5
  0
ARC
  5
9AA98
  8
OUTLINE
 10
-87.19999999999709
 20
786.05000000000291
 30
0.0
 40
43.999999999997733
 50
0.0
 51
90.0
  0
CIRCLE
  5
9AA99
  8
OUTLINE
 10
30.598688742949889
 20
850.84098127969617
 30
0.0
 40
9.5
  0
LINE
  5
9AA9A
  8
OUTLINE
 10
197.80252531693981
 20
827.54747468305868
 30
0.0
 11
197.80252531693981
 21
728.55252531694157
 31
0.0
  0
LINE
  5
9AA9B
  8
OUTLINE
 10
157.80252531693981
 20
827.54747468305868
 30
0.0
 11
157.80252531693981
 21
728.55252531694157
 31
0.0
  0
ARC
  5
9AA9C
  8
OUTLINE
 10
215.30252531693441
 20
728.55252531694157
 30
0.0
 40
57.499999999993634
 50
180.0
 51
213.2805851585461
  0
CIRCLE
  5
9AA9D
  8
OUTLINE
 10
215.30252531693981
 20
728.55252531694157
 30
0.0
 40
10.5
  0
ARC
  5
9AA9E
  8
OUTLINE
 10
215.30252531693981
 20
728.55252531694157
 30
0.0
 40
17.499999999999091
 50
180.0
 51
270.0
  0
ARC
  5
9AA9F
  8
OUTLINE
 10
215.3025253169489
 20
827.54747468305504
 30
0.0
 40
57.500000000008619
 50
111.1563067857012
 51
180.0
  0
CIRCLE
  5
9AAA0
  8
OUTLINE
 10
128.59096126901201
 20
752.84889772883434
 30
0.0
 40
9.5
  0
CIRCLE
  5
9AAA1
  8
OUTLINE
 10
128.59090591945639
 20
810.2513866172884
 30
0.0
 40
9.5
  0
LINE
  5
9AAA2
  8
OUTLINE
 10
234.54999999999919
 20
918.00000000000193
 30
0.0
 11
234.54999999999919
 21
778.05000000000109
 31
0.0
  0
CIRCLE
  5
9AAA3
  8
OUTLINE
 10
215.30252531693981
 20
827.54747468305868
 30
0.0
 40
10.5
  0
LINE
  5
9AAA4
  8
OUTLINE
 10
234.54999999999919
 20
845.04747468305857
 30
0.0
 11
215.30252531693981
 21
845.04747468305857
 31
0.0
  0
LINE
  5
9AAA5
  8
OUTLINE
 10
194.54999999999919
 20
778.05000000000109
 30
0.0
 11
194.54999999999919
 21
918.00000000000193
 31
0.0
  0
ARC
  5
9AAA6
  8
OUTLINE
 10
215.3025253169435
 20
827.54747468305504
 30
0.0
 40
17.500000000001819
 50
90.0
 51
180.0
  0
LINE
  5
9AAA7
  8
OUTLINE
 10
315.7999999999974
 20
108.4958247200065
 30
0.0
 11
315.7999999999974
 21
80.050000000002925
 31
0.0
  0
ARC
  5
9AAA8
  8
OUTLINE
 10
271.79999999999922
 20
180.05000000000101
 30
0.0
 40
84.0
 50
270.0
 51
333.5390287725931
  0
LINE
  5
9AAA9
  8
OUTLINE
 10
350.0
 20
80.0
 30
0.0
 11
350.0
 21
500.00000000000182
 31
0.0
  0
LINE
  5
9AAAA
  8
OUTLINE
 10
347.0
 20
500.00000000000182
 30
0.0
 11
347.0
 21
80.0
 31
0.0
  0
LINE
  5
9AAAB
  8
OUTLINE
 10
394.0
 20
3.0000000000018181
 30
0.0
 11
394.0
 21
500.00000000000182
 31
0.0
  0
LINE
  5
9AAAC
  8
OUTLINE
 10
400.0
 20
80.0
 30
0.0
 11
347.0
 21
80.0
 31
0.0
  0
LINE
  5
9AAAD
  8
OUTLINE
 10
397.0
 20
6.0000000000018181
 30
0.0
 11
347.0
 21
6.0000000000018181
 31
0.0
  0
LINE
  5
9AAAE
  8
OUTLINE
 10
403.5
 20
65.000000000001819
 30
0.0
 11
410.00000000000182
 21
65.000000000001819
 31
0.0
  0
LINE
  5
9AAAF
  8
OUTLINE
 10
403.5
 20
57.000000000001819
 30
0.0
 11
410.00000000000182
 21
57.000000000001819
 31
0.0
  0
LINE
  5
9AAB0
  8
OUTLINE
 10
401.49999999999989
 20
68.850000000002183
 30
0.0
 11
403.5
 21
68.850000000002183
 31
0.0
  0
LINE
  5
9AAB1
  8
OUTLINE
 10
403.5
 20
53.150000000003281
 30
0.0
 11
403.5
 21
68.850000000002183
 31
0.0
  0
LINE
  5
9AAB2
  8
OUTLINE
 10
401.49999999999989
 20
53.150000000003281
 30
0.0
 11
403.5
 21
53.150000000003281
 31
0.0
  0
LINE
  5
9AAB3
  8
OUTLINE
 10
400.0
 20
73.000000000001805
 30
0.0
 11
401.49999999999989
 21
73.000000000001805
 31
0.0
  0
LINE
  5
9AAB4
  8
OUTLINE
 10
410.0
 20
68.500000000001819
 30
0.0
 11
410.0
 21
53.500000000001819
 31
0.0
  0
LINE
  5
9AAB5
  8
OUTLINE
 10
410.0
 20
53.500000000001819
 30
0.0
 11
403.5
 21
53.500000000001819
 31
0.0
  0
LINE
  5
9AAB6
  8
OUTLINE
 10
410.0
 20
68.500000000001819
 30
0.0
 11
403.5
 21
68.500000000001819
 31
0.0
  0
LINE
  5
9AAB7
  8
OUTLINE
 10
403.5
 20
20.150000000003271
 30
0.0
 11
403.5
 21
35.850000000002183
 31
0.0
  0
LINE
  5
9AAB8
  8
OUTLINE
 10
401.49999999999989
 20
16.000000000001808
 30
0.0
 11
401.49999999999989
 21
40.000000000001819
 31
0.0
  0
LINE
  5
9AAB9
  8
OUTLINE
 10
410.0
 20
35.500000000001812
 30
0.0
 11
410.0
 21
20.500000000001808
 31
0.0
  0
LINE
  5
9AABA
  8
OUTLINE
 10
401.49999999999989
 20
16.000000000001808
 30
0.0
 11
400.0
 21
16.000000000001808
 31
0.0
  0
LINE
  5
9AABB
  8
OUTLINE
 10
403.5
 20
24.000000000001808
 30
0.0
 11
410.00000000000182
 21
24.000000000001808
 31
0.0
  0
LINE
  5
9AABC
  8
OUTLINE
 10
401.49999999999989
 20
20.150000000003271
 30
0.0
 11
403.5
 21
20.150000000003271
 31
0.0
  0
LINE
  5
9AABD
  8
OUTLINE
 10
410.0
 20
20.500000000001808
 30
0.0
 11
403.5
 21
20.500000000001808
 31
0.0
  0
LINE
  5
9AABE
  8
OUTLINE
 10
386.79999999999558
 20
6.4000000000014552
 30
0.0
 11
386.79999999999558
 21
3.2000000000025461
 31
0.0
  0
ARC
  5
9AABF
  8
OUTLINE
 10
396.99999999999631
 20
3.0000000000018181
 30
0.0
 40
3.0000000000018181
 50
270.00000000005213
 51
0.0
  0
ARC
  5
9AAC0
  8
OUTLINE
 10
397.00000000001091
 20
3.0000000000018181
 30
0.0
 40
3.0000000000018181
 50
270.00000000005213
 51
0.0
  0
LINE
  5
9AAC1
  8
OUTLINE
 10
401.49999999999989
 20
49.000000000001819
 30
0.0
 11
400.0
 21
49.000000000001819
 31
0.0
  0
LINE
  5
9AAC2
  8
OUTLINE
 10
403.5
 20
32.000000000001819
 30
0.0
 11
410.00000000000182
 21
32.000000000001819
 31
0.0
  0
LINE
  5
9AAC3
  8
OUTLINE
 10
401.49999999999989
 20
35.850000000002183
 30
0.0
 11
403.5
 21
35.850000000002183
 31
0.0
  0
LINE
  5
9AAC4
  8
OUTLINE
 10
400.0
 20
40.000000000001819
 30
0.0
 11
401.49999999999989
 21
40.000000000001819
 31
0.0
  0
LINE
  5
9AAC5
  8
OUTLINE
 10
410.0
 20
35.500000000001812
 30
0.0
 11
403.5
 21
35.500000000001812
 31
0.0
  0
LINE
  5
9AAC6
  8
OUTLINE
 10
400.0
 20
3.0000000000018181
 30
0.0
 11
400.0
 21
80.0
 31
0.0
  0
LINE
  5
9AAC7
  8
OUTLINE
 10
401.49999999999989
 20
49.000000000001819
 30
0.0
 11
401.49999999999989
 21
73.000000000001805
 31
0.0
  0
LINE
  5
9AAC8
  8
OUTLINE
 10
394.0
 20
697.00000000000182
 30
0.0
 11
394.0
 21
500.00000000000182
 31
0.0
  0
LINE
  5
9AAC9
  8
OUTLINE
 10
344.0
 20
500.00000000000182
 30
0.0
 11
394.0
 21
500.00000000000182
 31
0.0
  0
LINE
  5
9AACA
  8
OUTLINE
 10
344.0
 20
500.00000000000182
 30
0.0
 11
344.0
 21
497.00000000000182
 31
0.0
  0
LINE
  5
9AACB
  8
OUTLINE
 10
394.0
 20
918.00000000000193
 30
0.0
 11
394.0
 21
697.00000000000182
 31
0.0
  0
LINE
  5
9AACC
  8
OUTLINE
 10
331.79747468305862
 20
728.55252531694157
 30
0.0
 11
331.79747468305862
 21
827.54747468305868
 31
0.0
  0
LINE
  5
9AACD
  8
OUTLINE
 10
371.79747468305868
 20
728.55252531694157
 30
0.0
 11
371.79747468305868
 21
827.54747468305868
 31
0.0
  0
LINE
  5
9AACE
  8
OUTLINE
 10
350.0
 20
918.00000000000193
 30
0.0
 11
350.0
 21
697.00000000000182
 31
0.0
  0
LINE
  5
9AACF
  8
OUTLINE
 10
347.0
 20
918.00000000000193
 30
0.0
 11
347.0
 21
697.00000000000182
 31
0.0
  0
CIRCLE
  5
9AAD0
  8
OUTLINE
 10
314.29747468305862
 20
728.55252531694157
 30
0.0
 40
10.5
  0
ARC
  5
9AAD1
  8
OUTLINE
 10
314.29747468305499
 20
728.5525253169435
 30
0.0
 40
17.500000000001819
 50
270.0
 51
0.0
  0
ARC
  5
9AAD2
  8
OUTLINE
 10
314.29747468304407
 20
728.5525253169435
 30
0.0
 40
57.500000000011823
 50
326.71941484145373
 51
0.0
  0
ARC
  5
9AAD3
  8
OUTLINE
 10
314.29747468305499
 20
827.54747468305675
 30
0.0
 40
57.500000000001819
 50
0.0
 51
68.843693214298781
  0
LINE
  5
9AAD4
  8
OUTLINE
 10
335.04999999999922
 20
918.00000000000193
 30
0.0
 11
335.04999999999922
 21
778.05000000000109
 31
0.0
  0
LINE
  5
9AAD5
  8
OUTLINE
 10
295.04999999999922
 20
918.00000000000193
 30
0.0
 11
295.04999999999922
 21
778.05000000000109
 31
0.0
  0
ARC
  5
9AAD6
  8
OUTLINE
 10
314.29747468305499
 20
827.54747468305504
 30
0.0
 40
17.50000000000227
 50
0.0
 51
90.0
  0
CIRCLE
  5
9AAD7
  8
OUTLINE
 10
314.29747468305862
 20
827.54747468305868
 30
0.0
 40
10.5
  0
LINE
  5
9AAD8
  8
OUTLINE
 10
295.04999999999922
 20
845.04747468305857
 30
0.0
 11
314.29747468305862
 21
845.04747468305857
 31
0.0
  0
ARC
  5
9AAD9
  8
OUTLINE
 10
213.9999999999545
 20
1242.500000000018
 30
0.0
 40
81.050000000043838
 50
0.0
 51
89.999999999947889
  0
LINE
  5
9AADA
  8
OUTLINE
 10
234.5499999995809
 20
1242.5
 30
0.0
 11
295.05000000008653
 21
1242.5
 31
0.0
  0
LINE
  5
9AADB
  8
OUTLINE
 10
263.46730882829792
 20
1438.985959872439
 30
0.0
 11
324.76883798575182
 21
1288.9928566148419
 31
0.0
  0
ARC
  5
9AADC
  8
OUTLINE
 10
213.99999999995629
 20
1242.500000000018
 30
0.0
 40
121.0500000000429
 50
0.0
 51
89.999999999947889
  0
LINE
  5
9AADD
  8
OUTLINE
 10
397.0
 20
1065.0000000000009
 30
0.0
 11
-397.0
 21
1065.0000000000009
 31
0.0
  0
LINE
  5
9AADE
  8
OUTLINE
 10
-397.0
 20
1061.8000000000011
 30
0.0
 11
397.0
 21
1061.8000000000011
 31
0.0
  0
LINE
  5
9AADF
  8
OUTLINE
 10
-397.0
 20
1015.000000000001
 30
0.0
 11
397.0
 21
1015.000000000001
 31
0.0
  0
LINE
  5
9AAE0
  8
OUTLINE
 10
-397.0
 20
1018.2
 30
0.0
 11
397.0
 21
1018.2
 31
0.0
  0
LINE
  5
9AAE1
  8
OUTLINE
 10
397.0
 20
1012.000000000002
 30
0.0
 11
-397.0
 21
1012.000000000002
 31
0.0
  0
LINE
  5
9AAE2
  8
OUTLINE
 10
400.0
 20
1750.0000000000009
 30
0.0
 11
-400.0
 21
1750.0000000000009
 31
0.0
  0
ARC
  5
9AAE3
  8
OUTLINE
 10
127.94847084254791
 20
1383.5999999999999
 30
0.0
 40
146.4000000000002
 50
22.229621091267148
 51
90.0
  0
ARC
  5
9AAE4
  8
OUTLINE
 10
127.94847084254791
 20
1383.5999999999999
 30
0.0
 40
203.60000000000039
 50
22.229621091267148
 51
90.0
  0
POLYLINE
  5
9AAE5
  8
OUTLINE
 66
     1
 10
0.0
 20
0.0
 30
0.0
  0
VERTEX
  5
9AEC1
  8
OUTLINE
 10
-69.051511436275163
 20
1601.0999999999999
 30
0.0
  0
VERTEX
  5
9AEC2
  8
OUTLINE
 10
-69.109300664109469
 20
1605.3086653840851
 30
0.0
  0
VERTEX
  5
9AEC3
  8
OUTLINE
 10
-69.250697331663105
 20
1609.5037745296211
 30
0.0
  0
VERTEX
  5
9AEC4
  8
OUTLINE
 10
-69.475318740784132
 20
1613.6739731344221
 30
0.0
  0
VERTEX
  5
9AEC5
  8
OUTLINE
 10
-69.782556940826893
 20
1617.8079743180999
 30
0.0
  0
VERTEX
  5
9AEC6
  8
OUTLINE
 10
-70.17158037406989
 20
1621.894589170651
 30
0.0
  0
VERTEX
  5
9AEC7
  8
OUTLINE
 10
-70.641336126407623
 20
1625.9227570358869
 30
0.0
  0
VERTEX
  5
9AEC8
  8
OUTLINE
 10
-71.190552777097764
 20
1629.8815754477141
 30
0.0
  0
VERTEX
  5
9AEC9
  8
OUTLINE
 10
-71.817743839954346
 20
1633.7603296382979
 30
0.0
  0
VERTEX
  5
9AECA
  8
OUTLINE
 10
-72.5212117865849
 20
1637.5485215381809
 30
0.0
  0
VERTEX
  5
9AECB
  8
OUTLINE
 10
-73.299052640872105
 20
1641.235898189914
 30
0.0
  0
VERTEX
  5
9AECC
  8
OUTLINE
 10
-74.149161132172594
 20
1644.812479498263
 30
0.0
  0
VERTEX
  5
9AECD
  8
OUTLINE
 10
-75.069236393370375
 20
1648.2685852419161
 30
0.0
  0
VERTEX
  5
9AECE
  8
OUTLINE
 10
-76.056788188285282
 20
1651.594861273544
 30
0.0
  0
VERTEX
  5
9AECF
  8
OUTLINE
 10
-77.109143651661725
 20
1654.782304837343
 30
0.0
  0
VERTEX
  5
9AED0
  8
OUTLINE
 10
-78.223454523407781
 20
1657.8222889354979
 30
0.0
  0
VERTEX
  5
9AED1
  8
OUTLINE
 10
-79.396704857594159
 20
1660.706585677651
 30
0.0
  0
VERTEX
  5
9AED2
  8
OUTLINE
 10
-80.625719185269176
 20
1663.427388550153
 30
0.0
  0
VERTEX
  5
9AED3
  8
OUTLINE
 10
-81.907171109050964
 20
1665.9773335448369
 30
0.0
  0
VERTEX
  5
9AED4
  8
OUTLINE
 10
-83.237592306220904
 20
1668.349519090134
 30
0.0
  0
VERTEX
  5
9AED5
  8
OUTLINE
 10
-84.61338191591858
 20
1670.537524730554
 30
0.0
  0
VERTEX
  5
9AED6
  8
OUTLINE
 10
-86.030816285094275
 20
1672.535428504033
 30
0.0
  0
VERTEX
  5
9AED7
  8
OUTLINE
 10
-87.486059046779715
 20
1674.33782297005
 30
0.0
  0
VERTEX
  5
9AED8
  8
OUTLINE
 10
-88.975171503432648
 20
1675.939829845174
 30
0.0
  0
VERTEX
  5
9AED9
  8
OUTLINE
 10
-90.494123287255206
 20
1677.3371132064219
 30
0.0
  0
VERTEX
  5
9AEDA
  8
OUTLINE
 10
-92.038803268602337
 20
1678.52589122668
 30
0.0
  0
VERTEX
  5
9AEDB
  8
OUTLINE
 10
-93.605030683000223
 20
1679.502946410428
 30
0.0
  0
VERTEX
  5
9AEDC
  8
OUTLINE
 10
-95.188566446615368
 20
1680.2656343020819
 30
0.0
  0
VERTEX
  5
9AEDD
  8
OUTLINE
 10
-96.785124629579514
 20
1680.811890643359
 30
0.0
  0
VERTEX
  5
9AEDE
  8
OUTLINE
 10
-98.390384056108815
 20
1681.140236960314
 30
0.0
  0
VERTEX
  5
9AEDF
  8
OUTLINE
 10
-100.0
 20
1681.249784564912
 30
0.0
  0
SEQEND
  5
9AEE0
  8
OUTLINE
  0
POLYLINE
  5
9AAE6
  8
OUTLINE
 66
     1
 10
0.0
 20
0.0
 30
0.0
  0
VERTEX
  5
9AEE1
  8
OUTLINE
 10
-30.951559054641621
 20
1601.0999999999999
 30
0.0
  0
VERTEX
  5
9AEE2
  8
OUTLINE
 10
-31.069560293170071
 20
1607.3027267269799
 30
0.0
  0
VERTEX
  5
9AEE3
  8
OUTLINE
 10
-31.374882367337701
 20
1613.486423303742
 30
0.0
  0
VERTEX
  5
9AEE4
  8
OUTLINE
 10
-31.866695553930182
 20
1619.6342853226099
 30
0.0
  0
VERTEX
  5
9AEE5
  8
OUTLINE
 10
-32.543663333730358
 20
1625.729605757547
 30
0.0
  0
VERTEX
  5
9AEE6
  8
OUTLINE
 10
-33.403946023568999
 20
1631.7558203660799
 30
0.0
  0
VERTEX
  5
9AEE7
  8
OUTLINE
 10
-34.445205775706199
 20
1637.6965527031821
 30
0.0
  0
VERTEX
  5
9AEE8
  8
OUTLINE
 10
-35.664612931032018
 20
1643.5356586248411
 30
0.0
  0
VERTEX
  5
9AEE9
  8
OUTLINE
 10
-37.058853708746021
 20
1649.2572701603131
 30
0.0
  0
VERTEX
  5
9AEEA
  8
OUTLINE
 10
-38.624139211689901
 20
1654.845838633875
 30
0.0
  0
VERTEX
  5
9AEEB
  8
OUTLINE
 10
-40.356215722782508
 20
1660.2861769189051
 30
0.0
  0
VERTEX
  5
9AEEC
  8
OUTLINE
 10
-42.250376264662911
 20
1665.5635007093949
 30
0.0
  0
VERTEX
  5
9AEED
  8
OUTLINE
 10
-44.301473391045867
 20
1670.66346869682
 30
0.0
  0
VERTEX
  5
9AEEE
  8
OUTLINE
 10
-46.503933175097693
 20
1675.5722215431449
 30
0.0
  0
VERTEX
  5
9AEEF
  8
OUTLINE
 10
-48.851770356766792
 20
1680.276419544032
 30
0.0
  0
VERTEX
  5
9AEF0
  8
OUTLINE
 10
-51.338604607930392
 20
1684.763278879971
 30
0.0
  0
VERTEX
  5
9AEF1
  8
OUTLINE
 10
-53.957677871163469
 20
1689.0206063567159
 30
0.0
  0
VERTEX
  5
9AEF2
  8
OUTLINE
 10
-56.701872724981513
 20
1693.036832540741
 30
0.0
  0
VERTEX
  5
9AEF3
  8
OUTLINE
 10
-59.563731725691468
 20
1696.801043199549
 30
0.0
  0
VERTEX
  5
9AEF4
  8
OUTLINE
 10
-62.535477673231071
 20
1700.3030089614861
 30
0.0
  0
VERTEX
  5
9AEF5
  8
OUTLINE
 10
-65.609034746001271
 20
1703.5332131144
 30
0.0
  0
VERTEX
  5
9AEF6
  8
OUTLINE
 10
-68.776050447169837
 20
1706.4828774676489
 30
0.0
  0
VERTEX
  5
9AEF7
  8
OUTLINE
 10
-72.02791830287606
 20
1709.143986207114
 30
0.0
  0
VERTEX
  5
9AEF8
  8
OUTLINE
 10
-75.355801250610966
 20
1711.5093076784681
 30
0.0
  0
VERTEX
  5
9AEF9
  8
OUTLINE
 10
-78.750655654253933
 20
1713.57241403943
 30
0.0
  0
VERTEX
  5
9AEFA
  8
OUTLINE
 10
-82.203255880445795
 20
1715.3276987276579
 30
0.0
  0
VERTEX
  5
9AEFB
  8
OUTLINE
 10
-85.704219369577899
 20
1716.770391696771
 30
0.0
  0
VERTEX
  5
9AEFC
  8
OUTLINE
 10
-89.244032133217843
 20
1717.8965723791091
 30
0.0
  0
VERTEX
  5
9AEFD
  8
OUTLINE
 10
-92.813074608682655
 20
1718.7031803400189
 30
0.0
  0
VERTEX
  5
9AEFE
  8
OUTLINE
 10
-96.401647800557825
 20
1719.188023594683
 30
0.0
  0
VERTEX
  5
9AEFF
  8
OUTLINE
 10
-99.999999638035675
 20
1719.3497845649119
 30
0.0
  0
SEQEND
  5
9AF00
  8
OUTLINE
  0
LINE
  5
9AAE7
  8
OUTLINE
 10
-64.958073776573656
 20
1494.0999999999999
 30
0.0
 11
-148.00000000000361
 21
1494.0999999999999
 31
0.0
  0
LINE
  5
9AAE8
  8
OUTLINE
 10
-65.0
 20
1493.3000000000011
 30
0.0
 11
-148.00000000000361
 21
1493.3000000000011
 31
0.0
  0
LINE
  5
9AAE9
  8
OUTLINE
 10
-148.00000000000361
 20
1494.0999999999999
 30
0.0
 11
-70.0
 21
1494.0999999999999
 31
0.0
  0
LINE
  5
9AAEA
  8
OUTLINE
 10
-148.00000000000361
 20
1516.0999999999999
 30
0.0
 11
-64.853258218008705
 21
1516.0999999999999
 31
0.0
  0
LINE
  5
9AAEB
  8
OUTLINE
 10
-148.02439392703491
 20
1490.5264973081059
 30
0.0
 11
-70.0
 21
1490.5264973081059
 31
0.0
  0
LINE
  5
9AAEC
  8
OUTLINE
 10
47.19615242270811
 20
1493.3000000000011
 30
0.0
 11
-147.19615242270811
 21
1493.3000000000029
 31
0.0
  0
LINE
  5
9AAED
  8
OUTLINE
 10
-285.0
 20
1067.3000000000011
 30
0.0
 11
185.0
 21
1067.3000000000011
 31
0.0
  0
LINE
  5
9AAEE
  8
OUTLINE
 10
-287.30000000000291
 20
1087.3000000000011
 30
0.0
 11
187.29999999999919
 21
1087.3000000000011
 31
0.0
  0
ARC
  5
9AAEF
  8
OUTLINE
 10
-50.0
 20
1293.3000000000029
 30
0.0
 40
161.99999999999849
 50
24.42993964306212
 51
155.57006035693789
  0
LINE
  5
9AAF0
  8
OUTLINE
 10
-171.22503561260959
 20
1353.3000000000011
 30
0.0
 11
71.225035612606007
 21
1353.299999999999
 31
0.0
  0
ARC
  5
9AAF1
  8
OUTLINE
 10
-50.000000000001819
 20
1293.3000000000011
 30
0.0
 40
189.99999999999929
 50
20.648358966777039
 51
159.3516410332229
  0
ARC
  5
9AAF2
  8
OUTLINE
 10
-50.0
 20
1293.3000000000011
 30
0.0
 40
190.0000000000004
 50
200.64835896677701
 51
339.3516410332229
  0
ARC
  5
9AAF3
  8
OUTLINE
 10
-50.0
 20
1293.299999999999
 30
0.0
 40
161.99999999999849
 50
204.42993964306211
 51
335.57006035693792
  0
LINE
  5
9AAF4
  8
OUTLINE
 10
-171.22503561260959
 20
1233.3000000000011
 30
0.0
 11
71.225035612606007
 21
1233.299999999999
 31
0.0
  0
LINE
  5
9AAF5
  8
OUTLINE
 10
-208.00000000000361
 20
1601.0999999999999
 30
0.0
 11
107.99999999999631
 21
1601.0999999999999
 31
0.0
  0
LINE
  5
9AAF6
  8
OUTLINE
 10
-210.00000000000361
 20
1593.0999999999999
 30
0.0
 11
109.99999999999631
 21
1593.0999999999999
 31
0.0
  0
LINE
  5
9AAF7
  8
OUTLINE
 10
-164.0
 20
1093.3000000000011
 30
0.0
 11
64.0
 21
1093.3000000000011
 31
0.0
  0
ARC
  5
9AAF8
  8
OUTLINE
 10
-50.0
 20
1293.3000000000029
 30
0.0
 40
157.00000000000159
 50
205.26158396144521
 51
270.0
  0
ARC
  5
9AAF9
  8
OUTLINE
 10
-50.0
 20
1293.299999999997
 30
0.0
 40
157.0000000000031
 50
90.0
 51
154.73841603855479
  0
LINE
  5
9AAFA
  8
OUTLINE
 10
-56.25
 20
1516.0999999999999
 30
0.0
 11
-208.00000000000361
 21
1516.0999999999999
 31
0.0
  0
LINE
  5
9AAFB
  8
OUTLINE
 10
-230.79999999999919
 20
1396.3000000000011
 30
0.0
 11
-230.79999999999919
 21
1359.700000000001
 31
0.0
  0
LINE
  5
9AAFC
  8
OUTLINE
 10
-230.0
 20
1396.3000000000011
 30
0.0
 11
-230.0
 21
1360.1284271247471
 31
0.0
  0
LINE
  5
9AAFD
  8
OUTLINE
 10
-230.79999999999919
 20
1395.8000000000011
 30
0.0
 11
-230.79999999999919
 21
1359.700000000001
 31
0.0
  0
LINE
  5
9AAFE
  8
OUTLINE
 10
-230.0
 20
1396.3000000000011
 30
0.0
 11
-230.0
 21
1360.3000000000011
 31
0.0
  0
LINE
  5
9AAFF
  8
OUTLINE
 10
-246.80000000000291
 20
1395.3000000000011
 30
0.0
 11
-246.80000000000291
 21
1361.299999999999
 31
0.0
  0
LINE
  5
9AB00
  8
OUTLINE
 10
-400.0
 20
1018.199999999999
 30
0.0
 11
-400.0
 21
1750.0000000000009
 31
0.0
  0
LINE
  5
9AB01
  8
OUTLINE
 10
-266.5
 20
1356.149999999999
 30
0.0
 11
-257.5
 21
1356.149999999999
 31
0.0
  0
LINE
  5
9AB02
  8
OUTLINE
 10
-257.5
 20
1295.95
 30
0.0
 11
-280.79999999999922
 21
1295.95
 31
0.0
  0
LINE
  5
9AB03
  8
OUTLINE
 10
-257.5
 20
1290.650000000001
 30
0.0
 11
-280.79999999999922
 21
1290.650000000001
 31
0.0
  0
LINE
  5
9AB04
  8
OUTLINE
 10
-266.5
 20
1230.45
 30
0.0
 11
-257.5
 21
1230.45
 31
0.0
  0
LINE
  5
9AB05
  8
OUTLINE
 10
-266.5
 20
1236.299999999999
 30
0.0
 11
-257.5
 21
1236.299999999999
 31
0.0
  0
LINE
  5
9AB06
  8
OUTLINE
 10
-266.5
 20
1258.149999999999
 30
0.0
 11
-257.5
 21
1258.149999999999
 31
0.0
  0
LINE
  5
9AB07
  8
OUTLINE
 10
-266.5
 20
1252.299999999999
 30
0.0
 11
-257.5
 21
1252.299999999999
 31
0.0
  0
LINE
  5
9AB08
  8
OUTLINE
 10
-266.5
 20
1350.299999999999
 30
0.0
 11
-257.5
 21
1350.299999999999
 31
0.0
  0
LINE
  5
9AB09
  8
OUTLINE
 10
-266.5
 20
1328.450000000001
 30
0.0
 11
-257.5
 21
1328.450000000001
 31
0.0
  0
LINE
  5
9AB0A
  8
OUTLINE
 10
-266.5
 20
1334.299999999999
 30
0.0
 11
-257.5
 21
1334.299999999999
 31
0.0
  0
ARC
  5
9AB0B
  8
OUTLINE
 10
-396.80000000000291
 20
1011.800000000004
 30
0.0
 40
3.199999999997543
 50
89.999999999947889
 51
180.0
  0
LINE
  5
9AB0C
  8
OUTLINE
 10
-287.30000000000291
 20
1067.3000000000011
 30
0.0
 11
-287.30000000000291
 21
1087.3000000000011
 31
0.0
  0
LINE
  5
9AB0D
  8
OUTLINE
 10
-285.0
 20
1065.0000000000009
 30
0.0
 11
-285.0
 21
1087.3000000000011
 31
0.0
  0
ARC
  5
9AB0E
  8
OUTLINE
 10
-285.0
 20
1067.3000000000011
 30
0.0
 40
2.300000000000181
 50
180.0
 51
270.0
  0
LINE
  5
9AB0F
  8
OUTLINE
 10
-280.79999999999922
 20
1282.3000000000011
 30
0.0
 11
-295.30000000000291
 21
1282.3000000000011
 31
0.0
  0
LINE
  5
9AB10
  8
OUTLINE
 10
-283.80000000000291
 20
1298.3000000000011
 30
0.0
 11
-295.30000000000291
 21
1298.3000000000011
 31
0.0
  0
LINE
  5
9AB11
  8
OUTLINE
 10
-280.79999999999922
 20
1303.3000000000011
 30
0.0
 11
-295.30000000000291
 21
1303.3000000000011
 31
0.0
  0
LINE
  5
9AB12
  8
OUTLINE
 10
-295.30000000000291
 20
1282.3000000000011
 30
0.0
 11
-295.30000000000291
 21
1303.3000000000011
 31
0.0
  0
ARC
  5
9AB13
  8
OUTLINE
 10
-293.79999999999558
 20
1273.639745962153
 30
0.0
 40
11.24999999999271
 50
329.99999999998971
 51
0.0
  0
LINE
  5
9AB14
  8
OUTLINE
 10
-283.80000000000291
 20
1297.0999999999999
 30
0.0
 11
-284.80000000000291
 21
1297.0999999999999
 31
0.0
  0
LINE
  5
9AB15
  8
OUTLINE
 10
-284.80000000000291
 20
1289.5
 30
0.0
 11
-283.80000000000291
 21
1289.5
 31
0.0
  0
LINE
  5
9AB16
  8
OUTLINE
 10
-284.80000000000291
 20
1289.5
 30
0.0
 11
-284.80000000000291
 21
1297.0999999999999
 31
0.0
  0
LINE
  5
9AB17
  8
OUTLINE
 10
-283.80000000000291
 20
1289.5
 30
0.0
 11
-283.80000000000291
 21
1297.0999999999999
 31
0.0
  0
LINE
  5
9AB18
  8
OUTLINE
 10
-280.79999999999922
 20
1295.95
 30
0.0
 11
-280.79999999999922
 21
1290.650000000001
 31
0.0
  0
POLYLINE
  5
9AB19
  8
OUTLINE
 66
     1
 10
0.0
 20
0.0
 30
0.0
  0
VERTEX
  5
9AF01
  8
OUTLINE
 10
-270.30000000000291
 20
1287.7434723072779
 30
0.0
  0
VERTEX
  5
9AF02
  8
OUTLINE
 10
-270.32882207939468
 20
1287.9503968417409
 30
0.0
  0
VERTEX
  5
9AF03
  8
OUTLINE
 10
-270.41418070123291
 20
1288.1493693823879
 30
0.0
  0
VERTEX
  5
9AF04
  8
OUTLINE
 10
-270.55279558154689
 20
1288.332743526068
 30
0.0
  0
VERTEX
  5
9AF05
  8
OUTLINE
 10
-270.739339828222
 20
1288.4934723072779
 30
0.0
  0
VERTEX
  5
9AF06
  8
OUTLINE
 10
-270.96664465047058
 20
1288.6253790090921
 30
0.0
  0
VERTEX
  5
9AF07
  8
OUTLINE
 10
-271.22597485145519
 20
1288.723394530934
 30
0.0
  0
VERTEX
  5
9AF08
  8
OUTLINE
 10
-271.50736451697588
 20
1288.7837521912691
 30
0.0
  0
VERTEX
  5
9AF09
  8
OUTLINE
 10
-271.80000000000291
 20
1288.804132479057
 30
0.0
  0
VERTEX
  5
9AF0A
  8
OUTLINE
 10
-272.09263548302619
 20
1288.7837521912691
 30
0.0
  0
VERTEX
  5
9AF0B
  8
OUTLINE
 10
-272.37402514854688
 20
1288.723394530934
 30
0.0
  0
VERTEX
  5
9AF0C
  8
OUTLINE
 10
-272.63335534953143
 20
1288.6253790090921
 30
0.0
  0
VERTEX
  5
9AF0D
  8
OUTLINE
 10
-272.86066017178013
 20
1288.4934723072779
 30
0.0
  0
VERTEX
  5
9AF0E
  8
OUTLINE
 10
-273.04720441845529
 20
1288.332743526068
 30
0.0
  0
VERTEX
  5
9AF0F
  8
OUTLINE
 10
-273.1858192987674
 20
1288.1493693823879
 30
0.0
  0
VERTEX
  5
9AF10
  8
OUTLINE
 10
-273.27117792060562
 20
1287.9503968417409
 30
0.0
  0
VERTEX
  5
9AF11
  8
OUTLINE
 10
-273.29999999999922
 20
1287.7434723072779
 30
0.0
  0
VERTEX
  5
9AF12
  8
OUTLINE
 10
-273.27117792060562
 20
1287.5365477728151
 30
0.0
  0
VERTEX
  5
9AF13
  8
OUTLINE
 10
-273.1858192987674
 20
1287.3375752321681
 30
0.0
  0
VERTEX
  5
9AF14
  8
OUTLINE
 10
-273.04720441845529
 20
1287.154201088488
 30
0.0
  0
VERTEX
  5
9AF15
  8
OUTLINE
 10
-272.86066017178013
 20
1286.9934723072779
 30
0.0
  0
VERTEX
  5
9AF16
  8
OUTLINE
 10
-272.63335534953143
 20
1286.8615656054619
 30
0.0
  0
VERTEX
  5
9AF17
  8
OUTLINE
 10
-272.37402514854688
 20
1286.76355008362
 30
0.0
  0
VERTEX
  5
9AF18
  8
OUTLINE
 10
-272.09263548302619
 20
1286.703192423287
 30
0.0
  0
VERTEX
  5
9AF19
  8
OUTLINE
 10
-271.80000000000291
 20
1286.682812135499
 30
0.0
  0
VERTEX
  5
9AF1A
  8
OUTLINE
 10
-271.50736451697588
 20
1286.703192423287
 30
0.0
  0
VERTEX
  5
9AF1B
  8
OUTLINE
 10
-271.22597485145519
 20
1286.76355008362
 30
0.0
  0
VERTEX
  5
9AF1C
  8
OUTLINE
 10
-270.96664465047058
 20
1286.8615656054619
 30
0.0
  0
VERTEX
  5
9AF1D
  8
OUTLINE
 10
-270.739339828222
 20
1286.9934723072779
 30
0.0
  0
VERTEX
  5
9AF1E
  8
OUTLINE
 10
-270.55279558154689
 20
1287.154201088488
 30
0.0
  0
VERTEX
  5
9AF1F
  8
OUTLINE
 10
-270.41418070123291
 20
1287.3375752321681
 30
0.0
  0
VERTEX
  5
9AF20
  8
OUTLINE
 10
-270.32882207939468
 20
1287.5365477728151
 30
0.0
  0
VERTEX
  5
9AF21
  8
OUTLINE
 10
-270.30000000000291
 20
1287.7434723072779
 30
0.0
  0
SEQEND
  5
9AF22
  8
OUTLINE
  0
POLYLINE
  5
9AB1A
  8
OUTLINE
 66
     1
 10
0.0
 20
0.0
 30
0.0
  0
VERTEX
  5
9AF23
  8
OUTLINE
 10
-270.55000000000291
 20
1287.7126258403439
 30
0.0
  0
VERTEX
  5
9AF24
  8
OUTLINE
 10
-270.57401839949489
 20
1287.8850629523949
 30
0.0
  0
VERTEX
  5
9AF25
  8
OUTLINE
 10
-270.64515058436149
 20
1288.0508734029349
 30
0.0
  0
VERTEX
  5
9AF26
  8
OUTLINE
 10
-270.76066298462308
 20
1288.2036851893349
 30
0.0
  0
VERTEX
  5
9AF27
  8
OUTLINE
 10
-270.91611652351639
 20
1288.3376258403439
 30
0.0
  0
VERTEX
  5
9AF28
  8
OUTLINE
 10
-271.10553720872838
 20
1288.447548091855
 30
0.0
  0
VERTEX
  5
9AF29
  8
OUTLINE
 10
-271.3216457095441
 20
1288.5292276933919
 30
0.0
  0
VERTEX
  5
9AF2A
  8
OUTLINE
 10
-271.55613709748098
 20
1288.579525743671
 30
0.0
  0
VERTEX
  5
9AF2B
  8
OUTLINE
 10
-271.80000000000291
 20
1288.596509316827
 30
0.0
  0
VERTEX
  5
9AF2C
  8
OUTLINE
 10
-272.04386290251932
 20
1288.579525743671
 30
0.0
  0
VERTEX
  5
9AF2D
  8
OUTLINE
 10
-272.27835429045808
 20
1288.5292276933919
 30
0.0
  0
VERTEX
  5
9AF2E
  8
OUTLINE
 10
-272.49446279127369
 20
1288.447548091855
 30
0.0
  0
VERTEX
  5
9AF2F
  8
OUTLINE
 10
-272.68388347648568
 20
1288.3376258403439
 30
0.0
  0
VERTEX
  5
9AF30
  8
OUTLINE
 10
-272.83933701537887
 20
1288.2036851893349
 30
0.0
  0
VERTEX
  5
9AF31
  8
OUTLINE
 10
-272.95484941564058
 20
1288.0508734029349
 30
0.0
  0
VERTEX
  5
9AF32
  8
OUTLINE
 10
-273.02598160050542
 20
1287.8850629523949
 30
0.0
  0
VERTEX
  5
9AF33
  8
OUTLINE
 10
-273.05000000000291
 20
1287.7126258403439
 30
0.0
  0
VERTEX
  5
9AF34
  8
OUTLINE
 10
-273.02598160050542
 20
1287.540188728291
 30
0.0
  0
VERTEX
  5
9AF35
  8
OUTLINE
 10
-272.95484941564058
 20
1287.3743782777519
 30
0.0
  0
VERTEX
  5
9AF36
  8
OUTLINE
 10
-272.83933701537887
 20
1287.2215664913531
 30
0.0
  0
VERTEX
  5
9AF37
  8
OUTLINE
 10
-272.68388347648568
 20
1287.0876258403439
 30
0.0
  0
VERTEX
  5
9AF38
  8
OUTLINE
 10
-272.49446279127369
 20
1286.9777035888319
 30
0.0
  0
VERTEX
  5
9AF39
  8
OUTLINE
 10
-272.27835429045808
 20
1286.896023987297
 30
0.0
  0
VERTEX
  5
9AF3A
  8
OUTLINE
 10
-272.04386290251932
 20
1286.845725937018
 30
0.0
  0
VERTEX
  5
9AF3B
  8
OUTLINE
 10
-271.80000000000291
 20
1286.828742363861
 30
0.0
  0
VERTEX
  5
9AF3C
  8
OUTLINE
 10
-271.55613709748098
 20
1286.845725937018
 30
0.0
  0
VERTEX
  5
9AF3D
  8
OUTLINE
 10
-271.3216457095441
 20
1286.896023987297
 30
0.0
  0
VERTEX
  5
9AF3E
  8
OUTLINE
 10
-271.10553720872838
 20
1286.9777035888319
 30
0.0
  0
VERTEX
  5
9AF3F
  8
OUTLINE
 10
-270.91611652351639
 20
1287.0876258403439
 30
0.0
  0
VERTEX
  5
9AF40
  8
OUTLINE
 10
-270.76066298462308
 20
1287.2215664913531
 30
0.0
  0
VERTEX
  5
9AF41
  8
OUTLINE
 10
-270.64515058436149
 20
1287.3743782777519
 30
0.0
  0
VERTEX
  5
9AF42
  8
OUTLINE
 10
-270.57401839949489
 20
1287.540188728291
 30
0.0
  0
VERTEX
  5
9AF43
  8
OUTLINE
 10
-270.55000000000291
 20
1287.7126258403439
 30
0.0
  0
SEQEND
  5
9AF44
  8
OUTLINE
  0
LINE
  5
9AB1B
  8
OUTLINE
 10
-274.80000000000291
 20
1285.5999999999999
 30
0.0
 11
-274.80000000000291
 21
1290.650000000001
 31
0.0
  0
LINE
  5
9AB1C
  8
OUTLINE
 10
-267.80000000000291
 20
1288.8000000000011
 30
0.0
 11
-267.80000000000291
 21
1290.650000000001
 31
0.0
  0
LINE
  5
9AB1D
  8
OUTLINE
 10
-274.5
 20
1301.3000000000011
 30
0.0
 11
-266.66602540378511
 21
1301.3000000000011
 31
0.0
  0
LINE
  5
9AB1E
  8
OUTLINE
 10
-268.10000000000213
 20
1285.3000000000011
 30
0.0
 11
-274.5
 21
1285.3000000000011
 31
0.0
  0
ARC
  5
9AB1F
  8
OUTLINE
 10
-274.5
 20
1301.0
 30
0.0
 40
0.2999999999997272
 50
90.0
 51
180.00000000010419
  0
ARC
  5
9AB20
  8
OUTLINE
 10
-274.5
 20
1285.600000000004
 30
0.0
 40
0.3000000000029104
 50
180.0000000004168
 51
269.99999999963518
  0
LINE
  5
9AB21
  8
OUTLINE
 10
-267.80000000000291
 20
1295.95
 30
0.0
 11
-267.80000000000291
 21
1297.8000000000011
 31
0.0
  0
LINE
  5
9AB22
  8
OUTLINE
 10
-274.80000000000291
 20
1295.95
 30
0.0
 11
-274.80000000000291
 21
1301.0
 31
0.0
  0
LINE
  5
9AB23
  8
OUTLINE
 10
-265.79999999999922
 20
1298.954700538379
 30
0.0
 11
-265.79999999999922
 21
1300.8000000000011
 31
0.0
  0
LINE
  5
9AB24
  8
OUTLINE
 10
-265.79999999999922
 20
1300.8000000000011
 30
0.0
 11
-266.66602540378511
 21
1301.3000000000011
 31
0.0
  0
LINE
  5
9AB25
  8
OUTLINE
 10
-267.80000000000291
 20
1297.8000000000011
 30
0.0
 11
-265.79999999999922
 21
1298.954700538379
 31
0.0
  0
LINE
  5
9AB26
  8
OUTLINE
 10
-266.66602540378511
 20
1285.3000000000011
 30
0.0
 11
-274.5
 21
1285.3000000000011
 31
0.0
  0
LINE
  5
9AB27
  8
OUTLINE
 10
-265.79999999999922
 20
1287.645299461622
 30
0.0
 11
-265.79999999999922
 21
1285.8000000000011
 31
0.0
  0
LINE
  5
9AB28
  8
OUTLINE
 10
-265.79999999999922
 20
1285.8000000000011
 30
0.0
 11
-266.66602540378511
 21
1285.3000000000011
 31
0.0
  0
LINE
  5
9AB29
  8
OUTLINE
 10
-267.80000000000291
 20
1288.8000000000011
 30
0.0
 11
-265.79999999999922
 21
1287.645299461622
 31
0.0
  0
POLYLINE
  5
9AB2A
  8
OUTLINE
 66
     1
 10
0.0
 20
0.0
 30
0.0
  0
VERTEX
  5
9AF45
  8
OUTLINE
 10
-270.30000000000291
 20
1298.8565276927229
 30
0.0
  0
VERTEX
  5
9AF46
  8
OUTLINE
 10
-270.32882207939468
 20
1299.063452227186
 30
0.0
  0
VERTEX
  5
9AF47
  8
OUTLINE
 10
-270.41418070123291
 20
1299.2624247678341
 30
0.0
  0
VERTEX
  5
9AF48
  8
OUTLINE
 10
-270.55279558154689
 20
1299.445798911514
 30
0.0
  0
VERTEX
  5
9AF49
  8
OUTLINE
 10
-270.739339828222
 20
1299.6065276927241
 30
0.0
  0
VERTEX
  5
9AF4A
  8
OUTLINE
 10
-270.96664465047058
 20
1299.7384343945389
 30
0.0
  0
VERTEX
  5
9AF4B
  8
OUTLINE
 10
-271.22597485145519
 20
1299.8364499163811
 30
0.0
  0
VERTEX
  5
9AF4C
  8
OUTLINE
 10
-271.50736451697588
 20
1299.896807576715
 30
0.0
  0
VERTEX
  5
9AF4D
  8
OUTLINE
 10
-271.80000000000291
 20
1299.9171878645041
 30
0.0
  0
VERTEX
  5
9AF4E
  8
OUTLINE
 10
-272.09263548302619
 20
1299.896807576715
 30
0.0
  0
VERTEX
  5
9AF4F
  8
OUTLINE
 10
-272.37402514854688
 20
1299.8364499163811
 30
0.0
  0
VERTEX
  5
9AF50
  8
OUTLINE
 10
-272.63335534953143
 20
1299.7384343945389
 30
0.0
  0
VERTEX
  5
9AF51
  8
OUTLINE
 10
-272.86066017178013
 20
1299.6065276927241
 30
0.0
  0
VERTEX
  5
9AF52
  8
OUTLINE
 10
-273.04720441845529
 20
1299.445798911514
 30
0.0
  0
VERTEX
  5
9AF53
  8
OUTLINE
 10
-273.1858192987674
 20
1299.2624247678341
 30
0.0
  0
VERTEX
  5
9AF54
  8
OUTLINE
 10
-273.27117792060562
 20
1299.063452227186
 30
0.0
  0
VERTEX
  5
9AF55
  8
OUTLINE
 10
-273.29999999999922
 20
1298.8565276927229
 30
0.0
  0
VERTEX
  5
9AF56
  8
OUTLINE
 10
-273.27117792060562
 20
1298.649603158261
 30
0.0
  0
VERTEX
  5
9AF57
  8
OUTLINE
 10
-273.1858192987674
 20
1298.4506306176129
 30
0.0
  0
VERTEX
  5
9AF58
  8
OUTLINE
 10
-273.04720441845529
 20
1298.267256473933
 30
0.0
  0
VERTEX
  5
9AF59
  8
OUTLINE
 10
-272.86066017178013
 20
1298.1065276927229
 30
0.0
  0
VERTEX
  5
9AF5A
  8
OUTLINE
 10
-272.63335534953143
 20
1297.974620990909
 30
0.0
  0
VERTEX
  5
9AF5B
  8
OUTLINE
 10
-272.37402514854688
 20
1297.876605469067
 30
0.0
  0
VERTEX
  5
9AF5C
  8
OUTLINE
 10
-272.09263548302619
 20
1297.816247808732
 30
0.0
  0
VERTEX
  5
9AF5D
  8
OUTLINE
 10
-271.80000000000291
 20
1297.7958675209441
 30
0.0
  0
VERTEX
  5
9AF5E
  8
OUTLINE
 10
-271.50736451697588
 20
1297.816247808732
 30
0.0
  0
VERTEX
  5
9AF5F
  8
OUTLINE
 10
-271.22597485145519
 20
1297.876605469067
 30
0.0
  0
VERTEX
  5
9AF60
  8
OUTLINE
 10
-270.96664465047058
 20
1297.974620990909
 30
0.0
  0
VERTEX
  5
9AF61
  8
OUTLINE
 10
-270.739339828222
 20
1298.1065276927229
 30
0.0
  0
VERTEX
  5
9AF62
  8
OUTLINE
 10
-270.55279558154689
 20
1298.267256473933
 30
0.0
  0
VERTEX
  5
9AF63
  8
OUTLINE
 10
-270.41418070123291
 20
1298.4506306176129
 30
0.0
  0
VERTEX
  5
9AF64
  8
OUTLINE
 10
-270.32882207939468
 20
1298.649603158261
 30
0.0
  0
VERTEX
  5
9AF65
  8
OUTLINE
 10
-270.30000000000291
 20
1298.8565276927229
 30
0.0
  0
SEQEND
  5
9AF66
  8
OUTLINE
  0
POLYLINE
  5
9AB2B
  8
OUTLINE
 66
     1
 10
0.0
 20
0.0
 30
0.0
  0
VERTEX
  5
9AF67
  8
OUTLINE
 10
-270.55000000000291
 20
1298.8873741596581
 30
0.0
  0
VERTEX
  5
9AF68
  8
OUTLINE
 10
-270.57401839949489
 20
1299.0598112717089
 30
0.0
  0
VERTEX
  5
9AF69
  8
OUTLINE
 10
-270.64515058436149
 20
1299.2256217222489
 30
0.0
  0
VERTEX
  5
9AF6A
  8
OUTLINE
 10
-270.76066298462308
 20
1299.3784335086491
 30
0.0
  0
VERTEX
  5
9AF6B
  8
OUTLINE
 10
-270.91611652351639
 20
1299.5123741596581
 30
0.0
  0
VERTEX
  5
9AF6C
  8
OUTLINE
 10
-271.10553720872838
 20
1299.6222964111689
 30
0.0
  0
VERTEX
  5
9AF6D
  8
OUTLINE
 10
-271.3216457095441
 20
1299.7039760127041
 30
0.0
  0
VERTEX
  5
9AF6E
  8
OUTLINE
 10
-271.55613709748098
 20
1299.7542740629831
 30
0.0
  0
VERTEX
  5
9AF6F
  8
OUTLINE
 10
-271.80000000000291
 20
1299.7712576361409
 30
0.0
  0
VERTEX
  5
9AF70
  8
OUTLINE
 10
-272.04386290251932
 20
1299.7542740629831
 30
0.0
  0
VERTEX
  5
9AF71
  8
OUTLINE
 10
-272.27835429045808
 20
1299.7039760127041
 30
0.0
  0
VERTEX
  5
9AF72
  8
OUTLINE
 10
-272.49446279127369
 20
1299.6222964111689
 30
0.0
  0
VERTEX
  5
9AF73
  8
OUTLINE
 10
-272.68388347648568
 20
1299.5123741596581
 30
0.0
  0
VERTEX
  5
9AF74
  8
OUTLINE
 10
-272.83933701537887
 20
1299.3784335086491
 30
0.0
  0
VERTEX
  5
9AF75
  8
OUTLINE
 10
-272.95484941564058
 20
1299.2256217222489
 30
0.0
  0
VERTEX
  5
9AF76
  8
OUTLINE
 10
-273.02598160050542
 20
1299.0598112717089
 30
0.0
  0
VERTEX
  5
9AF77
  8
OUTLINE
 10
-273.05000000000291
 20
1298.8873741596581
 30
0.0
  0
VERTEX
  5
9AF78
  8
OUTLINE
 10
-273.02598160050542
 20
1298.714937047605
 30
0.0
  0
VERTEX
  5
9AF79
  8
OUTLINE
 10
-272.95484941564058
 20
1298.5491265970661
 30
0.0
  0
VERTEX
  5
9AF7A
  8
OUTLINE
 10
-272.83933701537887
 20
1298.3963148106659
 30
0.0
  0
VERTEX
  5
9AF7B
  8
OUTLINE
 10
-272.68388347648568
 20
1298.2623741596581
 30
0.0
  0
VERTEX
  5
9AF7C
  8
OUTLINE
 10
-272.49446279127369
 20
1298.1524519081461
 30
0.0
  0
VERTEX
  5
9AF7D
  8
OUTLINE
 10
-272.27835429045808
 20
1298.0707723066089
 30
0.0
  0
VERTEX
  5
9AF7E
  8
OUTLINE
 10
-272.04386290251932
 20
1298.020474256331
 30
0.0
  0
VERTEX
  5
9AF7F
  8
OUTLINE
 10
-271.80000000000291
 20
1298.003490683175
 30
0.0
  0
VERTEX
  5
9AF80
  8
OUTLINE
 10
-271.55613709748098
 20
1298.020474256331
 30
0.0
  0
VERTEX
  5
9AF81
  8
OUTLINE
 10
-271.3216457095441
 20
1298.0707723066089
 30
0.0
  0
VERTEX
  5
9AF82
  8
OUTLINE
 10
-271.10553720872838
 20
1298.1524519081461
 30
0.0
  0
VERTEX
  5
9AF83
  8
OUTLINE
 10
-270.91611652351639
 20
1298.2623741596581
 30
0.0
  0
VERTEX
  5
9AF84
  8
OUTLINE
 10
-270.76066298462308
 20
1298.3963148106659
 30
0.0
  0
VERTEX
  5
9AF85
  8
OUTLINE
 10
-270.64515058436149
 20
1298.5491265970661
 30
0.0
  0
VERTEX
  5
9AF86
  8
OUTLINE
 10
-270.57401839949489
 20
1298.714937047605
 30
0.0
  0
VERTEX
  5
9AF87
  8
OUTLINE
 10
-270.55000000000291
 20
1298.8873741596581
 30
0.0
  0
SEQEND
  5
9AF88
  8
OUTLINE
  0
ARC
  5
9AB2C
  8
OUTLINE
 10
-285.4000000000014
 20
1294.8000000000029
 30
0.0
 40
1.9999999999990901
 50
89.999999999947889
 51
180.0
  0
ARC
  5
9AB2D
  8
OUTLINE
 10
-285.4000000000014
 20
1291.799999999999
 30
0.0
 40
2.0
 50
180.0
 51
270.0
  0
LINE
  5
9AB2E
  8
OUTLINE
 10
-284.80000000000291
 20
1289.8000000000011
 30
0.0
 11
-284.80000000000291
 21
1296.8000000000011
 31
0.0
  0
LINE
  5
9AB2F
  8
OUTLINE
 10
-284.80000000000291
 20
1296.8000000000011
 30
0.0
 11
-285.4000000000014
 21
1296.8000000000011
 31
0.0
  0
LINE
  5
9AB30
  8
OUTLINE
 10
-284.80000000000291
 20
1289.8000000000011
 30
0.0
 11
-285.4000000000014
 21
1289.8000000000011
 31
0.0
  0
LINE
  5
9AB31
  8
OUTLINE
 10
-287.4000000000014
 20
1291.8000000000011
 30
0.0
 11
-287.4000000000014
 21
1294.8000000000011
 31
0.0
  0
LINE
  5
9AB32
  8
OUTLINE
 10
-278.29999999999922
 20
1295.95
 30
0.0
 11
-278.29999999999922
 21
1299.3000000000011
 31
0.0
  0
LINE
  5
9AB33
  8
OUTLINE
 10
-280.79999999999922
 20
1287.3000000000011
 30
0.0
 11
-282.80000000000291
 21
1287.3000000000011
 31
0.0
  0
LINE
  5
9AB34
  8
OUTLINE
 10
-280.79999999999922
 20
1299.3000000000011
 30
0.0
 11
-282.80000000000291
 21
1299.3000000000011
 31
0.0
  0
LINE
  5
9AB35
  8
OUTLINE
 10
-288.80000000000291
 20
1282.3000000000011
 30
0.0
 11
-288.80000000000291
 21
1274.979491924312
 31
0.0
  0
LINE
  5
9AB36
  8
OUTLINE
 10
-283.80000000000291
 20
1287.3000000000011
 30
0.0
 11
-283.80000000000291
 21
1299.3000000000011
 31
0.0
  0
LINE
  5
9AB37
  8
OUTLINE
 10
-274.94999999999891
 20
1290.3000000000011
 30
0.0
 11
-278.29999999999922
 21
1290.3000000000011
 31
0.0
  0
LINE
  5
9AB38
  8
OUTLINE
 10
-280.79999999999922
 20
1282.3000000000011
 30
0.0
 11
-280.79999999999922
 21
1303.3000000000011
 31
0.0
  0
LINE
  5
9AB39
  8
OUTLINE
 10
-278.29999999999922
 20
1287.3000000000011
 30
0.0
 11
-278.29999999999922
 21
1290.650000000001
 31
0.0
  0
LINE
  5
9AB3A
  8
OUTLINE
 10
-278.29999999999922
 20
1287.3000000000011
 30
0.0
 11
-279.80000000000291
 21
1287.3000000000011
 31
0.0
  0
LINE
  5
9AB3B
  8
OUTLINE
 10
-278.29999999999922
 20
1299.3000000000011
 30
0.0
 11
-279.80000000000291
 21
1299.3000000000011
 31
0.0
  0
LINE
  5
9AB3C
  8
OUTLINE
 10
-274.94999999999891
 20
1296.3000000000011
 30
0.0
 11
-278.29999999999922
 21
1296.3000000000011
 31
0.0
  0
ARC
  5
9AB3D
  8
OUTLINE
 10
-298.79999999999558
 20
1274.9794919243079
 30
0.0
 40
11.24999999999271
 50
329.99999999998971
 51
0.0
  0
ARC
  5
9AB3E
  8
OUTLINE
 10
-293.79999999999558
 20
1273.6397459621539
 30
0.0
 40
9.9999999999936087
 50
329.99999999998971
 51
0.0
  0
ARC
  5
9AB3F
  8
OUTLINE
 10
-296.29999999999558
 20
1274.309618943232
 30
0.0
 40
9.9999999999936087
 50
329.99999999998971
 51
0.0
  0
ARC
  5
9AB40
  8
OUTLINE
 10
-298.79999999999558
 20
1274.97949192431
 30
0.0
 40
9.9999999999936087
 50
329.99999999998971
 51
0.0
  0
ARC
  5
9AB41
  8
OUTLINE
 10
-296.29999999999558
 20
1274.3096189432299
 30
0.0
 40
11.24999999999271
 50
329.99999999998971
 51
0.0
  0
LINE
  5
9AB42
  8
OUTLINE
 10
-282.55000000000291
 20
1282.3000000000011
 30
0.0
 11
-282.55000000000291
 21
1273.639745962158
 31
0.0
  0
LINE
  5
9AB43
  8
OUTLINE
 10
-283.80000000000291
 20
1282.3000000000011
 30
0.0
 11
-283.80000000000291
 21
1273.639745962158
 31
0.0
  0
LINE
  5
9AB44
  8
OUTLINE
 10
-285.05000000000291
 20
1282.3000000000011
 30
0.0
 11
-285.05000000000291
 21
1274.309618943234
 31
0.0
  0
LINE
  5
9AB45
  8
OUTLINE
 10
-286.30000000000291
 20
1282.3000000000011
 30
0.0
 11
-286.30000000000291
 21
1274.309618943234
 31
0.0
  0
ARC
  5
9AB46
  8
OUTLINE
 10
-279.79999999999922
 20
1286.3000000000011
 30
0.0
 40
0.9999999999995453
 50
90.000000000104208
 51
180.0
  0
ARC
  5
9AB47
  8
OUTLINE
 10
-282.79999999999922
 20
1286.299999999997
 30
0.0
 40
1.000000000002728
 50
90.000000000156334
 51
179.9999999997915
  0
ARC
  5
9AB48
  8
OUTLINE
 10
-279.79999999999922
 20
1300.299999999999
 30
0.0
 40
1.0
 50
180.0
 51
269.99999999989569
  0
ARC
  5
9AB49
  8
OUTLINE
 10
-282.79999999999922
 20
1300.300000000004
 30
0.0
 40
1.000000000002728
 50
180.00000000010419
 51
269.99999999984362
  0
LINE
  5
9AB4A
  8
OUTLINE
 10
-287.55000000000291
 20
1282.3000000000011
 30
0.0
 11
-287.55000000000291
 21
1274.979491924312
 31
0.0
  0
LINE
  5
9AB4B
  8
OUTLINE
 10
-267.5
 20
1257.149999999999
 30
0.0
 11
-267.5
 21
1231.45
 31
0.0
  0
ARC
  5
9AB4C
  8
OUTLINE
 10
-266.5
 20
1231.45
 30
0.0
 40
1.0
 50
180.0
 51
270.0
  0
ARC
  5
9AB4D
  8
OUTLINE
 10
-266.5
 20
1237.3000000000011
 30
0.0
 40
1.0
 50
180.0
 51
270.0
  0
ARC
  5
9AB4E
  8
OUTLINE
 10
-266.5
 20
1257.150000000001
 30
0.0
 40
0.9999999999995453
 50
90.0
 51
180.0
  0
ARC
  5
9AB4F
  8
OUTLINE
 10
-266.5
 20
1251.299999999999
 30
0.0
 40
1.0000000000004541
 50
90.0
 51
180.0
  0
LINE
  5
9AB50
  8
OUTLINE
 10
-267.5
 20
1329.45
 30
0.0
 11
-267.5
 21
1355.149999999999
 31
0.0
  0
ARC
  5
9AB51
  8
OUTLINE
 10
-266.5
 20
1349.3000000000011
 30
0.0
 40
0.9999999999995453
 50
90.0
 51
180.0
  0
ARC
  5
9AB52
  8
OUTLINE
 10
-266.5
 20
1329.45
 30
0.0
 40
1.0
 50
180.0
 51
270.0
  0
ARC
  5
9AB53
  8
OUTLINE
 10
-266.5
 20
1335.299999999999
 30
0.0
 40
1.0
 50
180.0
 51
270.0
  0
ARC
  5
9AB54
  8
OUTLINE
 10
-266.5
 20
1355.150000000001
 30
0.0
 40
0.9999999999995453
 50
90.0
 51
180.0
  0
LINE
  5
9AB55
  8
OUTLINE
 10
-224.0
 20
1164.0999999999999
 30
0.0
 11
-224.0
 21
1177.5000000000009
 31
0.0
  0
CIRCLE
  5
9AB56
  8
OUTLINE
 10
-173.7436867076467
 20
1169.556313292356
 30
0.0
 40
9.0000000000000604
  0
LINE
  5
9AB57
  8
OUTLINE
 10
-160.09901182538479
 20
1138.451016809687
 30
0.0
 11
-184.3352943643803
 21
1101.1304144747769
 31
0.0
  0
LINE
  5
9AB58
  8
OUTLINE
 10
-223.19999999999891
 20
1163.3000000000011
 30
0.0
 11
-195.19087606936219
 21
1163.3000000000011
 31
0.0
  0
LINE
  5
9AB59
  8
OUTLINE
 10
-223.19999999999891
 20
1163.3000000000011
 30
0.0
 11
-224.0
 21
1164.0999999999999
 31
0.0
  0
LINE
  5
9AB5A
  8
OUTLINE
 10
-237.0
 20
1094.3000000000011
 30
0.0
 11
-196.91535288356309
 21
1094.3000000000011
 31
0.0
  0
ARC
  5
9AB5B
  8
OUTLINE
 10
-196.91535288355951
 20
1109.299999999997
 30
0.0
 40
14.99999999999727
 50
270.0
 51
327.0000000000021
  0
LINE
  5
9AB5C
  8
OUTLINE
 10
-240.0
 20
1087.3000000000011
 30
0.0
 11
-240.0
 21
1093.4113595151171
 31
0.0
  0
ARC
  5
9AB5D
  8
OUTLINE
 10
-237.00000000000909
 20
1093.4113595151171
 30
0.0
 40
2.9999999999909281
 50
146.99999999997371
 51
180.0
  0
ARC
  5
9AB5E
  8
OUTLINE
 10
-237.00000000000179
 20
1091.300000000002
 30
0.0
 40
2.9999999999986362
 50
90.0
 51
180.0
  0
LINE
  5
9AB5F
  8
OUTLINE
 10
-192.431456169179
 20
1167.549134024742
 30
0.0
 11
-239.5160117038358
 21
1095.045276620159
 31
0.0
  0
LINE
  5
9AB60
  8
OUTLINE
 10
-219.04999999999919
 20
1163.3000000000011
 30
0.0
 11
-219.04999999999919
 21
1126.5601709919099
 31
0.0
  0
CIRCLE
  5
9AB61
  8
OUTLINE
 10
-129.4483374544233
 20
1137.3738582670369
 30
0.0
 40
9.0000000000000604
  0
LINE
  5
9AB62
  8
OUTLINE
 10
-170.0
 20
1087.3000000000011
 30
0.0
 11
-170.0
 21
1090.2730147324801
 31
0.0
  0
ARC
  5
9AB63
  8
OUTLINE
 10
-158.00000000003999
 20
1090.273014732491
 30
0.0
 40
11.99999999996097
 50
146.99999999997371
 51
180.0
  0
ARC
  5
9AB64
  8
OUTLINE
 10
-164.0
 20
1087.299999999999
 30
0.0
 40
6.0000000000022728
 50
90.0
 51
180.0
  0
LINE
  5
9AB65
  8
OUTLINE
 10
-146.680282738258
 20
1129.7367922494479
 30
0.0
 11
-168.0640468153469
 21
1096.8086831526589
 31
0.0
  0
ARC
  5
9AB66
  8
OUTLINE
 10
-180.0
 20
1357.299999999999
 30
0.0
 40
3.0
 50
0.0
 51
90.0
  0
ARC
  5
9AB67
  8
OUTLINE
 10
-180.0
 20
1229.299999999999
 30
0.0
 40
2.9999999999986362
 50
270.0
 51
0.0
  0
ARC
  5
9AB68
  8
OUTLINE
 10
-171.22503561260959
 20
1227.3000000000011
 30
0.0
 40
6.0
 50
90.0
 51
167.16041159307329
  0
ARC
  5
9AB69
  8
OUTLINE
 10
-171.22503561260959
 20
1359.299999999999
 30
0.0
 40
5.9999999999989777
 50
192.83958840692659
 51
270.0
  0
CIRCLE
  5
9AB6A
  8
OUTLINE
 10
-205.92614173296531
 20
1372.748337454422
 30
0.0
 40
9.0000000000000604
  0
LINE
  5
9AB6B
  8
OUTLINE
 10
-180.0
 20
1360.3000000000011
 30
0.0
 11
-229.0
 21
1360.3000000000011
 31
0.0
  0
ARC
  5
9AB6C
  8
OUTLINE
 10
-229.0
 20
1357.299999999999
 30
0.0
 40
3.0000000000004539
 50
90.0
 51
180.0
  0
LINE
  5
9AB6D
  8
OUTLINE
 10
-248.80000000000291
 20
1369.3000000000011
 30
0.0
 11
-248.80000000000291
 21
1361.299999999999
 31
0.0
  0
LINE
  5
9AB6E
  8
OUTLINE
 10
-246.80000000000291
 20
1369.3000000000011
 30
0.0
 11
-248.80000000000291
 21
1369.3000000000011
 31
0.0
  0
LINE
  5
9AB6F
  8
OUTLINE
 10
-236.5
 20
1361.299999999999
 30
0.0
 11
-257.5
 21
1361.299999999999
 31
0.0
  0
LINE
  5
9AB70
  8
OUTLINE
 10
-180.0
 20
1226.3000000000011
 30
0.0
 11
-229.0
 21
1226.3000000000011
 31
0.0
  0
CIRCLE
  5
9AB71
  8
OUTLINE
 10
-205.92614173296531
 20
1213.8516625455809
 30
0.0
 40
9.0000000000000604
  0
LINE
  5
9AB72
  8
OUTLINE
 10
-223.19999999999891
 20
1178.3000000000011
 30
0.0
 11
-201.24483462254281
 21
1178.3000000000011
 31
0.0
  0
LINE
  5
9AB73
  8
OUTLINE
 10
-225.196152422708
 20
1178.3000000000011
 30
0.0
 11
-201.24483462254281
 21
1178.3000000000011
 31
0.0
  0
LINE
  5
9AB74
  8
OUTLINE
 10
-230.0
 20
1190.3000000000011
 30
0.0
 11
-230.0
 21
1226.471572875254
 31
0.0
  0
LINE
  5
9AB75
  8
OUTLINE
 10
-230.79999999999919
 20
1190.3000000000011
 30
0.0
 11
-230.79999999999919
 21
1226.899999999999
 31
0.0
  0
LINE
  5
9AB76
  8
OUTLINE
 10
-230.0
 20
1190.3000000000011
 30
0.0
 11
-230.79999999999919
 21
1190.3000000000011
 31
0.0
  0
LINE
  5
9AB77
  8
OUTLINE
 10
-223.19999999999891
 20
1178.3000000000011
 30
0.0
 11
-224.0
 21
1177.5000000000009
 31
0.0
  0
LINE
  5
9AB78
  8
OUTLINE
 10
-230.79999999999919
 20
1190.8000000000011
 30
0.0
 11
-231.30000000000291
 21
1190.3000000000011
 31
0.0
  0
ARC
  5
9AB79
  8
OUTLINE
 10
-233.50000000001091
 20
1185.0084380241069
 30
0.0
 40
6.0000000000100044
 50
0.0
 51
54.314665287292343
  0
LINE
  5
9AB7A
  8
OUTLINE
 10
-227.49999999999989
 20
1181.362177826491
 30
0.0
 11
-227.49999999999989
 21
1185.008438024113
 31
0.0
  0
LINE
  5
9AB7B
  8
OUTLINE
 10
-225.196152422708
 20
1178.3000000000011
 30
0.0
 11
-226.0
 21
1178.764101615139
 31
0.0
  0
ARC
  5
9AB7C
  8
OUTLINE
 10
-224.49999999999631
 20
1181.3621778264951
 30
0.0
 40
3.0000000000054561
 50
180.00000000010419
 51
239.99999999994449
  0
ARC
  5
9AB7D
  8
OUTLINE
 10
-229.0
 20
1229.299999999999
 30
0.0
 40
3.0
 50
180.0
 51
270.0
  0
LINE
  5
9AB7E
  8
OUTLINE
 10
-232.0
 20
1240.799999999999
 30
0.0
 11
-236.5
 21
1240.799999999999
 31
0.0
  0
LINE
  5
9AB7F
  8
OUTLINE
 10
-236.5
 20
1240.799999999999
 30
0.0
 11
-236.5
 21
1225.299999999999
 31
0.0
  0
LINE
  5
9AB80
  8
OUTLINE
 10
-232.0
 20
1345.799999999999
 30
0.0
 11
-236.5
 21
1345.799999999999
 31
0.0
  0
LINE
  5
9AB81
  8
OUTLINE
 10
-246.80000000000291
 20
1225.299999999999
 30
0.0
 11
-246.80000000000291
 21
1191.3000000000011
 31
0.0
  0
LINE
  5
9AB82
  8
OUTLINE
 10
-246.80000000000291
 20
1191.3000000000011
 30
0.0
 11
-245.79999999999919
 21
1190.3000000000011
 31
0.0
  0
LINE
  5
9AB83
  8
OUTLINE
 10
-264.8000000000028
 20
1285.5999999999999
 30
0.0
 11
-264.8000000000028
 21
1290.650000000001
 31
0.0
  0
LINE
  5
9AB84
  8
OUTLINE
 10
-257.80000000000291
 20
1285.5999999999999
 30
0.0
 11
-257.80000000000291
 21
1290.650000000001
 31
0.0
  0
LINE
  5
9AB85
  8
OUTLINE
 10
-258.10000000000213
 20
1301.3000000000011
 30
0.0
 11
-264.5
 21
1301.3000000000011
 31
0.0
  0
LINE
  5
9AB86
  8
OUTLINE
 10
-258.10000000000213
 20
1285.3000000000011
 30
0.0
 11
-264.5
 21
1285.3000000000011
 31
0.0
  0
ARC
  5
9AB87
  8
OUTLINE
 10
-258.10000000000031
 20
1301.0000000000009
 30
0.0
 40
0.2999999999983629
 50
359.9999999996873
 51
90.000000000156334
  0
ARC
  5
9AB88
  8
OUTLINE
 10
-264.5
 20
1301.0
 30
0.0
 40
0.2999999999997272
 50
90.0
 51
180.00000000010419
  0
ARC
  5
9AB89
  8
OUTLINE
 10
-264.5
 20
1285.600000000004
 30
0.0
 40
0.3000000000029104
 50
180.0000000004168
 51
269.99999999963518
  0
ARC
  5
9AB8A
  8
OUTLINE
 10
-258.10000000000031
 20
1285.5999999999981
 30
0.0
 40
0.2999999999983629
 50
269.99999999984362
 51
0.0000000003126612
  0
POLYLINE
  5
9AB8B
  8
OUTLINE
 66
     1
 10
0.0
 20
0.0
 30
0.0
  0
VERTEX
  5
9AF89
  8
OUTLINE
 10
-259.54999999999922
 20
1287.7126258403439
 30
0.0
  0
VERTEX
  5
9AF8A
  8
OUTLINE
 10
-259.57401839949659
 20
1287.8850629523949
 30
0.0
  0
VERTEX
  5
9AF8B
  8
OUTLINE
 10
-259.64515058436149
 20
1288.0508734029349
 30
0.0
  0
VERTEX
  5
9AF8C
  8
OUTLINE
 10
-259.76066298462308
 20
1288.2036851893349
 30
0.0
  0
VERTEX
  5
9AF8D
  8
OUTLINE
 10
-259.91611652351997
 20
1288.3376258403439
 30
0.0
  0
VERTEX
  5
9AF8E
  8
OUTLINE
 10
-260.10553720872849
 20
1288.447548091855
 30
0.0
  0
VERTEX
  5
9AF8F
  8
OUTLINE
 10
-260.3216457095441
 20
1288.5292276933919
 30
0.0
  0
VERTEX
  5
9AF90
  8
OUTLINE
 10
-260.55613709748098
 20
1288.579525743671
 30
0.0
  0
VERTEX
  5
9AF91
  8
OUTLINE
 10
-260.79999999999922
 20
1288.596509316827
 30
0.0
  0
VERTEX
  5
9AF92
  8
OUTLINE
 10
-261.0438629025229
 20
1288.579525743671
 30
0.0
  0
VERTEX
  5
9AF93
  8
OUTLINE
 10
-261.27835429045803
 20
1288.5292276933919
 30
0.0
  0
VERTEX
  5
9AF94
  8
OUTLINE
 10
-261.49446279127727
 20
1288.447548091855
 30
0.0
  0
VERTEX
  5
9AF95
  8
OUTLINE
 10
-261.68388347648579
 20
1288.3376258403439
 30
0.0
  0
VERTEX
  5
9AF96
  8
OUTLINE
 10
-261.83933701537899
 20
1288.2036851893349
 30
0.0
  0
VERTEX
  5
9AF97
  8
OUTLINE
 10
-261.95484941564058
 20
1288.0508734029349
 30
0.0
  0
VERTEX
  5
9AF98
  8
OUTLINE
 10
-262.02598160050542
 20
1287.8850629523949
 30
0.0
  0
VERTEX
  5
9AF99
  8
OUTLINE
 10
-262.04999999999922
 20
1287.7126258403439
 30
0.0
  0
VERTEX
  5
9AF9A
  8
OUTLINE
 10
-262.02598160050542
 20
1287.540188728291
 30
0.0
  0
VERTEX
  5
9AF9B
  8
OUTLINE
 10
-261.95484941564058
 20
1287.3743782777519
 30
0.0
  0
VERTEX
  5
9AF9C
  8
OUTLINE
 10
-261.83933701537899
 20
1287.2215664913531
 30
0.0
  0
VERTEX
  5
9AF9D
  8
OUTLINE
 10
-261.68388347648579
 20
1287.0876258403439
 30
0.0
  0
VERTEX
  5
9AF9E
  8
OUTLINE
 10
-261.49446279127727
 20
1286.9777035888319
 30
0.0
  0
VERTEX
  5
9AF9F
  8
OUTLINE
 10
-261.27835429045803
 20
1286.896023987297
 30
0.0
  0
VERTEX
  5
9AFA0
  8
OUTLINE
 10
-261.0438629025229
 20
1286.845725937018
 30
0.0
  0
VERTEX
  5
9AFA1
  8
OUTLINE
 10
-260.79999999999922
 20
1286.828742363861
 30
0.0
  0
VERTEX
  5
9AFA2
  8
OUTLINE
 10
-260.55613709748098
 20
1286.845725937018
 30
0.0
  0
VERTEX
  5
9AFA3
  8
OUTLINE
 10
-260.3216457095441
 20
1286.896023987297
 30
0.0
  0
VERTEX
  5
9AFA4
  8
OUTLINE
 10
-260.10553720872849
 20
1286.9777035888319
 30
0.0
  0
VERTEX
  5
9AFA5
  8
OUTLINE
 10
-259.91611652351997
 20
1287.0876258403439
 30
0.0
  0
VERTEX
  5
9AFA6
  8
OUTLINE
 10
-259.76066298462308
 20
1287.2215664913531
 30
0.0
  0
VERTEX
  5
9AFA7
  8
OUTLINE
 10
-259.64515058436149
 20
1287.3743782777519
 30
0.0
  0
VERTEX
  5
9AFA8
  8
OUTLINE
 10
-259.57401839949659
 20
1287.540188728291
 30
0.0
  0
VERTEX
  5
9AFA9
  8
OUTLINE
 10
-259.54999999999922
 20
1287.7126258403439
 30
0.0
  0
SEQEND
  5
9AFAA
  8
OUTLINE
  0
POLYLINE
  5
9AB8C
  8
OUTLINE
 66
     1
 10
0.0
 20
0.0
 30
0.0
  0
VERTEX
  5
9AFAB
  8
OUTLINE
 10
-259.30000000000291
 20
1287.7434723072779
 30
0.0
  0
VERTEX
  5
9AFAC
  8
OUTLINE
 10
-259.32882207939832
 20
1287.9503968417409
 30
0.0
  0
VERTEX
  5
9AFAD
  8
OUTLINE
 10
-259.41418070123279
 20
1288.1493693823879
 30
0.0
  0
VERTEX
  5
9AFAE
  8
OUTLINE
 10
-259.55279558154689
 20
1288.332743526068
 30
0.0
  0
VERTEX
  5
9AFAF
  8
OUTLINE
 10
-259.73933982822189
 20
1288.4934723072779
 30
0.0
  0
VERTEX
  5
9AFB0
  8
OUTLINE
 10
-259.9666446504707
 20
1288.6253790090921
 30
0.0
  0
VERTEX
  5
9AFB1
  8
OUTLINE
 10
-260.22597485145519
 20
1288.723394530934
 30
0.0
  0
VERTEX
  5
9AFB2
  8
OUTLINE
 10
-260.50736451697588
 20
1288.7837521912691
 30
0.0
  0
VERTEX
  5
9AFB3
  8
OUTLINE
 10
-260.79999999999922
 20
1288.804132479057
 30
0.0
  0
VERTEX
  5
9AFB4
  8
OUTLINE
 10
-261.09263548302619
 20
1288.7837521912691
 30
0.0
  0
VERTEX
  5
9AFB5
  8
OUTLINE
 10
-261.3740251485487
 20
1288.723394530934
 30
0.0
  0
VERTEX
  5
9AFB6
  8
OUTLINE
 10
-261.63335534953143
 20
1288.6253790090921
 30
0.0
  0
VERTEX
  5
9AFB7
  8
OUTLINE
 10
-261.86066017178018
 20
1288.4934723072779
 30
0.0
  0
VERTEX
  5
9AFB8
  8
OUTLINE
 10
-262.04720441845518
 20
1288.332743526068
 30
0.0
  0
VERTEX
  5
9AFB9
  8
OUTLINE
 10
-262.1858192987674
 20
1288.1493693823879
 30
0.0
  0
VERTEX
  5
9AFBA
  8
OUTLINE
 10
-262.27117792060562
 20
1287.9503968417409
 30
0.0
  0
VERTEX
  5
9AFBB
  8
OUTLINE
 10
-262.30000000000291
 20
1287.7434723072779
 30
0.0
  0
VERTEX
  5
9AFBC
  8
OUTLINE
 10
-262.27117792060562
 20
1287.5365477728151
 30
0.0
  0
VERTEX
  5
9AFBD
  8
OUTLINE
 10
-262.1858192987674
 20
1287.3375752321681
 30
0.0
  0
VERTEX
  5
9AFBE
  8
OUTLINE
 10
-262.04720441845518
 20
1287.154201088488
 30
0.0
  0
VERTEX
  5
9AFBF
  8
OUTLINE
 10
-261.86066017178018
 20
1286.9934723072779
 30
0.0
  0
VERTEX
  5
9AFC0
  8
OUTLINE
 10
-261.63335534953143
 20
1286.8615656054619
 30
0.0
  0
VERTEX
  5
9AFC1
  8
OUTLINE
 10
-261.3740251485487
 20
1286.76355008362
 30
0.0
  0
VERTEX
  5
9AFC2
  8
OUTLINE
 10
-261.09263548302619
 20
1286.703192423287
 30
0.0
  0
VERTEX
  5
9AFC3
  8
OUTLINE
 10
-260.79999999999922
 20
1286.682812135499
 30
0.0
  0
VERTEX
  5
9AFC4
  8
OUTLINE
 10
-260.50736451697588
 20
1286.703192423287
 30
0.0
  0
VERTEX
  5
9AFC5
  8
OUTLINE
 10
-260.22597485145519
 20
1286.76355008362
 30
0.0
  0
VERTEX
  5
9AFC6
  8
OUTLINE
 10
-259.9666446504707
 20
1286.8615656054619
 30
0.0
  0
VERTEX
  5
9AFC7
  8
OUTLINE
 10
-259.73933982822189
 20
1286.9934723072779
 30
0.0
  0
VERTEX
  5
9AFC8
  8
OUTLINE
 10
-259.55279558154689
 20
1287.154201088488
 30
0.0
  0
VERTEX
  5
9AFC9
  8
OUTLINE
 10
-259.41418070123279
 20
1287.3375752321681
 30
0.0
  0
VERTEX
  5
9AFCA
  8
OUTLINE
 10
-259.32882207939832
 20
1287.5365477728151
 30
0.0
  0
VERTEX
  5
9AFCB
  8
OUTLINE
 10
-259.30000000000291
 20
1287.7434723072779
 30
0.0
  0
SEQEND
  5
9AFCC
  8
OUTLINE
  0
POLYLINE
  5
9AB8D
  8
OUTLINE
 66
     1
 10
0.0
 20
0.0
 30
0.0
  0
VERTEX
  5
9AFCD
  8
OUTLINE
 10
-259.30000000000291
 20
1298.8565276927229
 30
0.0
  0
VERTEX
  5
9AFCE
  8
OUTLINE
 10
-259.32882207939832
 20
1299.063452227186
 30
0.0
  0
VERTEX
  5
9AFCF
  8
OUTLINE
 10
-259.41418070123279
 20
1299.2624247678341
 30
0.0
  0
VERTEX
  5
9AFD0
  8
OUTLINE
 10
-259.55279558154689
 20
1299.445798911514
 30
0.0
  0
VERTEX
  5
9AFD1
  8
OUTLINE
 10
-259.73933982822189
 20
1299.6065276927241
 30
0.0
  0
VERTEX
  5
9AFD2
  8
OUTLINE
 10
-259.9666446504707
 20
1299.7384343945389
 30
0.0
  0
VERTEX
  5
9AFD3
  8
OUTLINE
 10
-260.22597485145519
 20
1299.8364499163811
 30
0.0
  0
VERTEX
  5
9AFD4
  8
OUTLINE
 10
-260.50736451697588
 20
1299.896807576715
 30
0.0
  0
VERTEX
  5
9AFD5
  8
OUTLINE
 10
-260.79999999999922
 20
1299.9171878645041
 30
0.0
  0
VERTEX
  5
9AFD6
  8
OUTLINE
 10
-261.09263548302619
 20
1299.896807576715
 30
0.0
  0
VERTEX
  5
9AFD7
  8
OUTLINE
 10
-261.3740251485487
 20
1299.8364499163811
 30
0.0
  0
VERTEX
  5
9AFD8
  8
OUTLINE
 10
-261.63335534953143
 20
1299.7384343945389
 30
0.0
  0
VERTEX
  5
9AFD9
  8
OUTLINE
 10
-261.86066017178018
 20
1299.6065276927241
 30
0.0
  0
VERTEX
  5
9AFDA
  8
OUTLINE
 10
-262.04720441845518
 20
1299.445798911514
 30
0.0
  0
VERTEX
  5
9AFDB
  8
OUTLINE
 10
-262.1858192987674
 20
1299.2624247678341
 30
0.0
  0
VERTEX
  5
9AFDC
  8
OUTLINE
 10
-262.27117792060562
 20
1299.063452227186
 30
0.0
  0
VERTEX
  5
9AFDD
  8
OUTLINE
 10
-262.30000000000291
 20
1298.8565276927229
 30
0.0
  0
VERTEX
  5
9AFDE
  8
OUTLINE
 10
-262.27117792060562
 20
1298.649603158261
 30
0.0
  0
VERTEX
  5
9AFDF
  8
OUTLINE
 10
-262.1858192987674
 20
1298.4506306176129
 30
0.0
  0
VERTEX
  5
9AFE0
  8
OUTLINE
 10
-262.04720441845518
 20
1298.267256473933
 30
0.0
  0
VERTEX
  5
9AFE1
  8
OUTLINE
 10
-261.86066017178018
 20
1298.1065276927229
 30
0.0
  0
VERTEX
  5
9AFE2
  8
OUTLINE
 10
-261.63335534953143
 20
1297.974620990909
 30
0.0
  0
VERTEX
  5
9AFE3
  8
OUTLINE
 10
-261.3740251485487
 20
1297.876605469067
 30
0.0
  0
VERTEX
  5
9AFE4
  8
OUTLINE
 10
-261.09263548302619
 20
1297.816247808732
 30
0.0
  0
VERTEX
  5
9AFE5
  8
OUTLINE
 10
-260.79999999999922
 20
1297.7958675209441
 30
0.0
  0
VERTEX
  5
9AFE6
  8
OUTLINE
 10
-260.50736451697588
 20
1297.816247808732
 30
0.0
  0
VERTEX
  5
9AFE7
  8
OUTLINE
 10
-260.22597485145519
 20
1297.876605469067
 30
0.0
  0
VERTEX
  5
9AFE8
  8
OUTLINE
 10
-259.9666446504707
 20
1297.974620990909
 30
0.0
  0
VERTEX
  5
9AFE9
  8
OUTLINE
 10
-259.73933982822189
 20
1298.1065276927229
 30
0.0
  0
VERTEX
  5
9AFEA
  8
OUTLINE
 10
-259.55279558154689
 20
1298.267256473933
 30
0.0
  0
VERTEX
  5
9AFEB
  8
OUTLINE
 10
-259.41418070123279
 20
1298.4506306176129
 30
0.0
  0
VERTEX
  5
9AFEC
  8
OUTLINE
 10
-259.32882207939832
 20
1298.649603158261
 30
0.0
  0
VERTEX
  5
9AFED
  8
OUTLINE
 10
-259.30000000000291
 20
1298.8565276927229
 30
0.0
  0
SEQEND
  5
9AFEE
  8
OUTLINE
  0
POLYLINE
  5
9AB8E
  8
OUTLINE
 66
     1
 10
0.0
 20
0.0
 30
0.0
  0
VERTEX
  5
9AFEF
  8
OUTLINE
 10
-259.54999999999922
 20
1298.8873741596581
 30
0.0
  0
VERTEX
  5
9AFF0
  8
OUTLINE
 10
-259.57401839949659
 20
1299.0598112717089
 30
0.0
  0
VERTEX
  5
9AFF1
  8
OUTLINE
 10
-259.64515058436149
 20
1299.2256217222489
 30
0.0
  0
VERTEX
  5
9AFF2
  8
OUTLINE
 10
-259.76066298462308
 20
1299.3784335086491
 30
0.0
  0
VERTEX
  5
9AFF3
  8
OUTLINE
 10
-259.91611652351997
 20
1299.5123741596581
 30
0.0
  0
VERTEX
  5
9AFF4
  8
OUTLINE
 10
-260.10553720872849
 20
1299.6222964111689
 30
0.0
  0
VERTEX
  5
9AFF5
  8
OUTLINE
 10
-260.3216457095441
 20
1299.7039760127041
 30
0.0
  0
VERTEX
  5
9AFF6
  8
OUTLINE
 10
-260.55613709748098
 20
1299.7542740629831
 30
0.0
  0
VERTEX
  5
9AFF7
  8
OUTLINE
 10
-260.79999999999922
 20
1299.7712576361409
 30
0.0
  0
VERTEX
  5
9AFF8
  8
OUTLINE
 10
-261.0438629025229
 20
1299.7542740629831
 30
0.0
  0
VERTEX
  5
9AFF9
  8
OUTLINE
 10
-261.27835429045803
 20
1299.7039760127041
 30
0.0
  0
VERTEX
  5
9AFFA
  8
OUTLINE
 10
-261.49446279127727
 20
1299.6222964111689
 30
0.0
  0
VERTEX
  5
9AFFB
  8
OUTLINE
 10
-261.68388347648579
 20
1299.5123741596581
 30
0.0
  0
VERTEX
  5
9AFFC
  8
OUTLINE
 10
-261.83933701537899
 20
1299.3784335086491
 30
0.0
  0
VERTEX
  5
9AFFD
  8
OUTLINE
 10
-261.95484941564058
 20
1299.2256217222489
 30
0.0
  0
VERTEX
  5
9AFFE
  8
OUTLINE
 10
-262.02598160050542
 20
1299.0598112717089
 30
0.0
  0
VERTEX
  5
9AFFF
  8
OUTLINE
 10
-262.04999999999922
 20
1298.8873741596581
 30
0.0
  0
VERTEX
  5
9B000
  8
OUTLINE
 10
-262.02598160050542
 20
1298.714937047605
 30
0.0
  0
VERTEX
  5
9B001
  8
OUTLINE
 10
-261.95484941564058
 20
1298.5491265970661
 30
0.0
  0
VERTEX
  5
9B002
  8
OUTLINE
 10
-261.83933701537899
 20
1298.3963148106659
 30
0.0
  0
VERTEX
  5
9B003
  8
OUTLINE
 10
-261.68388347648579
 20
1298.2623741596581
 30
0.0
  0
VERTEX
  5
9B004
  8
OUTLINE
 10
-261.49446279127727
 20
1298.1524519081461
 30
0.0
  0
VERTEX
  5
9B005
  8
OUTLINE
 10
-261.27835429045803
 20
1298.0707723066089
 30
0.0
  0
VERTEX
  5
9B006
  8
OUTLINE
 10
-261.0438629025229
 20
1298.020474256331
 30
0.0
  0
VERTEX
  5
9B007
  8
OUTLINE
 10
-260.79999999999922
 20
1298.003490683175
 30
0.0
  0
VERTEX
  5
9B008
  8
OUTLINE
 10
-260.55613709748098
 20
1298.020474256331
 30
0.0
  0
VERTEX
  5
9B009
  8
OUTLINE
 10
-260.3216457095441
 20
1298.0707723066089
 30
0.0
  0
VERTEX
  5
9B00A
  8
OUTLINE
 10
-260.10553720872849
 20
1298.1524519081461
 30
0.0
  0
VERTEX
  5
9B00B
  8
OUTLINE
 10
-259.91611652351997
 20
1298.2623741596581
 30
0.0
  0
VERTEX
  5
9B00C
  8
OUTLINE
 10
-259.76066298462308
 20
1298.3963148106659
 30
0.0
  0
VERTEX
  5
9B00D
  8
OUTLINE
 10
-259.64515058436149
 20
1298.5491265970661
 30
0.0
  0
VERTEX
  5
9B00E
  8
OUTLINE
 10
-259.57401839949659
 20
1298.714937047605
 30
0.0
  0
VERTEX
  5
9B00F
  8
OUTLINE
 10
-259.54999999999922
 20
1298.8873741596581
 30
0.0
  0
SEQEND
  5
9B010
  8
OUTLINE
  0
LINE
  5
9AB8F
  8
OUTLINE
 10
-257.80000000000291
 20
1295.95
 30
0.0
 11
-257.80000000000291
 21
1301.0
 31
0.0
  0
LINE
  5
9AB90
  8
OUTLINE
 10
-264.8000000000028
 20
1295.95
 30
0.0
 11
-264.8000000000028
 21
1301.0
 31
0.0
  0
LINE
  5
9AB91
  8
OUTLINE
 10
-257.5
 20
1289.3000000000011
 30
0.0
 11
-257.80000000000291
 21
1289.3000000000011
 31
0.0
  0
LINE
  5
9AB92
  8
OUTLINE
 10
-257.5
 20
1297.3000000000011
 30
0.0
 11
-257.80000000000291
 21
1297.3000000000011
 31
0.0
  0
LINE
  5
9AB93
  8
OUTLINE
 10
-246.80000000000291
 20
1217.3000000000011
 30
0.0
 11
-248.80000000000291
 21
1217.3000000000011
 31
0.0
  0
LINE
  5
9AB94
  8
OUTLINE
 10
-248.80000000000291
 20
1225.299999999999
 30
0.0
 11
-248.80000000000291
 21
1217.3000000000011
 31
0.0
  0
LINE
  5
9AB95
  8
OUTLINE
 10
-231.30000000000291
 20
1190.3000000000011
 30
0.0
 11
-245.79999999999919
 21
1190.3000000000011
 31
0.0
  0
LINE
  5
9AB96
  8
OUTLINE
 10
-236.5
 20
1225.299999999999
 30
0.0
 11
-257.5
 21
1225.299999999999
 31
0.0
  0
LINE
  5
9AB97
  8
OUTLINE
 10
-257.5
 20
1225.299999999999
 30
0.0
 11
-257.5
 21
1361.299999999999
 31
0.0
  0
LINE
  5
9AB98
  8
OUTLINE
 10
-232.0
 20
1229.3000000000011
 30
0.0
 11
-232.0
 21
1357.3000000000011
 31
0.0
  0
LINE
  5
9AB99
  8
OUTLINE
 10
-236.5
 20
1240.799999999999
 30
0.0
 11
-236.5
 21
1361.299999999999
 31
0.0
  0
LINE
  5
9AB9A
  8
OUTLINE
 10
-177.0
 20
1229.3000000000011
 30
0.0
 11
-177.0
 21
1357.3000000000011
 31
0.0
  0
LINE
  5
9AB9B
  8
OUTLINE
 10
-135.6553835020149
 20
1601.0999999999999
 30
0.0
 11
-125.72549319753119
 21
1645.3065110682201
 31
0.0
  0
LINE
  5
9AB9C
  8
OUTLINE
 10
-173.5482167646168
 20
1601.0999999999999
 30
0.0
 11
-161.79822557418441
 21
1653.4093508270589
 31
0.0
  0
CIRCLE
  5
9AB9D
  8
OUTLINE
 10
-173.7436867076467
 20
1417.043686707646
 30
0.0
 40
9.0000000000000604
  0
ARC
  5
9AB9E
  8
OUTLINE
 10
-208.00000000000361
 20
1599.100000000004
 30
0.0
 40
1.9999999999959071
 50
89.999999999947889
 51
180.00000000010419
  0
LINE
  5
9AB9F
  8
OUTLINE
 10
-215.78984914659301
 20
1413.046040472334
 30
0.0
 11
-192.64134706342151
 21
1516.0999999999999
 31
0.0
  0
ARC
  5
9ABA0
  8
OUTLINE
 10
-208.00000000000361
 20
1518.0999999999981
 30
0.0
 40
1.9999999999990901
 50
180.0
 51
270.0
  0
LINE
  5
9ABA1
  8
OUTLINE
 10
-201.24483462254281
 20
1408.3000000000011
 30
0.0
 11
-210.19615242270811
 21
1408.3000000000011
 31
0.0
  0
LINE
  5
9ABA2
  8
OUTLINE
 10
-201.81426803697829
 20
1407.5472232502691
 30
0.0
 11
-209.85599411519061
 21
1407.5472232502691
 31
0.0
  0
POLYLINE
  5
9ABA3
  8
OUTLINE
 66
     1
 10
0.0
 20
0.0
 30
0.0
  0
VERTEX
  5
9B011
  8
OUTLINE
 10
-216.32683316960171
 20
1413.1666605419789
 30
0.0
  0
VERTEX
  5
9B012
  8
OUTLINE
 10
-216.4427529331405
 20
1412.610758420509
 30
0.0
  0
VERTEX
  5
9B013
  8
OUTLINE
 10
-216.556178813782
 20
1412.0543085740021
 30
0.0
  0
VERTEX
  5
9B014
  8
OUTLINE
 10
-216.66710838225839
 20
1411.49732292008
 30
0.0
  0
VERTEX
  5
9B015
  8
OUTLINE
 10
-216.77553926276229
 20
1410.939813387844
 30
0.0
  0
VERTEX
  5
9B016
  8
OUTLINE
 10
-216.8814691330044
 20
1410.3817919176049
 30
0.0
  0
VERTEX
  5
9B017
  8
OUTLINE
 10
-216.9848957242574
 20
1409.8232704606521
 30
0.0
  0
VERTEX
  5
9B018
  8
OUTLINE
 10
-217.08581682140709
 20
1409.2642609789721
 30
0.0
  0
VERTEX
  5
9B019
  8
OUTLINE
 10
-217.18423026300661
 20
1408.70477544501
 30
0.0
  0
VERTEX
  5
9B01A
  8
OUTLINE
 10
-217.28013394130531
 20
1408.1448258414021
 30
0.0
  0
VERTEX
  5
9B01B
  8
OUTLINE
 10
-217.37352580231521
 20
1407.584424160726
 30
0.0
  0
VERTEX
  5
9B01C
  8
OUTLINE
 10
-217.46440384583909
 20
1407.0235824052429
 30
0.0
  0
VERTEX
  5
9B01D
  8
OUTLINE
 10
-217.55276612551819
 20
1406.4623125866381
 30
0.0
  0
VERTEX
  5
9B01E
  8
OUTLINE
 10
-217.638610748876
 20
1405.9006267257621
 30
0.0
  0
VERTEX
  5
9B01F
  8
OUTLINE
 10
-217.72193587736001
 20
1405.3385368523791
 30
0.0
  0
VERTEX
  5
9B020
  8
OUTLINE
 10
-217.802739726374
 20
1404.7760550049061
 30
0.0
  0
VERTEX
  5
9B021
  8
OUTLINE
 10
-217.88102056531889
 20
1404.213193230154
 30
0.0
  0
VERTEX
  5
9B022
  8
OUTLINE
 10
-217.9567767176413
 20
1403.649963583071
 30
0.0
  0
VERTEX
  5
9B023
  8
OUTLINE
 10
-218.0300065608462
 20
1403.086378126485
 30
0.0
  0
VERTEX
  5
9B024
  8
OUTLINE
 10
-218.10070852655909
 20
1402.52244893084
 30
0.0
  0
VERTEX
  5
9B025
  8
OUTLINE
 10
-218.1688811005333
 20
1401.958188073949
 30
0.0
  0
VERTEX
  5
9B026
  8
OUTLINE
 10
-218.23452282270219
 20
1401.3936076407219
 30
0.0
  0
VERTEX
  5
9B027
  8
OUTLINE
 10
-218.2976322872
 20
1400.8287197229199
 30
0.0
  0
VERTEX
  5
9B028
  8
OUTLINE
 10
-218.35820814239921
 20
1400.263536418882
 30
0.0
  0
VERTEX
  5
9B029
  8
OUTLINE
 10
-218.41624909092559
 20
1399.6980698332791
 30
0.0
  0
VERTEX
  5
9B02A
  8
OUTLINE
 10
-218.4717538897093
 20
1399.1323320768461
 30
0.0
  0
VERTEX
  5
9B02B
  8
OUTLINE
 10
-218.52472134998419
 20
1398.5663352661261
 30
0.0
  0
VERTEX
  5
9B02C
  8
OUTLINE
 10
-218.57515033733759
 20
1398.000091523214
 30
0.0
  0
VERTEX
  5
9B02D
  8
OUTLINE
 10
-218.62303977171899
 20
1397.4336129754879
 30
0.0
  0
VERTEX
  5
9B02E
  8
OUTLINE
 10
-218.66838862746579
 20
1396.8669117553579
 30
0.0
  0
VERTEX
  5
9B02F
  8
OUTLINE
 10
-218.71119593333421
 20
1396.3000000000011
 30
0.0
  0
SEQEND
  5
9B030
  8
OUTLINE
  0
LINE
  5
9ABA4
  8
OUTLINE
 10
-230.0
 20
1396.3000000000011
 30
0.0
 11
-230.79999999999919
 21
1396.3000000000011
 31
0.0
  0
LINE
  5
9ABA5
  8
OUTLINE
 10
-230.79999999999919
 20
1395.8000000000011
 30
0.0
 11
-231.30000000000291
 21
1396.3000000000011
 31
0.0
  0
LINE
  5
9ABA6
  8
OUTLINE
 10
-217.5
 20
1396.3000000000011
 30
0.0
 11
-230.0
 21
1396.3000000000011
 31
0.0
  0
ARC
  5
9ABA7
  8
OUTLINE
 10
-217.50000000000361
 20
1402.300000000002
 30
0.0
 40
6.0000000000022728
 50
270.0
 51
0.0
  0
LINE
  5
9ABA8
  8
OUTLINE
 10
-210.5355555301575
 20
1396.3000000000011
 30
0.0
 11
-217.5
 21
1396.3000000000011
 31
0.0
  0
ARC
  5
9ABA9
  8
OUTLINE
 10
-208.50000000000179
 20
1405.8151724427
 30
0.0
 40
2.9999999999994329
 50
124.0779684093359
 51
180.0
  0
LINE
  5
9ABAA
  8
OUTLINE
 10
-211.5
 20
1402.3000000000011
 30
0.0
 11
-211.5
 21
1405.8151724427
 31
0.0
  0
LINE
  5
9ABAB
  8
OUTLINE
 10
-246.80000000000291
 20
1395.3000000000011
 30
0.0
 11
-245.79999999999919
 21
1396.3000000000011
 31
0.0
  0
LINE
  5
9ABAC
  8
OUTLINE
 10
-231.30000000000291
 20
1396.3000000000011
 30
0.0
 11
-245.79999999999919
 21
1396.3000000000011
 31
0.0
  0
LINE
  5
9ABAD
  8
OUTLINE
 10
-210.00000000000361
 20
1518.0999999999999
 30
0.0
 11
-210.00000000000361
 21
1599.0999999999999
 31
0.0
  0
CIRCLE
  5
9ABAE
  8
OUTLINE
 10
-129.44833745442151
 20
1449.2261417329639
 30
0.0
 40
9.0000000000000604
  0
LINE
  5
9ABAF
  8
OUTLINE
 10
-148.00000000000361
 20
1493.3000000000011
 30
0.0
 11
-148.00000000000361
 21
1494.0999999999999
 31
0.0
  0
LINE
  5
9ABB0
  8
OUTLINE
 10
-148.00000000000361
 20
1494.0999999999999
 30
0.0
 11
-148.00000000000361
 21
1516.0999999999999
 31
0.0
  0
CIRCLE
  5
9ABB1
  8
OUTLINE
 10
-104.0779740156176
 20
1459.734890351654
 30
0.0
 40
5.0
  0
CIRCLE
  5
9ABB2
  8
OUTLINE
 10
-104.0779740156176
 20
1459.734890351654
 30
0.0
 40
5.9999999999999396
  0
LINE
  5
9ABB3
  8
OUTLINE
 10
-171.5795604041686
 20
1441.170486667429
 30
0.0
 11
-154.74851380081961
 21
1516.0999999999999
 31
0.0
  0
LINE
  5
9ABB4
  8
OUTLINE
 10
-152.0
 20
1453.5997192761131
 30
0.0
 11
-152.0
 21
1488.794446500536
 31
0.0
  0
ARC
  5
9ABB5
  8
OUTLINE
 10
-149.0000000000054
 20
1488.794446500538
 30
0.0
 40
2.9999999999952158
 50
119.9999999999651
 51
180.0
  0
ARC
  5
9ABB6
  8
OUTLINE
 10
29.999999999767169
 20
1293.300000000193
 30
0.0
 40
249.99999999969961
 50
136.71898799754149
 51
145.0847937525279
  0
LINE
  5
9ABB7
  8
OUTLINE
 10
-150.5
 20
1491.39252271189
 30
0.0
 11
-147.19615242270811
 21
1493.3000000000029
 31
0.0
  0
POLYLINE
  5
9ABB8
  8
OUTLINE
 66
     1
 10
0.0
 20
0.0
 30
0.0
  0
VERTEX
  5
9B031
  8
OUTLINE
 10
-100.0
 20
1681.2497845654341
 30
0.0
  0
VERTEX
  5
9B032
  8
OUTLINE
 10
-101.0121466092386
 20
1681.206486608316
 30
0.0
  0
VERTEX
  5
9B033
  8
OUTLINE
 10
-102.0232104761198
 20
1681.076639054889
 30
0.0
  0
VERTEX
  5
9B034
  8
OUTLINE
 10
-103.03211001653101
 20
1680.8603808093831
 30
0.0
  0
VERTEX
  5
9B035
  8
OUTLINE
 10
-104.0377659616678
 20
1680.557943213742
 30
0.0
  0
VERTEX
  5
9B036
  8
OUTLINE
 10
-105.03910251254629
 20
1680.1696498001429
 30
0.0
  0
VERTEX
  5
9B037
  8
OUTLINE
 10
-106.03504849084121
 20
1679.6959159449029
 30
0.0
  0
VERTEX
  5
9B038
  8
OUTLINE
 10
-107.02453848479669
 20
1679.1372484241219
 30
0.0
  0
VERTEX
  5
9B039
  8
OUTLINE
 10
-108.00651398893019
 20
1678.494244871566
 30
0.0
  0
VERTEX
  5
9B03A
  8
OUTLINE
 10
-108.97992453637561
 20
1677.767593139353
 30
0.0
  0
VERTEX
  5
9B03B
  8
OUTLINE
 10
-109.94372882261629
 20
1676.9580705621131
 30
0.0
  0
VERTEX
  5
9B03C
  8
OUTLINE
 10
-110.89689581942
 20
1676.066543125449
 30
0.0
  0
VERTEX
  5
9B03D
  8
OUTLINE
 10
-111.8384058777774
 20
1675.0939645395331
 30
0.0
  0
VERTEX
  5
9B03E
  8
OUTLINE
 10
-112.7672518186755
 20
1674.041375218897
 30
0.0
  0
VERTEX
  5
9B03F
  8
OUTLINE
 10
-113.6824400105215
 20
1672.9099011694341
 30
0.0
  0
VERTEX
  5
9B040
  8
OUTLINE
 10
-114.58299143207471
 20
1671.7007527838589
 30
0.0
  0
VERTEX
  5
9B041
  8
OUTLINE
 10
-115.4679427197661
 20
1670.415223546901
 30
0.0
  0
VERTEX
  5
9B042
  8
OUTLINE
 10
-116.3363471982447
 20
1669.054688651587
 30
0.0
  0
VERTEX
  5
9B043
  8
OUTLINE
 10
-117.1872758930803
 20
1667.6206035281459
 30
0.0
  0
VERTEX
  5
9B044
  8
OUTLINE
 10
-118.0198185245426
 20
1666.114502287051
 30
0.0
  0
VERTEX
  5
9B045
  8
OUTLINE
 10
-118.83308448135899
 20
1664.5379960779101
 30
0.0
  0
VERTEX
  5
9B046
  8
OUTLINE
 10
-119.62620377345949
 20
1662.8927713659459
 30
0.0
  0
VERTEX
  5
9B047
  8
OUTLINE
 10
-120.3983279626336
 20
1661.1805881279049
 30
0.0
  0
VERTEX
  5
9B048
  8
OUTLINE
 10
-121.1486310701566
 20
1659.403277969308
 30
0.0
  0
VERTEX
  5
9B049
  8
OUTLINE
 10
-121.87631046036761
 20
1657.562742165115
 30
0.0
  0
VERTEX
  5
9B04A
  8
OUTLINE
 10
-122.58058769929811
 20
1655.6609496258241
 30
0.0
  0
VERTEX
  5
9B04B
  8
OUTLINE
 10
-123.2607093873975
 20
1653.6999347912349
 30
0.0
  0
VERTEX
  5
9B04C
  8
OUTLINE
 10
-123.9159479654808
 20
1651.6817954541129
 30
0.0
  0
VERTEX
  5
9B04D
  8
OUTLINE
 10
-124.54560249303169
 20
1649.6086905160771
 30
0.0
  0
VERTEX
  5
9B04E
  8
OUTLINE
 10
-125.1489993980358
 20
1647.4828376781199
 30
0.0
  0
VERTEX
  5
9B04F
  8
OUTLINE
 10
-125.72549319753119
 20
1645.3065110682201
 30
0.0
  0
SEQEND
  5
9B050
  8
OUTLINE
  0
POLYLINE
  5
9ABB9
  8
OUTLINE
 66
     1
 10
0.0
 20
0.0
 30
0.0
  0
VERTEX
  5
9B051
  8
OUTLINE
 10
-100.0000003619643
 20
1719.349784565434
 30
0.0
  0
VERTEX
  5
9B052
  8
OUTLINE
 10
-102.55054524464499
 20
1719.2685416445549
 30
0.0
  0
VERTEX
  5
9B053
  8
OUTLINE
 10
-105.0976090007097
 20
1719.024923812889
 30
0.0
  0
VERTEX
  5
9B054
  8
OUTLINE
 10
-107.6377152552777
 20
1718.6192635736679
 30
0.0
  0
VERTEX
  5
9B055
  8
OUTLINE
 10
-110.1673971294512
 20
1718.0521145946379
 30
0.0
  0
VERTEX
  5
9B056
  8
OUTLINE
 10
-112.6832019721077
 20
1717.3242509524109
 30
0.0
  0
VERTEX
  5
9B057
  8
OUTLINE
 10
-115.18169607227711
 20
1716.436666075937
 30
0.0
  0
VERTEX
  5
9B058
  8
OUTLINE
 10
-117.6594693456499
 20
1715.3905713906349
 30
0.0
  0
VERTEX
  5
9B059
  8
OUTLINE
 10
-120.11313998886899
 20
1714.1873946649609
 30
0.0
  0
VERTEX
  5
9B05A
  8
OUTLINE
 10
-122.53935909518439
 20
1712.828778061717
 30
0.0
  0
VERTEX
  5
9B05B
  8
OUTLINE
 10
-124.9348152252405
 20
1711.3165758967291
 30
0.0
  0
VERTEX
  5
9B05C
  8
OUTLINE
 10
-127.2962389267104
 20
1709.6528521079781
 30
0.0
  0
VERTEX
  5
9B05D
  8
OUTLINE
 10
-129.62040719662389
 20
1707.8398774386219
 30
0.0
  0
VERTEX
  5
9B05E
  8
OUTLINE
 10
-131.9041478803083
 20
1705.8801263377529
 30
0.0
  0
VERTEX
  5
9B05F
  8
OUTLINE
 10
-134.14434400091699
 20
1703.776273583142
 30
0.0
  0
VERTEX
  5
9B060
  8
OUTLINE
 10
-136.33793801365391
 20
1701.531190630539
 30
0.0
  0
VERTEX
  5
9B061
  8
OUTLINE
 10
-138.48193597888891
 20
1699.1479416945581
 30
0.0
  0
VERTEX
  5
9B062
  8
OUTLINE
 10
-140.57341164843811
 20
1696.6297795664721
 30
0.0
  0
VERTEX
  5
9B063
  8
OUTLINE
 10
-142.60951045948599
 20
1693.980141174605
 30
0.0
  0
VERTEX
  5
9B064
  8
OUTLINE
 10
-144.58745343064939
 20
1691.202642893433
 30
0.0
  0
VERTEX
  5
9B065
  8
OUTLINE
 10
-146.50454095487831
 20
1688.301075607752
 30
0.0
  0
VERTEX
  5
9B066
  8
OUTLINE
 10
-148.35815648403869
 20
1685.279399538663
 30
0.0
  0
VERTEX
  5
9B067
  8
OUTLINE
 10
-150.14577010011999
 20
1682.141738838448
 30
0.0
  0
VERTEX
  5
9B068
  8
OUTLINE
 10
-151.8649419682078
 20
1678.892375961688
 30
0.0
  0
VERTEX
  5
9B069
  8
OUTLINE
 10
-153.51332566651391
 20
1675.5357458203321
 30
0.0
  0
VERTEX
  5
9B06A
  8
OUTLINE
 10
-155.0886713888921
 20
1672.076429730688
 30
0.0
  0
VERTEX
  5
9B06B
  8
OUTLINE
 10
-156.5888290155053
 20
1668.5191491605819
 30
0.0
  0
VERTEX
  5
9B06C
  8
OUTLINE
 10
-158.01175104743371
 20
1664.868759285227
 30
0.0
  0
VERTEX
  5
9B06D
  8
OUTLINE
 10
-159.3554954012088
 20
1661.130242360628
 30
0.0
  0
VERTEX
  5
9B06E
  8
OUTLINE
 10
-160.61822805948029
 20
1657.3087009235021
 30
0.0
  0
VERTEX
  5
9B06F
  8
OUTLINE
 10
-161.79822557418441
 20
1653.409350827056
 30
0.0
  0
SEQEND
  5
9B070
  8
OUTLINE
  0
LINE
  5
9ABBA
  8
OUTLINE
 10
130.79999999999919
 20
1396.3000000000011
 30
0.0
 11
130.79999999999919
 21
1359.700000000001
 31
0.0
  0
LINE
  5
9ABBB
  8
OUTLINE
 10
130.0
 20
1396.3000000000011
 30
0.0
 11
130.0
 21
1360.1284271247471
 31
0.0
  0
LINE
  5
9ABBC
  8
OUTLINE
 10
146.79999999999919
 20
1395.3000000000011
 30
0.0
 11
146.80000000000101
 21
1357.299999999999
 31
0.0
  0
LINE
  5
9ABBD
  8
OUTLINE
 10
130.79999999999919
 20
1395.8000000000011
 30
0.0
 11
130.79999999999919
 21
1359.700000000001
 31
0.0
  0
LINE
  5
9ABBE
  8
OUTLINE
 10
130.0
 20
1396.718164803485
 30
0.0
 11
130.0
 21
1360.1284271247471
 31
0.0
  0
ARC
  5
9ABBF
  8
OUTLINE
 10
-50.000000000003638
 20
1293.299999999997
 30
0.0
 40
157.00000000000421
 50
25.261583961445179
 51
90.0
  0
LINE
  5
9ABC0
  8
OUTLINE
 10
79.999999999996362
 20
1360.3000000000011
 30
0.0
 11
128.99999999999631
 21
1360.3000000000011
 31
0.0
  0
LINE
  5
9ABC1
  8
OUTLINE
 10
79.999999999996362
 20
1226.3000000000011
 30
0.0
 11
128.99999999999631
 21
1226.3000000000011
 31
0.0
  0
ARC
  5
9ABC2
  8
OUTLINE
 10
96.91535288355773
 20
1109.299999999995
 30
0.0
 40
14.99999999999527
 50
212.9999999999977
 51
270.0
  0
ARC
  5
9ABC3
  8
OUTLINE
 10
-50.0
 20
1293.299999999997
 30
0.0
 40
156.99999999999639
 50
270.0
 51
334.73841603855482
  0
CIRCLE
  5
9ABC4
  8
OUTLINE
 10
73.743686707643064
 20
1169.556313292356
 30
0.0
 40
8.9999999999997691
  0
LINE
  5
9ABC5
  8
OUTLINE
 10
-7.0999999999985439
 20
1015.000000000001
 30
0.0
 11
13.099999999998539
 21
1015.000000000001
 31
0.0
  0
LINE
  5
9ABC6
  8
OUTLINE
 10
9.9000000000014552
 20
1011.800000000002
 30
0.0
 11
-7.0999999999985439
 21
1011.800000000002
 31
0.0
  0
CIRCLE
  5
9ABC7
  8
OUTLINE
 10
4.077974015614017
 20
1126.86510964835
 30
0.0
 40
5.9999999999999396
  0
CIRCLE
  5
9ABC8
  8
OUTLINE
 10
4.077974015614017
 20
1126.86510964835
 30
0.0
 40
5.0
  0
ARC
  5
9ABC9
  8
OUTLINE
 10
-50.0
 20
1293.299999999917
 30
0.0
 40
132.5999999999176
 50
265.24148796316632
 51
274.75851203683351
  0
LINE
  5
9ABCA
  8
OUTLINE
 10
-61.0
 20
1154.7
 30
0.0
 11
-61.0
 21
1139.5079325842851
 31
0.0
  0
LINE
  5
9ABCB
  8
OUTLINE
 10
-39.0
 20
1154.7
 30
0.0
 11
-39.0
 21
1139.5079325842851
 31
0.0
  0
ARC
  5
9ABCC
  8
OUTLINE
 10
-33.000000000001812
 20
1154.7
 30
0.0
 40
5.9999999999990896
 50
90.0
 51
180.0
  0
ARC
  5
9ABCD
  8
OUTLINE
 10
-67.000000000003638
 20
1154.6999999999971
 30
0.0
 40
6.0000000000018181
 50
0.0
 51
90.0
  0
LINE
  5
9ABCE
  8
OUTLINE
 10
-7.0999999999985439
 20
1011.800000000002
 30
0.0
 11
-7.0999999999985439
 21
1015.000000000001
 31
0.0
  0
CIRCLE
  5
9ABCF
  8
OUTLINE
 10
-50.0
 20
1118.3000000000011
 30
0.0
 40
6.750000000000111
  0
CIRCLE
  5
9ABD0
  8
OUTLINE
 10
-50.000000000003638
 20
1118.3000000000011
 30
0.0
 40
4.0000000000000604
  0
CIRCLE
  5
9ABD1
  8
OUTLINE
 10
-22.623968617961509
 20
1120.4545403958521
 30
0.0
 40
9.0000000000000604
  0
CIRCLE
  5
9ABD2
  8
OUTLINE
 10
-77.376031382043948
 20
1120.4545403958521
 30
0.0
 40
9.0000000000000604
  0
ARC
  5
9ABD3
  8
OUTLINE
 10
-58.0
 20
1139.5079325842851
 30
0.0
 40
3.0
 50
180.0
 51
267.02225555376509
  0
ARC
  5
9ABD4
  8
OUTLINE
 10
-42.0
 20
1139.5079325842851
 30
0.0
 40
2.9999999999995688
 50
272.97774444618273
 51
0.0
  0
LINE
  5
9ABD5
  8
OUTLINE
 10
70.0
 20
1087.3000000000011
 30
0.0
 11
70.0
 21
1090.2730147324801
 31
0.0
  0
ARC
  5
9ABD6
  8
OUTLINE
 10
63.999999999996362
 20
1087.299999999999
 30
0.0
 40
6.0000000000018181
 50
0.0
 51
90.0
  0
ARC
  5
9ABD7
  8
OUTLINE
 10
57.999999999990912
 20
1090.273014732476
 30
0.0
 40
12.00000000000728
 50
0.0
 51
32.999999999997819
  0
LINE
  5
9ABD8
  8
OUTLINE
 10
46.680282738258029
 20
1129.7367922494479
 30
0.0
 11
68.064046815345137
 21
1096.8086831526589
 31
0.0
  0
LINE
  5
9ABD9
  8
OUTLINE
 10
60.099011825383059
 20
1138.451016809687
 30
0.0
 11
84.33529436437675
 21
1101.1304144747769
 31
0.0
  0
LINE
  5
9ABDA
  8
OUTLINE
 10
9.9000000000014552
 20
969.8000000000028
 30
0.0
 11
13.099999999998539
 21
969.8000000000028
 31
0.0
  0
LINE
  5
9ABDB
  8
OUTLINE
 10
13.099999999998539
 20
1015.000000000001
 30
0.0
 11
13.099999999998539
 21
969.8000000000028
 31
0.0
  0
LINE
  5
9ABDC
  8
OUTLINE
 10
9.9000000000014552
 20
969.8000000000028
 30
0.0
 11
9.9000000000014552
 21
1011.800000000002
 31
0.0
  0
CIRCLE
  5
9ABDD
  8
OUTLINE
 10
29.448337454417921
 20
1137.3738582670351
 30
0.0
 40
8.9999999999997691
  0
CIRCLE
  5
9ABDE
  8
OUTLINE
 10
-50.0
 20
1293.3000000000011
 30
0.0
 40
8.8250000000002213
  0
CIRCLE
  5
9ABDF
  8
OUTLINE
 10
-50.0
 20
1293.3000000000011
 30
0.0
 40
7.2500000000002292
  0
CIRCLE
  5
9ABE0
  8
OUTLINE
 10
-50.0
 20
1293.3000000000011
 30
0.0
 40
17.5
  0
POINT
  5
9ABE1
  8
OUTLINE
 10
-50.0
 20
1293.3000000000011
 30
0.0
  0
ARC
  5
9ABE2
  8
OUTLINE
 10
80.0
 20
1357.299999999997
 30
0.0
 40
3.000000000003638
 50
90.000000000052125
 51
179.99999999989569
  0
ARC
  5
9ABE3
  8
OUTLINE
 10
80.0
 20
1229.300000000002
 30
0.0
 40
3.0000000000018181
 50
180.0
 51
269.99999999994782
  0
ARC
  5
9ABE4
  8
OUTLINE
 10
71.225035612606007
 20
1227.299999999999
 30
0.0
 40
5.9999999999992824
 50
12.83958840692665
 51
90.0
  0
LINE
  5
9ABE5
  8
OUTLINE
 10
76.999999999996362
 20
1229.3000000000011
 30
0.0
 11
76.999999999996362
 21
1357.3000000000011
 31
0.0
  0
ARC
  5
9ABE6
  8
OUTLINE
 10
71.225035612606007
 20
1359.3000000000011
 30
0.0
 40
6.0000000000004547
 50
270.0
 51
347.16041159307338
  0
LINE
  5
9ABE7
  8
OUTLINE
 10
234.54999999999919
 20
1242.5
 30
0.0
 11
234.54999999999919
 21
1065.0000000000009
 31
0.0
  0
LINE
  5
9ABE8
  8
OUTLINE
 10
194.54999999999919
 20
1065.0000000000009
 30
0.0
 11
194.54999999999919
 21
1223.0499999998101
 31
0.0
  0
LINE
  5
9ABE9
  8
OUTLINE
 10
140.0
 20
1087.3000000000011
 30
0.0
 11
140.0
 21
1093.4113595151171
 31
0.0
  0
ARC
  5
9ABEA
  8
OUTLINE
 10
137.0
 20
1091.300000000002
 30
0.0
 40
2.9999999999990901
 50
0.0
 51
90.0
  0
ARC
  5
9ABEB
  8
OUTLINE
 10
137.00000000000179
 20
1093.4113595151171
 30
0.0
 40
2.9999999999972711
 50
0.0
 51
33.000000000026198
  0
LINE
  5
9ABEC
  8
OUTLINE
 10
137.0
 20
1094.3000000000011
 30
0.0
 11
96.91535288355773
 21
1094.3000000000011
 31
0.0
  0
LINE
  5
9ABED
  8
OUTLINE
 10
92.431456169177181
 20
1167.549134024742
 30
0.0
 11
139.5160117038358
 21
1095.045276620159
 31
0.0
  0
LINE
  5
9ABEE
  8
OUTLINE
 10
187.29999999999919
 20
1087.3000000000011
 30
0.0
 11
187.29999999999919
 21
1067.3000000000011
 31
0.0
  0
LINE
  5
9ABEF
  8
OUTLINE
 10
185.0
 20
1065.0000000000009
 30
0.0
 11
185.0
 21
1087.3000000000011
 31
0.0
  0
ARC
  5
9ABF0
  8
OUTLINE
 10
185.0
 20
1067.299999999999
 30
0.0
 40
2.2999999999979082
 50
269.99999999994782
 51
0.0
  0
LINE
  5
9ABF1
  8
OUTLINE
 10
163.999999999789
 20
1223.0499999998101
 30
0.0
 11
194.54999999999919
 21
1223.0499999998101
 31
0.0
  0
LINE
  5
9ABF2
  8
OUTLINE
 10
163.999999999789
 20
1263.0499999998101
 30
0.0
 11
213.99999999978891
 21
1263.0499999998101
 31
0.0
  0
LINE
  5
9ABF3
  8
OUTLINE
 10
163.999999999789
 20
1363.5499999998101
 30
0.0
 11
213.99999999978891
 21
1363.5499999998101
 31
0.0
  0
LINE
  5
9ABF4
  8
OUTLINE
 10
163.999999999789
 20
1323.5499999998101
 30
0.0
 11
213.99999999978891
 21
1323.5499999998101
 31
0.0
  0
ARC
  5
9ABF5
  8
OUTLINE
 10
128.99999999999631
 20
1357.299999999999
 30
0.0
 40
3.0
 50
0.0
 51
90.0
  0
LINE
  5
9ABF6
  8
OUTLINE
 10
165.99999999999631
 20
1357.299999999999
 30
0.0
 11
140.99999999999631
 21
1357.299999999999
 31
0.0
  0
LINE
  5
9ABF7
  8
OUTLINE
 10
174.99999999999631
 20
1356.149999999999
 30
0.0
 11
165.99999999999631
 21
1356.149999999999
 31
0.0
  0
LINE
  5
9ABF8
  8
OUTLINE
 10
148.79999999999919
 20
1369.3000000000011
 30
0.0
 11
148.79999999999919
 21
1357.299999999999
 31
0.0
  0
LINE
  5
9ABF9
  8
OUTLINE
 10
146.79999999999919
 20
1369.3000000000011
 30
0.0
 11
148.79999999999919
 21
1369.3000000000011
 31
0.0
  0
CIRCLE
  5
9ABFA
  8
OUTLINE
 10
105.92614173295981
 20
1372.7483374544199
 30
0.0
 40
9.0000000000000604
  0
LINE
  5
9ABFB
  8
OUTLINE
 10
136.0
 20
1335.8000000000011
 30
0.0
 11
135.99999999999631
 21
1240.8000000000011
 31
0.0
  0
LINE
  5
9ABFC
  8
OUTLINE
 10
140.99999999999631
 20
1345.799999999999
 30
0.0
 11
140.99999999999631
 21
1229.299999999999
 31
0.0
  0
LINE
  5
9ABFD
  8
OUTLINE
 10
134.49999999999989
 20
1335.799999999999
 30
0.0
 11
134.49999999999631
 21
1240.799999999999
 31
0.0
  0
LINE
  5
9ABFE
  8
OUTLINE
 10
163.999999999789
 20
1354.6178373599789
 30
0.0
 11
163.999999999789
 21
1244.1328069102419
 31
0.0
  0
LINE
  5
9ABFF
  8
OUTLINE
 10
117.5
 20
1190.3000000000011
 30
0.0
 11
130.0
 21
1190.3000000000011
 31
0.0
  0
LINE
  5
9AC00
  8
OUTLINE
 10
130.79999999999919
 20
1190.3000000000011
 30
0.0
 11
130.79999999999919
 21
1226.899999999999
 31
0.0
  0
LINE
  5
9AC01
  8
OUTLINE
 10
130.0
 20
1190.3000000000011
 30
0.0
 11
130.0
 21
1226.471572875254
 31
0.0
  0
LINE
  5
9AC02
  8
OUTLINE
 10
130.79999999999919
 20
1226.899999999999
 30
0.0
 11
130.79999999999919
 21
1190.8000000000011
 31
0.0
  0
LINE
  5
9AC03
  8
OUTLINE
 10
146.79999999999919
 20
1229.299999999999
 30
0.0
 11
146.79999999999919
 21
1191.3000000000011
 31
0.0
  0
LINE
  5
9AC04
  8
OUTLINE
 10
130.0
 20
1190.3000000000011
 30
0.0
 11
130.0
 21
1226.471572875254
 31
0.0
  0
LINE
  5
9AC05
  8
OUTLINE
 10
130.0
 20
1190.3000000000011
 30
0.0
 11
130.79999999999919
 21
1190.3000000000011
 31
0.0
  0
LINE
  5
9AC06
  8
OUTLINE
 10
146.79999999999919
 20
1191.3000000000011
 30
0.0
 11
145.79999999999919
 21
1190.3000000000011
 31
0.0
  0
LINE
  5
9AC07
  8
OUTLINE
 10
131.29999999999919
 20
1190.3000000000011
 30
0.0
 11
145.79999999999919
 21
1190.3000000000011
 31
0.0
  0
LINE
  5
9AC08
  8
OUTLINE
 10
130.79999999999919
 20
1190.8000000000011
 30
0.0
 11
131.29999999999919
 21
1190.3000000000011
 31
0.0
  0
LINE
  5
9AC09
  8
OUTLINE
 10
135.99999999999631
 20
1250.8000000000011
 30
0.0
 11
134.49999999999631
 21
1250.8000000000011
 31
0.0
  0
LINE
  5
9AC0A
  8
OUTLINE
 10
135.99999999999631
 20
1240.8000000000011
 30
0.0
 11
134.49999999999631
 21
1240.8000000000011
 31
0.0
  0
LINE
  5
9AC0B
  8
OUTLINE
 10
140.99999999999631
 20
1240.799999999999
 30
0.0
 11
135.99999999999631
 21
1240.799999999999
 31
0.0
  0
LINE
  5
9AC0C
  8
OUTLINE
 10
140.99999999999631
 20
1240.799999999999
 30
0.0
 11
140.99999999999631
 21
1229.299999999999
 31
0.0
  0
LINE
  5
9AC0D
  8
OUTLINE
 10
140.99999999999631
 20
1240.799999999999
 30
0.0
 11
135.99999999999631
 21
1240.799999999999
 31
0.0
  0
LINE
  5
9AC0E
  8
OUTLINE
 10
134.49999999999631
 20
1240.799999999999
 30
0.0
 11
131.99999999999631
 21
1240.799999999999
 31
0.0
  0
LINE
  5
9AC0F
  8
OUTLINE
 10
165.99999999999631
 20
1229.299999999999
 30
0.0
 11
140.99999999999631
 21
1229.299999999999
 31
0.0
  0
LINE
  5
9AC10
  8
OUTLINE
 10
165.99999999999631
 20
1229.299999999999
 30
0.0
 11
140.99999999999631
 21
1229.299999999999
 31
0.0
  0
LINE
  5
9AC11
  8
OUTLINE
 10
175.99999999999631
 20
1257.149999999999
 30
0.0
 11
175.99999999999631
 21
1231.45
 31
0.0
  0
LINE
  5
9AC12
  8
OUTLINE
 10
174.99999999999631
 20
1230.45
 30
0.0
 11
165.99999999999631
 21
1230.45
 31
0.0
  0
ARC
  5
9AC13
  8
OUTLINE
 10
174.99999999999631
 20
1231.45
 30
0.0
 40
0.9999999999995453
 50
270.0
 51
0.0
  0
LINE
  5
9AC14
  8
OUTLINE
 10
174.99999999999631
 20
1236.299999999999
 30
0.0
 11
165.99999999999631
 21
1236.299999999999
 31
0.0
  0
ARC
  5
9AC15
  8
OUTLINE
 10
174.99999999999631
 20
1237.299999999999
 30
0.0
 40
0.9999999999995453
 50
270.0
 51
0.0
  0
LINE
  5
9AC16
  8
OUTLINE
 10
174.99999999999631
 20
1258.149999999999
 30
0.0
 11
165.99999999999631
 21
1258.149999999999
 31
0.0
  0
ARC
  5
9AC17
  8
OUTLINE
 10
175.0
 20
1257.1500000000051
 30
0.0
 40
0.999999999996362
 50
359.9999999997915
 51
90.000000000208431
  0
LINE
  5
9AC18
  8
OUTLINE
 10
174.99999999999631
 20
1252.299999999999
 30
0.0
 11
165.99999999999631
 21
1252.299999999999
 31
0.0
  0
ARC
  5
9AC19
  8
OUTLINE
 10
175.0
 20
1251.300000000004
 30
0.0
 40
0.9999999999972716
 50
359.9999999997915
 51
90.000000000156334
  0
ARC
  5
9AC1A
  8
OUTLINE
 10
128.9999999999981
 20
1229.299999999999
 30
0.0
 40
2.9999999999986362
 50
270.0
 51
0.0
  0
LINE
  5
9AC1B
  8
OUTLINE
 10
148.80000000000101
 20
1229.299999999999
 30
0.0
 11
148.80000000000101
 21
1217.3000000000011
 31
0.0
  0
LINE
  5
9AC1C
  8
OUTLINE
 10
146.79999999999919
 20
1217.3000000000011
 30
0.0
 11
148.79999999999919
 21
1217.3000000000011
 31
0.0
  0
ARC
  5
9AC1D
  8
OUTLINE
 10
175.0
 20
1349.300000000004
 30
0.0
 40
0.9999999999972716
 50
359.9999999997915
 51
90.000000000156334
  0
LINE
  5
9AC1E
  8
OUTLINE
 10
174.99999999999631
 20
1350.299999999999
 30
0.0
 11
165.99999999999631
 21
1350.299999999999
 31
0.0
  0
ARC
  5
9AC1F
  8
OUTLINE
 10
174.99999999999631
 20
1335.299999999999
 30
0.0
 40
0.9999999999995453
 50
270.0
 51
0.0
  0
LINE
  5
9AC20
  8
OUTLINE
 10
174.99999999999631
 20
1334.299999999999
 30
0.0
 11
165.99999999999631
 21
1334.299999999999
 31
0.0
  0
ARC
  5
9AC21
  8
OUTLINE
 10
174.99999999999631
 20
1329.45
 30
0.0
 40
0.9999999999995453
 50
270.0
 51
0.0
  0
LINE
  5
9AC22
  8
OUTLINE
 10
174.99999999999631
 20
1328.450000000001
 30
0.0
 11
165.99999999999631
 21
1328.450000000001
 31
0.0
  0
LINE
  5
9AC23
  8
OUTLINE
 10
175.99999999999631
 20
1329.45
 30
0.0
 11
175.99999999999631
 21
1355.149999999999
 31
0.0
  0
ARC
  5
9AC24
  8
OUTLINE
 10
166.19999999998609
 20
1326.5927405778541
 30
0.0
 40
2.9999999994865729
 50
266.17744627026173
 51
270.00000000020839
  0
LINE
  5
9AC25
  8
OUTLINE
 10
135.99999999999631
 20
1345.8000000000011
 30
0.0
 11
134.49999999999631
 21
1345.8000000000011
 31
0.0
  0
LINE
  5
9AC26
  8
OUTLINE
 10
135.99999999999631
 20
1335.8000000000011
 30
0.0
 11
134.49999999999631
 21
1335.8000000000011
 31
0.0
  0
LINE
  5
9AC27
  8
OUTLINE
 10
135.99999999999631
 20
1335.8000000000011
 30
0.0
 11
135.99999999999631
 21
1345.8000000000011
 31
0.0
  0
LINE
  5
9AC28
  8
OUTLINE
 10
140.99999999999631
 20
1345.799999999999
 30
0.0
 11
135.99999999999631
 21
1345.799999999999
 31
0.0
  0
LINE
  5
9AC29
  8
OUTLINE
 10
134.49999999999631
 20
1345.799999999999
 30
0.0
 11
131.99999999999631
 21
1345.799999999999
 31
0.0
  0
LINE
  5
9AC2A
  8
OUTLINE
 10
134.49999999999631
 20
1334.799999999999
 30
0.0
 11
134.49999999999631
 21
1345.799999999999
 31
0.0
  0
LINE
  5
9AC2B
  8
OUTLINE
 10
101.24483462254101
 20
1178.3000000000011
 30
0.0
 11
110.19615242270621
 21
1178.3000000000011
 31
0.0
  0
LINE
  5
9AC2C
  8
OUTLINE
 10
110.1809616326572
 20
1178.3000000000011
 30
0.0
 11
110.19615242270621
 21
1178.3000000000011
 31
0.0
  0
LINE
  5
9AC2D
  8
OUTLINE
 10
101.81426803697831
 20
1179.0527767497331
 30
0.0
 11
109.63955721907401
 21
1179.0527767497331
 31
0.0
  0
LINE
  5
9AC2E
  8
OUTLINE
 10
111.4999999999999
 20
1184.3000000000011
 30
0.0
 11
111.4999999999999
 21
1180.7848275573031
 31
0.0
  0
ARC
  5
9AC2F
  8
OUTLINE
 10
108.49999999999091
 20
1180.7848275573081
 30
0.0
 40
3.0000000000084062
 50
304.07796840943752
 51
359.99999999989581
  0
CIRCLE
  5
9AC30
  8
OUTLINE
 10
105.92614173295981
 20
1213.8516625455791
 30
0.0
 40
9.0000000000000604
  0
ARC
  5
9AC31
  8
OUTLINE
 10
117.5
 20
1184.299999999999
 30
0.0
 40
6.0000000000022728
 50
90.0
 51
180.0
  0
LINE
  5
9AC32
  8
OUTLINE
 10
165.99999999999631
 20
1229.299999999999
 30
0.0
 11
165.99999999999631
 21
1357.299999999999
 31
0.0
  0
LINE
  5
9AC33
  8
OUTLINE
 10
131.99999999999631
 20
1229.3000000000011
 30
0.0
 11
131.99999999999631
 21
1357.3000000000011
 31
0.0
  0
ARC
  5
9AC34
  8
OUTLINE
 10
175.0
 20
1355.1500000000051
 30
0.0
 40
0.999999999996362
 50
359.9999999997915
 51
90.000000000208431
  0
LINE
  5
9AC35
  8
OUTLINE
 10
140.99999999999631
 20
1345.799999999999
 30
0.0
 11
140.99999999999631
 21
1357.299999999999
 31
0.0
  0
LINE
  5
9AC36
  8
OUTLINE
 10
213.9999999999981
 20
1323.550000000077
 30
0.0
 11
213.9999999999981
 21
1263.0499999996391
 31
0.0
  0
ARC
  5
9AC37
  8
OUTLINE
 10
213.9999999998162
 20
1242.4999999998199
 30
0.0
 40
20.549999999945602
 50
0.0000000005211021
 51
89.999999999478902
  0
LINE
  5
9AC38
  8
OUTLINE
 10
80.598621738514325
 20
1431.3000000000011
 30
0.0
 11
93.75
 21
1431.3000000000011
 31
0.0
  0
LINE
  5
9AC39
  8
OUTLINE
 10
-43.75
 20
1516.0999999999999
 30
0.0
 11
108.0
 21
1516.0999999999999
 31
0.0
  0
LINE
  5
9AC3A
  8
OUTLINE
 10
-35.0
 20
1493.3000000000011
 30
0.0
 11
47.999999999996362
 21
1493.3000000000011
 31
0.0
  0
LINE
  5
9AC3B
  8
OUTLINE
 10
-30.000000000003642
 20
1494.0999999999999
 30
0.0
 11
47.999999999996362
 21
1494.0999999999999
 31
0.0
  0
LINE
  5
9AC3C
  8
OUTLINE
 10
-35.041926223428163
 20
1494.0999999999999
 30
0.0
 11
47.999999999996362
 21
1494.0999999999999
 31
0.0
  0
LINE
  5
9AC3D
  8
OUTLINE
 10
-35.146741781994933
 20
1516.0999999999999
 30
0.0
 11
47.999999999996362
 21
1516.0999999999999
 31
0.0
  0
LINE
  5
9AC3E
  8
OUTLINE
 10
-30.0
 20
1490.5264973081059
 30
0.0
 11
47.965584253241097
 21
1490.5264973081059
 31
0.0
  0
CIRCLE
  5
9AC3F
  8
OUTLINE
 10
-50.0
 20
1468.3000000000011
 30
0.0
 40
6.750000000000111
  0
ARC
  5
9AC40
  8
OUTLINE
 10
-50.0
 20
1293.299999999952
 30
0.0
 40
132.60000000004851
 50
85.241487963166435
 51
94.758512036833579
  0
LINE
  5
9AC41
  8
OUTLINE
 10
-61.0
 20
1447.3000000000011
 30
0.0
 11
-39.0
 21
1447.299999999999
 31
0.0
  0
ARC
  5
9AC42
  8
OUTLINE
 10
-50.0
 20
1499.5500000000011
 30
0.0
 40
6.25
 50
180.0
 51
0.0
  0
ARC
  5
9AC43
  8
OUTLINE
 10
-50.0
 20
1547.0500000000011
 30
0.0
 40
6.25
 50
0.0
 51
180.0
  0
LINE
  5
9AC44
  8
OUTLINE
 10
-56.25
 20
1499.5500000000011
 30
0.0
 11
-56.25
 21
1547.0500000000011
 31
0.0
  0
CIRCLE
  5
9AC45
  8
OUTLINE
 10
-50.0
 20
1468.3000000000011
 30
0.0
 40
4.0000000000000604
  0
ARC
  5
9AC46
  8
OUTLINE
 10
-58.0
 20
1447.0920674157171
 30
0.0
 40
2.9999999999997109
 50
92.977744446234809
 51
180.0
  0
LINE
  5
9AC47
  8
OUTLINE
 10
-61.0
 20
1431.899999999999
 30
0.0
 11
-61.0
 21
1447.0920674157171
 31
0.0
  0
ARC
  5
9AC48
  8
OUTLINE
 10
-50.000000000087311
 20
1430.050000000723
 30
0.0
 40
75.749999999274038
 50
94.732754733582624
 51
97.826765932540184
  0
LINE
  5
9AC49
  8
OUTLINE
 10
-43.75
 20
1499.5500000000011
 30
0.0
 11
-43.75
 21
1547.0500000000011
 31
0.0
  0
CIRCLE
  5
9AC4A
  8
OUTLINE
 10
-22.623968617961509
 20
1466.145459604149
 30
0.0
 40
9.0000000000000604
  0
ARC
  5
9AC4B
  8
OUTLINE
 10
-33.000000000001812
 20
1431.899999999999
 30
0.0
 40
5.9999999999990896
 50
180.0
 51
270.0
  0
LINE
  5
9AC4C
  8
OUTLINE
 10
-39.0
 20
1431.899999999999
 30
0.0
 11
-39.0
 21
1447.0920674157171
 31
0.0
  0
ARC
  5
9AC4D
  8
OUTLINE
 10
-42.0
 20
1447.0920674157171
 30
0.0
 40
2.9999999999990901
 50
0.0
 51
87.022255553817203
  0
LINE
  5
9AC4E
  8
OUTLINE
 10
-43.75
 20
1504.3000000000011
 30
0.0
 11
-37.590126813023737
 21
1504.3000000000011
 31
0.0
  0
LINE
  5
9AC4F
  8
OUTLINE
 10
-35.0
 20
1493.3000000000011
 30
0.0
 11
-35.372231298935731
 21
1500.4025962944161
 31
0.0
  0
ARC
  5
9AC50
  8
OUTLINE
 10
-40.365378972706822
 20
1500.140916513202
 30
0.0
 40
4.9999999999981526
 50
3.0000000000061049
 51
82.173234067511444
  0
ARC
  5
9AC51
  8
OUTLINE
 10
-49.999999999941792
 20
1430.050000000517
 30
0.0
 40
75.749999999479783
 50
82.173234067459816
 51
85.267245266417362
  0
LINE
  5
9AC52
  8
OUTLINE
 10
-30.0
 20
1482.244436276912
 30
0.0
 11
-30.0
 21
1493.3000000000029
 31
0.0
  0
CIRCLE
  5
9AC53
  8
OUTLINE
 10
-77.376031382042129
 20
1466.145459604149
 30
0.0
 40
8.9999999999997691
  0
LINE
  5
9AC54
  8
OUTLINE
 10
-65.0
 20
1493.3000000000011
 30
0.0
 11
-64.627768701066074
 21
1500.4025962944161
 31
0.0
  0
LINE
  5
9AC55
  8
OUTLINE
 10
-70.0
 20
1482.244436276912
 30
0.0
 11
-70.0
 21
1493.3000000000011
 31
0.0
  0
LINE
  5
9AC56
  8
OUTLINE
 10
-65.0
 20
1493.3000000000011
 30
0.0
 11
-35.0
 21
1493.3000000000011
 31
0.0
  0
ARC
  5
9AC57
  8
OUTLINE
 10
-67.000000000003638
 20
1431.900000000003
 30
0.0
 40
6.0000000000022728
 50
270.0
 51
0.0
  0
LINE
  5
9AC58
  8
OUTLINE
 10
-62.409873186978082
 20
1504.3000000000011
 30
0.0
 11
-56.25
 21
1504.3000000000011
 31
0.0
  0
ARC
  5
9AC59
  8
OUTLINE
 10
-59.634621027293178
 20
1500.1409165132
 30
0.0
 40
5.0000000000012683
 50
97.826765932540184
 51
176.9999999999938
  0
CIRCLE
  5
9AC5A
  8
OUTLINE
 10
73.743686707643064
 20
1417.043686707646
 30
0.0
 40
9.0000000000000604
  0
LINE
  5
9AC5B
  8
OUTLINE
 10
47.999999999996362
 20
1493.3000000000011
 30
0.0
 11
47.999999999996362
 21
1494.0999999999999
 31
0.0
  0
LINE
  5
9AC5C
  8
OUTLINE
 10
47.999999999996362
 20
1494.0999999999999
 30
0.0
 11
47.999999999996362
 21
1516.0999999999999
 31
0.0
  0
ARC
  5
9AC5D
  8
OUTLINE
 10
-130.0000000002164
 20
1293.299999999826
 30
0.0
 40
250.0000000002764
 50
34.915206247472092
 51
43.281012002382539
  0
LINE
  5
9AC5E
  8
OUTLINE
 10
50.5
 20
1491.39252271189
 30
0.0
 11
47.19615242270811
 21
1493.3000000000011
 31
0.0
  0
ARC
  5
9AC5F
  8
OUTLINE
 10
48.999999999992717
 20
1488.794446500533
 30
0.0
 40
3.0000000000054561
 50
0.0000000001042204
 51
59.999999999944563
  0
LINE
  5
9AC60
  8
OUTLINE
 10
52.0
 20
1453.5997192761131
 30
0.0
 11
52.0
 21
1488.794446500536
 31
0.0
  0
CIRCLE
  5
9AC61
  8
OUTLINE
 10
29.448337454417921
 20
1449.2261417329639
 30
0.0
 40
9.0000000000000604
  0
ARC
  5
9AC62
  8
OUTLINE
 10
107.9999999999981
 20
1599.0999999999999
 30
0.0
 40
1.9999999999990901
 50
0.0
 51
90.0
  0
LINE
  5
9AC63
  8
OUTLINE
 10
110.0
 20
1587.2
 30
0.0
 11
127.9484708425497
 21
1587.2
 31
0.0
  0
LINE
  5
9AC64
  8
OUTLINE
 10
130.0
 20
1396.3000000000011
 30
0.0
 11
130.79999999999919
 21
1396.3000000000011
 31
0.0
  0
LINE
  5
9AC65
  8
OUTLINE
 10
123.199999999997
 20
1423.3000000000011
 30
0.0
 11
124.0
 21
1422.5
 31
0.0
  0
LINE
  5
9AC66
  8
OUTLINE
 10
124.0
 20
1422.5
 30
0.0
 11
124.0
 21
1409.0999999999999
 31
0.0
  0
LINE
  5
9AC67
  8
OUTLINE
 10
123.199999999997
 20
1408.3000000000011
 30
0.0
 11
124.0
 21
1409.0999999999999
 31
0.0
  0
LINE
  5
9AC68
  8
OUTLINE
 10
130.79999999999919
 20
1395.8000000000011
 30
0.0
 11
131.29999999999919
 21
1396.3000000000011
 31
0.0
  0
LINE
  5
9AC69
  8
OUTLINE
 10
131.29999999999919
 20
1396.3000000000011
 30
0.0
 11
145.79999999999919
 21
1396.3000000000011
 31
0.0
  0
LINE
  5
9AC6A
  8
OUTLINE
 10
146.79999999999919
 20
1395.3000000000011
 30
0.0
 11
145.79999999999919
 21
1396.3000000000011
 31
0.0
  0
ARC
  5
9AC6B
  8
OUTLINE
 10
133.49999999999631
 20
1401.5915619758871
 30
0.0
 40
5.999999999996362
 50
180.0
 51
234.3146652873954
  0
LINE
  5
9AC6C
  8
OUTLINE
 10
125.19615242270621
 20
1408.3000000000011
 30
0.0
 11
126.0
 21
1407.835898384863
 31
0.0
  0
ARC
  5
9AC6D
  8
OUTLINE
 10
124.49999999999091
 20
1405.237822173505
 30
0.0
 40
3.000000000007276
 50
0.0000000001042204
 51
59.99999999989943
  0
LINE
  5
9AC6E
  8
OUTLINE
 10
127.5
 20
1405.2378221735089
 30
0.0
 11
127.5
 21
1401.59156197589
 31
0.0
  0
LINE
  5
9AC6F
  8
OUTLINE
 10
93.75
 20
1431.3000000000011
 30
0.0
 11
93.75
 21
1423.3000000000011
 31
0.0
  0
ARC
  5
9AC70
  8
OUTLINE
 10
108.0000000000018
 20
1518.099999999996
 30
0.0
 40
1.9999999999968161
 50
269.99999999989569
 51
0.0000000001042204
  0
LINE
  5
9AC71
  8
OUTLINE
 10
110.0
 20
1530.0
 30
0.0
 11
127.9484708425497
 21
1530.0
 31
0.0
  0
LINE
  5
9AC72
  8
OUTLINE
 10
123.199999999997
 20
1423.3000000000011
 30
0.0
 11
88.564064605508975
 21
1423.3000000000011
 31
0.0
  0
LINE
  5
9AC73
  8
OUTLINE
 10
123.199999999997
 20
1408.3000000000011
 30
0.0
 11
101.24483462254101
 21
1408.3000000000011
 31
0.0
  0
LINE
  5
9AC74
  8
OUTLINE
 10
125.19615242270621
 20
1408.3000000000011
 30
0.0
 11
101.24483462254101
 21
1408.3000000000011
 31
0.0
  0
LINE
  5
9AC75
  8
OUTLINE
 10
102.24703601865249
 20
1406.96987298108
 30
0.0
 11
123.55373517603221
 21
1406.96987298108
 31
0.0
  0
LINE
  5
9AC76
  8
OUTLINE
 10
109.99999999999631
 20
1518.0999999999999
 30
0.0
 11
109.99999999999631
 21
1599.0999999999999
 31
0.0
  0
LINE
  5
9AC77
  8
OUTLINE
 10
400.0
 20
1018.199999999999
 30
0.0
 11
400.0
 21
1750.0000000000009
 31
0.0
  0
LINE
  5
9AC78
  8
OUTLINE
 10
316.41592585552092
 20
1460.625829440085
 30
0.0
 11
377.71745501297301
 21
1310.6327261824899
 31
0.0
  0
LINE
  5
9AC79
  8
OUTLINE
 10
392.84999999999849
 20
1244.7870501580051
 30
0.0
 11
392.84999999999849
 21
1107.8500000001111
 31
0.0
  0
LINE
  5
9AC7A
  8
OUTLINE
 10
335.04999999999922
 20
1242.5
 30
0.0
 11
335.04999999999922
 21
1065.0000000000009
 31
0.0
  0
LINE
  5
9AC7B
  8
OUTLINE
 10
295.04999999999922
 20
1242.5
 30
0.0
 11
295.04999999999922
 21
1065.0000000000009
 31
0.0
  0
ARC
  5
9AC7C
  8
OUTLINE
 10
364.25
 20
1094.1999999995751
 30
0.0
 40
29.199999999998909
 50
180.0
 51
359.99999998718079
  0
LINE
  5
9AC7D
  8
OUTLINE
 10
397.0
 20
1065.0
 30
0.0
 11
397.0
 21
1110.2
 31
0.0
  0
LINE
  5
9AC7E
  8
OUTLINE
 10
393.79999999999922
 20
1110.2
 30
0.0
 11
393.79999999999922
 21
1068.2
 31
0.0
  0
ARC
  5
9AC7F
  8
OUTLINE
 10
396.79999999999922
 20
1011.800000000001
 30
0.0
 40
3.2000000000007272
 50
0.0
 51
90.0
  0
LINE
  5
9AC80
  8
OUTLINE
 10
393.79999999999922
 20
1110.2
 30
0.0
 11
397.0
 21
1110.2
 31
0.0
  0
LINE
  5
9AC81
  8
OUTLINE
 10
376.79999999999922
 20
1068.2
 30
0.0
 11
376.79999999999922
 21
1065.0
 31
0.0
  0
LINE
  5
9AC82
  8
OUTLINE
 10
376.79999999999922
 20
1065.0
 30
0.0
 11
397.0
 21
1065.0
 31
0.0
  0
LINE
  5
9AC83
  8
OUTLINE
 10
393.79999999999922
 20
1068.2
 30
0.0
 11
376.79999999999922
 21
1068.2
 31
0.0
  0
ARC
  5
9AC84
  8
OUTLINE
 10
189.24999999996899
 20
1233.6068967423989
 30
0.0
 40
203.60000000003129
 50
0.0
 51
22.229621091267148
  0
ENDSEC
  0
EOF
