  0
SECTION
  2
HEADER
  9
$ACADVER
  1
AC1009
  9
$INSBASE
 10
0.0
 20
0.0
 30
0.0
  9
$EXTMIN
 10
-1179.4800722560431
 20
-466.69155004753691
 30
-0.0015258207003583
  9
$EXTMAX
 10
1329.5851053606341
 20
2068.3644975217612
 30
0.0000000349246037
  9
$LIMMIN
 10
-1350.6486748588061
 20
-985.68933734605525
  9
$LIMMAX
 10
1571.7922875320221
 20
2481.9125912697782
  9
$ORTHOMODE
 70
     1
  9
$REGENMODE
 70
     1
  9
$FILLMODE
 70
     1
  9
$QTEXTMODE
 70
     0
  9
$MIRRTEXT
 70
     0
  9
$DRAGMODE
 70
     2
  9
$LTSCALE
 40
20.0
  9
$OSMODE
 70
   119
  9
$ATTMODE
 70
     1
  9
$TEXTSIZE
 40
64.0
  9
$TRACEWID
 40
0.05
  9
$TEXTSTYLE
  7
STANDARD
  9
$CLAYER
  8
SIZE
  9
$CELTYPE
  6
BYLAYER
  9
$CECOLOR
 62
   256
  9
$DIMSCALE
 40
1.0
  9
$DIMASZ
 40
12.0
  9
$DIMEXO
 40
5.0
  9
$DIMDLI
 40
10.0
  9
$DIMRND
 40
0.0
  9
$DIMDLE
 40
0.0
  9
$DIMEXE
 40
20.0
  9
$DIMTP
 40
0.0
  9
$DIMTM
 40
0.0
  9
$DIMTXT
 40
50.0
  9
$DIMCEN
 40
0.0
  9
$DIMTSZ
 40
0.0
  9
$DIMTOL
 70
     0
  9
$DIMLIM
 70
     0
  9
$DIMTIH
 70
     0
  9
$DIMTOH
 70
     0
  9
$DIMSE1
 70
     0
  9
$DIMSE2
 70
     0
  9
$DIMTAD
 70
     1
  9
$DIMZIN
 70
     0
  9
$DIMBLK
  1
DOTBLANK
  9
$DIMASO
 70
     1
  9
$DIMSHO
 70
     0
  9
$DIMPOST
  1

  9
$DIMAPOST
  1

  9
$DIMALT
 70
     0
  9
$DIMALTD
 70
     2
  9
$DIMALTF
 40
25.399999999999999
  9
$DIMLFAC
 40
1.0
  9
$DIMTOFL
 70
     1
  9
$DIMTVP
 40
0.0
  9
$DIMTIX
 70
     0
  9
$DIMSOXD
 70
     0
  9
$DIMSAH
 70
     0
  9
$DIMBLK1
  1

  9
$DIMBLK2
  1

  9
$DIMSTYLE
  2
STANDARD
  9
$DIMCLRD
 70
     0
  9
$DIMCLRE
 70
     0
  9
$DIMCLRT
 70
     0
  9
$DIMTFAC
 40
1.0
  9
$DIMGAP
 40
10.0
  9
$LUNITS
 70
     2
  9
$LUPREC
 70
     4
  9
$SKETCHINC
 40
0.1
  9
$FILLETRAD
 40
10.0
  9
$AUNITS
 70
     1
  9
$AUPREC
 70
     3
  9
$MENU
  1
ACAD
  9
$ELEVATION
 40
0.0
  9
$PELEVATION
 40
0.0
  9
$THICKNESS
 40
0.0
  9
$LIMCHECK
 70
     0
  9
$BLIPMODE
 70
     0
  9
$CHAMFERA
 40
0.0
  9
$CHAMFERB
 40
0.0
  9
$SKPOLY
 70
     0
  9
$TDCREATE
 40
2449761.4936226849
  9
$TDUPDATE
 40
2453822.580241967
  9
$TDINDWG
 40
10.1126185417
  9
$TDUSRTIMER
 40
10.112613124999999
  9
$USRTIMER
 70
     1
  9
$ANGBASE
 50
0.0
  9
$ANGDIR
 70
     0
  9
$PDMODE
 70
    35
  9
$PDSIZE
 40
20.0
  9
$PLINEWID
 40
0.0
  9
$COORDS
 70
     0
  9
$SPLFRAME
 70
     0
  9
$SPLINETYPE
 70
     6
  9
$SPLINESEGS
 70
     8
  9
$ATTDIA
 70
     0
  9
$ATTREQ
 70
     1
  9
$HANDLING
 70
-16383
  9
$HANDSEED
  5
9FFD4
  9
$SURFTAB1
 70
     6
  9
$SURFTAB2
 70
     6
  9
$SURFTYPE
 70
     6
  9
$SURFU
 70
     6
  9
$SURFV
 70
     6
  9
$UCSNAME
  2

  9
$UCSORG
 10
0.0
 20
0.0
 30
0.0
  9
$UCSXDIR
 10
1.0
 20
0.0
 30
0.0
  9
$UCSYDIR
 10
0.0
 20
1.0
 30
0.0
  9
$PUCSNAME
  2

  9
$PUCSORG
 10
0.0
 20
0.0
 30
0.0
  9
$PUCSXDIR
 10
1.0
 20
0.0
 30
0.0
  9
$PUCSYDIR
 10
0.0
 20
1.0
 30
0.0
  9
$USERI1
 70
     0
  9
$USERI2
 70
     0
  9
$USERI3
 70
     0
  9
$USERI4
 70
     0
  9
$USERI5
 70
     0
  9
$USERR1
 40
20.0
  9
$USERR2
 40
0.0
  9
$USERR3
 40
0.0
  9
$USERR4
 40
0.0
  9
$USERR5
 40
0.0
  9
$WORLDVIEW
 70
     1
  9
$SHADEDGE
 70
     3
  9
$SHADEDIF
 70
    70
  9
$TILEMODE
 70
     1
  9
$MAXACTVP
 70
    64
  9
$PLIMCHECK
 70
     0
  9
$PEXTMIN
 10
1.0000000000000000E+020
 20
1.0000000000000000E+020
 30
1.0000000000000000E+020
  9
$PEXTMAX
 10
-1.0000000000000000E+020
 20
-1.0000000000000000E+020
 30
-1.0000000000000000E+020
  9
$PLIMMIN
 10
0.0
 20
0.0
  9
$PLIMMAX
 10
12.0
 20
9.0
  9
$UNITMODE
 70
     0
  9
$VISRETAIN
 70
     1
  9
$PLINEGEN
 70
     0
  9
$PSLTSCALE
 70
     1
  0
ENDSEC
  0
SECTION
  2
TABLES
  0
TABLE
  2
VPORT
 70
     3
  0
VPORT
  2
*ACTIVE
 70
     0
 10
0.0
 20
0.0
 11
1.0
 21
1.0
 12
1728.9127784088539
 22
1125.0249017957831
 13
0.0
 23
0.0
 14
50.0
 24
50.0
 15
100.0
 25
100.0
 16
0.0
 26
0.0
 36
1.0
 17
0.0
 27
0.0
 37
0.0
 40
4918.7178919110893
 41
1.57544757033248
 42
50.0
 43
0.0
 44
0.0
 50
0.0
 51
0.0
 71
     0
 72
  1000
 73
     1
 74
     0
 75
     0
 76
     0
 77
     0
 78
     0
  0
ENDTAB
  0
TABLE
  2
LTYPE
 70
     2
  0
LTYPE
  2
CONTINUOUS
 70
     0
  3
実線
 72
    65
 73
     0
 40
0.0
  0
LTYPE
  2
DASHDOT
 70
     0
  3
____ _ ____ _ ____ _ ____ _ ____ _ ____ _ ____
 72
    65
 73
     4
 40
5.5
 49
4.0
 49
-0.6
 49
0.3
 49
-0.6
  0
ENDTAB
  0
TABLE
  2
LAYER
 70
    11
  0
LAYER
  2
0
 70
     0
 62
     7
  6
CONTINUOUS
  0
LAYER
  2
SIZE
 70
     0
 62
    30
  6
CONTINUOUS
  0
LAYER
  2
DETAIL
 70
     0
 62
     5
  6
CONTINUOUS
  0
LAYER
  2
BASIS
 70
     0
 62
     6
  6
DASHDOT
  0
LAYER
  2
NOTE
 70
     0
 62
     4
  6
CONTINUOUS
  0
LAYER
  2
ARRANGE
 70
     0
 62
     1
  6
CONTINUOUS
  0
LAYER
  2
FIX
 70
     0
 62
    11
  6
CONTINUOUS
  0
LAYER
  2
ETC
 70
     0
 62
    61
  6
CONTINUOUS
  0
LAYER
  2
DEFPOINTS
 70
     0
 62
     7
  6
CONTINUOUS
  0
LAYER
  2
OUTLINE
 70
     0
 62
     3
  6
CONTINUOUS
  0
LAYER
  2
SERVICESPACE
 70
     0
 62
     2
  6
DASHDOT
  0
ENDTAB
  0
TABLE
  2
STYLE
 70
     1
  0
STYLE
  2
STANDARD
 70
     0
 40
0.0
 41
0.9
 50
0.0
 71
     0
 42
64.0
  3
SIMPLEX
  4
BIGFONT
  0
ENDTAB
  0
TABLE
  2
VIEW
 70
     1
  0
VIEW
  2
ALL
 70
     0
 40
6056.2300320000013
 10
0.0
 20
58.11501599999999
 41
8400.0
 11
0.0
 21
0.0
 31
1.0
 12
0.0
 22
0.0
 32
0.0
 42
50.0
 43
0.0
 44
0.0
 50
0.0
 71
     0
  0
ENDTAB
  0
TABLE
  2
UCS
 70
     0
  0
ENDTAB
  0
TABLE
  2
APPID
 70
     1
  0
APPID
  2
ACAD
 70
     0
  0
ENDTAB
  0
TABLE
  2
DIMSTYLE
 70
     2
  0
DIMSTYLE
  2
STANDARD
 70
     0
  3

  4

  5

  6

  7

 40
1.0
 41
0.18
 42
0.0625
 43
0.38
 44
0.18
 45
0.0
 46
0.0
 47
0.0
 48
0.0
140
0.18
141
0.09
142
0.0
143
25.399999999999999
144
1.0
145
0.0
146
1.0
147
0.09
 71
     0
 72
     0
 73
     1
 74
     1
 75
     0
 76
     0
 77
     0
 78
     0
170
     0
171
     2
172
     0
173
     0
174
     0
175
     0
176
     0
177
     0
178
     0
  0
DIMSTYLE
  2
EXTFONT
 70
     0
  3

  4

  5

  6

  7

 40
20.0
 41
2.0
 42
1.0
 43
3.75
 44
1.25
 45
0.0
 46
0.0
 47
0.0
 48
0.0
140
3.5
141
0.0
142
0.0
143
0.0394
144
1.0
145
0.0
146
1.0
147
1.0
 71
     0
 72
     0
 73
     0
 74
     0
 75
     0
 76
     0
 77
     1
 78
     8
170
     0
171
     4
172
     1
173
     0
174
     0
175
     0
176
     0
177
     0
178
     0
  0
ENDTAB
  0
ENDSEC
  0
SECTION
  2
BLOCKS
  0
BLOCK
  8
0
  2
$MODEL_SPACE
 70
     0
 10
0.0
 20
0.0
 30
0.0
  3
$MODEL_SPACE
  1

  0
ENDBLK
  5
20
  8
0
  0
BLOCK
 67
     1
  8
0
  2
$PAPER_SPACE
 70
     0
 10
0.0
 20
0.0
 30
0.0
  3
$PAPER_SPACE
  1

  0
ENDBLK
  5
1C
 67
     1
  8
0
  0
BLOCK
  8
0
  2
_DOTBLANK
 70
     0
 10
0.0
 20
0.0
 30
0.0
  3
_DOTBLANK
  1

  0
CIRCLE
  5
53E7
  8
0
  6
BYBLOCK
 62
     0
 10
0.0
 20
0.0
 30
0.0
 40
0.5
  0
LINE
  5
53E8
  8
0
  6
BYBLOCK
 62
     0
 10
-0.5
 20
0.0
 30
0.0
 11
-1.0
 21
0.0
 31
0.0
  0
ENDBLK
  5
53EA
  8
0
  0
ENDSEC
  0
SECTION
  2
ENTITIES
  0
LINE
  5
94EAD
  8
BASIS
 10
-0.0006781387310184
 20
1804.0752326141819
 30
0.0
 11
-0.0006781387310184
 21
-19.999999999994539
 31
0.0
  0
TEXT
  5
94F09
  8
ETC
  6
CONTINUOUS
 10
503.87036629894089
 20
2003.8184017807141
 30
0.0
 40
64.0
  1
CBCL4963
 41
0.9
  0
POINT
  5
94F24
  8
ARRANGE
  6
CONTINUOUS
 10
-0.000718761502867
 20
0.000036503195588
 30
0.0
  0
CIRCLE
  5
94F25
  8
FIX
 10
-347.00067813873102
 20
0.0
 30
0.0
 40
8.0
  0
LINE
  5
94F26
  8
NOTE
 10
-293.00067813873102
 20
0.0003450171352597
 30
0.0
 11
-401.00067813873102
 21
0.0003450171352597
 31
0.0
  0
LINE
  5
94F27
  8
NOTE
 10
-347.00067813873102
 20
-53.99965498286474
 30
0.0
 11
-347.00067813873102
 21
54.00034501713526
 31
0.0
  0
CIRCLE
  5
94F28
  8
FIX
 10
346.99932186126892
 20
-0.0003450171352597
 30
0.0
 40
8.0
  0
LINE
  5
94F29
  8
NOTE
 10
400.99932186126898
 20
0.0
 30
0.0
 11
292.99932186126892
 21
0.0
 31
0.0
  0
LINE
  5
94F2A
  8
NOTE
 10
346.99932186126892
 20
-54.0
 30
0.0
 11
346.99932186126892
 21
54.0
 31
0.0
  0
LINE
  5
94F2B
  8
BASIS
 10
-169.28013301991629
 20
781.55000000000473
 30
0.0
 11
50.678776742455739
 21
781.55000000000473
 31
0.0
  0
LINE
  5
94F2C
  8
BASIS
 10
-59.300678138730291
 20
668.98855628770605
 30
0.0
 11
-59.300678138730291
 21
894.11144371230512
 31
0.0
  0
LINE
  5
94F2D
  8
NOTE
 10
-113.30067813873031
 20
781.55000000000473
 30
0.0
 11
-5.3006781387302899
 21
781.55000000000473
 31
0.0
  0
LINE
  5
94F2E
  8
NOTE
 10
-59.300678138730291
 20
727.55000000000473
 30
0.0
 11
-59.300678138730291
 21
835.55000000000473
 31
0.0
  0
LINE
  5
94F30
  8
BASIS
 10
299.69932186126971
 20
894.1114361292166
 30
0.0
 11
299.69932186126971
 21
668.98854870461764
 31
0.0
  0
LINE
  5
94F31
  8
NOTE
 10
245.69932186126971
 20
781.55033743405329
 30
0.0
 11
353.69932186126971
 21
781.55033743405329
 31
0.0
  0
LINE
  5
94F32
  8
BASIS
 10
412.26076557356998
 20
781.55000000000473
 30
0.0
 11
187.1378781489729
 21
781.55000000000473
 31
0.0
  0
LINE
  5
94F33
  8
NOTE
 10
299.69932186126971
 20
727.55033743405329
 30
0.0
 11
299.69932186126971
 21
835.55033743405318
 31
0.0
  0
LINE
  5
94F34
  8
BASIS
 10
53.260765573571909
 20
184.5500000000047
 30
0.0
 11
-171.86212185102701
 21
184.5500000000047
 31
0.0
  0
LINE
  5
94F35
  8
NOTE
 10
-59.300678138726653
 20
130.5500000000047
 30
0.0
 11
-59.300678138726653
 21
238.5500000000047
 31
0.0
  0
LINE
  5
94F36
  8
BASIS
 10
-59.300678138730291
 20
71.98855628770616
 30
0.0
 11
-59.300678138730291
 21
297.11144371230512
 31
0.0
  0
LINE
  5
94F37
  8
NOTE
 10
-113.3006781387266
 20
184.5500000000047
 30
0.0
 11
-5.3006781387266519
 21
184.5500000000047
 31
0.0
  0
LINE
  5
94F38
  8
NOTE
 10
299.69932186126971
 20
130.549992416918
 30
0.0
 11
299.69932186126971
 21
238.549992416918
 31
0.0
  0
LINE
  5
94F39
  8
BASIS
 10
299.69932186126971
 20
297.11143612921649
 30
0.0
 11
299.69932186126971
 21
71.988548704617642
 31
0.0
  0
LINE
  5
94F3A
  8
NOTE
 10
245.69932186126971
 20
184.549992416918
 30
0.0
 11
353.69932186126971
 21
184.549992416918
 31
0.0
  0
LINE
  5
94F3B
  8
BASIS
 10
412.26076557356998
 20
184.5500000000047
 30
0.0
 11
187.1378781489729
 21
184.5500000000047
 31
0.0
  0
LINE
  5
9516D
  8
NOTE
 10
-59.29344545209824
 20
184.5583206385254
 30
0.0
 11
-575.64462201244157
 21
404.50464179055598
 31
0.0
  0
LINE
  5
9516E
  8
NOTE
 10
-59.2939753120354
 20
781.55088129239084
 30
0.0
 11
-595.21881343406119
 21
556.45811514091838
 31
0.0
  0
LINE
  5
9516F
  8
NOTE
 10
-575.64462201244157
 20
404.50464179055598
 30
0.0
 11
-1179.4494312031891
 21
404.50464179056689
 31
0.0
  0
LINE
  5
95170
  8
NOTE
 10
-595.21881343406119
 20
556.45811514091838
 30
0.0
 11
-1161.1006709485571
 21
556.45811514092202
 31
0.0
  0
TEXT
  5
95171
  8
NOTE
 10
-1111.9105809156481
 20
575.70429216538457
 30
0.0
 40
50.0
  1
B JIS 10K-80A
 50
359.99999999999932
 41
0.9
  0
TEXT
  5
95172
  8
NOTE
 10
-1155.820202643029
 20
422.16696184272757
 30
0.0
 40
50.0
  1
BR JIS 10K-80A
 50
359.99999999999932
 41
0.9
  0
LINE
  5
95173
  8
NOTE
 10
-59.294553110436027
 20
781.55095100654398
 30
0.0
 11
-107.2830157625976
 21
777.54641680560053
 31
0.0
  0
LINE
  5
95174
  8
NOTE
 10
-59.294753585954822
 20
781.55016591407355
 30
0.0
 11
-95.804583088885934
 21
750.15014694033562
 31
0.0
  0
LINE
  5
95176
  8
NOTE
 10
299.69931172726859
 20
781.5498748782029
 30
0.0
 11
702.09428310958901
 21
506.73377661511222
 31
0.0
  0
LINE
  5
95178
  8
NOTE
 10
299.6994220529777
 20
781.55019111032379
 30
0.0
 11
327.73376972091683
 21
742.39659366746673
 31
0.0
  0
LINE
  5
95179
  8
NOTE
 10
299.69955557886891
 20
781.54989267307417
 30
0.0
 11
345.37426890769711
 21
766.29376589681476
 31
0.0
  0
LINE
  5
9517A
  8
NOTE
 10
1298.7889204830039
 20
364.24035433342391
 30
0.0
 11
708.07577592966663
 21
364.24035433342942
 31
0.0
  0
LINE
  5
9517B
  8
NOTE
 10
1329.5729954764811
 20
506.73377661510852
 30
0.0
 11
702.09428310958901
 21
506.73377661511222
 31
0.0
  0
TEXT
  5
9517C
  8
NOTE
 10
730.39212644592953
 20
525.97995363957853
 30
0.0
 40
50.0
  1
CDR JIS 10K-80A
 50
359.99999999999932
 41
0.9
  0
TEXT
  5
9517D
  8
NOTE
 10
730.91042737452881
 20
381.9026743855938
 30
0.0
 40
50.0
  1
CD JIS 10K-80A
 50
359.99999999999932
 41
0.9
  0
LINE
  5
9517E
  8
NOTE
 10
299.69931429435019
 20
184.54999192200739
 30
0.0
 11
708.07577592966663
 21
364.24035433342942
 31
0.0
  0
TEXT
  5
95183
  8
NOTE
 10
491.44159260208278
 20
-123.3291848024236
 30
0.0
 40
50.0
  1
AH 4-%%c24
 50
359.99999999999932
 41
0.9
  0
LINE
  5
95184
  8
NOTE
 10
848.46382226625781
 20
-139.32230364114
 30
0.0
 11
479.05506820115079
 21
-139.3223036411309
 31
0.0
  0
LINE
  5
95185
  8
NOTE
 10
346.99913968571121
 20
0.0004174589030299
 30
0.0
 11
479.05506820115079
 21
-139.3223036411309
 31
0.0
  0
LINE
  5
9518A
  8
NOTE
 10
-59.307992459031077
 20
184.54302568374979
 30
0.0
 11
-95.495568146123333
 21
216.31389611209491
 31
0.0
  0
LINE
  5
9518B
  8
NOTE
 10
-59.308190221545367
 20
184.5432860372475
 30
0.0
 11
-107.25329968617
 21
189.03720640916251
 31
0.0
  0
LINE
  5
9518C
  8
NOTE
 10
346.99932186126892
 20
0.000000000005457
 30
0.0
 11
369.95201071530749
 21
-42.333236543559913
 31
0.0
  0
LINE
  5
9518D
  8
NOTE
 10
346.9993812485227
 20
0.0003796745659201
 30
0.0
 11
388.04361115306892
 21
-25.18493416955971
 31
0.0
  0
LINE
  5
9518E
  8
NOTE
 10
299.7001029083749
 20
184.55040575618659
 30
0.0
 11
333.92089871359161
 21
218.43057659905571
 31
0.0
  0
LINE
  5
9518F
  8
NOTE
 10
299.69976871908869
 20
184.55002287409471
 30
0.0
 11
347.28987799232891
 21
191.90599604191809
 31
0.0
  0
LINE
  5
99E6B
  8
BASIS
 10
346.99932186126892
 20
23.0
 30
0.0
 11
346.99932186126892
 21
-20.0
 31
0.0
  0
LINE
  5
99E6E
  8
BASIS
 10
-347.00067813873102
 20
23.000345017135249
 30
0.0
 11
-347.00067813873102
 21
-19.99965498286474
 31
0.0
  0
LINE
  5
9E130
  8
DETAIL
 10
-297.0
 20
1089.999999999998
 30
0.0
 11
-297.0
 21
1030.999999999998
 31
0.0
  0
LINE
  5
9E131
  8
DETAIL
 10
-167.0
 20
1030.999999999998
 30
0.0
 11
-167.0
 21
1089.999999999998
 31
0.0
  0
LINE
  5
9E132
  8
DETAIL
 10
-287.0
 20
1079.999999999998
 30
0.0
 11
-287.0
 21
1040.999999999998
 31
0.0
  0
LINE
  5
9E133
  8
DETAIL
 10
-177.0
 20
1040.999999999998
 30
0.0
 11
-177.0
 21
1079.999999999998
 31
0.0
  0
LINE
  5
9E134
  8
DETAIL
 10
-253.783503999999
 20
1066.3720110000011
 30
0.0
 11
-253.783503999999
 21
1077.859972
 31
0.0
  0
LINE
  5
9E135
  8
DETAIL
 10
-276.93745699999999
 20
1077.859972
 30
0.0
 11
-276.93745699999999
 21
1066.3720110000011
 31
0.0
  0
LINE
  5
9E136
  8
DETAIL
 10
400.0
 20
1747.999999999998
 30
0.0
 11
400.0
 21
550.0
 31
0.0
  0
LINE
  5
9E137
  8
DETAIL
 10
-400.0
 20
1747.999999999998
 30
0.0
 11
-400.0
 21
550.0
 31
0.0
  0
LINE
  5
9E138
  8
DETAIL
 10
2.0
 20
1164.999999999998
 30
0.0
 11
2.0
 21
567.49999999999989
 31
0.0
  0
LINE
  5
9E139
  8
DETAIL
 10
397.0
 20
567.49999999999989
 30
0.0
 11
397.0
 21
1164.999999999998
 31
0.0
  0
LINE
  5
9E13A
  8
DETAIL
 10
-397.20000000000073
 20
1164.999999999998
 30
0.0
 11
-397.20000000000073
 21
567.49999999999989
 31
0.0
  0
LINE
  5
9E13B
  8
DETAIL
 10
-2.2000000000007272
 20
567.49999999999989
 30
0.0
 11
-2.2000000000007272
 21
1164.999999999998
 31
0.0
  0
LINE
  5
9E13C
  8
DETAIL
 10
397.0
 20
1163.399999999999
 30
0.0
 11
397.0
 21
1063.399999999999
 31
0.0
  0
LINE
  5
9E13E
  8
DETAIL
 10
-112.5945287076938
 20
430.20000000000073
 30
0.0
 11
297.0
 21
430.20000000000073
 31
0.0
  0
LINE
  5
9E13F
  8
DETAIL
 10
-109.8999999999978
 20
433.20000000000061
 30
0.0
 11
297.0
 21
433.20000000000061
 31
0.0
  0
LINE
  5
9E140
  8
DETAIL
 10
400.0
 20
550.0
 30
0.0
 11
-400.0
 21
550.0
 31
0.0
  0
LINE
  5
9E141
  8
DETAIL
 10
-42.099999999998538
 20
463.20000000000073
 30
0.0
 11
297.0
 21
463.20000000000073
 31
0.0
  0
LINE
  5
9E142
  8
DETAIL
 10
297.0
 20
80.0
 30
0.0
 11
-297.0
 21
80.0
 31
0.0
  0
LINE
  5
9E143
  8
DETAIL
 10
-397.0
 20
0.0
 30
0.0
 11
397.0
 21
0.0
 31
0.0
  0
LINE
  5
9E144
  8
DETAIL
 10
297.0
 20
347.20000000000073
 30
0.0
 11
-297.0
 21
347.20000000000073
 31
0.0
  0
LINE
  5
9E145
  8
DETAIL
 10
297.0
 20
377.20000000000073
 30
0.0
 11
-297.0
 21
377.20000000000073
 31
0.0
  0
LINE
  5
9E146
  8
DETAIL
 10
297.0
 20
380.20000000000073
 30
0.0
 11
-297.0
 21
380.20000000000073
 31
0.0
  0
LINE
  5
9E147
  8
DETAIL
 10
-297.0
 20
83.0
 30
0.0
 11
297.00000000000182
 21
83.0
 31
0.0
  0
LINE
  5
9E148
  8
DETAIL
 10
25.800000000001091
 20
116.5
 30
0.0
 11
50.800000000001091
 21
116.5
 31
0.0
  0
LINE
  5
9E149
  8
DETAIL
 10
397.0
 20
3.0
 30
0.0
 11
-397.0
 21
3.0
 31
0.0
  0
LINE
  5
9E14A
  8
DETAIL
 10
2.0
 20
567.49999999999989
 30
0.0
 11
397.0
 21
567.49999999999989
 31
0.0
  0
LINE
  5
9E14B
  8
DETAIL
 10
397.0
 20
550.0
 30
0.0
 11
397.0
 21
0.0
 31
0.0
  0
LINE
  5
9E14C
  8
DETAIL
 10
300.0
 20
80.0
 30
0.0
 11
300.0
 21
550.0
 31
0.0
  0
LINE
  5
9E14D
  8
DETAIL
 10
274.80000000000467
 20
83.0
 30
0.0
 11
274.80000000000467
 21
347.20000000000073
 31
0.0
  0
LINE
  5
9E14E
  8
DETAIL
 10
394.0
 20
350.0
 30
0.0
 11
394.0
 21
83.0
 31
0.0
  0
LINE
  5
9E14F
  8
DETAIL
 10
50.800000000001091
 20
83.0
 30
0.0
 11
50.800000000001091
 21
347.20000000000073
 31
0.0
  0
LINE
  5
9E150
  8
DETAIL
 10
297.0
 20
550.0
 30
0.0
 11
297.0
 21
80.0
 31
0.0
  0
LINE
  5
9E151
  8
DETAIL
 10
397.0
 20
80.0
 30
0.0
 11
297.0
 21
80.0
 31
0.0
  0
LINE
  5
9E152
  8
DETAIL
 10
400.0
 20
3.0
 30
0.0
 11
400.0
 21
83.0
 31
0.0
  0
ARC
  5
9E153
  8
DETAIL
 10
397.00000000000182
 20
3.0
 30
0.0
 40
2.9999999999988631
 50
270.0
 51
0.000000000000007
  0
LINE
  5
9E154
  8
DETAIL
 10
400.0
 20
83.0
 30
0.0
 11
397.0
 21
83.0
 31
0.0
  0
LINE
  5
9E156
  8
DETAIL
 10
347.0
 20
547.0
 30
0.0
 11
394.0
 21
547.0
 31
0.0
  0
LINE
  5
9E157
  8
DETAIL
 10
397.0
 20
350.0
 30
0.0
 11
347.0
 21
350.0
 31
0.0
  0
LINE
  5
9E158
  8
DETAIL
 10
394.0
 20
349.99999999999812
 30
0.0
 11
394.0
 21
547.0
 31
0.0
  0
LINE
  5
9E159
  8
DETAIL
 10
347.0
 20
350.0
 30
0.0
 11
347.0
 21
550.0
 31
0.0
  0
LINE
  5
9E15A
  8
DETAIL
 10
274.80000000000467
 20
550.0
 30
0.0
 11
274.80000000000467
 21
463.20000000000073
 31
0.0
  0
CIRCLE
  5
9E15B
  8
DETAIL
 10
289.8000000000028
 20
405.0
 30
0.0
 40
5.0
  0
LINE
  5
9E15C
  8
DETAIL
 10
50.800000000001091
 20
550.0
 30
0.0
 11
50.800000000001091
 21
463.20000000000073
 31
0.0
  0
LINE
  5
9E160
  8
DETAIL
 10
-300.0
 20
80.0
 30
0.0
 11
-300.0
 21
380.79999999999922
 31
0.0
  0
LINE
  5
9E161
  8
DETAIL
 10
-297.0
 20
380.79999999999922
 30
0.0
 11
-297.0
 21
80.0
 31
0.0
  0
LINE
  5
9E162
  8
DETAIL
 10
-177.95022873041299
 20
83.0
 30
0.0
 11
-177.95022873041299
 21
220.2000000000007
 31
0.0
  0
LINE
  5
9E163
  8
DETAIL
 10
-162.05022873041341
 20
83.0
 30
0.0
 11
-162.05022873041341
 21
212.25000000000179
 31
0.0
  0
LINE
  5
9E164
  8
DETAIL
 10
-296.99999999998897
 20
166.1347259145295
 30
0.0
 11
-296.99999999998897
 21
93.136868637377134
 31
0.0
  0
LINE
  5
9E165
  8
DETAIL
 10
-149.44999999999891
 20
162.5502338987753
 30
0.0
 11
-149.44999999999891
 21
128.99999999998721
 31
0.0
  0
LINE
  5
9E166
  8
DETAIL
 10
30.799999999999269
 20
83.0
 30
0.0
 11
30.799999999999269
 21
347.20000000000073
 31
0.0
  0
LINE
  5
9E167
  8
DETAIL
 10
-394.0
 20
80.0
 30
0.0
 11
-394.0
 21
350.0
 31
0.0
  0
LINE
  5
9E168
  8
DETAIL
 10
-397.0
 20
550.0
 30
0.0
 11
-397.0
 21
0.0
 31
0.0
  0
LINE
  5
9E169
  8
DETAIL
 10
-133.55000000000831
 20
186.7735931288079
 30
0.0
 11
-133.55000000000831
 21
129.199999999997
 31
0.0
  0
LINE
  5
9E16A
  8
DETAIL
 10
-149.450000000008
 20
186.77359312880981
 30
0.0
 11
-149.450000000008
 21
129.19999999998609
 31
0.0
  0
ARC
  5
9E16B
  8
DETAIL
 10
5.8000000000029104
 20
159.19999999999891
 30
0.0
 40
74.300000000000765
 50
180.0
 51
224.4702125124264
  0
ARC
  5
9E16C
  8
DETAIL
 10
5.7999999999992724
 20
159.19999999999891
 30
0.0
 40
45.699999999999591
 50
180.0
 51
270.0
  0
LINE
  5
9E16D
  8
DETAIL
 10
-297.0
 20
93.136868637375301
 30
0.0
 11
-250.98607613997771
 21
98.888609119887406
 31
0.0
  0
ARC
  5
9E16E
  8
DETAIL
 10
-250.0000000000436
 20
90.999999999947249
 30
0.0
 40
38.000000000074138
 50
347.84680253106791
 51
175.0489252567325
  0
ARC
  5
9E16F
  8
DETAIL
 10
-111.5000000000145
 20
128.99999999998721
 30
0.0
 40
37.949999999989593
 50
180.0
 51
269.99999999739441
  0
ARC
  5
9E170
  8
DETAIL
 10
-111.5000000000236
 20
129.19999999998791
 30
0.0
 40
37.949999999990268
 50
180.0
 51
269.99351000360588
  0
ARC
  5
9E171
  8
DETAIL
 10
-111.50000000002539
 20
129.19999999998609
 30
0.0
 40
22.049999999988358
 50
180.0
 51
269.99999987467493
  0
LINE
  5
9E172
  8
DETAIL
 10
-0.1999999999970896
 20
91.249999999998181
 30
0.0
 11
-111.5042986650369
 21
91.250000243455375
 31
0.0
  0
LINE
  5
9E173
  8
DETAIL
 10
-0.1999999999970896
 20
107.1499999999978
 30
0.0
 11
-111.5000000482577
 21
107.15000000502729
 31
0.0
  0
LINE
  5
9E174
  8
DETAIL
 10
25.800000000001091
 20
83.0
 30
0.0
 11
25.800000000001091
 21
116.5
 31
0.0
  0
LINE
  5
9E175
  8
DETAIL
 10
25.800000000001091
 20
84.899999999997803
 30
0.0
 11
22.800000000001091
 21
84.899999999997803
 31
0.0
  0
LINE
  5
9E176
  8
DETAIL
 10
10.80000000000109
 20
89.249999999998167
 30
0.0
 11
-0.1999999999989086
 21
89.249999999998167
 31
0.0
  0
LINE
  5
9E177
  8
DETAIL
 10
-0.1999999999989086
 20
109.1499999999978
 30
0.0
 11
-0.1999999999989086
 21
89.249999999998167
 31
0.0
  0
LINE
  5
9E178
  8
DETAIL
 10
22.800000000001091
 20
84.899999999997803
 30
0.0
 11
10.80000000000109
 21
89.249999999998167
 31
0.0
  0
ARC
  5
9E179
  8
DETAIL
 10
5.7999999999992724
 20
159.1999999999916
 30
0.0
 40
74.299999999991556
 50
246.13987133298659
 51
270.0
  0
LINE
  5
9E17A
  8
DETAIL
 10
25.800000000001091
 20
84.899999999999636
 30
0.0
 11
5.8000000000010914
 21
84.899999999999636
 31
0.0
  0
LINE
  5
9E17B
  8
DETAIL
 10
25.800000000001091
 20
113.5
 30
0.0
 11
5.8000000000010914
 21
113.5
 31
0.0
  0
LINE
  5
9E17C
  8
DETAIL
 10
25.800000000001091
 20
113.4999999999981
 30
0.0
 11
22.80000000000291
 21
113.4999999999981
 31
0.0
  0
LINE
  5
9E17D
  8
DETAIL
 10
10.799999999999271
 20
109.1499999999978
 30
0.0
 11
22.80000000000291
 21
113.4999999999981
 31
0.0
  0
LINE
  5
9E17E
  8
DETAIL
 10
-0.1999999999989086
 20
109.1499999999978
 30
0.0
 11
10.799999999999271
 21
109.1499999999978
 31
0.0
  0
LINE
  5
9E17F
  8
DETAIL
 10
-214.11393948451581
 20
78.502373798201006
 30
0.0
 11
-185.896599012005
 21
74.975206239132604
 31
0.0
  0
LINE
  5
9E180
  8
DETAIL
 10
-212.14178720454581
 20
94.279592037948547
 30
0.0
 11
-183.92444673139099
 21
90.752424478798275
 31
0.0
  0
LINE
  5
9E181
  8
DETAIL
 10
-162.05022873041341
 20
128.0
 30
0.0
 11
-156.49999999999091
 21
128.0
 31
0.0
  0
LINE
  5
9E182
  8
DETAIL
 10
-183.49999999999091
 20
128.0
 30
0.0
 11
-177.95022873041299
 21
128.0
 31
0.0
  0
ARC
  5
9E183
  8
DETAIL
 10
-169.999999999989
 20
80.999999999998181
 30
0.0
 40
10.70229759176001
 50
137.9749767254487
 51
169.229486999036
  0
ARC
  5
9E184
  8
DETAIL
 10
-169.99999999999631
 20
80.999999999994543
 30
0.0
 40
10.70229759176978
 50
10.77051300096392
 51
42.028681434556617
  0
ARC
  5
9E185
  8
DETAIL
 10
-169.999999999989
 20
80.999999999998181
 30
0.0
 40
17.000000000000949
 50
117.88254226115281
 51
173.24367296941921
  0
ARC
  5
9E186
  8
DETAIL
 10
-169.99999999998539
 20
81.000000000001819
 30
0.0
 40
16.999999999995168
 50
6.7563270305807803
 51
62.119202022051439
  0
LINE
  5
9E187
  8
DETAIL
 10
-156.49999999999091
 20
91.331989159889403
 30
0.0
 11
-156.49999999999091
 21
128.0
 31
0.0
  0
LINE
  5
9E188
  8
DETAIL
 10
-183.49999999999091
 20
91.331989159882156
 30
0.0
 11
-183.49999999999091
 21
128.0
 31
0.0
  0
ARC
  5
9E189
  8
DETAIL
 10
-249.999999999989
 20
91.000000000014566
 30
0.0
 40
12.00000000000365
 50
318.1896851041281
 51
143.8650081872463
  0
LINE
  5
9E18A
  8
DETAIL
 10
-239.03034488539561
 20
83.0
 30
0.0
 11
-234.41154273187021
 21
91.000000000014566
 31
0.0
  0
ARC
  5
9E18B
  8
DETAIL
 10
-249.99999999999079
 20
91.000000000012733
 30
0.0
 40
7.9499999999998092
 50
277.1250163489018
 51
97.125016348901795
  0
LINE
  5
9E18C
  8
DETAIL
 10
-261.60662304383908
 20
97.896739183770464
 30
0.0
 11
-257.79422863405119
 21
104.5000000000145
 31
0.0
  0
LINE
  5
9E18D
  8
DETAIL
 10
-242.2057713659305
 20
104.5000000000145
 30
0.0
 11
-234.41154273187021
 21
91.000000000014566
 31
0.0
  0
LINE
  5
9E18E
  8
DETAIL
 10
-242.2057713659305
 20
104.5000000000145
 30
0.0
 11
-257.79422863405119
 21
104.5000000000145
 31
0.0
  0
LINE
  5
9E18F
  8
DETAIL
 10
-400.0
 20
3.0
 30
0.0
 11
-400.0
 21
83.0
 31
0.0
  0
ARC
  5
9E191
  8
DETAIL
 10
-396.99999999999812
 20
3.0
 30
0.0
 40
3.000000000001136
 50
180.0
 51
270.0
  0
LINE
  5
9E192
  8
DETAIL
 10
-297.0
 20
80.0
 30
0.0
 11
-397.0
 21
80.0
 31
0.0
  0
LINE
  5
9E193
  8
DETAIL
 10
-397.0
 20
83.0
 30
0.0
 11
-400.0
 21
83.0
 31
0.0
  0
LINE
  5
9E194
  8
DETAIL
 10
-226.2054712923017
 20
430.20000000000073
 30
0.0
 11
-297.0
 21
430.20000000000073
 31
0.0
  0
LINE
  5
9E195
  8
DETAIL
 10
-228.89999999999779
 20
433.20000000000061
 30
0.0
 11
-297.0
 21
433.20000000000061
 31
0.0
  0
LINE
  5
9E196
  8
DETAIL
 10
-349.92463718784518
 20
457.0
 30
0.0
 11
-238.7649167310355
 21
457.0
 31
0.0
  0
LINE
  5
9E197
  8
DETAIL
 10
-354.0
 20
394.60000000000031
 30
0.0
 11
-234.89999999999779
 21
394.60000000000031
 31
0.0
  0
LINE
  5
9E198
  8
DETAIL
 10
-354.0
 20
388.19999999999891
 30
0.0
 11
-134.89999999999779
 21
388.19999999999891
 31
0.0
  0
LINE
  5
9E199
  8
DETAIL
 10
-67.099999999998545
 20
547.0
 30
0.0
 11
-394.0
 21
547.0
 31
0.0
  0
LINE
  5
9E19A
  8
DETAIL
 10
-279.20000000000073
 20
380.79999999999922
 30
0.0
 11
-310.20000000000073
 21
380.79999999999922
 31
0.0
  0
LINE
  5
9E19B
  8
DETAIL
 10
-280.20000000000073
 20
513.49999999999989
 30
0.0
 11
-291.70000000000073
 21
513.49999999999989
 31
0.0
  0
LINE
  5
9E19C
  8
DETAIL
 10
-280.20000000000073
 20
520.5
 30
0.0
 11
-291.70000000000073
 21
520.5
 31
0.0
  0
LINE
  5
9E19D
  8
DETAIL
 10
-280.20000000000073
 20
500.49999999999989
 30
0.0
 11
-291.70000000000073
 21
500.49999999999989
 31
0.0
  0
LINE
  5
9E19E
  8
DETAIL
 10
-280.20000000000073
 20
493.5
 30
0.0
 11
-291.70000000000073
 21
493.5
 31
0.0
  0
LINE
  5
9E19F
  8
DETAIL
 10
-280.20000000000073
 20
473.5
 30
0.0
 11
-291.70000000000073
 21
473.5
 31
0.0
  0
LINE
  5
9E1A0
  8
DETAIL
 10
-280.20000000000073
 20
480.49999999999989
 30
0.0
 11
-291.70000000000073
 21
480.49999999999989
 31
0.0
  0
LINE
  5
9E1A1
  8
DETAIL
 10
-280.20000000000073
 20
467.0
 30
0.0
 11
-302.70000000000073
 21
467.0
 31
0.0
  0
LINE
  5
9E1A2
  8
DETAIL
 10
-280.20000000000073
 20
527.0
 30
0.0
 11
-302.70000000000073
 21
527.0
 31
0.0
  0
LINE
  5
9E1A3
  8
DETAIL
 10
-397.20000000000073
 20
567.49999999999989
 30
0.0
 11
-2.2000000000007272
 21
567.49999999999989
 31
0.0
  0
LINE
  5
9E1A4
  8
DETAIL
 10
-44.665297653975351
 20
284.79170452517241
 30
0.0
 11
-127.09170452517709
 21
202.36529765397239
 31
0.0
  0
LINE
  5
9E1A5
  8
DETAIL
 10
-55.908295474842816
 20
296.0347023460381
 30
0.0
 11
-138.33470234604459
 21
213.60829547483621
 31
0.0
  0
LINE
  5
9E1A6
  8
DETAIL
 10
-39.89999999999781
 20
290.61111465125032
 30
0.0
 11
-39.89999999999781
 21
261.20000000000073
 31
0.0
  0
LINE
  5
9E1A7
  8
DETAIL
 10
-117.20700217914781
 20
212.25000000000179
 30
0.0
 11
-85.199999999991618
 21
212.25000000000179
 31
0.0
  0
LINE
  5
9E1A8
  8
DETAIL
 10
-101.30700217914629
 20
228.1500000000014
 30
0.0
 11
-85.199999999991618
 21
228.1500000000014
 31
0.0
  0
LINE
  5
9E1A9
  8
DETAIL
 10
-70.5
 20
258.95700217914958
 30
0.0
 11
-70.5
 21
240.2000000000007
 31
0.0
  0
LINE
  5
9E1AA
  8
DETAIL
 10
-68.257002179147094
 20
261.20000000000073
 30
0.0
 11
-37.89999999999781
 21
261.20000000000073
 31
0.0
  0
ARC
  5
9E1AB
  8
DETAIL
 10
-71.5
 20
207.75000000000179
 30
0.0
 40
2.9999999999995448
 50
0.000000000000007
 51
90.0
  0
LINE
  5
9E1AC
  8
DETAIL
 10
-68.5
 20
202.2000000000007
 30
0.0
 11
-68.5
 21
207.75000000000179
 31
0.0
  0
LINE
  5
9E1AD
  8
DETAIL
 10
-85.199999999989814
 20
210.75000000000179
 30
0.0
 11
-71.5
 21
210.75000000000179
 31
0.0
  0
ARC
  5
9E1AE
  8
DETAIL
 10
-71.500000000001819
 20
232.65000000000319
 30
0.0
 40
3.000000000001136
 50
270.00000000005213
 51
0.000000000000007
  0
LINE
  5
9E1AF
  8
DETAIL
 10
-85.199999999989814
 20
229.6500000000014
 30
0.0
 11
-71.5
 21
229.6500000000014
 31
0.0
  0
LINE
  5
9E1B0
  8
DETAIL
 10
-68.5
 20
238.2000000000007
 30
0.0
 11
-68.5
 21
232.6500000000014
 31
0.0
  0
LINE
  5
9E1B1
  8
DETAIL
 10
-85.199999999989814
 20
229.6500000000014
 30
0.0
 11
-85.199999999989814
 21
210.75000000000179
 31
0.0
  0
LINE
  5
9E1B2
  8
DETAIL
 10
-68.5
 20
179.2000000000007
 30
0.0
 11
-68.5
 21
159.2000000000007
 31
0.0
  0
LINE
  5
9E1B3
  8
DETAIL
 10
-39.89999999999781
 20
179.2000000000007
 30
0.0
 11
-39.89999999999781
 21
159.2000000000007
 31
0.0
  0
LINE
  5
9E1B4
  8
DETAIL
 10
-70.5
 20
179.2000000000007
 30
0.0
 11
-37.89999999999781
 21
179.2000000000007
 31
0.0
  0
LINE
  5
9E1B5
  8
DETAIL
 10
-70.5
 20
179.2000000000007
 30
0.0
 11
-70.5
 21
200.2000000000007
 31
0.0
  0
LINE
  5
9E1B6
  8
DETAIL
 10
-70.5
 20
200.2000000000007
 30
0.0
 11
-68.5
 21
202.19999999999891
 31
0.0
  0
LINE
  5
9E1B7
  8
DETAIL
 10
-37.89999999999781
 20
200.2000000000007
 30
0.0
 11
-39.89999999999781
 21
202.2000000000007
 31
0.0
  0
LINE
  5
9E1B8
  8
DETAIL
 10
-37.89999999999781
 20
179.2000000000007
 30
0.0
 11
-37.89999999999781
 21
200.2000000000007
 31
0.0
  0
LINE
  5
9E1B9
  8
DETAIL
 10
-39.89999999999781
 20
202.2000000000007
 30
0.0
 11
-39.89999999999781
 21
238.2000000000007
 31
0.0
  0
LINE
  5
9E1BA
  8
DETAIL
 10
-37.89999999999781
 20
240.2000000000007
 30
0.0
 11
-39.89999999999781
 21
238.2000000000007
 31
0.0
  0
LINE
  5
9E1BB
  8
DETAIL
 10
-37.89999999999781
 20
240.2000000000007
 30
0.0
 11
-37.89999999999781
 21
261.20000000000073
 31
0.0
  0
LINE
  5
9E1BC
  8
DETAIL
 10
-70.5
 20
240.2000000000007
 30
0.0
 11
-68.5
 21
238.2000000000007
 31
0.0
  0
ARC
  5
9E1BD
  8
DETAIL
 10
-71.5
 20
311.62640687119892
 30
0.0
 40
37.949999999995399
 50
315.0
 51
0.000000000000007
  0
LINE
  5
9E1BE
  8
DETAIL
 10
-33.549999999999272
 20
311.62640687120069
 30
0.0
 11
-33.549999999999272
 21
347.20000000000073
 31
0.0
  0
LINE
  5
9E1BF
  8
DETAIL
 10
-68.5
 20
283.44299782088092
 30
0.0
 11
-68.5
 21
347.20000000000073
 31
0.0
  0
LINE
  5
9E1C0
  8
DETAIL
 10
-49.449999999998909
 20
311.62640687120069
 30
0.0
 11
-49.449999999998909
 21
347.20000000000073
 31
0.0
  0
ARC
  5
9E1C1
  8
DETAIL
 10
-71.500000000007276
 20
311.62640687120251
 30
0.0
 40
22.050000000001539
 50
315.0
 51
0.000000000000007
  0
LINE
  5
9E1C2
  8
DETAIL
 10
-170.00022873041411
 20
212.25000000000179
 30
0.0
 11
-139.62748109828129
 21
212.25000000000179
 31
0.0
  0
LINE
  5
9E1C3
  8
DETAIL
 10
-170.0002287304159
 20
228.1500000000014
 30
0.0
 11
-123.79299782087941
 21
228.1500000000014
 31
0.0
  0
ARC
  5
9E1C4
  8
DETAIL
 10
-170.00022873041229
 20
220.2000000000007
 30
0.0
 40
7.9499999999998172
 50
90.0
 51
270.0
  0
ARC
  5
9E1C5
  8
DETAIL
 10
-111.5000000000109
 20
186.77359312880611
 30
0.0
 40
22.050000000002459
 50
135.0
 51
180.0
  0
ARC
  5
9E1C6
  8
DETAIL
 10
-111.5000000000163
 20
186.7735931288079
 30
0.0
 40
37.94999999999753
 50
135.0
 51
180.0
  0
LINE
  5
9E1C7
  8
DETAIL
 10
-115.3999999999978
 20
427.90461439720627
 30
0.0
 11
-123.3999999999978
 21
427.90461439720627
 31
0.0
  0
LINE
  5
9E1C8
  8
DETAIL
 10
-128.89999999999779
 20
432.40461439720627
 30
0.0
 11
-109.8999999999978
 21
432.40461439720627
 31
0.0
  0
LINE
  5
9E1C9
  8
DETAIL
 10
-109.8999999999978
 20
443.40461439720627
 30
0.0
 11
-128.89999999999779
 21
443.40461439720627
 31
0.0
  0
LINE
  5
9E1CA
  8
DETAIL
 10
-269.39999999999782
 20
549.29999999999927
 30
0.0
 11
-69.399999999997803
 21
549.29999999999927
 31
0.0
  0
LINE
  5
9E1CB
  8
DETAIL
 10
-130.00638999321009
 20
501.60621000016909
 30
0.0
 11
-101.72199999999791
 21
473.3222999999997
 31
0.0
  0
CIRCLE
  5
9E1CC
  8
DETAIL
 10
-119.3999999999978
 20
526.9999999999618
 30
0.0
 40
2.25
  0
CIRCLE
  5
9E1CD
  8
DETAIL
 10
-119.3999999999978
 20
526.9999999999618
 30
0.0
 40
2.25
  0
ARC
  5
9E1CE
  8
DETAIL
 10
-119.3999999999978
 20
384.99999999999812
 30
0.0
 40
4.2000000000005651
 50
139.63240645582869
 51
40.367593544171257
  0
ARC
  5
9E1CF
  8
DETAIL
 10
-119.3999999999978
 20
384.99999999999812
 30
0.0
 40
3.2000000000007272
 50
180.0
 51
0.000000000000007
  0
LINE
  5
9E1D0
  8
DETAIL
 10
-103.8999999999978
 20
380.79999999999922
 30
0.0
 11
-134.89999999999779
 21
380.79999999999922
 31
0.0
  0
LINE
  5
9E1D1
  8
DETAIL
 10
-110.3999999999978
 20
449.0
 30
0.0
 11
-128.39999999999779
 21
449.0
 31
0.0
  0
CIRCLE
  5
9E1D2
  8
DETAIL
 10
-119.3999999999978
 20
491.0
 30
0.0
 40
30.0
  0
CIRCLE
  5
9E1D3
  8
DETAIL
 10
-119.3999999999978
 20
491.0
 30
0.0
 40
32.5
  0
CIRCLE
  5
9E1D4
  8
DETAIL
 10
-119.3999999999978
 20
491.0
 30
0.0
 40
40.0
  0
LINE
  5
9E1D5
  8
DETAIL
 10
-36.399999999997817
 20
482.89999999999958
 30
0.0
 11
-36.399999999997817
 21
502.0
 31
0.0
  0
LINE
  5
9E1D6
  8
DETAIL
 10
-57.799999999999272
 20
482.9000000000014
 30
0.0
 11
-57.799999999999272
 21
502.0
 31
0.0
  0
LINE
  5
9E1D7
  8
DETAIL
 10
-67.099999999998545
 20
437.0
 30
0.0
 11
-67.099999999998545
 21
547.0
 31
0.0
  0
LINE
  5
9E1D8
  8
DETAIL
 10
-69.399999999997803
 20
457.0
 30
0.0
 11
-69.399999999997803
 21
547.0
 31
0.0
  0
LINE
  5
9E1D9
  8
DETAIL
 10
30.799999999999269
 20
550.0
 30
0.0
 11
30.799999999999269
 21
463.20000000000073
 31
0.0
  0
LINE
  5
9E1DA
  8
DETAIL
 10
-24.0
 20
463.39999999999958
 30
0.0
 11
-24.0
 21
500.8136606355892
 31
0.0
  0
LINE
  5
9E1DB
  8
DETAIL
 10
-59.0
 20
463.39999999999958
 30
0.0
 11
-59.0
 21
500.8136606355892
 31
0.0
  0
LINE
  5
9E1DC
  8
DETAIL
 10
-33.799999999997453
 20
480.29999999999922
 30
0.0
 11
-36.399999999997817
 21
482.89999999999958
 31
0.0
  0
LINE
  5
9E1DD
  8
DETAIL
 10
-60.399999999997817
 20
480.29999999999922
 30
0.0
 11
-33.799999999997453
 21
480.29999999999922
 31
0.0
  0
LINE
  5
9E1DE
  8
DETAIL
 10
-33.799999999997453
 20
473.29999999999922
 30
0.0
 11
-60.399999999997817
 21
473.29999999999922
 31
0.0
  0
LINE
  5
9E1DF
  8
DETAIL
 10
-33.799999999997453
 20
473.29999999999922
 30
0.0
 11
-33.799999999997453
 21
480.29999999999922
 31
0.0
  0
CIRCLE
  5
9E1E0
  8
DETAIL
 10
35.80000000000291
 20
405.0
 30
0.0
 40
5.0
  0
LINE
  5
9E1E1
  8
DETAIL
 10
-116.199999999997
 20
427.90461439720627
 30
0.0
 11
-116.199999999997
 21
385.0
 31
0.0
  0
LINE
  5
9E1E2
  8
DETAIL
 10
-114.8999999999978
 20
443.40461439720627
 30
0.0
 11
-114.8999999999978
 21
449.0
 31
0.0
  0
LINE
  5
9E1E3
  8
DETAIL
 10
-109.8999999999978
 20
432.40461439720627
 30
0.0
 11
-115.3999999999978
 21
427.90461439720627
 31
0.0
  0
LINE
  5
9E1E4
  8
DETAIL
 10
-114.8999999999978
 20
443.40461439720627
 30
0.0
 11
-114.8999999999978
 21
432.40461439720627
 31
0.0
  0
LINE
  5
9E1E5
  8
DETAIL
 10
-109.8999999999978
 20
432.40461439720627
 30
0.0
 11
-109.8999999999978
 21
443.40461439720627
 31
0.0
  0
LINE
  5
9E1E6
  8
DETAIL
 10
-98.328692494293151
 20
457.0
 30
0.0
 11
-67.099999999998545
 21
457.0
 31
0.0
  0
LINE
  5
9E1E7
  8
DETAIL
 10
-67.099999999998545
 20
463.20000000000073
 30
0.0
 11
-52.099999999998552
 21
463.20000000000073
 31
0.0
  0
LINE
  5
9E1E8
  8
DETAIL
 10
-48.299999999999272
 20
458.49999999999989
 30
0.0
 11
-48.299999999999272
 21
385.0
 31
0.0
  0
LINE
  5
9E1E9
  8
DETAIL
 10
-45.899999999997817
 20
458.49999999999989
 30
0.0
 11
-45.899999999997817
 21
385.0
 31
0.0
  0
ARC
  5
9E1EA
  8
DETAIL
 10
-55.099999999998552
 20
470.49999999999818
 30
0.0
 40
1.9999999999990901
 50
180.0
 51
270.00000000005213
  0
LINE
  5
9E1EB
  8
DETAIL
 10
-57.099999999998552
 20
473.2999999999974
 30
0.0
 11
-57.099999999998552
 21
470.5
 31
0.0
  0
LINE
  5
9E1EC
  8
DETAIL
 10
-39.099999999998538
 20
468.5
 30
0.0
 11
-55.099999999998552
 21
468.5
 31
0.0
  0
ARC
  5
9E1ED
  8
DETAIL
 10
-39.099999999998538
 20
470.5
 30
0.0
 40
2.0000000000006808
 50
270.0
 51
0.000000000000007
  0
LINE
  5
9E1EE
  8
DETAIL
 10
-37.099999999998538
 20
473.2999999999974
 30
0.0
 11
-37.099999999998538
 21
470.5
 31
0.0
  0
LINE
  5
9E1EF
  8
DETAIL
 10
-36.399999999997817
 20
482.89999999999958
 30
0.0
 11
-57.799999999999272
 21
482.9000000000014
 31
0.0
  0
LINE
  5
9E1F0
  8
DETAIL
 10
-60.399999999997817
 20
480.29999999999922
 30
0.0
 11
-57.799999999999272
 21
482.9000000000014
 31
0.0
  0
LINE
  5
9E1F1
  8
DETAIL
 10
-52.099999999998552
 20
468.5
 30
0.0
 11
-52.099999999998552
 21
458.49999999999989
 31
0.0
  0
LINE
  5
9E1F2
  8
DETAIL
 10
-42.099999999998538
 20
468.5
 30
0.0
 11
-42.099999999998538
 21
458.49999999999989
 31
0.0
  0
LINE
  5
9E1F3
  8
DETAIL
 10
-60.399999999997817
 20
473.29999999999922
 30
0.0
 11
-60.399999999997817
 21
480.29999999999922
 31
0.0
  0
LINE
  5
9E1F4
  8
DETAIL
 10
-52.099999999998552
 20
458.49999999999989
 30
0.0
 11
-42.099999999998538
 21
458.49999999999989
 31
0.0
  0
LINE
  5
9E1F5
  8
DETAIL
 10
-67.099999999998545
 20
437.0
 30
0.0
 11
-69.399999999997803
 21
437.0
 31
0.0
  0
LINE
  5
9E1F6
  8
DETAIL
 10
-69.399999999997803
 20
457.0
 30
0.0
 11
-69.399999999997803
 21
437.0
 31
0.0
  0
LINE
  5
9E1F7
  8
DETAIL
 10
-57.099999999998552
 20
392.60000000000031
 30
0.0
 11
-116.199999999997
 21
392.60000000000031
 31
0.0
  0
LINE
  5
9E1F8
  8
DETAIL
 10
-57.099999999998552
 20
390.19999999999879
 30
0.0
 11
-116.199999999997
 21
390.19999999999879
 31
0.0
  0
ARC
  5
9E1F9
  8
DETAIL
 10
-57.099999999998552
 20
401.39999999999782
 30
0.0
 40
11.19999999999831
 50
270.0
 51
321.78678929831062
  0
ARC
  5
9E1FA
  8
DETAIL
 10
-57.099999999996733
 20
401.39999999999782
 30
0.0
 40
8.7999999999983611
 50
270.0
 51
0.000000000000007
  0
LINE
  5
9E1FB
  8
DETAIL
 10
-47.099999999998538
 20
383.79999999999922
 30
0.0
 11
-59.89999999999781
 21
383.79999999999922
 31
0.0
  0
LINE
  5
9E1FC
  8
DETAIL
 10
-48.299999999999272
 20
386.19999999999891
 30
0.0
 11
-59.89999999999781
 21
386.19999999999891
 31
0.0
  0
ARC
  5
9E1FD
  8
DETAIL
 10
-47.099999999998538
 20
385.0
 30
0.0
 40
1.200000000000045
 50
180.0
 51
0.000000000000007
  0
CIRCLE
  5
9E1FE
  8
DETAIL
 10
-88.223085464778706
 20
473.0000000005893
 30
0.0
 40
2.25
  0
LINE
  5
9E1FF
  8
DETAIL
 10
-103.8999999999978
 20
381.79999999999922
 30
0.0
 11
-72.899999999997817
 21
381.79999999999922
 31
0.0
  0
LINE
  5
9E200
  8
DETAIL
 10
-103.8999999999978
 20
388.19999999999891
 30
0.0
 11
-72.899999999997817
 21
388.19999999999891
 31
0.0
  0
LINE
  5
9E201
  8
DETAIL
 10
-69.899999999997803
 20
382.79999999999922
 30
0.0
 11
-59.89999999999781
 21
382.79999999999922
 31
0.0
  0
LINE
  5
9E202
  8
DETAIL
 10
-59.89999999999781
 20
387.19999999999891
 30
0.0
 11
-59.89999999999781
 21
382.79999999999922
 31
0.0
  0
LINE
  5
9E203
  8
DETAIL
 10
-69.899999999997803
 20
387.19999999999891
 30
0.0
 11
-59.89999999999781
 21
387.19999999999891
 31
0.0
  0
LINE
  5
9E204
  8
DETAIL
 10
-69.899999999997803
 20
382.79999999999922
 30
0.0
 11
-72.899999999997817
 21
381.79999999999922
 31
0.0
  0
LINE
  5
9E205
  8
DETAIL
 10
-72.899999999997817
 20
388.19999999999891
 30
0.0
 11
-69.899999999997803
 21
387.19999999999891
 31
0.0
  0
LINE
  5
9E206
  8
DETAIL
 10
-116.199999999997
 20
389.19999999999891
 30
0.0
 11
-103.8999999999978
 21
389.19999999999891
 31
0.0
  0
LINE
  5
9E207
  8
DETAIL
 10
-103.8999999999978
 20
389.19999999999891
 30
0.0
 11
-103.8999999999978
 21
380.79999999999922
 31
0.0
  0
LINE
  5
9E208
  8
DETAIL
 10
-101.72199999999791
 20
473.32220000000041
 30
0.0
 11
-104.22199999999791
 21
477.65229999999968
 31
0.0
  0
LINE
  5
9E209
  8
DETAIL
 10
-101.72199999999791
 20
473.3222999999997
 30
0.0
 11
-106.05199999999959
 21
475.82229999999981
 31
0.0
  0
LINE
  5
9E20A
  8
DETAIL
 10
-110.3999999999978
 20
459.77149999999892
 30
0.0
 11
-110.3999999999978
 21
449.0
 31
0.0
  0
LINE
  5
9E20B
  8
DETAIL
 10
-35.761539235656521
 20
510.55691854760869
 30
0.0
 11
-47.238460764339827
 21
510.55691854760869
 31
0.0
  0
LINE
  5
9E20C
  8
DETAIL
 10
-33.0
 20
509.8136606355892
 30
0.0
 11
-50.0
 21
509.8136606355892
 31
0.0
  0
LINE
  5
9E20D
  8
DETAIL
 10
-35.761539235656521
 20
509.81366063558562
 30
0.0
 11
-35.761539235656521
 21
510.55691854760869
 31
0.0
  0
ARC
  5
9E20E
  8
DETAIL
 10
-32.999999999998181
 20
500.81366063559102
 30
0.0
 40
8.9999999999977263
 50
0.000000000000007
 51
90.0
  0
LINE
  5
9E20F
  8
DETAIL
 10
-57.799999999999272
 20
502.0
 30
0.0
 11
-36.399999999997817
 21
502.0
 31
0.0
  0
LINE
  5
9E210
  8
DETAIL
 10
-69.399999999997803
 20
547.0
 30
0.0
 11
-69.399999999997803
 21
549.29999999999927
 31
0.0
  0
LINE
  5
9E211
  8
DETAIL
 10
-39.138530450705723
 20
511.64999999999958
 30
0.0
 11
-43.861469549290632
 21
511.64999999999958
 31
0.0
  0
LINE
  5
9E212
  8
DETAIL
 10
-43.861469549290632
 20
510.55691854760698
 30
0.0
 11
-43.861469549290632
 21
511.64999999999958
 31
0.0
  0
LINE
  5
9E213
  8
DETAIL
 10
-47.238460764339827
 20
509.81366063558562
 30
0.0
 11
-47.238460764339827
 21
510.55691854760869
 31
0.0
  0
LINE
  5
9E214
  8
DETAIL
 10
-39.138530450705723
 20
510.55691854760698
 30
0.0
 11
-39.138530450705723
 21
511.64999999999958
 31
0.0
  0
ARC
  5
9E215
  8
DETAIL
 10
-50.0
 20
500.8136606355892
 30
0.0
 40
9.0000000000009095
 50
90.0
 51
180.0
  0
LINE
  5
9E216
  8
DETAIL
 10
-230.00638999321009
 20
502.60621000016903
 30
0.0
 11
-201.72199999999791
 21
474.32229999999981
 31
0.0
  0
LINE
  5
9E217
  8
DETAIL
 10
-269.39999999999782
 20
457.0
 30
0.0
 11
-269.39999999999782
 21
547.0
 31
0.0
  0
CIRCLE
  5
9E218
  8
DETAIL
 10
-219.39999999999779
 20
492.0
 30
0.0
 40
30.0
  0
CIRCLE
  5
9E219
  8
DETAIL
 10
-219.39999999999779
 20
492.0
 30
0.0
 40
32.5
  0
CIRCLE
  5
9E21A
  8
DETAIL
 10
-219.39999999999779
 20
492.0
 30
0.0
 40
40.0
  0
LINE
  5
9E21B
  8
DETAIL
 10
-271.70000000000073
 20
457.0
 30
0.0
 11
-271.70000000000073
 21
547.0
 31
0.0
  0
LINE
  5
9E21C
  8
DETAIL
 10
-212.5945287076938
 20
430.20000000000073
 30
0.0
 11
-126.20547129230179
 21
430.20000000000073
 31
0.0
  0
LINE
  5
9E21D
  8
DETAIL
 10
-128.89999999999779
 20
433.20000000000061
 30
0.0
 11
-209.8999999999977
 21
433.20000000000061
 31
0.0
  0
LINE
  5
9E21E
  8
DETAIL
 10
-280.10000000000213
 20
381.79999999999922
 30
0.0
 11
-134.89999999999779
 21
381.79999999999922
 31
0.0
  0
LINE
  5
9E21F
  8
DETAIL
 10
-203.89999999999779
 20
394.60000000000031
 30
0.0
 11
-172.89999999999779
 21
394.60000000000031
 31
0.0
  0
LINE
  5
9E220
  8
DETAIL
 10
-122.5999999999985
 20
427.90461439720627
 30
0.0
 11
-122.5999999999985
 21
384.99999999999812
 31
0.0
  0
LINE
  5
9E221
  8
DETAIL
 10
-123.8999999999978
 20
443.40461439720627
 30
0.0
 11
-123.8999999999978
 21
449.0
 31
0.0
  0
LINE
  5
9E222
  8
DETAIL
 10
-123.3999999999978
 20
427.90461439720627
 30
0.0
 11
-128.89999999999779
 21
432.40461439720627
 31
0.0
  0
LINE
  5
9E223
  8
DETAIL
 10
-123.8999999999978
 20
432.40461439720627
 30
0.0
 11
-123.8999999999978
 21
443.40461439720627
 31
0.0
  0
LINE
  5
9E224
  8
DETAIL
 10
-128.89999999999779
 20
443.40461439720627
 30
0.0
 11
-128.89999999999779
 21
432.40461439720627
 31
0.0
  0
LINE
  5
9E225
  8
DETAIL
 10
-200.0350832689619
 20
457.0
 30
0.0
 11
-140.47130750570429
 21
457.0
 31
0.0
  0
CIRCLE
  5
9E226
  8
DETAIL
 10
-150.57691453555159
 20
473.00000000039648
 30
0.0
 40
2.25
  0
CIRCLE
  5
9E227
  8
DETAIL
 10
-150.57691453555159
 20
473.00000000039648
 30
0.0
 40
2.25
  0
CIRCLE
  5
9E228
  8
DETAIL
 10
-188.22308546477871
 20
474.0000000005893
 30
0.0
 40
2.25
  0
LINE
  5
9E229
  8
DETAIL
 10
-122.5999999999985
 20
392.60000000000031
 30
0.0
 11
-159.89999999999779
 21
392.60000000000031
 31
0.0
  0
LINE
  5
9E22A
  8
DETAIL
 10
-122.5999999999985
 20
390.19999999999879
 30
0.0
 11
-159.89999999999779
 21
390.19999999999879
 31
0.0
  0
LINE
  5
9E22B
  8
DETAIL
 10
-169.89999999999779
 20
389.19999999999891
 30
0.0
 11
-159.89999999999779
 21
389.19999999999891
 31
0.0
  0
LINE
  5
9E22C
  8
DETAIL
 10
-159.89999999999779
 20
393.60000000000031
 30
0.0
 11
-159.89999999999779
 21
389.19999999999891
 31
0.0
  0
LINE
  5
9E22D
  8
DETAIL
 10
-169.89999999999779
 20
393.60000000000031
 30
0.0
 11
-159.89999999999779
 21
393.60000000000031
 31
0.0
  0
LINE
  5
9E22E
  8
DETAIL
 10
-169.89999999999779
 20
389.19999999999891
 30
0.0
 11
-172.89999999999779
 21
388.19999999999891
 31
0.0
  0
LINE
  5
9E22F
  8
DETAIL
 10
-172.89999999999779
 20
394.60000000000031
 30
0.0
 11
-169.89999999999779
 21
393.60000000000031
 31
0.0
  0
LINE
  5
9E230
  8
DETAIL
 10
-134.89999999999779
 20
389.19999999999891
 30
0.0
 11
-122.5999999999985
 21
389.19999999999891
 31
0.0
  0
LINE
  5
9E231
  8
DETAIL
 10
-134.89999999999779
 20
389.19999999999891
 30
0.0
 11
-134.89999999999779
 21
380.79999999999922
 31
0.0
  0
LINE
  5
9E232
  8
DETAIL
 10
-128.39999999999779
 20
459.77149999999892
 30
0.0
 11
-128.39999999999779
 21
449.0
 31
0.0
  0
LINE
  5
9E233
  8
DETAIL
 10
-216.19999999999891
 20
427.90461439720627
 30
0.0
 11
-216.19999999999891
 21
391.39999999999958
 31
0.0
  0
LINE
  5
9E234
  8
DETAIL
 10
-222.59999999999849
 20
427.90461439720627
 30
0.0
 11
-222.59999999999849
 21
391.39999999999782
 31
0.0
  0
LINE
  5
9E235
  8
DETAIL
 10
-214.89999999999779
 20
443.40461439720627
 30
0.0
 11
-214.89999999999779
 21
450.0
 31
0.0
  0
LINE
  5
9E236
  8
DETAIL
 10
-223.89999999999779
 20
443.40461439720627
 30
0.0
 11
-223.89999999999779
 21
450.0
 31
0.0
  0
LINE
  5
9E237
  8
DETAIL
 10
-223.39999999999779
 20
427.90461439720627
 30
0.0
 11
-228.89999999999779
 21
432.40461439720627
 31
0.0
  0
LINE
  5
9E238
  8
DETAIL
 10
-215.39999999999779
 20
427.90461439720627
 30
0.0
 11
-223.39999999999779
 21
427.90461439720627
 31
0.0
  0
LINE
  5
9E239
  8
DETAIL
 10
-209.8999999999977
 20
432.40461439720627
 30
0.0
 11
-215.39999999999779
 21
427.90461439720627
 31
0.0
  0
LINE
  5
9E23A
  8
DETAIL
 10
-228.89999999999779
 20
432.40461439720627
 30
0.0
 11
-209.8999999999977
 21
432.40461439720627
 31
0.0
  0
LINE
  5
9E23B
  8
DETAIL
 10
-209.8999999999977
 20
432.40461439720627
 30
0.0
 11
-209.8999999999977
 21
443.40461439720627
 31
0.0
  0
LINE
  5
9E23C
  8
DETAIL
 10
-214.89999999999779
 20
443.40461439720627
 30
0.0
 11
-214.89999999999779
 21
432.40461439720627
 31
0.0
  0
LINE
  5
9E23D
  8
DETAIL
 10
-223.89999999999779
 20
432.40461439720627
 30
0.0
 11
-223.89999999999779
 21
443.40461439720627
 31
0.0
  0
LINE
  5
9E23E
  8
DETAIL
 10
-228.89999999999779
 20
443.40461439720627
 30
0.0
 11
-228.89999999999779
 21
432.40461439720627
 31
0.0
  0
LINE
  5
9E23F
  8
DETAIL
 10
-209.8999999999977
 20
443.40461439720627
 30
0.0
 11
-228.89999999999779
 21
443.40461439720627
 31
0.0
  0
CIRCLE
  5
9E240
  8
DETAIL
 10
-250.57691453555159
 20
474.00000000039648
 30
0.0
 40
2.25
  0
CIRCLE
  5
9E241
  8
DETAIL
 10
-250.57691453555159
 20
474.00000000039648
 30
0.0
 40
2.25
  0
ARC
  5
9E242
  8
DETAIL
 10
-219.39999999999779
 20
391.39999999999782
 30
0.0
 40
4.2000000000002613
 50
139.63240645582869
 51
229.63240645578901
  0
ARC
  5
9E243
  8
DETAIL
 10
-219.39999999999779
 20
391.39999999999782
 30
0.0
 40
4.2000000000005651
 50
310.36759354421088
 51
40.367593544171257
  0
LINE
  5
9E244
  8
DETAIL
 10
-234.89999999999779
 20
388.19999999999891
 30
0.0
 11
-234.89999999999779
 21
395.60000000000031
 31
0.0
  0
LINE
  5
9E245
  8
DETAIL
 10
-203.89999999999779
 20
388.19999999999891
 30
0.0
 11
-203.89999999999779
 21
395.60000000000031
 31
0.0
  0
LINE
  5
9E246
  8
DETAIL
 10
-234.89999999999779
 20
395.60000000000031
 30
0.0
 11
-222.59999999999849
 21
395.60000000000031
 31
0.0
  0
LINE
  5
9E247
  8
DETAIL
 10
-216.19999999999891
 20
395.60000000000031
 30
0.0
 11
-203.89999999999779
 21
395.60000000000031
 31
0.0
  0
ARC
  5
9E248
  8
DETAIL
 10
-219.39999999999779
 20
391.39999999999782
 30
0.0
 40
3.2000000000007272
 50
180.0
 51
0.000000000000007
  0
LINE
  5
9E249
  8
DETAIL
 10
-201.72199999999791
 20
474.32220000000052
 30
0.0
 11
-204.22199999999791
 21
478.65229999999968
 31
0.0
  0
LINE
  5
9E24A
  8
DETAIL
 10
-201.72199999999791
 20
474.32229999999981
 30
0.0
 11
-206.05199999999959
 21
476.82229999999981
 31
0.0
  0
LINE
  5
9E24B
  8
DETAIL
 10
-228.39999999999779
 20
450.0
 30
0.0
 11
-210.39999999999779
 21
450.0
 31
0.0
  0
LINE
  5
9E24C
  8
DETAIL
 10
-210.39999999999779
 20
460.77149999999892
 30
0.0
 11
-210.39999999999779
 21
450.0
 31
0.0
  0
LINE
  5
9E24D
  8
DETAIL
 10
-228.39999999999779
 20
460.77149999999892
 30
0.0
 11
-228.39999999999779
 21
450.0
 31
0.0
  0
LINE
  5
9E24E
  8
DETAIL
 10
-279.20000000000073
 20
388.20000000000073
 30
0.0
 11
-279.20000000000073
 21
380.79999999999922
 31
0.0
  0
LINE
  5
9E24F
  8
DETAIL
 10
-280.20000000000073
 20
467.0
 30
0.0
 11
-280.20000000000073
 21
473.5
 31
0.0
  0
LINE
  5
9E250
  8
DETAIL
 10
-280.20000000000073
 20
493.5
 30
0.0
 11
-280.20000000000073
 21
480.49999999999989
 31
0.0
  0
LINE
  5
9E251
  8
DETAIL
 10
-269.39999999999782
 20
547.0
 30
0.0
 11
-269.39999999999782
 21
549.29999999999927
 31
0.0
  0
CIRCLE
  5
9E252
  8
DETAIL
 10
-219.39999999999779
 20
527.9999999999618
 30
0.0
 40
2.25
  0
CIRCLE
  5
9E253
  8
DETAIL
 10
-219.39999999999779
 20
527.9999999999618
 30
0.0
 40
2.25
  0
LINE
  5
9E254
  8
DETAIL
 10
-280.20000000000073
 20
527.0
 30
0.0
 11
-280.20000000000073
 21
520.5
 31
0.0
  0
LINE
  5
9E255
  8
DETAIL
 10
-280.20000000000073
 20
513.50000000000182
 30
0.0
 11
-280.20000000000073
 21
500.49999999999989
 31
0.0
  0
LINE
  5
9E256
  8
DETAIL
 10
-394.0
 20
349.99999999999812
 30
0.0
 11
-394.0
 21
546.99999999999807
 31
0.0
  0
LINE
  5
9E257
  8
DETAIL
 10
-347.0
 20
381.79999999999922
 30
0.0
 11
-347.0
 21
350.0
 31
0.0
  0
LINE
  5
9E258
  8
DETAIL
 10
-397.0
 20
350.0
 30
0.0
 11
-347.0
 21
350.0
 31
0.0
  0
LINE
  5
9E259
  8
DETAIL
 10
-391.70000000000073
 20
457.0
 30
0.0
 11
-391.70000000000073
 21
546.99999999999807
 31
0.0
  0
LINE
  5
9E25A
  8
DETAIL
 10
-302.70000000000073
 20
525.375
 30
0.0
 11
-302.70000000000073
 21
468.625
 31
0.0
  0
ARC
  5
9E25B
  8
DETAIL
 10
-291.70000000000073
 20
497.0
 30
0.0
 40
3.5
 50
90.0
 51
270.0
  0
LINE
  5
9E25C
  8
DETAIL
 10
-300.70000000000073
 20
527.0
 30
0.0
 11
-300.70000000000073
 21
467.0
 31
0.0
  0
LINE
  5
9E25D
  8
DETAIL
 10
-376.20000000000073
 20
525.39999999999964
 30
0.0
 11
-376.20000000000073
 21
467.20000000000073
 31
0.0
  0
LINE
  5
9E25E
  8
DETAIL
 10
-317.20000000000073
 20
525.39999999999964
 30
0.0
 11
-317.20000000000073
 21
467.20000000000073
 31
0.0
  0
LINE
  5
9E25F
  8
DETAIL
 10
-370.11584159893391
 20
460.78202073425012
 30
0.0
 11
-344.28415840106391
 21
460.78202073425012
 31
0.0
  0
LINE
  5
9E260
  8
DETAIL
 10
-364.47536281215429
 20
457.5
 30
0.0
 11
-349.92463718784518
 21
457.5
 31
0.0
  0
LINE
  5
9E261
  8
DETAIL
 10
-364.47536281215429
 20
450.469564625413
 30
0.0
 11
-349.92463718784518
 21
450.469564625413
 31
0.0
  0
LINE
  5
9E262
  8
DETAIL
 10
-361.20000000000073
 20
430.71870884215411
 30
0.0
 11
-366.70000000000073
 21
435.21870884215417
 31
0.0
  0
LINE
  5
9E263
  8
DETAIL
 10
-366.70000000000073
 20
435.21870884215417
 30
0.0
 11
-347.70000000000073
 21
435.21870884215417
 31
0.0
  0
LINE
  5
9E264
  8
DETAIL
 10
-347.70000000000073
 20
446.21870884215417
 30
0.0
 11
-366.70000000000073
 21
446.21870884215417
 31
0.0
  0
LINE
  5
9E265
  8
DETAIL
 10
-317.20000000000073
 20
467.20000000000073
 30
0.0
 11
-376.20000000000073
 21
467.20000000000073
 31
0.0
  0
LINE
  5
9E266
  8
DETAIL
 10
-347.0
 20
457.0
 30
0.0
 11
-347.0
 21
394.60000000000031
 31
0.0
  0
LINE
  5
9E267
  8
DETAIL
 10
-300.0
 20
457.0
 30
0.0
 11
-300.0
 21
394.60000000000031
 31
0.0
  0
LINE
  5
9E268
  8
DETAIL
 10
-297.0
 20
457.0
 30
0.0
 11
-297.0
 21
394.60000000000031
 31
0.0
  0
LINE
  5
9E269
  8
DETAIL
 10
-357.20000000000073
 20
381.79999999999922
 30
0.0
 11
-310.20000000000073
 21
381.79999999999922
 31
0.0
  0
LINE
  5
9E26A
  8
DETAIL
 10
-310.20000000000073
 20
388.20000000000073
 30
0.0
 11
-310.20000000000073
 21
380.79999999999922
 31
0.0
  0
ARC
  5
9E26B
  8
DETAIL
 10
-357.20000000000073
 20
385.0
 30
0.0
 40
3.1999999999998181
 50
180.0
 51
0.000000000000007
  0
LINE
  5
9E26C
  8
DETAIL
 10
-360.39999999999782
 20
385.0
 30
0.0
 11
-360.39999999999782
 21
430.71870884215411
 31
0.0
  0
LINE
  5
9E26D
  8
DETAIL
 10
-354.0
 20
385.0
 30
0.0
 11
-354.0
 21
430.71870884215411
 31
0.0
  0
LINE
  5
9E26E
  8
DETAIL
 10
-300.70000000000073
 20
468.37499999999989
 30
0.0
 11
-317.20000000000073
 21
470.43749999999989
 31
0.0
  0
ARC
  5
9E26F
  8
DETAIL
 10
-291.70000000000073
 20
477.0
 30
0.0
 40
3.5
 50
90.0
 51
270.0
  0
LINE
  5
9E270
  8
DETAIL
 10
-302.70000000000073
 20
468.625
 30
0.0
 11
-302.70000000000073
 21
467.0
 31
0.0
  0
LINE
  5
9E271
  8
DETAIL
 10
-351.92463718784518
 20
460.78202073425012
 30
0.0
 11
-351.92463718784518
 21
457.5
 31
0.0
  0
LINE
  5
9E272
  8
DETAIL
 10
-362.47536281215429
 20
460.78202073425012
 30
0.0
 11
-362.47536281215429
 21
457.5
 31
0.0
  0
LINE
  5
9E273
  8
DETAIL
 10
-344.28415840106391
 20
467.20000000000073
 30
0.0
 11
-344.28415840106391
 21
460.78202073425012
 31
0.0
  0
LINE
  5
9E274
  8
DETAIL
 10
-349.92463718784518
 20
450.469564625413
 30
0.0
 11
-349.92463718784518
 21
457.5
 31
0.0
  0
LINE
  5
9E275
  8
DETAIL
 10
-351.92463718784518
 20
450.469564625413
 30
0.0
 11
-351.92463718784518
 21
446.21870884215417
 31
0.0
  0
LINE
  5
9E276
  8
DETAIL
 10
-362.47536281215429
 20
450.469564625413
 30
0.0
 11
-362.47536281215429
 21
446.21870884215417
 31
0.0
  0
LINE
  5
9E277
  8
DETAIL
 10
-354.20000000000073
 20
450.469564625413
 30
0.0
 11
-354.20000000000073
 21
457.5
 31
0.0
  0
LINE
  5
9E278
  8
DETAIL
 10
-360.20000000000073
 20
450.469564625413
 30
0.0
 11
-360.20000000000073
 21
457.5
 31
0.0
  0
LINE
  5
9E279
  8
DETAIL
 10
-352.70000000000073
 20
446.21870884215417
 30
0.0
 11
-352.70000000000073
 21
435.21870884215417
 31
0.0
  0
LINE
  5
9E27A
  8
DETAIL
 10
-361.70000000000073
 20
435.21870884215417
 30
0.0
 11
-361.70000000000073
 21
446.21870884215417
 31
0.0
  0
LINE
  5
9E27B
  8
DETAIL
 10
-353.20000000000073
 20
430.71870884215411
 30
0.0
 11
-361.20000000000073
 21
430.71870884215411
 31
0.0
  0
LINE
  5
9E27C
  8
DETAIL
 10
-347.70000000000073
 20
435.21870884215417
 30
0.0
 11
-353.20000000000073
 21
430.71870884215411
 31
0.0
  0
LINE
  5
9E27D
  8
DETAIL
 10
-347.70000000000073
 20
435.21870884215417
 30
0.0
 11
-347.70000000000073
 21
446.21870884215417
 31
0.0
  0
LINE
  5
9E27E
  8
DETAIL
 10
-394.0
 20
457.0
 30
0.0
 11
-364.47536281215429
 21
457.0
 31
0.0
  0
LINE
  5
9E27F
  8
DETAIL
 10
-370.11584159893391
 20
467.20000000000073
 30
0.0
 11
-370.11584159893391
 21
460.78202073425012
 31
0.0
  0
LINE
  5
9E280
  8
DETAIL
 10
-364.47536281215429
 20
457.5
 30
0.0
 11
-364.47536281215429
 21
450.469564625413
 31
0.0
  0
LINE
  5
9E281
  8
DETAIL
 10
-366.70000000000073
 20
446.21870884215417
 30
0.0
 11
-366.70000000000073
 21
435.21870884215417
 31
0.0
  0
LINE
  5
9E282
  8
DETAIL
 10
-376.20000000000073
 20
525.39999999999964
 30
0.0
 11
-317.20000000000073
 21
525.39999999999964
 31
0.0
  0
LINE
  5
9E283
  8
DETAIL
 10
-347.0
 20
546.99999999999807
 30
0.0
 11
-394.0
 21
546.99999999999807
 31
0.0
  0
LINE
  5
9E284
  8
DETAIL
 10
-300.70000000000073
 20
525.625
 30
0.0
 11
-317.20000000000073
 21
523.56249999999989
 31
0.0
  0
ARC
  5
9E285
  8
DETAIL
 10
-291.70000000000073
 20
517.0
 30
0.0
 40
3.5
 50
90.0
 51
270.0
  0
LINE
  5
9E286
  8
DETAIL
 10
-302.70000000000073
 20
525.375
 30
0.0
 11
-302.70000000000073
 21
527.0
 31
0.0
  0
LINE
  5
9E287
  8
DETAIL
 10
-297.0
 20
1030.999999999998
 30
0.0
 11
-167.0
 21
1030.999999999998
 31
0.0
  0
LINE
  5
9E288
  8
DETAIL
 10
-287.0
 20
1040.999999999998
 30
0.0
 11
-177.0
 21
1040.999999999998
 31
0.0
  0
CIRCLE
  5
9E289
  8
DETAIL
 10
-272.0
 20
968.30678499999885
 30
0.0
 40
15.0
  0
ARC
  5
9E28A
  8
DETAIL
 10
-272.0
 20
968.30678499999885
 30
0.0
 40
17.0
 50
180.0
 51
0.000000000000007
  0
LINE
  5
9E28B
  8
DETAIL
 10
-255.0
 20
992.30678499999885
 30
0.0
 11
-289.0
 21
992.30678499999885
 31
0.0
  0
LINE
  5
9E28C
  8
DETAIL
 10
-49.89999999999781
 20
880.54999999999927
 30
0.0
 11
-49.89999999999781
 21
778.54999999999916
 31
0.0
  0
LINE
  5
9E28D
  8
DETAIL
 10
-84.899999999997803
 20
778.54999999999916
 30
0.0
 11
-84.899999999997803
 21
880.54999999999927
 31
0.0
  0
LINE
  5
9E28E
  8
DETAIL
 10
-78.399999999997817
 20
867.54999999999916
 30
0.0
 11
-78.399999999997817
 21
799.54999999999916
 31
0.0
  0
LINE
  5
9E28F
  8
DETAIL
 10
-56.399999999997817
 20
867.54999999999916
 30
0.0
 11
-56.399999999997817
 21
799.54999999999916
 31
0.0
  0
ARC
  5
9E290
  8
DETAIL
 10
-53.899999999999643
 20
778.55000000000109
 30
0.0
 40
4.0000000000006821
 50
270.0
 51
0.000000000000007
  0
ARC
  5
9E291
  8
DETAIL
 10
-80.899999999997803
 20
778.55000000000109
 30
0.0
 40
4.0000000000009104
 50
180.0
 51
270.0
  0
LINE
  5
9E292
  8
DETAIL
 10
-53.899999999997817
 20
774.54999999999916
 30
0.0
 11
-80.899999999997803
 21
774.54999999999916
 31
0.0
  0
LINE
  5
9E293
  8
DETAIL
 10
-56.399999999997817
 20
786.54999999999916
 30
0.0
 11
-78.399999999997817
 21
786.54999999999916
 31
0.0
  0
LINE
  5
9E294
  8
DETAIL
 10
-59.39999999999781
 20
796.54999999999916
 30
0.0
 11
-75.399999999997817
 21
796.54999999999916
 31
0.0
  0
ARC
  5
9E295
  8
DETAIL
 10
-75.399999999997817
 20
782.55000000000109
 30
0.0
 40
3.0000000000013629
 50
180.0
 51
270.0
  0
LINE
  5
9E296
  8
DETAIL
 10
-59.39999999999781
 20
779.54999999999916
 30
0.0
 11
-75.399999999997817
 21
779.54999999999916
 31
0.0
  0
ARC
  5
9E297
  8
DETAIL
 10
-59.400000000001462
 20
782.55000000000109
 30
0.0
 40
3.000000000001136
 50
270.00000000005213
 51
0.000000000000007
  0
ARC
  5
9E298
  8
DETAIL
 10
-75.399999999997817
 20
799.55000000000109
 30
0.0
 40
3.0000000000013629
 50
180.0
 51
270.0
  0
ARC
  5
9E299
  8
DETAIL
 10
-59.400000000001462
 20
799.55000000000109
 30
0.0
 40
3.000000000001136
 50
270.00000000005213
 51
0.000000000000007
  0
LINE
  5
9E29A
  8
DETAIL
 10
-78.399999999997817
 20
782.54999999999916
 30
0.0
 11
-78.399999999997817
 21
799.54999999999916
 31
0.0
  0
LINE
  5
9E29B
  8
DETAIL
 10
-56.399999999997817
 20
799.54999999999916
 30
0.0
 11
-56.399999999997817
 21
782.54999999999916
 31
0.0
  0
LINE
  5
9E29C
  8
DETAIL
 10
-56.399999999997817
 20
796.54999999999916
 30
0.0
 11
-59.39999999999781
 21
796.54999999999916
 31
0.0
  0
LINE
  5
9E29D
  8
DETAIL
 10
-75.399999999997817
 20
796.54999999999916
 30
0.0
 11
-78.399999999997817
 21
796.54999999999916
 31
0.0
  0
CIRCLE
  5
9E29E
  8
DETAIL
 10
-67.399999999997803
 20
809.54999999999916
 30
0.0
 40
7.0
  0
ARC
  5
9E29F
  8
DETAIL
 10
-53.899999999999643
 20
880.54999999999745
 30
0.0
 40
4.0000000000009104
 50
0.000000000000007
 51
90.0
  0
LINE
  5
9E2A0
  8
DETAIL
 10
-80.899999999997803
 20
884.54999999999916
 30
0.0
 11
-53.899999999997817
 21
884.54999999999916
 31
0.0
  0
ARC
  5
9E2A1
  8
DETAIL
 10
-80.899999999997803
 20
880.54999999999745
 30
0.0
 40
4.0000000000006821
 50
90.0
 51
180.0
  0
ARC
  5
9E2A2
  8
DETAIL
 10
-67.399999999997803
 20
867.54999999999916
 30
0.0
 40
11.0
 50
0.000000000000007
 51
180.0
  0
CIRCLE
  5
9E2A3
  8
DETAIL
 10
-222.0
 20
968.30678499999885
 30
0.0
 40
10.0
  0
CIRCLE
  5
9E2A4
  8
DETAIL
 10
-222.0
 20
968.30678499999885
 30
0.0
 40
15.0
  0
ARC
  5
9E2A5
  8
DETAIL
 10
-222.0
 20
968.30678499999885
 30
0.0
 40
17.0
 50
180.0
 51
0.000000000000007
  0
CIRCLE
  5
9E2A6
  8
DETAIL
 10
-272.0
 20
968.30678499999885
 30
0.0
 40
10.0
  0
LINE
  5
9E2A7
  8
DETAIL
 10
-205.0
 20
968.30678499999885
 30
0.0
 11
-205.0
 21
992.30678499999885
 31
0.0
  0
LINE
  5
9E2A8
  8
DETAIL
 10
-205.0
 20
992.30678499999885
 30
0.0
 11
-239.0
 21
992.30678499999885
 31
0.0
  0
LINE
  5
9E2A9
  8
DETAIL
 10
-239.0
 20
992.30678499999885
 30
0.0
 11
-239.0
 21
968.30678499999885
 31
0.0
  0
LINE
  5
9E2AA
  8
DETAIL
 10
-255.0
 20
968.30678499999885
 30
0.0
 11
-255.0
 21
992.30678499999885
 31
0.0
  0
LINE
  5
9E2AB
  8
DETAIL
 10
-276.93745699999999
 20
1066.3720110000011
 30
0.0
 11
-253.783503999999
 21
1066.3720110000011
 31
0.0
  0
LINE
  5
9E2AC
  8
DETAIL
 10
-331.49999999999989
 20
909.9067849999991
 30
0.0
 11
-331.49999999999989
 21
876.70678500000031
 31
0.0
  0
LINE
  5
9E2AD
  8
DETAIL
 10
-306.36680199999859
 20
936.99999999999807
 30
0.0
 11
-337.86680199999859
 21
936.99999999999807
 31
0.0
  0
LINE
  5
9E2AE
  8
DETAIL
 10
-306.36680199999859
 20
926.99999999999807
 30
0.0
 11
-306.36680199999859
 21
936.99999999999807
 31
0.0
  0
LINE
  5
9E2AF
  8
DETAIL
 10
-337.86680199999859
 20
926.99999999999807
 30
0.0
 11
-306.36680199999859
 21
926.99999999999807
 31
0.0
  0
LINE
  5
9E2B0
  8
DETAIL
 10
-337.86680199999859
 20
936.99999999999807
 30
0.0
 11
-337.86680199999859
 21
926.99999999999807
 31
0.0
  0
ARC
  5
9E2B1
  8
DETAIL
 10
-321.95837699999902
 20
893.30678499999885
 30
0.0
 40
1.541623000000071
 50
180.0
 51
0.000000000000007
  0
LINE
  5
9E2B2
  8
DETAIL
 10
-320.4167529999977
 20
893.30678499999885
 30
0.0
 11
-319.91675299999758
 21
900.23427899999842
 31
0.0
  0
LINE
  5
9E2B3
  8
DETAIL
 10
-323.49999999999989
 20
893.30678499999885
 30
0.0
 11
-323.96035299999852
 21
900.20355100000063
 31
0.0
  0
ARC
  5
9E2B4
  8
DETAIL
 10
-322.0
 20
893.30678499999885
 30
0.0
 40
3.999999999999706
 50
115.7916409999832
 51
62.619217000027781
  0
ARC
  5
9E2B5
  8
DETAIL
 10
-322.0
 20
893.30678499999885
 30
0.0
 40
6.9999999999997904
 50
106.16449699999509
 51
72.834116999981958
  0
ARC
  5
9E2B6
  8
DETAIL
 10
-321.95837699999902
 20
899.67345300000113
 30
0.0
 40
2.0699939999999959
 50
9.0244720000504337
 51
170.50312699996991
  0
LINE
  5
9E2B7
  8
DETAIL
 10
-312.5
 20
909.9067849999991
 30
0.0
 11
-331.49999999999989
 21
909.9067849999991
 31
0.0
  0
LINE
  5
9E2B8
  8
DETAIL
 10
-312.5
 20
876.70678500000031
 30
0.0
 11
-312.5
 21
909.9067849999991
 31
0.0
  0
LINE
  5
9E2B9
  8
DETAIL
 10
-331.49999999999989
 20
876.70678500000031
 30
0.0
 11
-312.5
 21
876.70678500000031
 31
0.0
  0
LINE
  5
9E2BA
  8
DETAIL
 10
-337.74999999999989
 20
1039.999999999998
 30
0.0
 11
-306.25
 21
1039.999999999998
 31
0.0
  0
LINE
  5
9E2BB
  8
DETAIL
 10
-337.74999999999989
 20
1029.999999999998
 30
0.0
 11
-337.74999999999989
 21
1039.999999999998
 31
0.0
  0
LINE
  5
9E2BC
  8
DETAIL
 10
-306.25
 20
1029.999999999998
 30
0.0
 11
-337.74999999999989
 21
1029.999999999998
 31
0.0
  0
LINE
  5
9E2BD
  8
DETAIL
 10
-306.25
 20
1039.999999999998
 30
0.0
 11
-306.25
 21
1029.999999999998
 31
0.0
  0
LINE
  5
9E2BE
  8
DETAIL
 10
-337.74999999999989
 20
989.99999999999818
 30
0.0
 11
-306.25
 21
989.99999999999818
 31
0.0
  0
LINE
  5
9E2BF
  8
DETAIL
 10
-337.74999999999989
 20
979.99999999999807
 30
0.0
 11
-337.74999999999989
 21
989.99999999999818
 31
0.0
  0
LINE
  5
9E2C0
  8
DETAIL
 10
-306.25
 20
979.99999999999807
 30
0.0
 11
-337.74999999999989
 21
979.99999999999807
 31
0.0
  0
LINE
  5
9E2C1
  8
DETAIL
 10
-306.25
 20
989.99999999999818
 30
0.0
 11
-306.25
 21
979.99999999999807
 31
0.0
  0
LINE
  5
9E2C2
  8
DETAIL
 10
-289.0
 20
992.30678499999885
 30
0.0
 11
-289.0
 21
968.30678499999885
 31
0.0
  0
CIRCLE
  5
9E2C3
  8
DETAIL
 10
-322.0
 20
1018.3067849999979
 30
0.0
 40
6.0
  0
CIRCLE
  5
9E2C4
  8
DETAIL
 10
-322.0
 20
1068.3067849999979
 30
0.0
 40
6.0
  0
CIRCLE
  5
9E2C5
  8
DETAIL
 10
-322.0
 20
968.30678499999885
 30
0.0
 40
6.0
  0
LINE
  5
9E484
  8
DETAIL
 10
400.0
 20
1747.999999999998
 30
0.0
 11
-400.0
 21
1747.999999999998
 31
0.0
  0
LINE
  5
9E485
  8
DETAIL
 10
402.0
 20
1749.999999999998
 30
0.0
 11
-402.0
 21
1749.999999999998
 31
0.0
  0
LINE
  5
9E486
  8
DETAIL
 10
397.0
 20
1742.499999999998
 30
0.0
 11
-397.0
 21
1742.499999999998
 31
0.0
  0
LINE
  5
9E487
  8
DETAIL
 10
397.0
 20
1164.999999999998
 30
0.0
 11
2.0
 21
1164.999999999998
 31
0.0
  0
LINE
  5
9E488
  8
DETAIL
 10
-397.0
 20
1172.499999999998
 30
0.0
 11
397.0
 21
1172.499999999998
 31
0.0
  0
LINE
  5
9E489
  8
DETAIL
 10
397.0
 20
1172.499999999998
 30
0.0
 11
397.0
 21
1742.499999999998
 31
0.0
  0
LINE
  5
9E48A
  8
DETAIL
 10
402.0
 20
1724.999999999998
 30
0.0
 11
400.4000000000014
 21
1724.999999999998
 31
0.0
  0
LINE
  5
9E48B
  8
DETAIL
 10
402.0
 20
1724.999999999998
 30
0.0
 11
402.0
 21
1749.999999999998
 31
0.0
  0
LINE
  5
9E491
  8
DETAIL
 10
-397.0
 20
1742.499999999998
 30
0.0
 11
-397.0
 21
1172.499999999998
 31
0.0
  0
LINE
  5
9E492
  8
DETAIL
 10
-167.0
 20
1089.999999999998
 30
0.0
 11
-297.0
 21
1089.999999999998
 31
0.0
  0
LINE
  5
9E493
  8
DETAIL
 10
-177.0
 20
1079.999999999998
 30
0.0
 11
-287.0
 21
1079.999999999998
 31
0.0
  0
LINE
  5
9E494
  8
DETAIL
 10
-2.2000000000007272
 20
1164.999999999998
 30
0.0
 11
-397.20000000000073
 21
1164.999999999998
 31
0.0
  0
LINE
  5
9E495
  8
DETAIL
 10
-253.783503999999
 20
1077.859972
 30
0.0
 11
-276.93745699999999
 21
1077.859972
 31
0.0
  0
LINE
  5
9E496
  8
DETAIL
 10
-337.74999999999989
 20
1089.999999999998
 30
0.0
 11
-306.25
 21
1089.999999999998
 31
0.0
  0
LINE
  5
9E497
  8
DETAIL
 10
-337.74999999999989
 20
1079.999999999998
 30
0.0
 11
-337.74999999999989
 21
1089.999999999998
 31
0.0
  0
LINE
  5
9E498
  8
DETAIL
 10
-306.25
 20
1079.999999999998
 30
0.0
 11
-337.74999999999989
 21
1079.999999999998
 31
0.0
  0
LINE
  5
9E499
  8
DETAIL
 10
-306.25
 20
1089.999999999998
 30
0.0
 11
-306.25
 21
1079.999999999998
 31
0.0
  0
LINE
  5
9E49A
  8
DETAIL
 10
-402.0
 20
1724.999999999998
 30
0.0
 11
-402.0
 21
1749.999999999998
 31
0.0
  0
LINE
  5
9E49B
  8
DETAIL
 10
-402.0
 20
1724.999999999998
 30
0.0
 11
-400.39999999999782
 21
1724.999999999998
 31
0.0
  0
LINE
  5
9FDAA
  8
SIZE
 10
405.99932186126898
 20
0.0003450171407152
 30
0.0
 11
636.54497650931035
 21
0.0003450171406499
 31
0.0
  0
LINE
  5
9FDAB
  8
SIZE
 10
404.99932186126892
 20
1750.000000000005
 30
0.0
 11
636.54497650931069
 21
1750.000000000005
 31
0.0
  0
LINE
  5
9FDAC
  8
SIZE
 10
616.54497650931046
 20
12.000345017140649
 30
0.0
 11
616.54497650931069
 21
1738.000000000005
 31
0.0
  0
LINE
  5
9FDB0
  8
SIZE
 10
-347.00067813873102
 20
-58.999999999996362
 30
0.0
 11
-347.00067813873102
 21
-351.9211603333224
 31
0.0
  0
LINE
  5
9FDB1
  8
SIZE
 10
-400.00067813874369
 20
-1.999999999994543
 30
0.0
 11
-400.00067813874369
 21
-351.9211603333224
 31
0.0
  0
LINE
  5
9FDB2
  8
SIZE
 10
-359.00067813873102
 20
-331.92116033332229
 30
0.0
 11
-388.00067813874369
 21
-331.92116033332229
 31
0.0
  0
LINE
  5
9FDB3
  8
SIZE
 10
-400.00067813874369
 20
-331.92116033332229
 30
0.0
 11
-504.85782099588658
 21
-331.92116033332229
 31
0.0
  0
LINE
  5
9FDB7
  8
SIZE
 10
299.69932186126971
 20
66.988548704617642
 30
0.0
 11
299.69932186126971
 21
-241.1300608084693
 31
0.0
  0
LINE
  5
9FDB8
  8
SIZE
 10
-59.300678138730291
 20
66.98855628770616
 30
0.0
 11
-59.300678138730312
 21
-241.1300608084693
 31
0.0
  0
LINE
  5
9FDB9
  8
SIZE
 10
287.6993218612696
 20
-221.1300608084693
 30
0.0
 11
-47.300678138730312
 21
-221.1300608084693
 31
0.0
  0
LINE
  5
9FDBD
  8
SIZE
 10
346.99932186126892
 20
-59.0
 30
0.0
 11
346.99932186126892
 21
-130.61089007428191
 31
0.0
  0
LINE
  5
9FDBE
  8
SIZE
 10
-0.0006781387310187
 20
-24.999999999994539
 30
0.0
 11
-0.0006781387310252
 21
-130.61089007428191
 31
0.0
  0
LINE
  5
9FDBF
  8
SIZE
 10
334.99932186126892
 20
-110.6108900742819
 30
0.0
 11
11.999321861268969
 21
-110.6108900742819
 31
0.0
  0
LINE
  5
9FDC3
  8
SIZE
 10
399.99932186126898
 20
-1.999999999994543
 30
0.0
 11
399.99932186126892
 21
-466.47048554844332
 31
0.0
  0
LINE
  5
9FDC4
  8
SIZE
 10
-400.00067813873102
 20
-1.999999999994543
 30
0.0
 11
-400.00067813873108
 21
-466.47048554844332
 31
0.0
  0
LINE
  5
9FDC5
  8
SIZE
 10
387.99932186126892
 20
-446.47048554844332
 30
0.0
 11
-388.00067813873102
 21
-446.47048554844332
 31
0.0
  0
LINE
  5
9FDC9
  8
SIZE
 10
346.99932186126892
 20
-58.999654982859283
 30
0.0
 11
346.99932186126892
 21
-351.9211603333224
 31
0.0
  0
LINE
  5
9FDCA
  8
SIZE
 10
-347.00067813873102
 20
-58.999999999996362
 30
0.0
 11
-347.00067813873102
 21
-351.9211603333224
 31
0.0
  0
LINE
  5
9FDCB
  8
SIZE
 10
334.99932186126892
 20
-331.92116033332229
 30
0.0
 11
-335.00067813873102
 21
-331.92116033332229
 31
0.0
  0
LINE
  5
9FDCF
  8
SIZE
 10
-59.300678138730291
 20
66.98855628770616
 30
0.0
 11
-59.300678138730312
 21
-241.1300608084693
 31
0.0
  0
LINE
  5
9FDD0
  8
SIZE
 10
-400.00067813874369
 20
-1.999999999994543
 30
0.0
 11
-400.00067813874369
 21
-241.1300608084693
 31
0.0
  0
LINE
  5
9FDD1
  8
SIZE
 10
-71.300678138730319
 20
-221.1300608084693
 30
0.0
 11
-388.00067813874369
 21
-221.1300608084693
 31
0.0
  0
LINE
  5
9FDD5
  8
SIZE
 10
417.2607655735701
 20
184.5500000000047
 30
0.0
 11
526.04980720157232
 21
184.5500000000047
 31
0.0
  0
LINE
  5
9FDD6
  8
SIZE
 10
417.2607655735701
 20
781.55000000000473
 30
0.0
 11
526.04980720157255
 21
781.55000000000473
 31
0.0
  0
LINE
  5
9FDD7
  8
SIZE
 10
506.04980720157238
 20
196.5500000000047
 30
0.0
 11
506.04980720157249
 21
769.55000000000473
 31
0.0
  0
LINE
  5
9FDDB
  8
SIZE
 10
346.99932186126892
 20
-58.999654982859283
 30
0.0
 11
346.99932186126892
 21
-351.9211603333224
 31
0.0
  0
LINE
  5
9FDDC
  8
SIZE
 10
399.99932186126898
 20
-1.999999999994543
 30
0.0
 11
399.99932186126898
 21
-351.9211603333224
 31
0.0
  0
LINE
  5
9FDDD
  8
SIZE
 10
358.99932186126892
 20
-331.92116033332229
 30
0.0
 11
387.99932186126892
 21
-331.92116033332229
 31
0.0
  0
LINE
  5
9FDDE
  8
SIZE
 10
399.99932186126898
 20
-331.92116033332229
 30
0.0
 11
504.85646471841181
 21
-331.92116033332229
 31
0.0
  0
LINE
  5
9FDE2
  8
SIZE
 10
299.69932186126971
 20
66.988548704617642
 30
0.0
 11
299.69932186126971
 21
-241.1300608084693
 31
0.0
  0
LINE
  5
9FDE3
  8
SIZE
 10
399.99932186126898
 20
-1.999999999994543
 30
0.0
 11
399.99932186126898
 21
-241.1300608084693
 31
0.0
  0
LINE
  5
9FDE4
  8
SIZE
 10
311.69932186126971
 20
-221.1300608084693
 30
0.0
 11
387.99932186126892
 21
-221.1300608084693
 31
0.0
  0
LINE
  5
9FDE5
  8
SIZE
 10
399.99932186126898
 20
-221.1300608084693
 30
0.0
 11
539.14217900412609
 21
-221.1300608084693
 31
0.0
  0
LINE
  5
9FDE9
  8
SIZE
 10
402.04481893559932
 20
0.0003450171407152
 30
0.0
 11
526.04980720157255
 21
0.0003450171406801
 31
0.0
  0
LINE
  5
9FDEA
  8
SIZE
 10
417.2607655735701
 20
184.5500000000047
 30
0.0
 11
526.04980720157255
 21
184.5500000000047
 31
0.0
  0
LINE
  5
9FDEB
  8
SIZE
 10
506.04980720157238
 20
12.000345017140679
 30
0.0
 11
506.04980720157249
 21
172.5500000000047
 31
0.0
  0
TEXT
  5
9FDEF
  8
SIZE
 10
-494.85782099588658
 20
-321.9211603333224
 30
0.0
 40
50.0
  1
53
 41
0.9
  0
TEXT
  5
9FDF0
  8
SIZE
 10
-277.86496385302269
 20
-211.1300608084693
 30
0.0
 40
50.0
  1
341
 41
0.9
  0
CIRCLE
  5
9FDF1
  8
SIZE
 10
-347.00067813873102
 20
-331.92116033332229
 30
0.0
 40
6.0
  0
LINE
  5
9FDF2
  8
SIZE
 10
-341.00067813873102
 20
-331.92116033332229
 30
0.0
 11
-335.00067813873102
 21
-331.92116033332229
 31
0.0
  0
CIRCLE
  5
9FDF3
  8
SIZE
 10
-400.00067813874369
 20
-331.92116033332229
 30
0.0
 40
6.0
  0
LINE
  5
9FDF4
  8
SIZE
 10
-394.00067813874369
 20
-331.92116033332229
 30
0.0
 11
-388.00067813874369
 21
-331.92116033332229
 31
0.0
  0
CIRCLE
  5
9FDF5
  8
SIZE
 10
-347.00067813873102
 20
-331.92116033332229
 30
0.0
 40
6.0
  0
LINE
  5
9FDF6
  8
SIZE
 10
-353.00067813873102
 20
-331.92116033332229
 30
0.0
 11
-359.00067813873102
 21
-331.92116033332229
 31
0.0
  0
CIRCLE
  5
9FDF7
  8
SIZE
 10
-400.00067813873102
 20
-446.47048554844332
 30
0.0
 40
6.0
  0
LINE
  5
9FDF8
  8
SIZE
 10
-394.00067813873102
 20
-446.47048554844332
 30
0.0
 11
-388.00067813873102
 21
-446.47048554844332
 31
0.0
  0
CIRCLE
  5
9FDF9
  8
SIZE
 10
-400.00067813874369
 20
-221.1300608084693
 30
0.0
 40
6.0
  0
LINE
  5
9FDFA
  8
SIZE
 10
-394.00067813874369
 20
-221.1300608084693
 30
0.0
 11
-388.00067813874369
 21
-221.1300608084693
 31
0.0
  0
TEXT
  5
9FDFB
  8
SIZE
 10
63.413607575555417
 20
-211.1300608084693
 30
0.0
 40
50.0
  1
359
 41
0.9
  0
TEXT
  5
9FDFC
  8
SIZE
 10
-57.857820995873887
 20
-436.47048554844332
 30
0.0
 40
50.0
  1
800
 41
0.9
  0
TEXT
  5
9FDFD
  8
SIZE
 10
-58.929249567302428
 20
-321.9211603333224
 30
0.0
 40
50.0
  1
694
 41
0.9
  0
CIRCLE
  5
9FDFE
  8
SIZE
 10
-0.000678138731024
 20
-110.6108900742819
 30
0.0
 40
6.0
  0
LINE
  5
9FDFF
  8
SIZE
 10
5.9993218612689763
 20
-110.6108900742819
 30
0.0
 11
11.999321861268969
 21
-110.6108900742819
 31
0.0
  0
CIRCLE
  5
9FE00
  8
SIZE
 10
-59.300678138730312
 20
-221.1300608084693
 30
0.0
 40
6.0
  0
LINE
  5
9FE01
  8
SIZE
 10
-65.300678138730305
 20
-221.1300608084693
 30
0.0
 11
-71.300678138730319
 21
-221.1300608084693
 31
0.0
  0
CIRCLE
  5
9FE02
  8
SIZE
 10
-59.300678138730312
 20
-221.1300608084693
 30
0.0
 40
6.0
  0
LINE
  5
9FE03
  8
SIZE
 10
-53.300678138730312
 20
-221.1300608084693
 30
0.0
 11
-47.300678138730312
 21
-221.1300608084693
 31
0.0
  0
TEXT
  5
9FE04
  8
SIZE
 10
115.64217900412611
 20
-100.6108900742819
 30
0.0
 40
50.0
  1
347
 41
0.9
  0
CIRCLE
  5
9FE05
  8
SIZE
 10
616.54497650931046
 20
0.0003450171406556
 30
0.0
 40
6.0
  0
LINE
  5
9FE06
  8
SIZE
 10
616.54497650931046
 20
6.0003450171406554
 30
0.0
 11
616.54497650931046
 21
12.000345017140649
 31
0.0
  0
TEXT
  5
9FE07
  8
SIZE
 10
421.99932186126898
 20
-211.1300608084693
 30
0.0
 40
50.0
  1
100
 41
0.9
  0
TEXT
  5
9FE08
  8
SIZE
 10
421.99932186126898
 20
-321.9211603333224
 30
0.0
 40
50.0
  1
53
 41
0.9
  0
CIRCLE
  5
9FE09
  8
SIZE
 10
399.99932186126898
 20
-331.92116033332229
 30
0.0
 40
6.0
  0
LINE
  5
9FE0A
  8
SIZE
 10
393.99932186126898
 20
-331.92116033332229
 30
0.0
 11
387.99932186126892
 21
-331.92116033332229
 31
0.0
  0
CIRCLE
  5
9FE0B
  8
SIZE
 10
346.99932186126892
 20
-331.92116033332229
 30
0.0
 40
6.0
  0
LINE
  5
9FE0C
  8
SIZE
 10
352.99932186126892
 20
-331.92116033332229
 30
0.0
 11
358.99932186126892
 21
-331.92116033332229
 31
0.0
  0
CIRCLE
  5
9FE0D
  8
SIZE
 10
346.99932186126892
 20
-331.92116033332229
 30
0.0
 40
6.0
  0
LINE
  5
9FE0E
  8
SIZE
 10
340.99932186126892
 20
-331.92116033332229
 30
0.0
 11
334.99932186126892
 21
-331.92116033332229
 31
0.0
  0
CIRCLE
  5
9FE0F
  8
SIZE
 10
399.99932186126898
 20
-446.47048554844332
 30
0.0
 40
6.0
  0
LINE
  5
9FE10
  8
SIZE
 10
393.99932186126898
 20
-446.47048554844332
 30
0.0
 11
387.99932186126892
 21
-446.47048554844332
 31
0.0
  0
CIRCLE
  5
9FE11
  8
SIZE
 10
299.69932186126971
 20
-221.1300608084693
 30
0.0
 40
6.0
  0
LINE
  5
9FE12
  8
SIZE
 10
305.69932186126971
 20
-221.1300608084693
 30
0.0
 11
311.69932186126971
 21
-221.1300608084693
 31
0.0
  0
CIRCLE
  5
9FE13
  8
SIZE
 10
346.99932186126892
 20
-110.6108900742819
 30
0.0
 40
6.0
  0
LINE
  5
9FE14
  8
SIZE
 10
340.99932186126892
 20
-110.6108900742819
 30
0.0
 11
334.99932186126892
 21
-110.6108900742819
 31
0.0
  0
CIRCLE
  5
9FE15
  8
SIZE
 10
299.69932186126971
 20
-221.1300608084693
 30
0.0
 40
6.0
  0
LINE
  5
9FE16
  8
SIZE
 10
293.69932186126971
 20
-221.1300608084693
 30
0.0
 11
287.6993218612696
 21
-221.1300608084693
 31
0.0
  0
CIRCLE
  5
9FE17
  8
SIZE
 10
399.99932186126898
 20
-221.1300608084693
 30
0.0
 40
6.0
  0
LINE
  5
9FE18
  8
SIZE
 10
393.99932186126898
 20
-221.1300608084693
 30
0.0
 11
387.99932186126892
 21
-221.1300608084693
 31
0.0
  0
TEXT
  5
9FE19
  8
SIZE
 10
496.04980720157249
 20
38.70374393714421
 30
0.0
 40
50.0
  1
185
 50
90.0
 41
0.9
  0
CIRCLE
  5
9FE1A
  8
SIZE
 10
506.04980720157238
 20
0.0003450171406858
 30
0.0
 40
6.0
  0
LINE
  5
9FE1B
  8
SIZE
 10
506.04980720157238
 20
6.0003450171406847
 30
0.0
 11
506.04980720157238
 21
12.000345017140679
 31
0.0
  0
CIRCLE
  5
9FE1C
  8
SIZE
 10
506.04980720157249
 20
184.5500000000047
 30
0.0
 40
6.0
  0
LINE
  5
9FE1D
  8
SIZE
 10
506.04980720157249
 20
178.55000000000459
 30
0.0
 11
506.04980720157249
 21
172.5500000000047
 31
0.0
  0
CIRCLE
  5
9FE1E
  8
SIZE
 10
506.04980720157238
 20
184.5500000000047
 30
0.0
 40
6.0
  0
LINE
  5
9FE1F
  8
SIZE
 10
506.04980720157238
 20
190.5500000000047
 30
0.0
 11
506.04980720157238
 21
196.5500000000047
 31
0.0
  0
TEXT
  5
9FE20
  8
SIZE
 10
606.54497650931035
 20
800.00017250857309
 30
0.0
 40
50.0
  1
1750
 50
90.0
 41
0.9
  0
TEXT
  5
9FE21
  8
SIZE
 10
496.04980720157238
 20
425.1928571428619
 30
0.0
 40
50.0
  1
597
 50
90.0
 41
0.9
  0
CIRCLE
  5
9FE22
  8
SIZE
 10
506.04980720157249
 20
781.55000000000473
 30
0.0
 40
6.0
  0
LINE
  5
9FE23
  8
SIZE
 10
506.04980720157249
 20
775.55000000000473
 30
0.0
 11
506.04980720157249
 21
769.55000000000473
 31
0.0
  0
CIRCLE
  5
9FE24
  8
SIZE
 10
616.54497650931069
 20
1750.000000000005
 30
0.0
 40
6.0
  0
LINE
  5
9FE25
  8
SIZE
 10
616.54497650931069
 20
1744.000000000005
 30
0.0
 11
616.54497650931069
 21
1738.000000000005
 31
0.0
  0
LINE
  5
9FE26
  8
OUTLINE
 10
400.0
 20
1747.999999999998
 30
0.0
 11
400.0
 21
550.0
 31
0.0
  0
LINE
  5
9FE27
  8
OUTLINE
 10
-400.0
 20
1747.999999999998
 30
0.0
 11
-400.0
 21
550.0
 31
0.0
  0
LINE
  5
9FE28
  8
OUTLINE
 10
397.0
 20
1172.499999999998
 30
0.0
 11
397.0
 21
1742.499999999998
 31
0.0
  0
LINE
  5
9FE29
  8
OUTLINE
 10
-397.0
 20
1742.499999999998
 30
0.0
 11
-397.0
 21
1172.499999999998
 31
0.0
  0
LINE
  5
9FE2A
  8
OUTLINE
 10
-112.5945287076938
 20
430.20000000000073
 30
0.0
 11
297.0
 21
430.20000000000073
 31
0.0
  0
LINE
  5
9FE2B
  8
OUTLINE
 10
-109.8999999999978
 20
433.20000000000061
 30
0.0
 11
297.0
 21
433.20000000000061
 31
0.0
  0
LINE
  5
9FE2C
  8
OUTLINE
 10
-42.099999999998538
 20
463.20000000000073
 30
0.0
 11
297.0
 21
463.20000000000073
 31
0.0
  0
LINE
  5
9FE2D
  8
OUTLINE
 10
2.0
 20
567.49999999999989
 30
0.0
 11
397.0
 21
567.49999999999989
 31
0.0
  0
LINE
  5
9FE2E
  8
OUTLINE
 10
397.0
 20
1164.999999999998
 30
0.0
 11
2.0
 21
1164.999999999998
 31
0.0
  0
LINE
  5
9FE2F
  8
OUTLINE
 10
400.0
 20
550.0
 30
0.0
 11
-400.0
 21
550.0
 31
0.0
  0
LINE
  5
9FE30
  8
OUTLINE
 10
297.0
 20
80.0
 30
0.0
 11
-297.0
 21
80.0
 31
0.0
  0
LINE
  5
9FE31
  8
OUTLINE
 10
-397.0
 20
0.0
 30
0.0
 11
397.0
 21
0.0
 31
0.0
  0
LINE
  5
9FE32
  8
OUTLINE
 10
297.0
 20
347.20000000000073
 30
0.0
 11
-297.0
 21
347.20000000000073
 31
0.0
  0
LINE
  5
9FE33
  8
OUTLINE
 10
297.0
 20
377.20000000000073
 30
0.0
 11
-297.0
 21
377.20000000000073
 31
0.0
  0
LINE
  5
9FE34
  8
OUTLINE
 10
297.0
 20
380.20000000000073
 30
0.0
 11
-297.0
 21
380.20000000000073
 31
0.0
  0
LINE
  5
9FE35
  8
OUTLINE
 10
-297.0
 20
83.0
 30
0.0
 11
297.00000000000182
 21
83.0
 31
0.0
  0
LINE
  5
9FE36
  8
OUTLINE
 10
397.0
 20
3.0
 30
0.0
 11
-397.0
 21
3.0
 31
0.0
  0
LINE
  5
9FE37
  8
OUTLINE
 10
-397.0
 20
1172.499999999998
 30
0.0
 11
397.0
 21
1172.499999999998
 31
0.0
  0
LINE
  5
9FE38
  8
OUTLINE
 10
-300.0
 20
80.0
 30
0.0
 11
-300.0
 21
380.79999999999922
 31
0.0
  0
LINE
  5
9FE39
  8
OUTLINE
 10
-297.0
 20
380.79999999999922
 30
0.0
 11
-297.0
 21
80.0
 31
0.0
  0
LINE
  5
9FE3A
  8
OUTLINE
 10
-397.0
 20
550.0
 30
0.0
 11
-397.0
 21
0.0
 31
0.0
  0
LINE
  5
9FE3B
  8
OUTLINE
 10
-394.0
 20
349.99999999999812
 30
0.0
 11
-394.0
 21
546.99999999999807
 31
0.0
  0
LINE
  5
9FE3C
  8
OUTLINE
 10
-347.0
 20
381.79999999999922
 30
0.0
 11
-347.0
 21
350.0
 31
0.0
  0
LINE
  5
9FE3D
  8
OUTLINE
 10
-101.30700217914629
 20
228.1500000000014
 30
0.0
 11
-85.199999999991618
 21
228.1500000000014
 31
0.0
  0
LINE
  5
9FE3E
  8
OUTLINE
 10
-0.1999999999970896
 20
91.249999999998181
 30
0.0
 11
-111.5042986650369
 21
91.250000243455375
 31
0.0
  0
LINE
  5
9FE3F
  8
OUTLINE
 10
-0.1999999999970896
 20
107.1499999999978
 30
0.0
 11
-111.5000000482577
 21
107.15000000502729
 31
0.0
  0
LINE
  5
9FE40
  8
OUTLINE
 10
-44.665297653975351
 20
284.79170452517241
 30
0.0
 11
-127.09170452517709
 21
202.36529765397239
 31
0.0
  0
LINE
  5
9FE41
  8
OUTLINE
 10
-55.908295474842816
 20
296.0347023460381
 30
0.0
 11
-138.33470234604459
 21
213.60829547483621
 31
0.0
  0
LINE
  5
9FE42
  8
OUTLINE
 10
-117.20700217914781
 20
212.25000000000179
 30
0.0
 11
-85.199999999991618
 21
212.25000000000179
 31
0.0
  0
ARC
  5
9FE43
  8
OUTLINE
 10
-250.0000000000436
 20
90.999999999947249
 30
0.0
 40
38.000000000074138
 50
347.84680253106791
 51
175.0489252567325
  0
LINE
  5
9FE44
  8
OUTLINE
 10
-297.0
 20
93.136868637375301
 30
0.0
 11
-250.98607613997771
 21
98.888609119887406
 31
0.0
  0
LINE
  5
9FE45
  8
OUTLINE
 10
-296.99999999998897
 20
166.1347259145295
 30
0.0
 11
-296.99999999998897
 21
93.136868637377134
 31
0.0
  0
LINE
  5
9FE46
  8
OUTLINE
 10
-394.0
 20
80.0
 30
0.0
 11
-394.0
 21
350.0
 31
0.0
  0
LINE
  5
9FE47
  8
OUTLINE
 10
-297.0
 20
80.0
 30
0.0
 11
-397.0
 21
80.0
 31
0.0
  0
LINE
  5
9FE48
  8
OUTLINE
 10
-400.0
 20
3.0
 30
0.0
 11
-400.0
 21
83.0
 31
0.0
  0
ARC
  5
9FE49
  8
OUTLINE
 10
-396.99999999999812
 20
3.0
 30
0.0
 40
3.000000000001136
 50
180.0
 51
270.0
  0
LINE
  5
9FE4A
  8
OUTLINE
 10
-397.0
 20
83.0
 30
0.0
 11
-400.0
 21
83.0
 31
0.0
  0
LINE
  5
9FE4B
  8
OUTLINE
 10
-397.0
 20
350.0
 30
0.0
 11
-347.0
 21
350.0
 31
0.0
  0
LINE
  5
9FE4C
  8
OUTLINE
 10
-177.95022873041299
 20
83.0
 30
0.0
 11
-177.95022873041299
 21
220.2000000000007
 31
0.0
  0
LINE
  5
9FE4D
  8
OUTLINE
 10
-162.05022873041341
 20
83.0
 30
0.0
 11
-162.05022873041341
 21
212.25000000000179
 31
0.0
  0
LINE
  5
9FE4E
  8
OUTLINE
 10
-149.44999999999891
 20
162.5502338987753
 30
0.0
 11
-149.44999999999891
 21
128.99999999998721
 31
0.0
  0
LINE
  5
9FE4F
  8
OUTLINE
 10
-133.55000000000831
 20
186.7735931288079
 30
0.0
 11
-133.55000000000831
 21
129.199999999997
 31
0.0
  0
LINE
  5
9FE50
  8
OUTLINE
 10
-149.450000000008
 20
186.77359312880981
 30
0.0
 11
-149.450000000008
 21
129.19999999998609
 31
0.0
  0
LINE
  5
9FE51
  8
OUTLINE
 10
-183.49999999999091
 20
128.0
 30
0.0
 11
-177.95022873041299
 21
128.0
 31
0.0
  0
ARC
  5
9FE52
  8
OUTLINE
 10
-169.999999999989
 20
80.999999999998181
 30
0.0
 40
10.70229759176001
 50
137.9749767254487
 51
169.229486999036
  0
ARC
  5
9FE53
  8
OUTLINE
 10
-169.999999999989
 20
80.999999999998181
 30
0.0
 40
17.000000000000949
 50
117.88254226115281
 51
173.24367296941921
  0
LINE
  5
9FE54
  8
OUTLINE
 10
-183.49999999999091
 20
91.331989159882156
 30
0.0
 11
-183.49999999999091
 21
128.0
 31
0.0
  0
ARC
  5
9FE55
  8
OUTLINE
 10
-249.999999999989
 20
91.000000000014566
 30
0.0
 40
12.00000000000365
 50
318.1896851041281
 51
143.8650081872463
  0
LINE
  5
9FE56
  8
OUTLINE
 10
-239.03034488539561
 20
83.0
 30
0.0
 11
-234.41154273187021
 21
91.000000000014566
 31
0.0
  0
ARC
  5
9FE57
  8
OUTLINE
 10
-249.99999999999079
 20
91.000000000012733
 30
0.0
 40
7.9499999999998092
 50
277.1250163489018
 51
97.125016348901795
  0
LINE
  5
9FE58
  8
OUTLINE
 10
-261.60662304383908
 20
97.896739183770464
 30
0.0
 11
-257.79422863405119
 21
104.5000000000145
 31
0.0
  0
LINE
  5
9FE59
  8
OUTLINE
 10
-242.2057713659305
 20
104.5000000000145
 30
0.0
 11
-234.41154273187021
 21
91.000000000014566
 31
0.0
  0
LINE
  5
9FE5A
  8
OUTLINE
 10
-242.2057713659305
 20
104.5000000000145
 30
0.0
 11
-257.79422863405119
 21
104.5000000000145
 31
0.0
  0
LINE
  5
9FE5B
  8
OUTLINE
 10
-214.11393948451581
 20
78.502373798201006
 30
0.0
 11
-185.896599012005
 21
74.975206239132604
 31
0.0
  0
LINE
  5
9FE5C
  8
OUTLINE
 10
-212.14178720454581
 20
94.279592037948547
 30
0.0
 11
-183.92444673139099
 21
90.752424478798275
 31
0.0
  0
LINE
  5
9FE5D
  8
OUTLINE
 10
-162.05022873041341
 20
128.0
 30
0.0
 11
-156.49999999999091
 21
128.0
 31
0.0
  0
ARC
  5
9FE5E
  8
OUTLINE
 10
-169.99999999999631
 20
80.999999999994543
 30
0.0
 40
10.70229759176978
 50
10.77051300096392
 51
42.028681434556617
  0
ARC
  5
9FE5F
  8
OUTLINE
 10
-169.99999999998539
 20
81.000000000001819
 30
0.0
 40
16.999999999995168
 50
6.7563270305807803
 51
62.119202022051439
  0
LINE
  5
9FE60
  8
OUTLINE
 10
-156.49999999999091
 20
91.331989159889403
 30
0.0
 11
-156.49999999999091
 21
128.0
 31
0.0
  0
ARC
  5
9FE61
  8
OUTLINE
 10
-111.5000000000145
 20
128.99999999998721
 30
0.0
 40
37.949999999989593
 50
180.0
 51
269.99999999739441
  0
ARC
  5
9FE62
  8
OUTLINE
 10
-111.5000000000236
 20
129.19999999998791
 30
0.0
 40
37.949999999990268
 50
180.0
 51
269.99351000360588
  0
ARC
  5
9FE63
  8
OUTLINE
 10
-111.50000000002539
 20
129.19999999998609
 30
0.0
 40
22.049999999988358
 50
180.0
 51
269.99999987467493
  0
ARC
  5
9FE64
  8
OUTLINE
 10
-170.00022873041229
 20
220.2000000000007
 30
0.0
 40
7.9499999999998172
 50
90.0
 51
270.0
  0
LINE
  5
9FE65
  8
OUTLINE
 10
-170.00022873041411
 20
212.25000000000179
 30
0.0
 11
-139.62748109828129
 21
212.25000000000179
 31
0.0
  0
LINE
  5
9FE66
  8
OUTLINE
 10
-170.0002287304159
 20
228.1500000000014
 30
0.0
 11
-123.79299782087941
 21
228.1500000000014
 31
0.0
  0
ARC
  5
9FE67
  8
OUTLINE
 10
-111.5000000000109
 20
186.77359312880611
 30
0.0
 40
22.050000000002459
 50
135.0
 51
180.0
  0
ARC
  5
9FE68
  8
OUTLINE
 10
-111.5000000000163
 20
186.7735931288079
 30
0.0
 40
37.94999999999753
 50
135.0
 51
180.0
  0
LINE
  5
9FE69
  8
OUTLINE
 10
50.800000000001091
 20
83.0
 30
0.0
 11
50.800000000001091
 21
347.20000000000073
 31
0.0
  0
LINE
  5
9FE6A
  8
OUTLINE
 10
30.799999999999269
 20
83.0
 30
0.0
 11
30.799999999999269
 21
347.20000000000073
 31
0.0
  0
ARC
  5
9FE6B
  8
OUTLINE
 10
5.8000000000029104
 20
159.19999999999891
 30
0.0
 40
74.300000000000765
 50
180.0
 51
224.4702125124264
  0
ARC
  5
9FE6C
  8
OUTLINE
 10
5.7999999999992724
 20
159.19999999999891
 30
0.0
 40
45.699999999999591
 50
180.0
 51
270.0
  0
LINE
  5
9FE6D
  8
OUTLINE
 10
10.80000000000109
 20
89.249999999998167
 30
0.0
 11
-0.1999999999989086
 21
89.249999999998167
 31
0.0
  0
LINE
  5
9FE6E
  8
OUTLINE
 10
-0.1999999999989086
 20
109.1499999999978
 30
0.0
 11
10.799999999999271
 21
109.1499999999978
 31
0.0
  0
ARC
  5
9FE6F
  8
OUTLINE
 10
5.7999999999992724
 20
159.1999999999916
 30
0.0
 40
74.299999999991556
 50
246.13987133298659
 51
270.0
  0
LINE
  5
9FE70
  8
OUTLINE
 10
-0.1999999999989086
 20
109.1499999999978
 30
0.0
 11
-0.1999999999989086
 21
89.249999999998167
 31
0.0
  0
LINE
  5
9FE71
  8
OUTLINE
 10
25.800000000001091
 20
116.5
 30
0.0
 11
50.800000000001091
 21
116.5
 31
0.0
  0
LINE
  5
9FE72
  8
OUTLINE
 10
25.800000000001091
 20
83.0
 30
0.0
 11
25.800000000001091
 21
116.5
 31
0.0
  0
LINE
  5
9FE73
  8
OUTLINE
 10
25.800000000001091
 20
84.899999999997803
 30
0.0
 11
22.800000000001091
 21
84.899999999997803
 31
0.0
  0
LINE
  5
9FE74
  8
OUTLINE
 10
22.800000000001091
 20
84.899999999997803
 30
0.0
 11
10.80000000000109
 21
89.249999999998167
 31
0.0
  0
LINE
  5
9FE75
  8
OUTLINE
 10
25.800000000001091
 20
84.899999999999636
 30
0.0
 11
5.8000000000010914
 21
84.899999999999636
 31
0.0
  0
LINE
  5
9FE76
  8
OUTLINE
 10
25.800000000001091
 20
113.5
 30
0.0
 11
5.8000000000010914
 21
113.5
 31
0.0
  0
LINE
  5
9FE77
  8
OUTLINE
 10
25.800000000001091
 20
113.4999999999981
 30
0.0
 11
22.80000000000291
 21
113.4999999999981
 31
0.0
  0
LINE
  5
9FE78
  8
OUTLINE
 10
10.799999999999271
 20
109.1499999999978
 30
0.0
 11
22.80000000000291
 21
113.4999999999981
 31
0.0
  0
LINE
  5
9FE79
  8
OUTLINE
 10
-39.89999999999781
 20
290.61111465125032
 30
0.0
 11
-39.89999999999781
 21
261.20000000000073
 31
0.0
  0
LINE
  5
9FE7A
  8
OUTLINE
 10
-70.5
 20
258.95700217914958
 30
0.0
 11
-70.5
 21
240.2000000000007
 31
0.0
  0
LINE
  5
9FE7B
  8
OUTLINE
 10
-68.257002179147094
 20
261.20000000000073
 30
0.0
 11
-37.89999999999781
 21
261.20000000000073
 31
0.0
  0
ARC
  5
9FE7C
  8
OUTLINE
 10
-71.5
 20
207.75000000000179
 30
0.0
 40
2.9999999999995448
 50
0.000000000000007
 51
90.0
  0
LINE
  5
9FE7D
  8
OUTLINE
 10
-68.5
 20
202.2000000000007
 30
0.0
 11
-68.5
 21
207.75000000000179
 31
0.0
  0
LINE
  5
9FE7E
  8
OUTLINE
 10
-85.199999999989814
 20
210.75000000000179
 30
0.0
 11
-71.5
 21
210.75000000000179
 31
0.0
  0
ARC
  5
9FE7F
  8
OUTLINE
 10
-71.500000000001819
 20
232.65000000000319
 30
0.0
 40
3.000000000001136
 50
270.00000000005213
 51
0.000000000000007
  0
LINE
  5
9FE80
  8
OUTLINE
 10
-85.199999999989814
 20
229.6500000000014
 30
0.0
 11
-71.5
 21
229.6500000000014
 31
0.0
  0
LINE
  5
9FE81
  8
OUTLINE
 10
-68.5
 20
238.2000000000007
 30
0.0
 11
-68.5
 21
232.6500000000014
 31
0.0
  0
LINE
  5
9FE82
  8
OUTLINE
 10
-85.199999999989814
 20
229.6500000000014
 30
0.0
 11
-85.199999999989814
 21
210.75000000000179
 31
0.0
  0
LINE
  5
9FE83
  8
OUTLINE
 10
-68.5
 20
179.2000000000007
 30
0.0
 11
-68.5
 21
159.2000000000007
 31
0.0
  0
LINE
  5
9FE84
  8
OUTLINE
 10
-39.89999999999781
 20
179.2000000000007
 30
0.0
 11
-39.89999999999781
 21
159.2000000000007
 31
0.0
  0
LINE
  5
9FE85
  8
OUTLINE
 10
-70.5
 20
179.2000000000007
 30
0.0
 11
-37.89999999999781
 21
179.2000000000007
 31
0.0
  0
LINE
  5
9FE86
  8
OUTLINE
 10
-70.5
 20
179.2000000000007
 30
0.0
 11
-70.5
 21
200.2000000000007
 31
0.0
  0
LINE
  5
9FE87
  8
OUTLINE
 10
-70.5
 20
200.2000000000007
 30
0.0
 11
-68.5
 21
202.19999999999891
 31
0.0
  0
LINE
  5
9FE88
  8
OUTLINE
 10
-37.89999999999781
 20
200.2000000000007
 30
0.0
 11
-39.89999999999781
 21
202.2000000000007
 31
0.0
  0
LINE
  5
9FE89
  8
OUTLINE
 10
-37.89999999999781
 20
179.2000000000007
 30
0.0
 11
-37.89999999999781
 21
200.2000000000007
 31
0.0
  0
LINE
  5
9FE8A
  8
OUTLINE
 10
-39.89999999999781
 20
202.2000000000007
 30
0.0
 11
-39.89999999999781
 21
238.2000000000007
 31
0.0
  0
LINE
  5
9FE8B
  8
OUTLINE
 10
-37.89999999999781
 20
240.2000000000007
 30
0.0
 11
-39.89999999999781
 21
238.2000000000007
 31
0.0
  0
LINE
  5
9FE8C
  8
OUTLINE
 10
-37.89999999999781
 20
240.2000000000007
 30
0.0
 11
-37.89999999999781
 21
261.20000000000073
 31
0.0
  0
LINE
  5
9FE8D
  8
OUTLINE
 10
-70.5
 20
240.2000000000007
 30
0.0
 11
-68.5
 21
238.2000000000007
 31
0.0
  0
ARC
  5
9FE8E
  8
OUTLINE
 10
-71.5
 20
311.62640687119892
 30
0.0
 40
37.949999999995399
 50
315.0
 51
0.000000000000007
  0
LINE
  5
9FE8F
  8
OUTLINE
 10
-33.549999999999272
 20
311.62640687120069
 30
0.0
 11
-33.549999999999272
 21
347.20000000000073
 31
0.0
  0
LINE
  5
9FE90
  8
OUTLINE
 10
-68.5
 20
283.44299782088092
 30
0.0
 11
-68.5
 21
347.20000000000073
 31
0.0
  0
LINE
  5
9FE91
  8
OUTLINE
 10
-49.449999999998909
 20
311.62640687120069
 30
0.0
 11
-49.449999999998909
 21
347.20000000000073
 31
0.0
  0
ARC
  5
9FE92
  8
OUTLINE
 10
-71.500000000007276
 20
311.62640687120251
 30
0.0
 40
22.050000000001539
 50
315.0
 51
0.000000000000007
  0
LINE
  5
9FE93
  8
OUTLINE
 10
-98.328692494293151
 20
457.0
 30
0.0
 11
-67.099999999998545
 21
457.0
 31
0.0
  0
CIRCLE
  5
9FE94
  8
OUTLINE
 10
-88.223085464778706
 20
473.0000000005893
 30
0.0
 40
2.25
  0
LINE
  5
9FE95
  8
OUTLINE
 10
-103.8999999999978
 20
381.79999999999922
 30
0.0
 11
-72.899999999997817
 21
381.79999999999922
 31
0.0
  0
LINE
  5
9FE96
  8
OUTLINE
 10
-103.8999999999978
 20
388.19999999999891
 30
0.0
 11
-72.899999999997817
 21
388.19999999999891
 31
0.0
  0
LINE
  5
9FE97
  8
OUTLINE
 10
-67.099999999998545
 20
547.0
 30
0.0
 11
-394.0
 21
547.0
 31
0.0
  0
LINE
  5
9FE98
  8
OUTLINE
 10
-397.20000000000073
 20
567.49999999999989
 30
0.0
 11
-2.2000000000007272
 21
567.49999999999989
 31
0.0
  0
LINE
  5
9FE99
  8
OUTLINE
 10
-269.39999999999782
 20
549.29999999999927
 30
0.0
 11
-69.399999999997803
 21
549.29999999999927
 31
0.0
  0
CIRCLE
  5
9FE9A
  8
OUTLINE
 10
-119.3999999999978
 20
491.0
 30
0.0
 40
32.5
  0
CIRCLE
  5
9FE9B
  8
OUTLINE
 10
-119.3999999999978
 20
491.0
 30
0.0
 40
40.0
  0
LINE
  5
9FE9C
  8
OUTLINE
 10
-57.099999999998552
 20
392.60000000000031
 30
0.0
 11
-116.199999999997
 21
392.60000000000031
 31
0.0
  0
LINE
  5
9FE9D
  8
OUTLINE
 10
-57.099999999998552
 20
390.19999999999879
 30
0.0
 11
-116.199999999997
 21
390.19999999999879
 31
0.0
  0
LINE
  5
9FE9E
  8
OUTLINE
 10
-2.2000000000007272
 20
1164.999999999998
 30
0.0
 11
-397.20000000000073
 21
1164.999999999998
 31
0.0
  0
LINE
  5
9FE9F
  8
OUTLINE
 10
-397.20000000000073
 20
1164.999999999998
 30
0.0
 11
-397.20000000000073
 21
567.49999999999989
 31
0.0
  0
LINE
  5
9FEA0
  8
OUTLINE
 10
-280.10000000000213
 20
381.79999999999922
 30
0.0
 11
-134.89999999999779
 21
381.79999999999922
 31
0.0
  0
LINE
  5
9FEA1
  8
OUTLINE
 10
-226.2054712923017
 20
430.20000000000073
 30
0.0
 11
-297.0
 21
430.20000000000073
 31
0.0
  0
LINE
  5
9FEA2
  8
OUTLINE
 10
-228.89999999999779
 20
433.20000000000061
 30
0.0
 11
-297.0
 21
433.20000000000061
 31
0.0
  0
LINE
  5
9FEA3
  8
OUTLINE
 10
-349.92463718784518
 20
457.0
 30
0.0
 11
-238.7649167310355
 21
457.0
 31
0.0
  0
LINE
  5
9FEA4
  8
OUTLINE
 10
-354.0
 20
394.60000000000031
 30
0.0
 11
-234.89999999999779
 21
394.60000000000031
 31
0.0
  0
LINE
  5
9FEA5
  8
OUTLINE
 10
-354.0
 20
388.19999999999891
 30
0.0
 11
-134.89999999999779
 21
388.19999999999891
 31
0.0
  0
LINE
  5
9FEA6
  8
OUTLINE
 10
-370.11584159893391
 20
460.78202073425012
 30
0.0
 11
-344.28415840106391
 21
460.78202073425012
 31
0.0
  0
LINE
  5
9FEA7
  8
OUTLINE
 10
-364.47536281215429
 20
457.5
 30
0.0
 11
-349.92463718784518
 21
457.5
 31
0.0
  0
LINE
  5
9FEA8
  8
OUTLINE
 10
-364.47536281215429
 20
450.469564625413
 30
0.0
 11
-349.92463718784518
 21
450.469564625413
 31
0.0
  0
LINE
  5
9FEA9
  8
OUTLINE
 10
-366.70000000000073
 20
435.21870884215417
 30
0.0
 11
-347.70000000000073
 21
435.21870884215417
 31
0.0
  0
LINE
  5
9FEAA
  8
OUTLINE
 10
-347.70000000000073
 20
446.21870884215417
 30
0.0
 11
-366.70000000000073
 21
446.21870884215417
 31
0.0
  0
LINE
  5
9FEAB
  8
OUTLINE
 10
-317.20000000000073
 20
467.20000000000073
 30
0.0
 11
-376.20000000000073
 21
467.20000000000073
 31
0.0
  0
LINE
  5
9FEAC
  8
OUTLINE
 10
-357.20000000000073
 20
381.79999999999922
 30
0.0
 11
-310.20000000000073
 21
381.79999999999922
 31
0.0
  0
ARC
  5
9FEAD
  8
OUTLINE
 10
-357.20000000000073
 20
385.0
 30
0.0
 40
3.1999999999998181
 50
180.0
 51
0.000000000000007
  0
LINE
  5
9FEAE
  8
OUTLINE
 10
-353.20000000000073
 20
430.71870884215411
 30
0.0
 11
-361.20000000000073
 21
430.71870884215411
 31
0.0
  0
LINE
  5
9FEAF
  8
OUTLINE
 10
-376.20000000000073
 20
525.39999999999964
 30
0.0
 11
-317.20000000000073
 21
525.39999999999964
 31
0.0
  0
LINE
  5
9FEB0
  8
OUTLINE
 10
-347.0
 20
546.99999999999807
 30
0.0
 11
-394.0
 21
546.99999999999807
 31
0.0
  0
LINE
  5
9FEB1
  8
OUTLINE
 10
-376.20000000000073
 20
525.39999999999964
 30
0.0
 11
-376.20000000000073
 21
467.20000000000073
 31
0.0
  0
LINE
  5
9FEB2
  8
OUTLINE
 10
-361.20000000000073
 20
430.71870884215411
 30
0.0
 11
-366.70000000000073
 21
435.21870884215417
 31
0.0
  0
LINE
  5
9FEB3
  8
OUTLINE
 10
-360.39999999999782
 20
385.0
 30
0.0
 11
-360.39999999999782
 21
430.71870884215411
 31
0.0
  0
LINE
  5
9FEB4
  8
OUTLINE
 10
-362.47536281215429
 20
460.78202073425012
 30
0.0
 11
-362.47536281215429
 21
457.5
 31
0.0
  0
LINE
  5
9FEB5
  8
OUTLINE
 10
-362.47536281215429
 20
450.469564625413
 30
0.0
 11
-362.47536281215429
 21
446.21870884215417
 31
0.0
  0
LINE
  5
9FEB6
  8
OUTLINE
 10
-354.20000000000073
 20
450.469564625413
 30
0.0
 11
-354.20000000000073
 21
457.5
 31
0.0
  0
LINE
  5
9FEB7
  8
OUTLINE
 10
-360.20000000000073
 20
450.469564625413
 30
0.0
 11
-360.20000000000073
 21
457.5
 31
0.0
  0
LINE
  5
9FEB8
  8
OUTLINE
 10
-361.70000000000073
 20
435.21870884215417
 30
0.0
 11
-361.70000000000073
 21
446.21870884215417
 31
0.0
  0
LINE
  5
9FEB9
  8
OUTLINE
 10
-370.11584159893391
 20
467.20000000000073
 30
0.0
 11
-370.11584159893391
 21
460.78202073425012
 31
0.0
  0
LINE
  5
9FEBA
  8
OUTLINE
 10
-364.47536281215429
 20
457.5
 30
0.0
 11
-364.47536281215429
 21
450.469564625413
 31
0.0
  0
LINE
  5
9FEBB
  8
OUTLINE
 10
-366.70000000000073
 20
446.21870884215417
 30
0.0
 11
-366.70000000000073
 21
435.21870884215417
 31
0.0
  0
LINE
  5
9FEBC
  8
OUTLINE
 10
-391.70000000000073
 20
457.0
 30
0.0
 11
-391.70000000000073
 21
546.99999999999807
 31
0.0
  0
LINE
  5
9FEBD
  8
OUTLINE
 10
-394.0
 20
457.0
 30
0.0
 11
-364.47536281215429
 21
457.0
 31
0.0
  0
LINE
  5
9FEBE
  8
OUTLINE
 10
-269.39999999999782
 20
457.0
 30
0.0
 11
-269.39999999999782
 21
547.0
 31
0.0
  0
LINE
  5
9FEBF
  8
OUTLINE
 10
-271.70000000000073
 20
457.0
 30
0.0
 11
-271.70000000000073
 21
547.0
 31
0.0
  0
LINE
  5
9FEC0
  8
OUTLINE
 10
-280.20000000000073
 20
467.0
 30
0.0
 11
-280.20000000000073
 21
473.5
 31
0.0
  0
LINE
  5
9FEC1
  8
OUTLINE
 10
-280.20000000000073
 20
493.5
 30
0.0
 11
-280.20000000000073
 21
480.49999999999989
 31
0.0
  0
LINE
  5
9FEC2
  8
OUTLINE
 10
-269.39999999999782
 20
547.0
 30
0.0
 11
-269.39999999999782
 21
549.29999999999927
 31
0.0
  0
LINE
  5
9FEC3
  8
OUTLINE
 10
-280.20000000000073
 20
527.0
 30
0.0
 11
-280.20000000000073
 21
520.5
 31
0.0
  0
LINE
  5
9FEC4
  8
OUTLINE
 10
-280.20000000000073
 20
513.50000000000182
 30
0.0
 11
-280.20000000000073
 21
500.49999999999989
 31
0.0
  0
LINE
  5
9FEC5
  8
OUTLINE
 10
-302.70000000000073
 20
525.375
 30
0.0
 11
-302.70000000000073
 21
468.625
 31
0.0
  0
ARC
  5
9FEC6
  8
OUTLINE
 10
-291.70000000000073
 20
497.0
 30
0.0
 40
3.5
 50
90.0
 51
270.0
  0
LINE
  5
9FEC7
  8
OUTLINE
 10
-300.70000000000073
 20
527.0
 30
0.0
 11
-300.70000000000073
 21
467.0
 31
0.0
  0
LINE
  5
9FEC8
  8
OUTLINE
 10
-317.20000000000073
 20
525.39999999999964
 30
0.0
 11
-317.20000000000073
 21
467.20000000000073
 31
0.0
  0
LINE
  5
9FEC9
  8
OUTLINE
 10
-347.0
 20
457.0
 30
0.0
 11
-347.0
 21
394.60000000000031
 31
0.0
  0
LINE
  5
9FECA
  8
OUTLINE
 10
-300.0
 20
457.0
 30
0.0
 11
-300.0
 21
394.60000000000031
 31
0.0
  0
LINE
  5
9FECB
  8
OUTLINE
 10
-297.0
 20
457.0
 30
0.0
 11
-297.0
 21
394.60000000000031
 31
0.0
  0
LINE
  5
9FECC
  8
OUTLINE
 10
-354.0
 20
385.0
 30
0.0
 11
-354.0
 21
430.71870884215411
 31
0.0
  0
LINE
  5
9FECD
  8
OUTLINE
 10
-300.70000000000073
 20
468.37499999999989
 30
0.0
 11
-317.20000000000073
 21
470.43749999999989
 31
0.0
  0
ARC
  5
9FECE
  8
OUTLINE
 10
-291.70000000000073
 20
477.0
 30
0.0
 40
3.5
 50
90.0
 51
270.0
  0
LINE
  5
9FECF
  8
OUTLINE
 10
-302.70000000000073
 20
468.625
 30
0.0
 11
-302.70000000000073
 21
467.0
 31
0.0
  0
LINE
  5
9FED0
  8
OUTLINE
 10
-351.92463718784518
 20
460.78202073425012
 30
0.0
 11
-351.92463718784518
 21
457.5
 31
0.0
  0
LINE
  5
9FED1
  8
OUTLINE
 10
-344.28415840106391
 20
467.20000000000073
 30
0.0
 11
-344.28415840106391
 21
460.78202073425012
 31
0.0
  0
LINE
  5
9FED2
  8
OUTLINE
 10
-349.92463718784518
 20
450.469564625413
 30
0.0
 11
-349.92463718784518
 21
457.5
 31
0.0
  0
LINE
  5
9FED3
  8
OUTLINE
 10
-351.92463718784518
 20
450.469564625413
 30
0.0
 11
-351.92463718784518
 21
446.21870884215417
 31
0.0
  0
LINE
  5
9FED4
  8
OUTLINE
 10
-352.70000000000073
 20
446.21870884215417
 30
0.0
 11
-352.70000000000073
 21
435.21870884215417
 31
0.0
  0
LINE
  5
9FED5
  8
OUTLINE
 10
-347.70000000000073
 20
435.21870884215417
 30
0.0
 11
-353.20000000000073
 21
430.71870884215411
 31
0.0
  0
LINE
  5
9FED6
  8
OUTLINE
 10
-347.70000000000073
 20
435.21870884215417
 30
0.0
 11
-347.70000000000073
 21
446.21870884215417
 31
0.0
  0
LINE
  5
9FED7
  8
OUTLINE
 10
-300.70000000000073
 20
525.625
 30
0.0
 11
-317.20000000000073
 21
523.56249999999989
 31
0.0
  0
ARC
  5
9FED8
  8
OUTLINE
 10
-291.70000000000073
 20
517.0
 30
0.0
 40
3.5
 50
90.0
 51
270.0
  0
LINE
  5
9FED9
  8
OUTLINE
 10
-302.70000000000073
 20
525.375
 30
0.0
 11
-302.70000000000073
 21
527.0
 31
0.0
  0
LINE
  5
9FEDA
  8
OUTLINE
 10
-280.20000000000073
 20
513.49999999999989
 30
0.0
 11
-291.70000000000073
 21
513.49999999999989
 31
0.0
  0
LINE
  5
9FEDB
  8
OUTLINE
 10
-280.20000000000073
 20
520.5
 30
0.0
 11
-291.70000000000073
 21
520.5
 31
0.0
  0
LINE
  5
9FEDC
  8
OUTLINE
 10
-280.20000000000073
 20
500.49999999999989
 30
0.0
 11
-291.70000000000073
 21
500.49999999999989
 31
0.0
  0
LINE
  5
9FEDD
  8
OUTLINE
 10
-280.20000000000073
 20
493.5
 30
0.0
 11
-291.70000000000073
 21
493.5
 31
0.0
  0
LINE
  5
9FEDE
  8
OUTLINE
 10
-280.20000000000073
 20
473.5
 30
0.0
 11
-291.70000000000073
 21
473.5
 31
0.0
  0
LINE
  5
9FEDF
  8
OUTLINE
 10
-280.20000000000073
 20
480.49999999999989
 30
0.0
 11
-291.70000000000073
 21
480.49999999999989
 31
0.0
  0
LINE
  5
9FEE0
  8
OUTLINE
 10
-280.20000000000073
 20
467.0
 30
0.0
 11
-302.70000000000073
 21
467.0
 31
0.0
  0
LINE
  5
9FEE1
  8
OUTLINE
 10
-280.20000000000073
 20
527.0
 30
0.0
 11
-302.70000000000073
 21
527.0
 31
0.0
  0
LINE
  5
9FEE2
  8
OUTLINE
 10
-279.20000000000073
 20
380.79999999999922
 30
0.0
 11
-310.20000000000073
 21
380.79999999999922
 31
0.0
  0
LINE
  5
9FEE3
  8
OUTLINE
 10
-279.20000000000073
 20
388.20000000000073
 30
0.0
 11
-279.20000000000073
 21
380.79999999999922
 31
0.0
  0
LINE
  5
9FEE4
  8
OUTLINE
 10
-310.20000000000073
 20
388.20000000000073
 30
0.0
 11
-310.20000000000073
 21
380.79999999999922
 31
0.0
  0
LINE
  5
9FEE5
  8
OUTLINE
 10
-200.0350832689619
 20
457.0
 30
0.0
 11
-140.47130750570429
 21
457.0
 31
0.0
  0
LINE
  5
9FEE6
  8
OUTLINE
 10
-212.5945287076938
 20
430.20000000000073
 30
0.0
 11
-126.20547129230179
 21
430.20000000000073
 31
0.0
  0
LINE
  5
9FEE7
  8
OUTLINE
 10
-128.89999999999779
 20
433.20000000000061
 30
0.0
 11
-209.8999999999977
 21
433.20000000000061
 31
0.0
  0
LINE
  5
9FEE8
  8
OUTLINE
 10
-203.89999999999779
 20
394.60000000000031
 30
0.0
 11
-172.89999999999779
 21
394.60000000000031
 31
0.0
  0
CIRCLE
  5
9FEE9
  8
OUTLINE
 10
-188.22308546477871
 20
474.0000000005893
 30
0.0
 40
2.25
  0
LINE
  5
9FEEA
  8
OUTLINE
 10
-230.00638999321009
 20
502.60621000016903
 30
0.0
 11
-201.72199999999791
 21
474.32229999999981
 31
0.0
  0
LINE
  5
9FEEB
  8
OUTLINE
 10
-216.19999999999891
 20
427.90461439720627
 30
0.0
 11
-216.19999999999891
 21
391.39999999999958
 31
0.0
  0
LINE
  5
9FEEC
  8
OUTLINE
 10
-222.59999999999849
 20
427.90461439720627
 30
0.0
 11
-222.59999999999849
 21
391.39999999999782
 31
0.0
  0
LINE
  5
9FEED
  8
OUTLINE
 10
-214.89999999999779
 20
443.40461439720627
 30
0.0
 11
-214.89999999999779
 21
450.0
 31
0.0
  0
LINE
  5
9FEEE
  8
OUTLINE
 10
-223.89999999999779
 20
443.40461439720627
 30
0.0
 11
-223.89999999999779
 21
450.0
 31
0.0
  0
LINE
  5
9FEEF
  8
OUTLINE
 10
-223.39999999999779
 20
427.90461439720627
 30
0.0
 11
-228.89999999999779
 21
432.40461439720627
 31
0.0
  0
LINE
  5
9FEF0
  8
OUTLINE
 10
-215.39999999999779
 20
427.90461439720627
 30
0.0
 11
-223.39999999999779
 21
427.90461439720627
 31
0.0
  0
LINE
  5
9FEF1
  8
OUTLINE
 10
-209.8999999999977
 20
432.40461439720627
 30
0.0
 11
-215.39999999999779
 21
427.90461439720627
 31
0.0
  0
LINE
  5
9FEF2
  8
OUTLINE
 10
-228.89999999999779
 20
432.40461439720627
 30
0.0
 11
-209.8999999999977
 21
432.40461439720627
 31
0.0
  0
LINE
  5
9FEF3
  8
OUTLINE
 10
-209.8999999999977
 20
432.40461439720627
 30
0.0
 11
-209.8999999999977
 21
443.40461439720627
 31
0.0
  0
LINE
  5
9FEF4
  8
OUTLINE
 10
-214.89999999999779
 20
443.40461439720627
 30
0.0
 11
-214.89999999999779
 21
432.40461439720627
 31
0.0
  0
LINE
  5
9FEF5
  8
OUTLINE
 10
-223.89999999999779
 20
432.40461439720627
 30
0.0
 11
-223.89999999999779
 21
443.40461439720627
 31
0.0
  0
LINE
  5
9FEF6
  8
OUTLINE
 10
-228.89999999999779
 20
443.40461439720627
 30
0.0
 11
-228.89999999999779
 21
432.40461439720627
 31
0.0
  0
LINE
  5
9FEF7
  8
OUTLINE
 10
-209.8999999999977
 20
443.40461439720627
 30
0.0
 11
-228.89999999999779
 21
443.40461439720627
 31
0.0
  0
CIRCLE
  5
9FEF8
  8
OUTLINE
 10
-250.57691453555159
 20
474.00000000039648
 30
0.0
 40
2.25
  0
CIRCLE
  5
9FEF9
  8
OUTLINE
 10
-250.57691453555159
 20
474.00000000039648
 30
0.0
 40
2.25
  0
ARC
  5
9FEFA
  8
OUTLINE
 10
-219.39999999999779
 20
391.39999999999782
 30
0.0
 40
4.2000000000002613
 50
139.63240645582869
 51
229.63240645578901
  0
ARC
  5
9FEFB
  8
OUTLINE
 10
-219.39999999999779
 20
391.39999999999782
 30
0.0
 40
4.2000000000005651
 50
310.36759354421088
 51
40.367593544171257
  0
LINE
  5
9FEFC
  8
OUTLINE
 10
-234.89999999999779
 20
388.19999999999891
 30
0.0
 11
-234.89999999999779
 21
395.60000000000031
 31
0.0
  0
LINE
  5
9FEFD
  8
OUTLINE
 10
-203.89999999999779
 20
388.19999999999891
 30
0.0
 11
-203.89999999999779
 21
395.60000000000031
 31
0.0
  0
LINE
  5
9FEFE
  8
OUTLINE
 10
-234.89999999999779
 20
395.60000000000031
 30
0.0
 11
-222.59999999999849
 21
395.60000000000031
 31
0.0
  0
LINE
  5
9FEFF
  8
OUTLINE
 10
-216.19999999999891
 20
395.60000000000031
 30
0.0
 11
-203.89999999999779
 21
395.60000000000031
 31
0.0
  0
ARC
  5
9FF00
  8
OUTLINE
 10
-219.39999999999779
 20
391.39999999999782
 30
0.0
 40
3.2000000000007272
 50
180.0
 51
0.000000000000007
  0
LINE
  5
9FF01
  8
OUTLINE
 10
-201.72199999999791
 20
474.32220000000052
 30
0.0
 11
-204.22199999999791
 21
478.65229999999968
 31
0.0
  0
LINE
  5
9FF02
  8
OUTLINE
 10
-201.72199999999791
 20
474.32229999999981
 30
0.0
 11
-206.05199999999959
 21
476.82229999999981
 31
0.0
  0
LINE
  5
9FF03
  8
OUTLINE
 10
-228.39999999999779
 20
450.0
 30
0.0
 11
-210.39999999999779
 21
450.0
 31
0.0
  0
LINE
  5
9FF04
  8
OUTLINE
 10
-210.39999999999779
 20
460.77149999999892
 30
0.0
 11
-210.39999999999779
 21
450.0
 31
0.0
  0
LINE
  5
9FF05
  8
OUTLINE
 10
-228.39999999999779
 20
460.77149999999892
 30
0.0
 11
-228.39999999999779
 21
450.0
 31
0.0
  0
CIRCLE
  5
9FF06
  8
OUTLINE
 10
-219.39999999999779
 20
527.9999999999618
 30
0.0
 40
2.25
  0
CIRCLE
  5
9FF07
  8
OUTLINE
 10
-219.39999999999779
 20
527.9999999999618
 30
0.0
 40
2.25
  0
CIRCLE
  5
9FF08
  8
OUTLINE
 10
-219.39999999999779
 20
492.0
 30
0.0
 40
30.0
  0
CIRCLE
  5
9FF09
  8
OUTLINE
 10
-219.39999999999779
 20
492.0
 30
0.0
 40
32.5
  0
CIRCLE
  5
9FF0A
  8
OUTLINE
 10
-219.39999999999779
 20
492.0
 30
0.0
 40
40.0
  0
LINE
  5
9FF0B
  8
OUTLINE
 10
-109.8999999999978
 20
432.40461439720627
 30
0.0
 11
-109.8999999999978
 21
443.40461439720627
 31
0.0
  0
LINE
  5
9FF0C
  8
OUTLINE
 10
-101.72199999999791
 20
473.32220000000041
 30
0.0
 11
-104.22199999999791
 21
477.65229999999968
 31
0.0
  0
LINE
  5
9FF0D
  8
OUTLINE
 10
-101.72199999999791
 20
473.3222999999997
 30
0.0
 11
-106.05199999999959
 21
475.82229999999981
 31
0.0
  0
LINE
  5
9FF0E
  8
OUTLINE
 10
-110.3999999999978
 20
459.77149999999892
 30
0.0
 11
-110.3999999999978
 21
449.0
 31
0.0
  0
LINE
  5
9FF0F
  8
OUTLINE
 10
-103.8999999999978
 20
389.19999999999891
 30
0.0
 11
-103.8999999999978
 21
380.79999999999922
 31
0.0
  0
LINE
  5
9FF10
  8
OUTLINE
 10
-115.3999999999978
 20
427.90461439720627
 30
0.0
 11
-123.3999999999978
 21
427.90461439720627
 31
0.0
  0
CIRCLE
  5
9FF11
  8
OUTLINE
 10
-119.3999999999978
 20
526.9999999999618
 30
0.0
 40
2.25
  0
CIRCLE
  5
9FF12
  8
OUTLINE
 10
-119.3999999999978
 20
526.9999999999618
 30
0.0
 40
2.25
  0
ARC
  5
9FF13
  8
OUTLINE
 10
-119.3999999999978
 20
384.99999999999812
 30
0.0
 40
3.2000000000007272
 50
180.0
 51
0.000000000000007
  0
LINE
  5
9FF14
  8
OUTLINE
 10
-116.199999999997
 20
427.90461439720627
 30
0.0
 11
-116.199999999997
 21
385.0
 31
0.0
  0
LINE
  5
9FF15
  8
OUTLINE
 10
-114.8999999999978
 20
443.40461439720627
 30
0.0
 11
-114.8999999999978
 21
449.0
 31
0.0
  0
LINE
  5
9FF16
  8
OUTLINE
 10
-114.8999999999978
 20
443.40461439720627
 30
0.0
 11
-114.8999999999978
 21
432.40461439720627
 31
0.0
  0
LINE
  5
9FF17
  8
OUTLINE
 10
-122.5999999999985
 20
427.90461439720627
 30
0.0
 11
-122.5999999999985
 21
384.99999999999812
 31
0.0
  0
LINE
  5
9FF18
  8
OUTLINE
 10
-123.8999999999978
 20
443.40461439720627
 30
0.0
 11
-123.8999999999978
 21
449.0
 31
0.0
  0
LINE
  5
9FF19
  8
OUTLINE
 10
-123.3999999999978
 20
427.90461439720627
 30
0.0
 11
-128.89999999999779
 21
432.40461439720627
 31
0.0
  0
LINE
  5
9FF1A
  8
OUTLINE
 10
-123.8999999999978
 20
432.40461439720627
 30
0.0
 11
-123.8999999999978
 21
443.40461439720627
 31
0.0
  0
LINE
  5
9FF1B
  8
OUTLINE
 10
-128.89999999999779
 20
443.40461439720627
 30
0.0
 11
-128.89999999999779
 21
432.40461439720627
 31
0.0
  0
CIRCLE
  5
9FF1C
  8
OUTLINE
 10
-150.57691453555159
 20
473.00000000039648
 30
0.0
 40
2.25
  0
CIRCLE
  5
9FF1D
  8
OUTLINE
 10
-150.57691453555159
 20
473.00000000039648
 30
0.0
 40
2.25
  0
LINE
  5
9FF1E
  8
OUTLINE
 10
-122.5999999999985
 20
392.60000000000031
 30
0.0
 11
-159.89999999999779
 21
392.60000000000031
 31
0.0
  0
LINE
  5
9FF1F
  8
OUTLINE
 10
-122.5999999999985
 20
390.19999999999879
 30
0.0
 11
-159.89999999999779
 21
390.19999999999879
 31
0.0
  0
LINE
  5
9FF20
  8
OUTLINE
 10
-169.89999999999779
 20
389.19999999999891
 30
0.0
 11
-159.89999999999779
 21
389.19999999999891
 31
0.0
  0
LINE
  5
9FF21
  8
OUTLINE
 10
-159.89999999999779
 20
393.60000000000031
 30
0.0
 11
-159.89999999999779
 21
389.19999999999891
 31
0.0
  0
LINE
  5
9FF22
  8
OUTLINE
 10
-169.89999999999779
 20
393.60000000000031
 30
0.0
 11
-159.89999999999779
 21
393.60000000000031
 31
0.0
  0
LINE
  5
9FF23
  8
OUTLINE
 10
-169.89999999999779
 20
389.19999999999891
 30
0.0
 11
-172.89999999999779
 21
388.19999999999891
 31
0.0
  0
LINE
  5
9FF24
  8
OUTLINE
 10
-172.89999999999779
 20
394.60000000000031
 30
0.0
 11
-169.89999999999779
 21
393.60000000000031
 31
0.0
  0
LINE
  5
9FF25
  8
OUTLINE
 10
-134.89999999999779
 20
389.19999999999891
 30
0.0
 11
-122.5999999999985
 21
389.19999999999891
 31
0.0
  0
LINE
  5
9FF26
  8
OUTLINE
 10
-128.39999999999779
 20
459.77149999999892
 30
0.0
 11
-128.39999999999779
 21
449.0
 31
0.0
  0
ARC
  5
9FF27
  8
OUTLINE
 10
-119.3999999999978
 20
384.99999999999812
 30
0.0
 40
4.2000000000005651
 50
139.63240645582869
 51
40.367593544171257
  0
LINE
  5
9FF28
  8
OUTLINE
 10
-134.89999999999779
 20
389.19999999999891
 30
0.0
 11
-134.89999999999779
 21
380.79999999999922
 31
0.0
  0
LINE
  5
9FF29
  8
OUTLINE
 10
-128.89999999999779
 20
432.40461439720627
 30
0.0
 11
-109.8999999999978
 21
432.40461439720627
 31
0.0
  0
LINE
  5
9FF2A
  8
OUTLINE
 10
-109.8999999999978
 20
443.40461439720627
 30
0.0
 11
-128.89999999999779
 21
443.40461439720627
 31
0.0
  0
LINE
  5
9FF2B
  8
OUTLINE
 10
-130.00638999321009
 20
501.60621000016909
 30
0.0
 11
-101.72199999999791
 21
473.3222999999997
 31
0.0
  0
LINE
  5
9FF2C
  8
OUTLINE
 10
-103.8999999999978
 20
380.79999999999922
 30
0.0
 11
-134.89999999999779
 21
380.79999999999922
 31
0.0
  0
LINE
  5
9FF2D
  8
OUTLINE
 10
-110.3999999999978
 20
449.0
 30
0.0
 11
-128.39999999999779
 21
449.0
 31
0.0
  0
CIRCLE
  5
9FF2E
  8
OUTLINE
 10
-119.3999999999978
 20
491.0
 30
0.0
 40
30.0
  0
LINE
  5
9FF2F
  8
OUTLINE
 10
-109.8999999999978
 20
432.40461439720627
 30
0.0
 11
-115.3999999999978
 21
427.90461439720627
 31
0.0
  0
LINE
  5
9FF30
  8
OUTLINE
 10
-116.199999999997
 20
389.19999999999891
 30
0.0
 11
-103.8999999999978
 21
389.19999999999891
 31
0.0
  0
LINE
  5
9FF31
  8
OUTLINE
 10
-177.0
 20
1079.999999999998
 30
0.0
 11
-287.0
 21
1079.999999999998
 31
0.0
  0
CIRCLE
  5
9FF32
  8
OUTLINE
 10
-272.0
 20
968.30678499999885
 30
0.0
 40
15.0
  0
ARC
  5
9FF33
  8
OUTLINE
 10
-272.0
 20
968.30678499999885
 30
0.0
 40
17.0
 50
180.0
 51
0.000000000000007
  0
LINE
  5
9FF34
  8
OUTLINE
 10
-255.0
 20
992.30678499999885
 30
0.0
 11
-289.0
 21
992.30678499999885
 31
0.0
  0
CIRCLE
  5
9FF35
  8
OUTLINE
 10
-272.0
 20
968.30678499999885
 30
0.0
 40
10.0
  0
LINE
  5
9FF36
  8
OUTLINE
 10
-276.93745699999999
 20
1066.3720110000011
 30
0.0
 11
-253.783503999999
 21
1066.3720110000011
 31
0.0
  0
LINE
  5
9FF37
  8
OUTLINE
 10
-253.783503999999
 20
1077.859972
 30
0.0
 11
-276.93745699999999
 21
1077.859972
 31
0.0
  0
LINE
  5
9FF38
  8
OUTLINE
 10
-287.0
 20
1040.999999999998
 30
0.0
 11
-177.0
 21
1040.999999999998
 31
0.0
  0
LINE
  5
9FF39
  8
OUTLINE
 10
-297.0
 20
1030.999999999998
 30
0.0
 11
-167.0
 21
1030.999999999998
 31
0.0
  0
LINE
  5
9FF3A
  8
OUTLINE
 10
-167.0
 20
1089.999999999998
 30
0.0
 11
-297.0
 21
1089.999999999998
 31
0.0
  0
LINE
  5
9FF3B
  8
OUTLINE
 10
-287.0
 20
1079.999999999998
 30
0.0
 11
-287.0
 21
1040.999999999998
 31
0.0
  0
LINE
  5
9FF3C
  8
OUTLINE
 10
-297.0
 20
1089.999999999998
 30
0.0
 11
-297.0
 21
1030.999999999998
 31
0.0
  0
LINE
  5
9FF3D
  8
OUTLINE
 10
-289.0
 20
992.30678499999885
 30
0.0
 11
-289.0
 21
968.30678499999885
 31
0.0
  0
LINE
  5
9FF3E
  8
OUTLINE
 10
-331.49999999999989
 20
909.9067849999991
 30
0.0
 11
-331.49999999999989
 21
876.70678500000031
 31
0.0
  0
LINE
  5
9FF3F
  8
OUTLINE
 10
-306.36680199999859
 20
936.99999999999807
 30
0.0
 11
-337.86680199999859
 21
936.99999999999807
 31
0.0
  0
LINE
  5
9FF40
  8
OUTLINE
 10
-306.36680199999859
 20
926.99999999999807
 30
0.0
 11
-306.36680199999859
 21
936.99999999999807
 31
0.0
  0
LINE
  5
9FF41
  8
OUTLINE
 10
-337.86680199999859
 20
926.99999999999807
 30
0.0
 11
-306.36680199999859
 21
926.99999999999807
 31
0.0
  0
LINE
  5
9FF42
  8
OUTLINE
 10
-337.86680199999859
 20
936.99999999999807
 30
0.0
 11
-337.86680199999859
 21
926.99999999999807
 31
0.0
  0
ARC
  5
9FF43
  8
OUTLINE
 10
-321.95837699999902
 20
893.30678499999885
 30
0.0
 40
1.541623000000071
 50
180.0
 51
0.000000000000007
  0
LINE
  5
9FF44
  8
OUTLINE
 10
-320.4167529999977
 20
893.30678499999885
 30
0.0
 11
-319.91675299999758
 21
900.23427899999842
 31
0.0
  0
LINE
  5
9FF45
  8
OUTLINE
 10
-323.49999999999989
 20
893.30678499999885
 30
0.0
 11
-323.96035299999852
 21
900.20355100000063
 31
0.0
  0
ARC
  5
9FF46
  8
OUTLINE
 10
-322.0
 20
893.30678499999885
 30
0.0
 40
3.999999999999706
 50
115.7916409999832
 51
62.619217000027781
  0
ARC
  5
9FF47
  8
OUTLINE
 10
-322.0
 20
893.30678499999885
 30
0.0
 40
6.9999999999997904
 50
106.16449699999509
 51
72.834116999981958
  0
ARC
  5
9FF48
  8
OUTLINE
 10
-321.95837699999902
 20
899.67345300000113
 30
0.0
 40
2.0699939999999959
 50
9.0244720000504337
 51
170.50312699996991
  0
LINE
  5
9FF49
  8
OUTLINE
 10
-312.5
 20
909.9067849999991
 30
0.0
 11
-331.49999999999989
 21
909.9067849999991
 31
0.0
  0
LINE
  5
9FF4A
  8
OUTLINE
 10
-312.5
 20
876.70678500000031
 30
0.0
 11
-312.5
 21
909.9067849999991
 31
0.0
  0
LINE
  5
9FF4B
  8
OUTLINE
 10
-331.49999999999989
 20
876.70678500000031
 30
0.0
 11
-312.5
 21
876.70678500000031
 31
0.0
  0
LINE
  5
9FF4C
  8
OUTLINE
 10
-337.74999999999989
 20
1039.999999999998
 30
0.0
 11
-306.25
 21
1039.999999999998
 31
0.0
  0
LINE
  5
9FF4D
  8
OUTLINE
 10
-337.74999999999989
 20
1029.999999999998
 30
0.0
 11
-337.74999999999989
 21
1039.999999999998
 31
0.0
  0
LINE
  5
9FF4E
  8
OUTLINE
 10
-306.25
 20
1029.999999999998
 30
0.0
 11
-337.74999999999989
 21
1029.999999999998
 31
0.0
  0
LINE
  5
9FF4F
  8
OUTLINE
 10
-306.25
 20
1039.999999999998
 30
0.0
 11
-306.25
 21
1029.999999999998
 31
0.0
  0
LINE
  5
9FF50
  8
OUTLINE
 10
-337.74999999999989
 20
989.99999999999818
 30
0.0
 11
-306.25
 21
989.99999999999818
 31
0.0
  0
LINE
  5
9FF51
  8
OUTLINE
 10
-337.74999999999989
 20
979.99999999999807
 30
0.0
 11
-337.74999999999989
 21
989.99999999999818
 31
0.0
  0
LINE
  5
9FF52
  8
OUTLINE
 10
-306.25
 20
979.99999999999807
 30
0.0
 11
-337.74999999999989
 21
979.99999999999807
 31
0.0
  0
LINE
  5
9FF53
  8
OUTLINE
 10
-306.25
 20
989.99999999999818
 30
0.0
 11
-306.25
 21
979.99999999999807
 31
0.0
  0
CIRCLE
  5
9FF54
  8
OUTLINE
 10
-322.0
 20
1018.3067849999979
 30
0.0
 40
6.0
  0
CIRCLE
  5
9FF55
  8
OUTLINE
 10
-322.0
 20
968.30678499999885
 30
0.0
 40
6.0
  0
LINE
  5
9FF56
  8
OUTLINE
 10
-276.93745699999999
 20
1077.859972
 30
0.0
 11
-276.93745699999999
 21
1066.3720110000011
 31
0.0
  0
LINE
  5
9FF57
  8
OUTLINE
 10
-337.74999999999989
 20
1089.999999999998
 30
0.0
 11
-306.25
 21
1089.999999999998
 31
0.0
  0
LINE
  5
9FF58
  8
OUTLINE
 10
-337.74999999999989
 20
1079.999999999998
 30
0.0
 11
-337.74999999999989
 21
1089.999999999998
 31
0.0
  0
LINE
  5
9FF59
  8
OUTLINE
 10
-306.25
 20
1079.999999999998
 30
0.0
 11
-337.74999999999989
 21
1079.999999999998
 31
0.0
  0
LINE
  5
9FF5A
  8
OUTLINE
 10
-306.25
 20
1089.999999999998
 30
0.0
 11
-306.25
 21
1079.999999999998
 31
0.0
  0
CIRCLE
  5
9FF5B
  8
OUTLINE
 10
-322.0
 20
1068.3067849999979
 30
0.0
 40
6.0
  0
LINE
  5
9FF5C
  8
OUTLINE
 10
-167.0
 20
1030.999999999998
 30
0.0
 11
-167.0
 21
1089.999999999998
 31
0.0
  0
LINE
  5
9FF5D
  8
OUTLINE
 10
-177.0
 20
1040.999999999998
 30
0.0
 11
-177.0
 21
1079.999999999998
 31
0.0
  0
CIRCLE
  5
9FF5E
  8
OUTLINE
 10
-222.0
 20
968.30678499999885
 30
0.0
 40
10.0
  0
CIRCLE
  5
9FF5F
  8
OUTLINE
 10
-222.0
 20
968.30678499999885
 30
0.0
 40
15.0
  0
ARC
  5
9FF60
  8
OUTLINE
 10
-222.0
 20
968.30678499999885
 30
0.0
 40
17.0
 50
180.0
 51
0.000000000000007
  0
LINE
  5
9FF61
  8
OUTLINE
 10
-205.0
 20
968.30678499999885
 30
0.0
 11
-205.0
 21
992.30678499999885
 31
0.0
  0
LINE
  5
9FF62
  8
OUTLINE
 10
-205.0
 20
992.30678499999885
 30
0.0
 11
-239.0
 21
992.30678499999885
 31
0.0
  0
LINE
  5
9FF63
  8
OUTLINE
 10
-239.0
 20
992.30678499999885
 30
0.0
 11
-239.0
 21
968.30678499999885
 31
0.0
  0
LINE
  5
9FF64
  8
OUTLINE
 10
-255.0
 20
968.30678499999885
 30
0.0
 11
-255.0
 21
992.30678499999885
 31
0.0
  0
LINE
  5
9FF65
  8
OUTLINE
 10
-253.783503999999
 20
1066.3720110000011
 30
0.0
 11
-253.783503999999
 21
1077.859972
 31
0.0
  0
LINE
  5
9FF66
  8
OUTLINE
 10
2.0
 20
1164.999999999998
 30
0.0
 11
2.0
 21
567.49999999999989
 31
0.0
  0
LINE
  5
9FF67
  8
OUTLINE
 10
-2.2000000000007272
 20
567.49999999999989
 30
0.0
 11
-2.2000000000007272
 21
1164.999999999998
 31
0.0
  0
LINE
  5
9FF68
  8
OUTLINE
 10
-49.89999999999781
 20
880.54999999999927
 30
0.0
 11
-49.89999999999781
 21
778.54999999999916
 31
0.0
  0
LINE
  5
9FF69
  8
OUTLINE
 10
-84.899999999997803
 20
778.54999999999916
 30
0.0
 11
-84.899999999997803
 21
880.54999999999927
 31
0.0
  0
LINE
  5
9FF6A
  8
OUTLINE
 10
-78.399999999997817
 20
867.54999999999916
 30
0.0
 11
-78.399999999997817
 21
799.54999999999916
 31
0.0
  0
LINE
  5
9FF6B
  8
OUTLINE
 10
-56.399999999997817
 20
867.54999999999916
 30
0.0
 11
-56.399999999997817
 21
799.54999999999916
 31
0.0
  0
LINE
  5
9FF6C
  8
OUTLINE
 10
-24.0
 20
463.39999999999958
 30
0.0
 11
-24.0
 21
500.8136606355892
 31
0.0
  0
LINE
  5
9FF6D
  8
OUTLINE
 10
-36.399999999997817
 20
482.89999999999958
 30
0.0
 11
-36.399999999997817
 21
502.0
 31
0.0
  0
LINE
  5
9FF6E
  8
OUTLINE
 10
-57.799999999999272
 20
482.9000000000014
 30
0.0
 11
-57.799999999999272
 21
502.0
 31
0.0
  0
LINE
  5
9FF6F
  8
OUTLINE
 10
-67.099999999998545
 20
437.0
 30
0.0
 11
-67.099999999998545
 21
547.0
 31
0.0
  0
LINE
  5
9FF70
  8
OUTLINE
 10
-69.399999999997803
 20
457.0
 30
0.0
 11
-69.399999999997803
 21
547.0
 31
0.0
  0
LINE
  5
9FF71
  8
OUTLINE
 10
-59.0
 20
463.39999999999958
 30
0.0
 11
-59.0
 21
500.8136606355892
 31
0.0
  0
LINE
  5
9FF72
  8
OUTLINE
 10
-33.799999999997453
 20
480.29999999999922
 30
0.0
 11
-36.399999999997817
 21
482.89999999999958
 31
0.0
  0
LINE
  5
9FF73
  8
OUTLINE
 10
-60.399999999997817
 20
480.29999999999922
 30
0.0
 11
-33.799999999997453
 21
480.29999999999922
 31
0.0
  0
LINE
  5
9FF74
  8
OUTLINE
 10
-33.799999999997453
 20
473.29999999999922
 30
0.0
 11
-60.399999999997817
 21
473.29999999999922
 31
0.0
  0
LINE
  5
9FF75
  8
OUTLINE
 10
-33.799999999997453
 20
473.29999999999922
 30
0.0
 11
-33.799999999997453
 21
480.29999999999922
 31
0.0
  0
LINE
  5
9FF76
  8
OUTLINE
 10
-67.099999999998545
 20
463.20000000000073
 30
0.0
 11
-52.099999999998552
 21
463.20000000000073
 31
0.0
  0
LINE
  5
9FF77
  8
OUTLINE
 10
-48.299999999999272
 20
458.49999999999989
 30
0.0
 11
-48.299999999999272
 21
385.0
 31
0.0
  0
LINE
  5
9FF78
  8
OUTLINE
 10
-45.899999999997817
 20
458.49999999999989
 30
0.0
 11
-45.899999999997817
 21
385.0
 31
0.0
  0
ARC
  5
9FF79
  8
OUTLINE
 10
-55.099999999998552
 20
470.49999999999818
 30
0.0
 40
1.9999999999990901
 50
180.0
 51
270.00000000005213
  0
LINE
  5
9FF7A
  8
OUTLINE
 10
-57.099999999998552
 20
473.2999999999974
 30
0.0
 11
-57.099999999998552
 21
470.5
 31
0.0
  0
LINE
  5
9FF7B
  8
OUTLINE
 10
-39.099999999998538
 20
468.5
 30
0.0
 11
-55.099999999998552
 21
468.5
 31
0.0
  0
ARC
  5
9FF7C
  8
OUTLINE
 10
-39.099999999998538
 20
470.5
 30
0.0
 40
2.0000000000006808
 50
270.0
 51
0.000000000000007
  0
LINE
  5
9FF7D
  8
OUTLINE
 10
-37.099999999998538
 20
473.2999999999974
 30
0.0
 11
-37.099999999998538
 21
470.5
 31
0.0
  0
LINE
  5
9FF7E
  8
OUTLINE
 10
-36.399999999997817
 20
482.89999999999958
 30
0.0
 11
-57.799999999999272
 21
482.9000000000014
 31
0.0
  0
LINE
  5
9FF7F
  8
OUTLINE
 10
-60.399999999997817
 20
480.29999999999922
 30
0.0
 11
-57.799999999999272
 21
482.9000000000014
 31
0.0
  0
LINE
  5
9FF80
  8
OUTLINE
 10
-52.099999999998552
 20
468.5
 30
0.0
 11
-52.099999999998552
 21
458.49999999999989
 31
0.0
  0
LINE
  5
9FF81
  8
OUTLINE
 10
-42.099999999998538
 20
468.5
 30
0.0
 11
-42.099999999998538
 21
458.49999999999989
 31
0.0
  0
LINE
  5
9FF82
  8
OUTLINE
 10
-60.399999999997817
 20
473.29999999999922
 30
0.0
 11
-60.399999999997817
 21
480.29999999999922
 31
0.0
  0
LINE
  5
9FF83
  8
OUTLINE
 10
-52.099999999998552
 20
458.49999999999989
 30
0.0
 11
-42.099999999998538
 21
458.49999999999989
 31
0.0
  0
LINE
  5
9FF84
  8
OUTLINE
 10
-67.099999999998545
 20
437.0
 30
0.0
 11
-69.399999999997803
 21
437.0
 31
0.0
  0
LINE
  5
9FF85
  8
OUTLINE
 10
-69.399999999997803
 20
457.0
 30
0.0
 11
-69.399999999997803
 21
437.0
 31
0.0
  0
ARC
  5
9FF86
  8
OUTLINE
 10
-57.099999999998552
 20
401.39999999999782
 30
0.0
 40
11.19999999999831
 50
270.0
 51
321.78678929831062
  0
ARC
  5
9FF87
  8
OUTLINE
 10
-57.099999999996733
 20
401.39999999999782
 30
0.0
 40
8.7999999999983611
 50
270.0
 51
0.000000000000007
  0
LINE
  5
9FF88
  8
OUTLINE
 10
-47.099999999998538
 20
383.79999999999922
 30
0.0
 11
-59.89999999999781
 21
383.79999999999922
 31
0.0
  0
LINE
  5
9FF89
  8
OUTLINE
 10
-48.299999999999272
 20
386.19999999999891
 30
0.0
 11
-59.89999999999781
 21
386.19999999999891
 31
0.0
  0
ARC
  5
9FF8A
  8
OUTLINE
 10
-47.099999999998538
 20
385.0
 30
0.0
 40
1.200000000000045
 50
180.0
 51
0.000000000000007
  0
LINE
  5
9FF8B
  8
OUTLINE
 10
-69.899999999997803
 20
382.79999999999922
 30
0.0
 11
-59.89999999999781
 21
382.79999999999922
 31
0.0
  0
LINE
  5
9FF8C
  8
OUTLINE
 10
-59.89999999999781
 20
387.19999999999891
 30
0.0
 11
-59.89999999999781
 21
382.79999999999922
 31
0.0
  0
LINE
  5
9FF8D
  8
OUTLINE
 10
-69.899999999997803
 20
387.19999999999891
 30
0.0
 11
-59.89999999999781
 21
387.19999999999891
 31
0.0
  0
LINE
  5
9FF8E
  8
OUTLINE
 10
-69.899999999997803
 20
382.79999999999922
 30
0.0
 11
-72.899999999997817
 21
381.79999999999922
 31
0.0
  0
LINE
  5
9FF8F
  8
OUTLINE
 10
-72.899999999997817
 20
388.19999999999891
 30
0.0
 11
-69.899999999997803
 21
387.19999999999891
 31
0.0
  0
LINE
  5
9FF90
  8
OUTLINE
 10
-35.761539235656521
 20
510.55691854760869
 30
0.0
 11
-47.238460764339827
 21
510.55691854760869
 31
0.0
  0
LINE
  5
9FF91
  8
OUTLINE
 10
-33.0
 20
509.8136606355892
 30
0.0
 11
-50.0
 21
509.8136606355892
 31
0.0
  0
LINE
  5
9FF92
  8
OUTLINE
 10
-35.761539235656521
 20
509.81366063558562
 30
0.0
 11
-35.761539235656521
 21
510.55691854760869
 31
0.0
  0
LINE
  5
9FF93
  8
OUTLINE
 10
-57.799999999999272
 20
502.0
 30
0.0
 11
-36.399999999997817
 21
502.0
 31
0.0
  0
LINE
  5
9FF94
  8
OUTLINE
 10
-69.399999999997803
 20
547.0
 30
0.0
 11
-69.399999999997803
 21
549.29999999999927
 31
0.0
  0
LINE
  5
9FF95
  8
OUTLINE
 10
-39.138530450705723
 20
511.64999999999958
 30
0.0
 11
-43.861469549290632
 21
511.64999999999958
 31
0.0
  0
LINE
  5
9FF96
  8
OUTLINE
 10
-43.861469549290632
 20
510.55691854760698
 30
0.0
 11
-43.861469549290632
 21
511.64999999999958
 31
0.0
  0
LINE
  5
9FF97
  8
OUTLINE
 10
-47.238460764339827
 20
509.81366063558562
 30
0.0
 11
-47.238460764339827
 21
510.55691854760869
 31
0.0
  0
LINE
  5
9FF98
  8
OUTLINE
 10
-39.138530450705723
 20
510.55691854760698
 30
0.0
 11
-39.138530450705723
 21
511.64999999999958
 31
0.0
  0
ARC
  5
9FF99
  8
OUTLINE
 10
-50.0
 20
500.8136606355892
 30
0.0
 40
9.0000000000009095
 50
90.0
 51
180.0
  0
ARC
  5
9FF9A
  8
OUTLINE
 10
-32.999999999998181
 20
500.81366063559102
 30
0.0
 40
8.9999999999977263
 50
0.000000000000007
 51
90.0
  0
LINE
  5
9FF9B
  8
OUTLINE
 10
50.800000000001091
 20
550.0
 30
0.0
 11
50.800000000001091
 21
463.20000000000073
 31
0.0
  0
LINE
  5
9FF9C
  8
OUTLINE
 10
30.799999999999269
 20
550.0
 30
0.0
 11
30.799999999999269
 21
463.20000000000073
 31
0.0
  0
CIRCLE
  5
9FF9D
  8
OUTLINE
 10
35.80000000000291
 20
405.0
 30
0.0
 40
5.0
  0
ARC
  5
9FF9E
  8
OUTLINE
 10
-53.899999999999643
 20
778.55000000000109
 30
0.0
 40
4.0000000000006821
 50
270.0
 51
0.000000000000007
  0
ARC
  5
9FF9F
  8
OUTLINE
 10
-80.899999999997803
 20
778.55000000000109
 30
0.0
 40
4.0000000000009104
 50
180.0
 51
270.0
  0
LINE
  5
9FFA0
  8
OUTLINE
 10
-53.899999999997817
 20
774.54999999999916
 30
0.0
 11
-80.899999999997803
 21
774.54999999999916
 31
0.0
  0
LINE
  5
9FFA1
  8
OUTLINE
 10
-56.399999999997817
 20
786.54999999999916
 30
0.0
 11
-78.399999999997817
 21
786.54999999999916
 31
0.0
  0
LINE
  5
9FFA2
  8
OUTLINE
 10
-59.39999999999781
 20
796.54999999999916
 30
0.0
 11
-75.399999999997817
 21
796.54999999999916
 31
0.0
  0
ARC
  5
9FFA3
  8
OUTLINE
 10
-75.399999999997817
 20
782.55000000000109
 30
0.0
 40
3.0000000000013629
 50
180.0
 51
270.0
  0
LINE
  5
9FFA4
  8
OUTLINE
 10
-59.39999999999781
 20
779.54999999999916
 30
0.0
 11
-75.399999999997817
 21
779.54999999999916
 31
0.0
  0
ARC
  5
9FFA5
  8
OUTLINE
 10
-59.400000000001462
 20
782.55000000000109
 30
0.0
 40
3.000000000001136
 50
270.00000000005213
 51
0.000000000000007
  0
ARC
  5
9FFA6
  8
OUTLINE
 10
-75.399999999997817
 20
799.55000000000109
 30
0.0
 40
3.0000000000013629
 50
180.0
 51
270.0
  0
ARC
  5
9FFA7
  8
OUTLINE
 10
-59.400000000001462
 20
799.55000000000109
 30
0.0
 40
3.000000000001136
 50
270.00000000005213
 51
0.000000000000007
  0
LINE
  5
9FFA8
  8
OUTLINE
 10
-78.399999999997817
 20
782.54999999999916
 30
0.0
 11
-78.399999999997817
 21
799.54999999999916
 31
0.0
  0
LINE
  5
9FFA9
  8
OUTLINE
 10
-56.399999999997817
 20
799.54999999999916
 30
0.0
 11
-56.399999999997817
 21
782.54999999999916
 31
0.0
  0
LINE
  5
9FFAA
  8
OUTLINE
 10
-56.399999999997817
 20
796.54999999999916
 30
0.0
 11
-59.39999999999781
 21
796.54999999999916
 31
0.0
  0
LINE
  5
9FFAB
  8
OUTLINE
 10
-75.399999999997817
 20
796.54999999999916
 30
0.0
 11
-78.399999999997817
 21
796.54999999999916
 31
0.0
  0
CIRCLE
  5
9FFAC
  8
OUTLINE
 10
-67.399999999997803
 20
809.54999999999916
 30
0.0
 40
7.0
  0
ARC
  5
9FFAD
  8
OUTLINE
 10
-53.899999999999643
 20
880.54999999999745
 30
0.0
 40
4.0000000000009104
 50
0.000000000000007
 51
90.0
  0
LINE
  5
9FFAE
  8
OUTLINE
 10
-80.899999999997803
 20
884.54999999999916
 30
0.0
 11
-53.899999999997817
 21
884.54999999999916
 31
0.0
  0
ARC
  5
9FFAF
  8
OUTLINE
 10
-80.899999999997803
 20
880.54999999999745
 30
0.0
 40
4.0000000000006821
 50
90.0
 51
180.0
  0
ARC
  5
9FFB0
  8
OUTLINE
 10
-67.399999999997803
 20
867.54999999999916
 30
0.0
 40
11.0
 50
0.000000000000007
 51
180.0
  0
LINE
  5
9FFB1
  8
OUTLINE
 10
397.0
 20
550.0
 30
0.0
 11
397.0
 21
0.0
 31
0.0
  0
LINE
  5
9FFB2
  8
OUTLINE
 10
300.0
 20
80.0
 30
0.0
 11
300.0
 21
550.0
 31
0.0
  0
LINE
  5
9FFB3
  8
OUTLINE
 10
297.0
 20
550.0
 30
0.0
 11
297.0
 21
80.0
 31
0.0
  0
LINE
  5
9FFB4
  8
OUTLINE
 10
394.0
 20
349.99999999999812
 30
0.0
 11
394.0
 21
547.0
 31
0.0
  0
LINE
  5
9FFB5
  8
OUTLINE
 10
347.0
 20
350.0
 30
0.0
 11
347.0
 21
550.0
 31
0.0
  0
LINE
  5
9FFB6
  8
OUTLINE
 10
274.80000000000467
 20
83.0
 30
0.0
 11
274.80000000000467
 21
347.20000000000073
 31
0.0
  0
LINE
  5
9FFB7
  8
OUTLINE
 10
394.0
 20
350.0
 30
0.0
 11
394.0
 21
83.0
 31
0.0
  0
LINE
  5
9FFB8
  8
OUTLINE
 10
397.0
 20
80.0
 30
0.0
 11
297.0
 21
80.0
 31
0.0
  0
LINE
  5
9FFB9
  8
OUTLINE
 10
400.0
 20
3.0
 30
0.0
 11
400.0
 21
83.0
 31
0.0
  0
ARC
  5
9FFBA
  8
OUTLINE
 10
397.00000000000182
 20
3.0
 30
0.0
 40
2.9999999999988631
 50
270.0
 51
0.000000000000007
  0
LINE
  5
9FFBB
  8
OUTLINE
 10
400.0
 20
83.0
 30
0.0
 11
397.0
 21
83.0
 31
0.0
  0
LINE
  5
9FFBC
  8
OUTLINE
 10
397.0
 20
350.0
 30
0.0
 11
347.0
 21
350.0
 31
0.0
  0
LINE
  5
9FFBD
  8
OUTLINE
 10
397.0
 20
567.49999999999989
 30
0.0
 11
397.0
 21
1164.999999999998
 31
0.0
  0
LINE
  5
9FFBE
  8
OUTLINE
 10
347.0
 20
547.0
 30
0.0
 11
394.0
 21
547.0
 31
0.0
  0
LINE
  5
9FFBF
  8
OUTLINE
 10
274.80000000000467
 20
550.0
 30
0.0
 11
274.80000000000467
 21
463.20000000000073
 31
0.0
  0
CIRCLE
  5
9FFC0
  8
OUTLINE
 10
289.8000000000028
 20
405.0
 30
0.0
 40
5.0
  0
LINE
  5
9FFC1
  8
OUTLINE
 10
397.0
 20
1163.399999999999
 30
0.0
 11
397.0
 21
1063.399999999999
 31
0.0
  0
LINE
  5
9FFC2
  8
OUTLINE
 10
400.0
 20
1747.999999999998
 30
0.0
 11
-400.0
 21
1747.999999999998
 31
0.0
  0
LINE
  5
9FFC3
  8
OUTLINE
 10
402.0
 20
1749.999999999998
 30
0.0
 11
-402.0
 21
1749.999999999998
 31
0.0
  0
LINE
  5
9FFC4
  8
OUTLINE
 10
397.0
 20
1742.499999999998
 30
0.0
 11
-397.0
 21
1742.499999999998
 31
0.0
  0
LINE
  5
9FFC5
  8
OUTLINE
 10
-402.0
 20
1724.999999999998
 30
0.0
 11
-402.0
 21
1749.999999999998
 31
0.0
  0
LINE
  5
9FFC6
  8
OUTLINE
 10
-402.0
 20
1724.999999999998
 30
0.0
 11
-400.39999999999782
 21
1724.999999999998
 31
0.0
  0
LINE
  5
9FFC7
  8
OUTLINE
 10
402.0
 20
1724.999999999998
 30
0.0
 11
400.4000000000014
 21
1724.999999999998
 31
0.0
  0
LINE
  5
9FFC8
  8
OUTLINE
 10
402.0
 20
1724.999999999998
 30
0.0
 11
402.0
 21
1749.999999999998
 31
0.0
  0
ENDSEC
  0
EOF
