  0
SECTION
  2
HEADER
  9
$ACADVER
  1
AC1014
  9
$ACADMAINTVER
 70
     9
  9
$DWGCODEPAGE
  3
ANSI_932
  9
$INSBASE
 10
0.0
 20
0.0
 30
0.0
  9
$EXTMIN
 10
-1986.776446337709
 20
-1427.816134009579
 30
-0.0015258207003583
  9
$EXTMAX
 10
2248.760649311763
 20
1710.292577214873
 30
0.0000000349246037
  9
$LIMMIN
 10
-2384.409938138545
 20
-1883.820729470411
  9
$LIMMAX
 10
2581.000228959485
 20
1993.562539502185
  9
$ORTHOMODE
 70
     1
  9
$REGENMODE
 70
     1
  9
$FILLMODE
 70
     1
  9
$QTEXTMODE
 70
     0
  9
$MIRRTEXT
 70
     0
  9
$DRAGMODE
 70
     2
  9
$LTSCALE
 40
20.0
  9
$OSMODE
 70
    39
  9
$ATTMODE
 70
     1
  9
$TEXTSIZE
 40
64.0
  9
$TRACEWID
 40
0.05
  9
$TEXTSTYLE
  7
STANDARD
  9
$CLAYER
  8
OUTLINE
  9
$CELTYPE
  6
BYLAYER
  9
$CECOLOR
 62
   256
  9
$CELTSCALE
 40
1.0
  9
$DELOBJ
 70
     1
  9
$DISPSILH
 70
     0
  9
$DIMSCALE
 40
0.0
  9
$DIMASZ
 40
12.0
  9
$DIMEXO
 40
20.0
  9
$DIMDLI
 40
10.0
  9
$DIMRND
 40
0.0
  9
$DIMDLE
 40
0.0
  9
$DIMEXE
 40
30.0
  9
$DIMTP
 40
0.0
  9
$DIMTM
 40
0.0
  9
$DIMTXT
 40
50.0
  9
$DIMCEN
 40
0.0
  9
$DIMTSZ
 40
0.0
  9
$DIMTOL
 70
     0
  9
$DIMLIM
 70
     0
  9
$DIMTIH
 70
     0
  9
$DIMTOH
 70
     0
  9
$DIMSE1
 70
     0
  9
$DIMSE2
 70
     0
  9
$DIMTAD
 70
     1
  9
$DIMZIN
 70
     0
  9
$DIMBLK
  1

  9
$DIMASO
 70
     1
  9
$DIMSHO
 70
     0
  9
$DIMPOST
  1

  9
$DIMAPOST
  1

  9
$DIMALT
 70
     0
  9
$DIMALTD
 70
     2
  9
$DIMALTF
 40
25.4
  9
$DIMLFAC
 40
1.0
  9
$DIMTOFL
 70
     1
  9
$DIMTVP
 40
0.0
  9
$DIMTIX
 70
     0
  9
$DIMSOXD
 70
     0
  9
$DIMSAH
 70
     1
  9
$DIMBLK1
  1
ORIGIN
  9
$DIMBLK2
  1
ORIGIN
  9
$DIMSTYLE
  2
STANDARD
  9
$DIMCLRD
 70
     0
  9
$DIMCLRE
 70
     0
  9
$DIMCLRT
 70
     0
  9
$DIMTFAC
 40
1.0
  9
$DIMGAP
 40
20.0
  9
$DIMJUST
 70
     0
  9
$DIMSD1
 70
     0
  9
$DIMSD2
 70
     0
  9
$DIMTOLJ
 70
     1
  9
$DIMTZIN
 70
     0
  9
$DIMALTZ
 70
     0
  9
$DIMALTTZ
 70
     0
  9
$DIMFIT
 70
     3
  9
$DIMUPT
 70
     0
  9
$DIMUNIT
 70
     2
  9
$DIMDEC
 70
     0
  9
$DIMTDEC
 70
     0
  9
$DIMALTU
 70
     2
  9
$DIMALTTD
 70
     2
  9
$DIMTXSTY
  7
STANDARD
  9
$DIMAUNIT
 70
     0
  9
$LUNITS
 70
     2
  9
$LUPREC
 70
     4
  9
$SKETCHINC
 40
0.1
  9
$FILLETRAD
 40
50.0
  9
$AUNITS
 70
     1
  9
$AUPREC
 70
     3
  9
$MENU
  1
ACAD
  9
$ELEVATION
 40
0.0
  9
$PELEVATION
 40
0.0
  9
$THICKNESS
 40
0.0
  9
$LIMCHECK
 70
     0
  9
$BLIPMODE
 70
     0
  9
$CHAMFERA
 40
0.0
  9
$CHAMFERB
 40
0.0
  9
$CHAMFERC
 40
0.0
  9
$CHAMFERD
 40
0.0
  9
$SKPOLY
 70
     0
  9
$TDCREATE
 40
2449761.493622685
  9
$TDUPDATE
 40
2455554.406711261
  9
$TDINDWG
 40
6.7274242708
  9
$TDUSRTIMER
 40
6.7274242708
  9
$USRTIMER
 70
     1
  9
$ANGBASE
 50
0.0
  9
$ANGDIR
 70
     0
  9
$PDMODE
 70
    35
  9
$PDSIZE
 40
20.0
  9
$PLINEWID
 40
0.0
  9
$COORDS
 70
     2
  9
$SPLFRAME
 70
     0
  9
$SPLINETYPE
 70
     6
  9
$SPLINESEGS
 70
     8
  9
$ATTDIA
 70
     0
  9
$ATTREQ
 70
     1
  9
$HANDLING
 70
-16383
  9
$HANDSEED
  5
53492
  9
$SURFTAB1
 70
     6
  9
$SURFTAB2
 70
     6
  9
$SURFTYPE
 70
     6
  9
$SURFU
 70
     6
  9
$SURFV
 70
     6
  9
$UCSNAME
  2

  9
$UCSORG
 10
0.0
 20
0.0
 30
0.0
  9
$UCSXDIR
 10
1.0
 20
0.0
 30
0.0
  9
$UCSYDIR
 10
0.0
 20
1.0
 30
0.0
  9
$PUCSNAME
  2

  9
$PUCSORG
 10
0.0
 20
0.0
 30
0.0
  9
$PUCSXDIR
 10
1.0
 20
0.0
 30
0.0
  9
$PUCSYDIR
 10
0.0
 20
1.0
 30
0.0
  9
$USERI1
 70
     0
  9
$USERI2
 70
     0
  9
$USERI3
 70
     0
  9
$USERI4
 70
     0
  9
$USERI5
 70
     0
  9
$USERR1
 40
20.0
  9
$USERR2
 40
0.0
  9
$USERR3
 40
0.0
  9
$USERR4
 40
0.0
  9
$USERR5
 40
0.0
  9
$WORLDVIEW
 70
     1
  9
$SHADEDGE
 70
     3
  9
$SHADEDIF
 70
    70
  9
$TILEMODE
 70
     1
  9
$MAXACTVP
 70
    48
  9
$PINSBASE
 10
0.0
 20
0.0
 30
0.0
  9
$PLIMCHECK
 70
     0
  9
$PEXTMIN
 10
1.000000000000000E+20
 20
1.000000000000000E+20
 30
1.000000000000000E+20
  9
$PEXTMAX
 10
-1.000000000000000E+20
 20
-1.000000000000000E+20
 30
-1.000000000000000E+20
  9
$PLIMMIN
 10
0.0
 20
0.0
  9
$PLIMMAX
 10
12.0
 20
9.0
  9
$UNITMODE
 70
     0
  9
$VISRETAIN
 70
     1
  9
$PLINEGEN
 70
     0
  9
$PSLTSCALE
 70
     1
  9
$TREEDEPTH
 70
  3020
  9
$PICKSTYLE
 70
     1
  9
$CMLSTYLE
  2
STANDARD
  9
$CMLJUST
 70
     0
  9
$CMLSCALE
 40
1.0
  9
$PROXYGRAPHICS
 70
     1
  9
$MEASUREMENT
 70
     0
  0
ENDSEC
  0
SECTION
  2
CLASSES
  0
CLASS
  1
ACDBDICTIONARYWDFLT
  2
AcDbDictionaryWithDefault
  3
AutoCAD 2000
 90
        0
280
     0
281
     0
  0
CLASS
  1
ACDBPLACEHOLDER
  2
AcDbPlaceHolder
  3
AutoCAD 2000
 90
        0
280
     0
281
     0
  0
CLASS
  1
LAYOUT
  2
AcDbLayout
  3
AutoCAD 2000
 90
        0
280
     0
281
     0
  0
CLASS
  1
DICTIONARYVAR
  2
AcDbDictionaryVar
  3
AutoCAD 2000
 90
        0
280
     0
281
     0
  0
CLASS
  1
LONG_TRANSACTION
  2
AcDbLongTransaction
  3
AutoCAD 2000
 90
        0
280
     0
281
     0
  0
CLASS
  1
LWPOLYLINE
  2
AcDbPolyline
  3
AutoCAD 2000
 90
        0
280
     0
281
     1
  0
CLASS
  1
HATCH
  2
AcDbHatch
  3
AutoCAD 2000
 90
        0
280
     0
281
     1
  0
CLASS
  1
XRECORD
  2
AcDbXrecord
  3
AutoCAD 2000
 90
        0
280
     0
281
     0
  0
ENDSEC
  0
SECTION
  2
TABLES
  0
TABLE
  2
VPORT
  5
8
330
0
100
AcDbSymbolTable
 70
    14
  0
VPORT
  5
5346C
330
8
100
AcDbSymbolTableRecord
100
AcDbViewportTableRecord
  2
*ACTIVE
 70
     0
 10
0.0
 20
0.0
 11
1.0
 21
1.0
 12
17.77498462128278
 22
85.05815698620381
 13
0.0
 23
0.0
 14
50.0
 24
50.0
 15
100.0
 25
100.0
 16
0.0
 26
0.0
 36
1.0
 17
0.0
 27
0.0
 37
0.0
 40
5299.537617810171
 41
1.257287705956907
 42
50.0
 43
0.0
 44
0.0
 50
0.0
 51
0.0
 71
     0
 72
  1000
 73
     1
 74
     0
 75
     0
 76
     0
 77
     0
 78
     0
  0
ENDTAB
  0
TABLE
  2
LTYPE
  5
5
330
0
100
AcDbSymbolTable
 70
     5
  0
LTYPE
  5
12
330
5
100
AcDbSymbolTableRecord
100
AcDbLinetypeTableRecord
  2
BYBLOCK
 70
     0
  3

 72
    65
 73
     0
 40
0.0
  0
LTYPE
  5
13
330
5
100
AcDbSymbolTableRecord
100
AcDbLinetypeTableRecord
  2
BYLAYER
 70
     0
  3

 72
    65
 73
     0
 40
0.0
  0
LTYPE
  5
14
330
5
100
AcDbSymbolTableRecord
100
AcDbLinetypeTableRecord
  2
CONTINUOUS
 70
     0
  3
実線
 72
    65
 73
     0
 40
0.0
  0
LTYPE
  5
20
330
5
100
AcDbSymbolTableRecord
100
AcDbLinetypeTableRecord
  2
BYBLOCK
 70
     0
  3

 72
    65
 73
     0
 40
0.0
  0
LTYPE
  5
21
330
5
100
AcDbSymbolTableRecord
100
AcDbLinetypeTableRecord
  2
BYLAYER
 70
     0
  3

 72
    65
 73
     0
 40
0.0
  0
LTYPE
  5
22
330
5
100
AcDbSymbolTableRecord
100
AcDbLinetypeTableRecord
  2
DASHDOT
 70
     0
  3
____ _ ____ _ ____ _ ____ _ ____ _ ____ _ ____
 72
    65
 73
     4
 40
5.5
 49
4.0
 74
     0
 49
-0.6
 74
     0
 49
0.3
 74
     0
 49
-0.6
 74
     0
  0
ENDTAB
  0
TABLE
  2
LAYER
  5
2
330
0
100
AcDbSymbolTable
 70
    11
  0
LAYER
  5
E
330
2
100
AcDbSymbolTableRecord
100
AcDbLayerTableRecord
  2
0
 70
     0
 62
     7
  6
CONTINUOUS
  0
LAYER
  5
1F
330
2
100
AcDbSymbolTableRecord
100
AcDbLayerTableRecord
  2
SIZE
 70
     0
 62
    30
  6
CONTINUOUS
  0
LAYER
  5
23
330
2
100
AcDbSymbolTableRecord
100
AcDbLayerTableRecord
  2
OUTLINE
 70
     0
 62
     3
  6
CONTINUOUS
  0
LAYER
  5
24
330
2
100
AcDbSymbolTableRecord
100
AcDbLayerTableRecord
  2
DETAIL
 70
     0
 62
     5
  6
CONTINUOUS
  0
LAYER
  5
25
330
2
100
AcDbSymbolTableRecord
100
AcDbLayerTableRecord
  2
BASIS
 70
     0
 62
     6
  6
DASHDOT
  0
LAYER
  5
26
330
2
100
AcDbSymbolTableRecord
100
AcDbLayerTableRecord
  2
NOTE
 70
     0
 62
     4
  6
CONTINUOUS
  0
LAYER
  5
27
330
2
100
AcDbSymbolTableRecord
100
AcDbLayerTableRecord
  2
ARRANGE
 70
     0
 62
     1
  6
CONTINUOUS
  0
LAYER
  5
28
330
2
100
AcDbSymbolTableRecord
100
AcDbLayerTableRecord
  2
FIX
 70
     0
 62
    11
  6
CONTINUOUS
  0
LAYER
  5
2A
330
2
100
AcDbSymbolTableRecord
100
AcDbLayerTableRecord
  2
ETC
 70
     0
 62
    61
  6
CONTINUOUS
  0
LAYER
  5
2C
330
2
100
AcDbSymbolTableRecord
100
AcDbLayerTableRecord
  2
DEFPOINTS
 70
     0
 62
     7
  6
CONTINUOUS
  0
ENDTAB
  0
TABLE
  2
STYLE
  5
3
330
0
100
AcDbSymbolTable
 70
     2
  0
STYLE
  5
F
330
3
100
AcDbSymbolTableRecord
100
AcDbTextStyleTableRecord
  2
STANDARD
 70
     0
 40
0.0
 41
0.9
 50
0.0
 71
     0
 42
64.0
  3
SIMPLEX
  4
BIGFONT
  0
STYLE
  5
1E9F
330
3
100
AcDbSymbolTableRecord
100
AcDbTextStyleTableRecord
  2
STANDARD1
 70
     0
 40
0.0
 41
1.0
 50
0.0
 71
     0
 42
64.0
  3
MONOTXT
  4
BIGFONT
  0
ENDTAB
  0
TABLE
  2
VIEW
  5
6
330
0
100
AcDbSymbolTable
 70
     1
  0
VIEW
  5
2D
330
6
100
AcDbSymbolTableRecord
100
AcDbViewTableRecord
  2
ALL
 70
     0
 40
6056.230032000001
 10
0.0
 20
58.11501599999999
 41
8400.0
 11
0.0
 21
0.0
 31
1.0
 12
0.0
 22
0.0
 32
0.0
 42
50.0
 43
0.0
 44
0.0
 50
0.0
 71
     0
  0
ENDTAB
  0
TABLE
  2
UCS
  5
7
330
0
100
AcDbSymbolTable
 70
     0
  0
ENDTAB
  0
TABLE
  2
APPID
  5
9
330
0
100
AcDbSymbolTable
 70
     1
  0
APPID
  5
10
330
9
100
AcDbSymbolTableRecord
100
AcDbRegAppTableRecord
  2
ACAD
 70
     0
  0
ENDTAB
  0
TABLE
  2
DIMSTYLE
  5
A
330
0
100
AcDbSymbolTable
 70
     1
  0
DIMSTYLE
105
15C
330
A
100
AcDbSymbolTableRecord
100
AcDbDimStyleTableRecord
  2
STANDARD
 70
     0
  3

  4

  5

  6

  7

 40
1.0
 41
0.18
 42
0.0625
 43
0.38
 44
0.18
 45
0.0
 46
0.0
 47
0.0
 48
0.0
140
0.18
141
0.09
142
0.0
143
25.4
144
1.0
145
0.0
146
1.0
147
0.09
 71
     0
 72
     0
 73
     1
 74
     1
 75
     0
 76
     0
 77
     0
 78
     0
170
     0
171
     2
172
     0
173
     0
174
     0
175
     0
176
     0
177
     0
178
     0
270
     2
271
     4
272
     4
273
     2
274
     2
340
F
275
     0
280
     0
281
     0
282
     0
283
     1
284
     0
285
     0
286
     0
287
     3
288
     0
  0
ENDTAB
  0
TABLE
  2
BLOCK_RECORD
  5
1
330
0
100
AcDbSymbolTable
 70
   176
  0
BLOCK_RECORD
  5
18
102
{ACAD_XDICTIONARY
360
53490
102
}
330
1
100
AcDbSymbolTableRecord
100
AcDbBlockTableRecord
  2
*MODEL_SPACE
  0
BLOCK_RECORD
  5
15
102
{ACAD_XDICTIONARY
360
5348E
102
}
330
1
100
AcDbSymbolTableRecord
100
AcDbBlockTableRecord
  2
*PAPER_SPACE
  0
BLOCK_RECORD
  5
24C
330
1
100
AcDbSymbolTableRecord
100
AcDbBlockTableRecord
  2
_ORIGIN
  0
ENDTAB
  0
ENDSEC
  0
SECTION
  2
BLOCKS
  0
BLOCK
  5
19
330
18
100
AcDbEntity
  8
0
100
AcDbBlockBegin
  2
*MODEL_SPACE
 70
     0
 10
0.0
 20
0.0
 30
0.0
  3
*MODEL_SPACE
  1

  0
ENDBLK
  5
1A
330
18
100
AcDbEntity
  8
0
100
AcDbBlockEnd
  0
BLOCK
  5
16
330
15
100
AcDbEntity
 67
     1
  8
0
100
AcDbBlockBegin
  2
*PAPER_SPACE
 70
     0
 10
0.0
 20
0.0
 30
0.0
  3
*PAPER_SPACE
  1

  0
ENDBLK
  5
17
330
15
100
AcDbEntity
 67
     1
  8
0
100
AcDbBlockEnd
  0
BLOCK
  5
24D
330
24C
100
AcDbEntity
  8
0
100
AcDbBlockBegin
  2
_ORIGIN
 70
     0
 10
0.0
 20
0.0
 30
0.0
  3
_ORIGIN
  1

  0
CIRCLE
  5
24E
330
24C
100
AcDbEntity
  8
0
  6
BYBLOCK
 62
     0
100
AcDbCircle
 10
0.0
 20
0.0
 30
0.0
 40
0.5
  0
LINE
  5
24F
330
24C
100
AcDbEntity
  8
0
  6
BYBLOCK
 62
     0
100
AcDbLine
 10
0.0
 20
0.0
 30
0.0
 11
-1.0
 21
0.0
 31
0.0
  0
ENDBLK
  5
250
330
24C
100
AcDbEntity
  8
0
100
AcDbBlockEnd
  0
ENDSEC
  0
SECTION
  2
ENTITIES
  0
LINE
  5
4F770
330
18
100
AcDbEntity
  8
DETAIL
  6
CONTINUOUS
 48
30.0
100
AcDbLine
 10
563.6999999999971
 20
-345.3514718625992
 30
0.0
 11
563.6999999999971
 21
645.9485281374018
 31
0.0
  0
LINE
  5
4F771
330
18
100
AcDbEntity
  8
DETAIL
  6
CONTINUOUS
 48
30.0
100
AcDbLine
 10
565.0
 20
-345.3514718625992
 30
0.0
 11
565.0
 21
644.6485281373989
 31
0.0
  0
LINE
  5
4F772
330
18
100
AcDbEntity
  8
BASIS
100
AcDbLine
 10
0.0
 20
772.649116276707
 30
0.0
 11
0.0
 21
-723.9076227192981
 31
0.0
  0
LINE
  5
4F776
330
18
100
AcDbEntity
  8
NOTE
  6
CONTINUOUS
100
AcDbLine
 10
-314.9999998251332
 20
149.6485281581171
 30
0.0
 11
-920.8348717568869
 21
-16.75907002681106
 31
0.0
  0
LINE
  5
4F77A
330
18
100
AcDbEntity
  8
BASIS
100
AcDbLine
 10
-315.0
 20
233.4222510005947
 30
0.0
 11
-315.0
 21
66.53516782690894
 31
0.0
  0
LINE
  5
4F783
330
18
100
AcDbEntity
  8
DETAIL
  6
CONTINUOUS
 48
30.0
100
AcDbLine
 10
-565.0
 20
642.9485281374017
 30
0.0
 11
-565.0
 21
-343.6514718626003
 31
0.0
  0
LINE
  5
4F784
330
18
100
AcDbEntity
  8
DETAIL
  6
CONTINUOUS
 48
30.0
100
AcDbLine
 10
-563.2999999999992
 20
-345.3514718625992
 30
0.0
 11
-563.2999999999992
 21
644.6485281373989
 31
0.0
  0
LINE
  5
4F78D
330
18
100
AcDbEntity
  8
DETAIL
  6
CONTINUOUS
 48
30.0
100
AcDbLine
 10
-484.5000958102027
 20
-645.3513760523001
 30
0.0
 11
-216.2000000000043
 21
-645.3513760523001
 31
0.0
  0
LINE
  5
4F78E
330
18
100
AcDbEntity
  8
DETAIL
  6
CONTINUOUS
 48
30.0
100
AcDbLine
 10
-216.2000000000043
 20
-644.9993321378988
 30
0.0
 11
-484.5000958102027
 21
-644.9993321378988
 31
0.0
  0
LINE
  5
4F791
330
18
100
AcDbEntity
  8
BASIS
100
AcDbLine
 10
-639.0026299090713
 20
0.0
 30
0.0
 11
639.0026299090713
 21
0.0
 31
0.0
  0
LINE
  5
4F799
330
18
100
AcDbEntity
  8
NOTE
  6
CONTINUOUS
100
AcDbLine
 10
-1113.289806438937
 20
-407.9496140852151
 30
0.0
 11
-719.1829755774597
 21
-407.9496140852188
 31
0.0
  0
TEXT
  5
4F79A
330
18
100
AcDbEntity
  8
NOTE
  6
CONTINUOUS
100
AcDbText
 10
-1079.849694278898
 20
-390.2238943811553
 30
0.0
 40
50.0
  1
AH 2-%%c16
 41
0.9
100
AcDbText
  0
LINE
  5
4F79B
330
18
100
AcDbEntity
  8
NOTE
  6
CONTINUOUS
100
AcDbLine
 10
-1123.645430303797
 20
-519.2376398611395
 30
0.0
 11
-734.8868202200792
 21
-519.2376398611432
 31
0.0
  0
TEXT
  5
4F79C
330
18
100
AcDbEntity
  8
NOTE
  6
CONTINUOUS
100
AcDbText
 10
-1113.426637955093
 20
-498.7887993687527
 30
0.0
 40
50.0
  1
CL（%%c40×2）
 41
0.9
100
AcDbText
  0
TEXT
  5
4F79E
330
18
100
AcDbEntity
  8
NOTE
  6
CONTINUOUS
100
AcDbText
 10
-1038.723248149846
 20
2.398493916882216
 30
0.0
 40
50.0
  1
EL
 41
0.9
100
AcDbText
  0
LINE
  5
4F79F
330
18
100
AcDbEntity
  8
NOTE
  6
CONTINUOUS
100
AcDbLine
 10
-1066.167689349807
 20
-16.75907002680833
 30
0.0
 11
-920.8348717568869
 21
-16.75907002681106
 31
0.0
  0
LINE
  5
4F7A2
330
18
100
AcDbEntity
  8
DETAIL
  6
CONTINUOUS
 48
30.0
100
AcDbLine
 10
-565.0
 20
-564.8514718625992
 30
0.0
 11
-565.0
 21
-346.5514718625982
 31
0.0
  0
LINE
  5
4F7A3
330
18
100
AcDbEntity
  8
DETAIL
  6
CONTINUOUS
 48
30.0
100
AcDbLine
 10
-563.7999999999992
 20
-565.6999999999989
 30
0.0
 11
-563.7999999999992
 21
-345.3514718625992
 31
0.0
  0
LINE
  5
4F7A4
330
18
100
AcDbEntity
  8
DETAIL
  6
CONTINUOUS
 48
30.0
100
AcDbLine
 10
-563.7999999999992
 20
-564.8514718625992
 30
0.0
 11
-564.6485281374043
 21
-565.6999999999989
 31
0.0
  0
ARC
  5
4F7A5
330
18
100
AcDbEntity
  8
DETAIL
  6
CONTINUOUS
 48
30.0
100
AcDbCircle
 10
-563.7999999999919
 20
-564.8514718625938
 30
0.0
 40
1.200000000009822
100
AcDbArc
 50
180.0000000002605
 51
224.9999999998895
  0
LINE
  5
4F7A6
330
18
100
AcDbEntity
  8
DETAIL
  6
CONTINUOUS
 48
30.0
100
AcDbLine
 10
-484.5000958102027
 20
-644.9993321378988
 30
0.0
 11
-484.5000958102027
 21
-645.3513760523001
 31
0.0
  0
LINE
  5
4F7A7
330
18
100
AcDbEntity
  8
DETAIL
  6
CONTINUOUS
 48
30.0
100
AcDbLine
 10
-484.9240753823032
 20
-644.5753556242998
 30
0.0
 11
-485.3486239476987
 21
-644.9999041897008
 31
0.0
  0
ARC
  5
4F7A8
330
18
100
AcDbEntity
  8
DETAIL
  6
CONTINUOUS
 48
30.0
100
AcDbCircle
 10
-484.5000958102027
 20
-644.1513760523012
 30
0.0
 40
1.199999999999173
100
AcDbArc
 50
225.0
 51
270.0
  0
LINE
  5
4F7A9
330
18
100
AcDbEntity
  8
DETAIL
  6
CONTINUOUS
 48
30.0
100
AcDbLine
 10
-564.6485281374043
 20
-565.6999999999989
 30
0.0
 11
-485.3486239476987
 21
-644.9999041897008
 31
0.0
  0
LINE
  5
4F7AA
330
18
100
AcDbEntity
  8
DETAIL
  6
CONTINUOUS
 48
30.0
100
AcDbLine
 10
-484.5000958102027
 20
-644.9993321378988
 30
0.0
 11
-563.7999999999992
 21
-565.6999999999989
 31
0.0
  0
LINE
  5
4F7AB
330
18
100
AcDbEntity
  8
NOTE
  6
CONTINUOUS
100
AcDbLine
 10
-464.9999998978455
 20
-149.9999998249313
 30
0.0
 11
-719.1829755774597
 21
-407.9496140852188
 31
0.0
  0
LINE
  5
4F7AC
330
18
100
AcDbEntity
  8
NOTE
  6
CONTINUOUS
100
AcDbLine
 10
-464.9999998978455
 20
-245.3514717968992
 30
0.0
 11
-734.8868202200792
 21
-519.2376398611432
 31
0.0
  0
ARC
  5
4F7AD
330
18
100
AcDbEntity
  8
DETAIL
  6
CONTINUOUS
 48
30.0
100
AcDbCircle
 10
-563.3000000000065
 20
-343.651471862604
 30
0.0
 40
1.699999999996179
100
AcDbArc
 50
179.9999999998436
 51
270.0000000001042
  0
ARC
  5
4F7AE
330
18
100
AcDbEntity
  8
DETAIL
  6
CONTINUOUS
 48
30.0
100
AcDbCircle
 10
-563.2999999999992
 20
-343.6514718625985
 30
0.0
 40
0.1000000000020442
100
AcDbArc
 50
187.5000000006145
 51
270.0
  0
LINE
  5
4F7AF
330
18
100
AcDbEntity
  8
NOTE
  6
CONTINUOUS
100
AcDbLine
 10
-464.9999999145784
 20
-149.9999998536077
 30
0.0
 11
-496.1628274505273
 21
-203.4053041909446
 31
0.0
  0
LINE
  5
4F7B0
330
18
100
AcDbEntity
  8
NOTE
  6
CONTINUOUS
100
AcDbLine
 10
-464.9999999145784
 20
-149.9999998536077
 30
0.0
 11
-518.4666405232092
 21
-181.0603817219634
 31
0.0
  0
LINE
  5
4F7B1
330
18
100
AcDbEntity
  8
NOTE
  6
CONTINUOUS
100
AcDbLine
 10
-464.9999999145784
 20
-245.3514718255755
 30
0.0
 11
-518.4666405232092
 21
-276.4118536939313
 31
0.0
  0
LINE
  5
4F7B2
330
18
100
AcDbEntity
  8
NOTE
  6
CONTINUOUS
100
AcDbLine
 10
-464.9999999145784
 20
-245.3514718255755
 30
0.0
 11
-496.1628274505273
 21
-298.7567761629124
 31
0.0
  0
LINE
  5
4F7B3
330
18
100
AcDbEntity
  8
NOTE
  6
CONTINUOUS
100
AcDbLine
 10
-465.0
 20
-59.35147186259928
 30
0.0
 11
-465.0
 21
-131.3514718625992
 31
0.0
  0
LINE
  5
4F7B4
330
18
100
AcDbEntity
  8
NOTE
  6
CONTINUOUS
100
AcDbLine
 10
-465.0
 20
-59.35147186259928
 30
0.0
 11
-465.0
 21
-131.3514718625992
 31
0.0
  0
LINE
  5
4F7B5
330
18
100
AcDbEntity
  8
BASIS
100
AcDbLine
 10
-465.0
 20
-138.6762420229024
 30
0.0
 11
-465.0
 21
-52.02670170229612
 31
0.0
  0
LINE
  5
4F7B6
330
18
100
AcDbEntity
  8
NOTE
  6
CONTINUOUS
100
AcDbLine
 10
-501.0
 20
-95.35147186259928
 30
0.0
 11
-429.0
 21
-95.35147186259928
 31
0.0
  0
LINE
  5
4F7B7
330
18
100
AcDbEntity
  8
BASIS
100
AcDbLine
 10
-418.362925237423
 20
-95.35147186259928
 30
0.0
 11
-511.637074762577
 21
-95.35147186259928
 31
0.0
  0
LINE
  5
4F7B8
330
18
100
AcDbEntity
  8
NOTE
  6
CONTINUOUS
100
AcDbLine
 10
-501.0
 20
-95.35147186259928
 30
0.0
 11
-429.0
 21
-95.35147186259928
 31
0.0
  0
LINE
  5
4F7B9
330
18
100
AcDbEntity
  8
NOTE
  6
CONTINUOUS
100
AcDbLine
 10
-465.0
 20
-209.3514718625992
 30
0.0
 11
-465.0
 21
-281.3514718625993
 31
0.0
  0
LINE
  5
4F7BA
330
18
100
AcDbEntity
  8
NOTE
  6
CONTINUOUS
100
AcDbLine
 10
-465.0
 20
-209.3514718625992
 30
0.0
 11
-465.0
 21
-281.3514718625993
 31
0.0
  0
LINE
  5
4F7BB
330
18
100
AcDbEntity
  8
BASIS
100
AcDbLine
 10
-465.0
 20
-288.6762420229024
 30
0.0
 11
-465.0
 21
-202.0267017022961
 31
0.0
  0
LINE
  5
4F7BC
330
18
100
AcDbEntity
  8
NOTE
  6
CONTINUOUS
100
AcDbLine
 10
-501.0
 20
-245.3514718625992
 30
0.0
 11
-429.0
 21
-245.3514718625992
 31
0.0
  0
LINE
  5
4F7BD
330
18
100
AcDbEntity
  8
BASIS
100
AcDbLine
 10
-418.362925237423
 20
-245.3514718625992
 30
0.0
 11
-511.637074762577
 21
-245.3514718625992
 31
0.0
  0
LINE
  5
4F7BE
330
18
100
AcDbEntity
  8
NOTE
  6
CONTINUOUS
100
AcDbLine
 10
-501.0
 20
-245.3514718625992
 30
0.0
 11
-429.0
 21
-245.3514718625992
 31
0.0
  0
LINE
  5
4F839
330
18
100
AcDbEntity
  8
BASIS
100
AcDbLine
 10
-465.0
 20
-193.3247701603031
 30
0.0
 11
-465.0
 21
-106.6752298396968
 31
0.0
  0
LINE
  5
4F83A
330
18
100
AcDbEntity
  8
NOTE
  6
CONTINUOUS
100
AcDbLine
 10
-465.0
 20
-114.0
 30
0.0
 11
-465.0
 21
-186.0
 31
0.0
  0
LINE
  5
4F83B
330
18
100
AcDbEntity
  8
NOTE
  6
CONTINUOUS
100
AcDbLine
 10
-465.0
 20
-114.0
 30
0.0
 11
-465.0
 21
-186.0
 31
0.0
  0
LINE
  5
4F83C
330
18
100
AcDbEntity
  8
NOTE
  6
CONTINUOUS
100
AcDbLine
 10
-501.0
 20
-150.0
 30
0.0
 11
-429.0
 21
-150.0
 31
0.0
  0
LINE
  5
4F83D
330
18
100
AcDbEntity
  8
BASIS
100
AcDbLine
 10
-418.362925237423
 20
-150.0
 30
0.0
 11
-511.637074762577
 21
-150.0
 31
0.0
  0
LINE
  5
4F83E
330
18
100
AcDbEntity
  8
NOTE
  6
CONTINUOUS
100
AcDbLine
 10
-501.0
 20
-150.0
 30
0.0
 11
-429.0
 21
-150.0
 31
0.0
  0
CIRCLE
  5
4F83F
330
18
100
AcDbEntity
  8
FIX
  6
CONTINUOUS
100
AcDbCircle
 10
-465.0
 20
-150.0
 30
0.0
 40
8.0
  0
LINE
  5
4F841
330
18
100
AcDbEntity
  8
NOTE
  6
CONTINUOUS
100
AcDbLine
 10
664.902872985429
 20
-889.8446983123486
 30
0.0
 11
1053.846719069202
 21
-889.8446983123522
 31
0.0
  0
TEXT
  5
4F842
330
18
100
AcDbEntity
  8
NOTE
  6
CONTINUOUS
100
AcDbText
 10
702.8750908275542
 20
-870.6871343686598
 30
0.0
 40
50.0
  1
AH 4-%%c16
 41
0.9
100
AcDbText
  0
LINE
  5
4F845
330
18
100
AcDbEntity
  8
DETAIL
  6
CONTINUOUS
 48
30.0
100
AcDbLine
 10
-213.7999999999992
 20
-645.3514718625992
 30
0.0
 11
563.7999999999956
 21
-645.3514718625992
 31
0.0
  0
LINE
  5
4F846
330
18
100
AcDbEntity
  8
DETAIL
  6
CONTINUOUS
 48
30.0
100
AcDbLine
 10
-213.7999999999992
 20
-645.0
 30
0.0
 11
563.7999999999956
 21
-645.0
 31
0.0
  0
LINE
  5
4F866
330
18
100
AcDbEntity
  8
DETAIL
  6
CONTINUOUS
 48
30.0
100
AcDbLine
 10
-216.2000000000043
 20
-644.9993321378988
 30
0.0
 11
-216.2000000000043
 21
-645.3513760523001
 31
0.0
  0
ARC
  5
4F867
330
18
100
AcDbEntity
  8
DETAIL
  6
CONTINUOUS
 48
30.0
100
AcDbCircle
 10
-216.2000000000043
 20
-644.1513760522994
 30
0.0
 40
1.200000000001636
100
AcDbArc
 50
270.0
 51
359.9999999998958
  0
ARC
  5
4F869
330
18
100
AcDbEntity
  8
DETAIL
  6
CONTINUOUS
 48
30.0
100
AcDbCircle
 10
-213.7999999999992
 20
-644.1514718625986
 30
0.0
 40
1.200000000001636
100
AcDbArc
 50
180.0000000000521
 51
270.0
  0
LINE
  5
4F86B
330
18
100
AcDbEntity
  8
BASIS
100
AcDbLine
 10
-150.0
 20
-665.3247701603032
 30
0.0
 11
-150.0
 21
-578.6752298396968
 31
0.0
  0
LINE
  5
4F86C
330
18
100
AcDbEntity
  8
NOTE
  6
CONTINUOUS
100
AcDbLine
 10
-150.0
 20
-586.0
 30
0.0
 11
-150.0
 21
-658.0
 31
0.0
  0
LINE
  5
4F86D
330
18
100
AcDbEntity
  8
NOTE
  6
CONTINUOUS
100
AcDbLine
 10
-150.0
 20
-586.0
 30
0.0
 11
-150.0
 21
-658.0
 31
0.0
  0
LINE
  5
4F86E
330
18
100
AcDbEntity
  8
NOTE
  6
CONTINUOUS
100
AcDbLine
 10
-186.0
 20
-622.0
 30
0.0
 11
-114.0
 21
-622.0
 31
0.0
  0
LINE
  5
4F86F
330
18
100
AcDbEntity
  8
BASIS
100
AcDbLine
 10
-103.362925237423
 20
-622.0
 30
0.0
 11
-196.6370747625769
 21
-622.0
 31
0.0
  0
LINE
  5
4F870
330
18
100
AcDbEntity
  8
NOTE
  6
CONTINUOUS
100
AcDbLine
 10
-186.0
 20
-622.0
 30
0.0
 11
-114.0
 21
-622.0
 31
0.0
  0
CIRCLE
  5
4F871
330
18
100
AcDbEntity
  8
FIX
  6
CONTINUOUS
100
AcDbCircle
 10
-150.0
 20
-622.0
 30
0.0
 40
8.0
  0
LINE
  5
4F8F3
330
18
100
AcDbEntity
  8
DETAIL
  6
CONTINUOUS
 48
30.0
100
AcDbLine
 10
563.7999999999956
 20
-645.3514718625992
 30
0.0
 11
563.6999999999971
 21
-345.3514718625992
 31
0.0
  0
LINE
  5
4F8F4
330
18
100
AcDbEntity
  8
DETAIL
  6
CONTINUOUS
 48
30.0
100
AcDbLine
 10
565.0
 20
-644.1514718626003
 30
0.0
 11
565.0
 21
-345.3514718625992
 31
0.0
  0
LINE
  5
4F8F6
330
18
100
AcDbEntity
  8
NOTE
  6
CONTINUOUS
100
AcDbLine
 10
500.0000000106665
 20
-621.9999999022784
 30
0.0
 11
664.902872985429
 21
-889.8446983123486
 31
0.0
  0
LINE
  5
4F8F8
330
18
100
AcDbEntity
  8
NOTE
  6
CONTINUOUS
100
AcDbLine
 10
500.0000000345244
 20
-621.9999999253705
 30
0.0
 11
544.4286953332084
 21
-665.0039460868029
 31
0.0
  0
LINE
  5
4F8F9
330
18
100
AcDbEntity
  8
NOTE
  6
CONTINUOUS
100
AcDbLine
 10
500.0000000345244
 20
-621.9999999253705
 30
0.0
 11
517.4079431418831
 21
-681.3328954939461
 31
0.0
  0
LINE
  5
4F8FA
330
18
100
AcDbEntity
  8
BASIS
100
AcDbLine
 10
563.7999999999956
 20
-645.0
 30
0.0
 11
569.4682746223916
 21
-645.0
 31
0.0
  0
LINE
  5
4F8FC
330
18
100
AcDbEntity
  8
DETAIL
  6
CONTINUOUS
 48
30.0
100
AcDbLine
 10
563.7999999999956
 20
-644.1514718626003
 30
0.0
 11
565.0
 21
-644.1514718626003
 31
0.0
  0
LINE
  5
4F91C
330
18
100
AcDbEntity
  8
BASIS
100
AcDbLine
 10
500.0
 20
-665.3247701603032
 30
0.0
 11
500.0
 21
-578.6752298396968
 31
0.0
  0
LINE
  5
4F91D
330
18
100
AcDbEntity
  8
NOTE
  6
CONTINUOUS
100
AcDbLine
 10
500.0
 20
-586.0
 30
0.0
 11
500.0
 21
-658.0
 31
0.0
  0
LINE
  5
4F91E
330
18
100
AcDbEntity
  8
NOTE
  6
CONTINUOUS
100
AcDbLine
 10
500.0
 20
-586.0
 30
0.0
 11
500.0
 21
-658.0
 31
0.0
  0
LINE
  5
4F91F
330
18
100
AcDbEntity
  8
NOTE
  6
CONTINUOUS
100
AcDbLine
 10
464.0
 20
-622.0
 30
0.0
 11
536.0
 21
-622.0
 31
0.0
  0
LINE
  5
4F920
330
18
100
AcDbEntity
  8
BASIS
100
AcDbLine
 10
546.6370747625769
 20
-622.0
 30
0.0
 11
453.362925237423
 21
-622.0
 31
0.0
  0
LINE
  5
4F921
330
18
100
AcDbEntity
  8
NOTE
  6
CONTINUOUS
100
AcDbLine
 10
464.0
 20
-622.0
 30
0.0
 11
536.0
 21
-622.0
 31
0.0
  0
CIRCLE
  5
4F922
330
18
100
AcDbEntity
  8
FIX
  6
CONTINUOUS
100
AcDbCircle
 10
500.0
 20
-622.0
 30
0.0
 40
8.0
  0
LINE
  5
4F936
330
18
100
AcDbEntity
  8
NOTE
  6
CONTINUOUS
100
AcDbLine
 10
2248.545859308611
 20
1148.528361783195
 30
0.0
 11
846.8960358013083
 21
1148.528361783195
 31
0.0
  0
TEXT
  5
4F937
330
18
100
AcDbEntity
  8
NOTE
  6
CONTINUOUS
100
AcDbText
 10
921.2270078151377
 20
1167.685925726884
 30
0.0
 40
50.0
  1
CR（入口） 2　1/2B(ヴィクトリックジョイント）
 41
0.9
100
AcDbText
  0
LINE
  5
4F93C
330
18
100
AcDbEntity
  8
BASIS
100
AcDbLine
 10
-415.0042971792572
 20
149.6485281374007
 30
0.0
 11
-214.9957028207427
 21
149.6485281374007
 31
0.0
  0
LINE
  5
4F93D
330
18
100
AcDbEntity
  8
NOTE
  6
CONTINUOUS
100
AcDbLine
 10
35.99999999787542
 20
704.6485281386103
 30
0.0
 11
-593.9056862093493
 21
1061.237882394489
 31
0.0
  0
LINE
  5
4F93E
330
18
100
AcDbEntity
  8
NOTE
  6
CONTINUOUS
100
AcDbLine
 10
35.99999999698593
 20
704.6485281379264
 30
0.0
 11
-603.6987347287704
 21
1191.42956847591
 31
0.0
  0
LINE
  5
4F941
330
18
100
AcDbEntity
  8
DETAIL
  6
CONTINUOUS
 48
30.0
100
AcDbLine
 10
-565.0
 20
642.9485281374017
 30
0.0
 11
-215.0
 21
642.9485281374017
 31
0.0
  0
LINE
  5
4F942
330
18
100
AcDbEntity
  8
DETAIL
  6
CONTINUOUS
 48
30.0
100
AcDbLine
 10
-216.7000000000043
 20
644.6485281373989
 30
0.0
 11
-563.2999999999992
 21
644.6485281373989
 31
0.0
  0
LINE
  5
4F944
330
18
100
AcDbEntity
  8
NOTE
  6
CONTINUOUS
100
AcDbLine
 10
-593.9056862093493
 20
1061.237882394489
 30
0.0
 11
-1986.197827427295
 21
1061.237882394491
 31
0.0
  0
LINE
  5
4F945
330
18
100
AcDbEntity
  8
NOTE
  6
CONTINUOUS
100
AcDbLine
 10
-603.6987347287704
 20
1191.42956847591
 30
0.0
 11
-1918.150649155035
 21
1191.42956847591
 31
0.0
  0
TEXT
  5
4F946
330
18
100
AcDbEntity
  8
NOTE
  6
CONTINUOUS
100
AcDbText
 10
-1900.973220054289
 20
1226.000255793873
 30
0.0
 40
50.0
  1
CＤ（出口） 2　1/2B(ヴィクトリックジョイント）
 41
0.9
100
AcDbText
  0
TEXT
  5
4F947
330
18
100
AcDbEntity
  8
NOTE
  6
CONTINUOUS
100
AcDbText
 10
-1953.469913821016
 20
1089.948697815849
 30
0.0
 40
50.0
  1
CＤR（入口） 2　1/2B(ヴィクトリックジョイント）
 41
0.9
100
AcDbText
  0
ARC
  5
4F96D
330
18
100
AcDbEntity
  8
DETAIL
  6
CONTINUOUS
 48
30.0
100
AcDbCircle
 10
-563.3000000000065
 20
642.9485281374017
 30
0.0
 40
1.699999999995271
100
AcDbArc
 50
89.99999999979156
 51
180.0000000001042
  0
ARC
  5
4F96E
330
18
100
AcDbEntity
  8
DETAIL
  6
CONTINUOUS
 48
30.0
100
AcDbCircle
 10
-563.3000000000029
 20
642.9485281374017
 30
0.0
 40
0.0999999999962778
100
AcDbArc
 50
97.49999999950919
 51
180.0000000020844
  0
LINE
  5
4F9C8
330
18
100
AcDbEntity
  8
BASIS
100
AcDbLine
 10
-465.0
 20
406.6752298396968
 30
0.0
 11
-465.0
 21
493.3247701603031
 31
0.0
  0
LINE
  5
4F9C9
330
18
100
AcDbEntity
  8
NOTE
  6
CONTINUOUS
100
AcDbLine
 10
-465.0
 20
486.0
 30
0.0
 11
-465.0
 21
414.0
 31
0.0
  0
LINE
  5
4F9CA
330
18
100
AcDbEntity
  8
NOTE
  6
CONTINUOUS
100
AcDbLine
 10
-465.0
 20
486.0
 30
0.0
 11
-465.0
 21
414.0
 31
0.0
  0
LINE
  5
4F9CB
330
18
100
AcDbEntity
  8
NOTE
  6
CONTINUOUS
100
AcDbLine
 10
-501.0
 20
450.0
 30
0.0
 11
-429.0
 21
450.0
 31
0.0
  0
LINE
  5
4F9CC
330
18
100
AcDbEntity
  8
BASIS
100
AcDbLine
 10
-418.362925237423
 20
450.0
 30
0.0
 11
-511.637074762577
 21
450.0
 31
0.0
  0
LINE
  5
4F9CD
330
18
100
AcDbEntity
  8
NOTE
  6
CONTINUOUS
100
AcDbLine
 10
-501.0
 20
450.0
 30
0.0
 11
-429.0
 21
450.0
 31
0.0
  0
CIRCLE
  5
4F9CE
330
18
100
AcDbEntity
  8
FIX
  6
CONTINUOUS
100
AcDbCircle
 10
-465.0
 20
450.0
 30
0.0
 40
8.0
  0
LINE
  5
4F9CF
330
18
100
AcDbEntity
  8
NOTE
  6
CONTINUOUS
100
AcDbLine
 10
-314.9999998539806
 20
149.6485281416826
 30
0.0
 11
-368.7238549752146
 21
119.0381419580426
 31
0.0
  0
LINE
  5
4F9D0
330
18
100
AcDbEntity
  8
NOTE
  6
CONTINUOUS
100
AcDbLine
 10
-314.9999998539806
 20
149.6485281416826
 30
0.0
 11
-376.8338037731173
 21
149.5501784063253
 31
0.0
  0
LINE
  5
4F9D1
330
18
100
AcDbEntity
  8
NOTE
  6
CONTINUOUS
100
AcDbLine
 10
-315.0
 20
185.6485281374007
 30
0.0
 11
-315.0
 21
113.6485281374007
 31
0.0
  0
LINE
  5
4F9D2
330
18
100
AcDbEntity
  8
NOTE
  6
CONTINUOUS
100
AcDbLine
 10
-351.0
 20
149.6485281374007
 30
0.0
 11
-279.0
 21
149.6485281374007
 31
0.0
  0
TEXT
  5
4F9D3
330
18
100
AcDbEntity
  8
ETC
  6
CONTINUOUS
100
AcDbText
 10
944.1267749648758
 20
1646.233186046747
 30
0.0
 40
64.0
  1
CMCR5746
 41
0.9
100
AcDbText
  0
TEXT
  5
4F9D5
330
18
100
AcDbEntity
  8
NOTE
  6
CONTINUOUS
100
AcDbText
 10
896.5203506804137
 20
1298.338393889737
 30
0.0
 40
50.0
  1
D PT 1/2メネジ
 41
0.9
100
AcDbText
  0
LINE
  5
4F9D6
330
18
100
AcDbEntity
  8
NOTE
  6
CONTINUOUS
100
AcDbLine
 10
1420.254728948901
 20
1276.797148982676
 30
0.0
 11
807.9207785161452
 21
1276.797148982672
 31
0.0
  0
TEXT
  5
4F9D7
330
18
100
AcDbEntity
  8
NOTE
  6
CONTINUOUS
100
AcDbText
 10
862.9247784318613
 20
1033.569632999442
 30
0.0
 40
50.0
  1
C（出口） 2　1/2B(ヴィクトリックジョイント）
 41
0.9
100
AcDbText
  0
LINE
  5
4F9D8
330
18
100
AcDbEntity
  8
NOTE
  6
CONTINUOUS
100
AcDbLine
 10
2145.142936150779
 20
1014.575638763137
 30
0.0
 11
796.1205166440122
 21
1014.575638763137
 31
0.0
  0
LINE
  5
4F9DA
330
18
100
AcDbEntity
  8
NOTE
  6
CONTINUOUS
100
AcDbLine
 10
175.0000000164836
 20
632.5000000076906
 30
0.0
 11
807.9207785161452
 21
1276.797148982672
 31
0.0
  0
LINE
  5
4F9DD
330
18
100
AcDbEntity
  8
NOTE
  6
CONTINUOUS
100
AcDbLine
 10
335.0000000040872
 20
704.6485281412133
 30
0.0
 11
407.0000000040872
 21
704.6485281412133
 31
0.0
  0
LINE
  5
4F9DE
330
18
100
AcDbEntity
  8
DETAIL
  6
CONTINUOUS
 48
30.0
100
AcDbLine
 10
-215.0
 20
644.6485281373989
 30
0.0
 11
565.0
 21
644.6485281373989
 31
0.0
  0
LINE
  5
4F9DF
330
18
100
AcDbEntity
  8
DETAIL
  6
CONTINUOUS
 48
30.0
100
AcDbLine
 10
-215.0
 20
645.9485281374027
 30
0.0
 11
563.6999999999971
 21
645.9485281374018
 31
0.0
  0
LINE
  5
4F9E2
330
18
100
AcDbEntity
  8
DETAIL
  6
CONTINUOUS
 48
30.0
100
AcDbLine
 10
332.8499999999985
 20
704.6485281373989
 30
0.0
 11
409.1499999999978
 21
704.6485281373989
 31
0.0
  0
LINE
  5
4F9EF
330
18
100
AcDbEntity
  8
NOTE
  6
CONTINUOUS
100
AcDbLine
 10
35.9999999973952
 20
704.6485281384593
 30
0.0
 11
-8.456864937350474
 21
747.6289660433522
 31
0.0
  0
LINE
  5
4F9F0
330
18
100
AcDbEntity
  8
NOTE
  6
CONTINUOUS
100
AcDbLine
 10
35.99999999698593
 20
704.6485281379264
 30
0.0
 11
-21.24471489932693
 21
728.0206856190179
 31
0.0
  0
LINE
  5
4F9F1
330
18
100
AcDbEntity
  8
NOTE
  6
CONTINUOUS
100
AcDbLine
 10
35.99999999698593
 20
704.6485281379264
 30
0.0
 11
-2.243583436469634
 21
753.2340281355772
 31
0.0
  0
LINE
  5
4F9F2
330
18
100
AcDbEntity
  8
NOTE
  6
CONTINUOUS
100
AcDbLine
 10
35.99999999567808
 20
740.6485281432269
 30
0.0
 11
35.99999999567808
 21
668.6485281432269
 31
0.0
  0
LINE
  5
4F9F3
330
18
100
AcDbEntity
  8
BASIS
100
AcDbLine
 10
35.99999999567808
 20
620.1306914549205
 30
0.0
 11
35.99999999567808
 21
736.742847350164
 31
0.0
  0
LINE
  5
4F9F5
330
18
100
AcDbEntity
  8
NOTE
  6
CONTINUOUS
100
AcDbLine
 10
-0.0000000043219188
 20
704.6485281432269
 30
0.0
 11
71.99999999567808
 21
704.6485281432269
 31
0.0
  0
LINE
  5
4F9F8
330
18
100
AcDbEntity
  8
DETAIL
  6
CONTINUOUS
 48
30.0
100
AcDbLine
 10
-2.150000000001455
 20
704.6485281373989
 30
0.0
 11
74.15000000000145
 21
704.6485281373989
 31
0.0
  0
LINE
  5
4FA16
330
18
100
AcDbEntity
  8
NOTE
  6
CONTINUOUS
100
AcDbLine
 10
35.9999999973952
 20
704.6485281384593
 30
0.0
 11
-23.88195653818002
 21
720.0822387090138
 31
0.0
  0
LINE
  5
4FA17
330
18
100
AcDbEntity
  8
DETAIL
  6
CONTINUOUS
 48
30.0
100
AcDbLine
 10
-88.90000000000146
 20
693.3485281373996
 30
0.0
 11
-2.150000000001455
 21
693.3485281373996
 31
0.0
  0
LINE
  5
4FA18
330
18
100
AcDbEntity
  8
DETAIL
  6
CONTINUOUS
 48
30.0
100
AcDbLine
 10
-88.90000000000146
 20
694.6485281373989
 30
0.0
 11
-2.150000000001455
 21
694.6485281373989
 31
0.0
  0
LINE
  5
4FA23
330
18
100
AcDbEntity
  8
DETAIL
  6
CONTINUOUS
 48
30.0
100
AcDbLine
 10
-90.20000000000436
 20
693.3485281373996
 30
0.0
 11
-89.0
 21
693.3485281373996
 31
0.0
  0
LINE
  5
4FA32
330
18
100
AcDbEntity
  8
DETAIL
  6
CONTINUOUS
 48
30.0
100
AcDbLine
 10
-90.20000000000436
 20
651.1485281373989
 30
0.0
 11
-90.20000000000436
 21
693.3485281373996
 31
0.0
  0
LINE
  5
4FA35
330
18
100
AcDbEntity
  8
DETAIL
  6
CONTINUOUS
 48
30.0
100
AcDbLine
 10
-89.0
 20
646.6485281373989
 30
0.0
 11
-89.0
 21
693.3485281373996
 31
0.0
  0
LINE
  5
4FA36
330
18
100
AcDbEntity
  8
DETAIL
  6
CONTINUOUS
 48
30.0
100
AcDbLine
 10
-88.90000000000146
 20
646.6485281373989
 30
0.0
 11
-88.90000000000146
 21
694.6485281373989
 31
0.0
  0
ARC
  5
4FA38
330
18
100
AcDbEntity
  8
DETAIL
  6
CONTINUOUS
 48
30.0
100
AcDbCircle
 10
-88.89999999999782
 20
693.3485281373959
 30
0.0
 40
1.30000000000382
100
AcDbArc
 50
90.0
 51
179.9999999997915
  0
ARC
  5
4FA39
330
18
100
AcDbEntity
  8
DETAIL
  6
CONTINUOUS
 48
30.0
100
AcDbCircle
 10
-88.90000000000146
 20
693.3485281373978
 30
0.0
 40
0.1000000000021828
100
AcDbArc
 50
90.0
 51
179.9999999989578
  0
ARC
  5
4FA42
330
18
100
AcDbEntity
  8
DETAIL
  6
CONTINUOUS
 48
30.0
100
AcDbCircle
 10
-216.699999999997
 20
642.9485281374017
 30
0.0
 40
1.699999999995271
100
AcDbArc
 50
359.9999999998436
 51
90.00000000020843
  0
LINE
  5
4FA5E
330
18
100
AcDbEntity
  8
DETAIL
  6
CONTINUOUS
 48
30.0
100
AcDbLine
 10
-2.150000000001455
 20
694.6485281373989
 30
0.0
 11
-2.150000000001455
 21
704.6485281373989
 31
0.0
  0
LINE
  5
4FA6B
330
18
100
AcDbEntity
  8
BASIS
100
AcDbLine
 10
-150.0
 20
578.6752298396968
 30
0.0
 11
-150.0
 21
665.3247701603032
 31
0.0
  0
LINE
  5
4FA6C
330
18
100
AcDbEntity
  8
NOTE
  6
CONTINUOUS
100
AcDbLine
 10
-150.0
 20
658.0
 30
0.0
 11
-150.0
 21
586.0
 31
0.0
  0
LINE
  5
4FA6D
330
18
100
AcDbEntity
  8
NOTE
  6
CONTINUOUS
100
AcDbLine
 10
-150.0
 20
658.0
 30
0.0
 11
-150.0
 21
586.0
 31
0.0
  0
LINE
  5
4FA6E
330
18
100
AcDbEntity
  8
NOTE
  6
CONTINUOUS
100
AcDbLine
 10
-186.0
 20
622.0
 30
0.0
 11
-114.0
 21
622.0
 31
0.0
  0
LINE
  5
4FA6F
330
18
100
AcDbEntity
  8
BASIS
100
AcDbLine
 10
-103.362925237423
 20
622.0
 30
0.0
 11
-196.6370747625769
 21
622.0
 31
0.0
  0
LINE
  5
4FA70
330
18
100
AcDbEntity
  8
NOTE
  6
CONTINUOUS
100
AcDbLine
 10
-186.0
 20
622.0
 30
0.0
 11
-114.0
 21
622.0
 31
0.0
  0
CIRCLE
  5
4FA71
330
18
100
AcDbEntity
  8
FIX
  6
CONTINUOUS
100
AcDbCircle
 10
-150.0
 20
622.0
 30
0.0
 40
8.0
  0
LINE
  5
4FA99
330
18
100
AcDbEntity
  8
NOTE
  6
CONTINUOUS
100
AcDbLine
 10
175.0000000164836
 20
632.5000000076906
 30
0.0
 11
205.6954295415125
 21
686.1753105114294
 31
0.0
  0
LINE
  5
4FA9A
330
18
100
AcDbEntity
  8
NOTE
  6
CONTINUOUS
100
AcDbLine
 10
175.0000000164836
 20
632.5000000076906
 30
0.0
 11
228.1934564971525
 21
664.0259443618215
 31
0.0
  0
LINE
  5
4FA9B
330
18
100
AcDbEntity
  8
NOTE
  6
CONTINUOUS
100
AcDbLine
 10
175.000000004089
 20
668.5000000038144
 30
0.0
 11
175.000000004089
 21
596.5000000038144
 31
0.0
  0
LINE
  5
4FA9C
330
18
100
AcDbEntity
  8
BASIS
100
AcDbLine
 10
155.2332962989021
 20
632.5
 30
0.0
 11
194.7667037010978
 21
632.5
 31
0.0
  0
LINE
  5
4FA9D
330
18
100
AcDbEntity
  8
NOTE
  6
CONTINUOUS
100
AcDbLine
 10
139.000000004089
 20
632.5000000038144
 30
0.0
 11
211.000000004089
 21
632.5000000038144
 31
0.0
  0
LINE
  5
4FA9E
330
18
100
AcDbEntity
  8
DETAIL
  6
CONTINUOUS
 48
30.0
100
AcDbLine
 10
-2.150000000001455
 20
693.3485281373996
 30
0.0
 11
332.8499999999985
 21
693.3485281373996
 31
0.0
  0
LINE
  5
4FA9F
330
18
100
AcDbEntity
  8
DETAIL
  6
CONTINUOUS
 48
30.0
100
AcDbLine
 10
-2.150000000001455
 20
694.6485281373989
 30
0.0
 11
332.8499999999985
 21
694.6485281373989
 31
0.0
  0
LINE
  5
4FAE6
330
18
100
AcDbEntity
  8
DETAIL
  6
CONTINUOUS
 48
30.0
100
AcDbLine
 10
74.15000000000134
 20
694.6485281373989
 30
0.0
 11
74.15000000000145
 21
704.6485281373989
 31
0.0
  0
LINE
  5
4FAF3
330
18
100
AcDbEntity
  8
DETAIL
  6
CONTINUOUS
 48
30.0
100
AcDbLine
 10
332.8499999999985
 20
694.6485281373997
 30
0.0
 11
332.8499999999985
 21
704.6485281373989
 31
0.0
  0
LINE
  5
4FB00
330
18
100
AcDbEntity
  8
NOTE
100
AcDbLine
 10
88.05721285533946
 20
724.1482109770186
 30
0.0
 11
138.193838030209
 21
724.1482109770186
 31
0.0
  0
LINE
  5
4FB01
330
18
100
AcDbEntity
  8
NOTE
100
AcDbLine
 10
153.2349535788598
 20
799.3532355382922
 30
0.0
 11
113.1256704945844
 21
839.4622887179576
 31
0.0
  0
LINE
  5
4FB02
330
18
100
AcDbEntity
  8
NOTE
100
AcDbLine
 10
155.8093102847051
 20
799.3534912884024
 30
0.0
 11
138.193838030209
 21
799.3534912884024
 31
0.0
  0
LINE
  5
4FB03
330
18
100
AcDbEntity
  8
NOTE
100
AcDbLine
 10
88.05698448928888
 20
799.3530345562939
 30
0.0
 11
88.05698448928888
 21
724.1482109770186
 31
0.0
  0
LINE
  5
4FB04
330
18
100
AcDbEntity
  8
NOTE
100
AcDbLine
 10
138.193838030209
 20
799.3534912884024
 30
0.0
 11
138.193838030209
 21
724.1484393430728
 31
0.0
  0
LINE
  5
4FB05
330
18
100
AcDbEntity
  8
NOTE
100
AcDbLine
 10
73.01611111985403
 20
799.3532629223482
 30
0.0
 11
88.05698448928888
 21
799.3532629223482
 31
0.0
  0
LINE
  5
4FB06
330
18
100
AcDbEntity
  8
NOTE
100
AcDbLine
 10
73.016305638208
 20
799.3532358402953
 30
0.0
 11
113.1251866921666
 21
839.4625733218308
 31
0.0
  0
TEXT
  5
4FB07
330
18
100
AcDbEntity
  8
NOTE
100
AcDbText
 10
79.61109315803333
 20
854.1208688746992
 30
0.0
 40
47.89183325764391
  1
EA
 50
359.9999974954791
 41
0.833333333333333
  7
STANDARD1
100
AcDbText
  0
LINE
  5
4FB08
330
18
100
AcDbEntity
  8
NOTE
  6
CONTINUOUS
100
AcDbLine
 10
371.0000000040872
 20
740.6485281412133
 30
0.0
 11
371.0000000040872
 21
668.6485281412132
 31
0.0
  0
LINE
  5
4FB09
330
18
100
AcDbEntity
  8
BASIS
100
AcDbLine
 10
371.0000000040872
 20
619.9776212728702
 30
0.0
 11
371.0000000040872
 21
736.6720248911824
 31
0.0
  0
LINE
  5
4FB0A
330
18
100
AcDbEntity
  8
NOTE
  6
CONTINUOUS
100
AcDbLine
 10
371.0000000016225
 20
704.6485281394161
 30
0.0
 11
403.7073797347548
 21
757.1297195464031
 31
0.0
  0
LINE
  5
4FB0B
330
18
100
AcDbEntity
  8
NOTE
  6
CONTINUOUS
100
AcDbLine
 10
371.0000000016225
 20
704.6485281394161
 30
0.0
 11
425.3490104967276
 21
734.1428655709533
 31
0.0
  0
LINE
  5
4FB0C
330
18
100
AcDbEntity
  8
NOTE
  6
CONTINUOUS
100
AcDbLine
 10
371.0000000016225
 20
704.6485281394161
 30
0.0
 11
428.5011178860368
 21
727.3805303806621
 31
0.0
  0
LINE
  5
4FB0D
330
18
100
AcDbEntity
  8
NOTE
  6
CONTINUOUS
100
AcDbLine
 10
371.0000000016225
 20
704.6485281394161
 30
0.0
 11
409.783528566506
 21
752.8050753675743
 31
0.0
  0
LINE
  5
4FB10
330
18
100
AcDbEntity
  8
NOTE
  6
CONTINUOUS
100
AcDbLine
 10
371.0000000016225
 20
704.6485281394161
 30
0.0
 11
796.1205166440122
 21
1014.575638763137
 31
0.0
  0
LINE
  5
4FB11
330
18
100
AcDbEntity
  8
NOTE
  6
CONTINUOUS
100
AcDbLine
 10
371.0000000016225
 20
704.648528138914
 30
0.0
 11
846.8960358013083
 21
1148.528361783195
 31
0.0
  0
LINE
  5
4FB21
330
18
100
AcDbEntity
  8
DETAIL
  6
CONTINUOUS
 48
30.0
100
AcDbLine
 10
497.1999999999971
 20
693.3485281373996
 30
0.0
 11
496.0
 21
693.3485281373996
 31
0.0
  0
LINE
  5
4FB29
330
18
100
AcDbEntity
  8
DETAIL
  6
CONTINUOUS
 48
30.0
100
AcDbLine
 10
495.8999999999978
 20
646.6485281373989
 30
0.0
 11
495.8999999999978
 21
694.6485281373989
 31
0.0
  0
LINE
  5
4FB2A
330
18
100
AcDbEntity
  8
DETAIL
  6
CONTINUOUS
 48
30.0
100
AcDbLine
 10
496.0
 20
646.6485281373989
 30
0.0
 11
496.0
 21
693.3485281373996
 31
0.0
  0
LINE
  5
4FB2D
330
18
100
AcDbEntity
  8
DETAIL
  6
CONTINUOUS
 48
30.0
100
AcDbLine
 10
497.1999999999971
 20
651.1485281373989
 30
0.0
 11
497.1999999999971
 21
693.3485281373996
 31
0.0
  0
ARC
  5
4FB3F
330
18
100
AcDbEntity
  8
DETAIL
  6
CONTINUOUS
 48
30.0
100
AcDbCircle
 10
495.9000000000014
 20
693.3485281374014
 30
0.0
 40
1.299999999997452
100
AcDbArc
 50
359.9999999998958
 51
90.00000000010421
  0
ARC
  5
4FB40
330
18
100
AcDbEntity
  8
DETAIL
  6
CONTINUOUS
 48
30.0
100
AcDbCircle
 10
495.8999999999941
 20
693.3485281373978
 30
0.0
 40
0.1000000000021828
100
AcDbArc
 50
0.0000000010422042
 51
89.9999999979156
  0
LINE
  5
4FB5D
330
18
100
AcDbEntity
  8
DETAIL
  6
CONTINUOUS
 48
30.0
100
AcDbLine
 10
409.1499999999978
 20
694.6485281373997
 30
0.0
 11
409.1499999999978
 21
704.6485281373989
 31
0.0
  0
LINE
  5
4FB62
330
18
100
AcDbEntity
  8
DETAIL
  6
CONTINUOUS
 48
30.0
100
AcDbLine
 10
332.8499999999985
 20
693.3485281373996
 30
0.0
 11
495.8999999999978
 21
693.3485281373996
 31
0.0
  0
LINE
  5
4FB63
330
18
100
AcDbEntity
  8
DETAIL
  6
CONTINUOUS
 48
30.0
100
AcDbLine
 10
332.8499999999985
 20
694.6485281373989
 30
0.0
 11
495.8999999999978
 21
694.6485281373989
 31
0.0
  0
LINE
  5
4FB64
330
18
100
AcDbEntity
  8
BASIS
100
AcDbLine
 10
500.0
 20
578.6752298396968
 30
0.0
 11
500.0
 21
665.3247701603032
 31
0.0
  0
LINE
  5
4FB65
330
18
100
AcDbEntity
  8
NOTE
  6
CONTINUOUS
100
AcDbLine
 10
500.0
 20
658.0
 30
0.0
 11
500.0
 21
586.0
 31
0.0
  0
LINE
  5
4FB66
330
18
100
AcDbEntity
  8
NOTE
  6
CONTINUOUS
100
AcDbLine
 10
500.0
 20
658.0
 30
0.0
 11
500.0
 21
586.0
 31
0.0
  0
LINE
  5
4FB67
330
18
100
AcDbEntity
  8
NOTE
  6
CONTINUOUS
100
AcDbLine
 10
464.0
 20
622.0
 30
0.0
 11
536.0
 21
622.0
 31
0.0
  0
LINE
  5
4FB68
330
18
100
AcDbEntity
  8
BASIS
100
AcDbLine
 10
546.6370747625769
 20
622.0
 30
0.0
 11
453.362925237423
 21
622.0
 31
0.0
  0
LINE
  5
4FB69
330
18
100
AcDbEntity
  8
NOTE
  6
CONTINUOUS
100
AcDbLine
 10
464.0
 20
622.0
 30
0.0
 11
536.0
 21
622.0
 31
0.0
  0
CIRCLE
  5
4FB6A
330
18
100
AcDbEntity
  8
FIX
  6
CONTINUOUS
100
AcDbCircle
 10
500.0
 20
622.0
 30
0.0
 40
8.0
  0
LINE
  5
50246
330
18
100
AcDbEntity
  8
DETAIL
  6
CONTINUOUS
 48
30.0
100
AcDbLine
 10
-215.0000000000009
 20
-644.1514718626003
 30
0.0
 11
-215.0
 21
645.9485281374027
 31
0.0
  0
LINE
  5
50247
330
18
100
AcDbEntity
  8
DETAIL
  6
CONTINUOUS
 48
30.0
100
AcDbLine
 10
-215.0000000000009
 20
-644.1514718626003
 30
0.0
 11
-215.0
 21
645.0000001923017
 31
0.0
  0
CIRCLE
  5
5024B
330
18
100
AcDbEntity
  8
DETAIL
  6
CONTINUOUS
 48
30.0
100
AcDbCircle
 10
-465.0
 20
-149.9999998076982
 30
0.0
 40
10.0
  0
CIRCLE
  5
5024C
330
18
100
AcDbEntity
  8
DETAIL
  6
CONTINUOUS
 48
30.0
100
AcDbCircle
 10
-465.0
 20
450.0000001923017
 30
0.0
 40
10.0
  0
LINE
  5
50250
330
18
100
AcDbEntity
  8
DETAIL
  6
CONTINUOUS
 48
30.0
100
AcDbLine
 10
-142.0
 20
595.0000001923017
 30
0.0
 11
492.0
 21
595.0000001923017
 31
0.0
  0
LINE
  5
50251
330
18
100
AcDbEntity
  8
DETAIL
  6
CONTINUOUS
 48
30.0
100
AcDbLine
 10
-142.0
 20
-594.9999998076982
 30
0.0
 11
492.0
 21
-594.9999998076982
 31
0.0
  0
LINE
  5
50252
330
18
100
AcDbEntity
  8
DETAIL
  6
CONTINUOUS
 48
30.0
100
AcDbLine
 10
-142.0
 20
-594.9999998076982
 30
0.0
 11
-142.0
 21
595.0000001923017
 31
0.0
  0
CIRCLE
  5
50253
330
18
100
AcDbEntity
  8
DETAIL
  6
CONTINUOUS
 48
30.0
100
AcDbCircle
 10
-150.0
 20
-621.9999998076982
 30
0.0
 40
10.0
  0
LINE
  5
50254
330
18
100
AcDbEntity
  8
DETAIL
  6
CONTINUOUS
 48
30.0
100
AcDbLine
 10
492.0
 20
595.0000001923017
 30
0.0
 11
492.0
 21
-594.9999998076982
 31
0.0
  0
CIRCLE
  5
50255
330
18
100
AcDbEntity
  8
DETAIL
  6
CONTINUOUS
 48
30.0
100
AcDbCircle
 10
500.0
 20
-621.9999998076982
 30
0.0
 40
10.0
  0
CIRCLE
  5
50256
330
18
100
AcDbEntity
  8
DETAIL
  6
CONTINUOUS
 48
30.0
100
AcDbCircle
 10
-150.0
 20
622.0000001923017
 30
0.0
 40
10.0
  0
CIRCLE
  5
50257
330
18
100
AcDbEntity
  8
DETAIL
  6
CONTINUOUS
 48
30.0
100
AcDbCircle
 10
500.0
 20
622.0000001923017
 30
0.0
 40
10.0
  0
POINT
  5
50359
330
18
100
AcDbEntity
  8
ARRANGE
  6
CONTINUOUS
100
AcDbPoint
 10
0.0
 20
0.0
 30
0.0
  0
ARC
  5
51F15
330
18
100
AcDbEntity
  8
DETAIL
100
AcDbCircle
 10
-191.6904915547743
 20
653.4449135564337
 30
0.0
 40
5.701002752011445
100
AcDbArc
 50
272.9567513624492
 51
290.524404901412
  0
ARC
  5
51F16
330
18
100
AcDbEntity
  8
DETAIL
100
AcDbCircle
 10
-191.7018000173452
 20
645.5062645710513
 30
0.0
 40
5.747936133795897
100
AcDbArc
 50
69.53036495740768
 51
86.49839241495373
  0
LINE
  5
51F17
330
18
100
AcDbEntity
  8
DETAIL
  6
CONTINUOUS
 48
30.0
100
AcDbLine
 10
-189.6916839530749
 20
650.8912625475004
 30
0.0
 11
-187.6916839533732
 21
651.2485281374993
 31
0.0
  0
LINE
  5
51F18
330
18
100
AcDbEntity
  8
DETAIL
  6
CONTINUOUS
 48
30.0
100
AcDbLine
 10
-193.6916839530749
 20
650.8912625475004
 30
0.0
 11
-191.6916839533732
 21
651.2485281374993
 31
0.0
  0
LINE
  5
51F19
330
18
100
AcDbEntity
  8
DETAIL
  6
CONTINUOUS
 48
30.0
100
AcDbLine
 10
-193.6916839530749
 20
651.2485281374011
 30
0.0
 11
-185.6916839529731
 21
651.2485281374011
 31
0.0
  0
LINE
  5
51F1A
330
18
100
AcDbEntity
  8
DETAIL
  6
CONTINUOUS
 48
30.0
100
AcDbLine
 10
-193.6916839530749
 20
648.1057937273017
 30
0.0
 11
-191.6916839533732
 21
647.748528137401
 31
0.0
  0
LINE
  5
51F1B
330
18
100
AcDbEntity
  8
DETAIL
  6
CONTINUOUS
 48
30.0
100
AcDbLine
 10
-189.6916839530749
 20
648.1057937273017
 30
0.0
 11
-187.6916839533732
 21
647.748528137401
 31
0.0
  0
LINE
  5
51F1C
330
18
100
AcDbEntity
  8
DETAIL
  6
CONTINUOUS
 48
30.0
100
AcDbLine
 10
-193.6916839530749
 20
647.748528137401
 30
0.0
 11
-193.6916839530749
 21
651.2485281374993
 31
0.0
  0
LINE
  5
51F1D
330
18
100
AcDbEntity
  8
DETAIL
  6
CONTINUOUS
 48
30.0
100
AcDbLine
 10
-189.6916839530749
 20
648.1057937273017
 30
0.0
 11
-189.6916839530749
 21
650.8912625475004
 31
0.0
  0
ARC
  5
51F1E
330
18
100
AcDbEntity
  8
DETAIL
100
AcDbCircle
 10
-187.7007638292739
 20
653.4890556117225
 30
0.0
 40
5.745947307903496
100
AcDbArc
 50
273.3367468602529
 51
290.466009098098
  0
ARC
  5
51F1F
330
18
100
AcDbEntity
  8
DETAIL
100
AcDbCircle
 10
-187.6879629595277
 20
645.5584929693741
 30
0.0
 40
5.694169056587149
100
AcDbArc
 50
69.47702039995637
 51
87.61396926510412
  0
LINE
  5
51F20
330
18
100
AcDbEntity
  8
DETAIL
  6
CONTINUOUS
 48
30.0
100
AcDbLine
 10
-185.6916839530749
 20
647.748528137401
 30
0.0
 11
-185.6916839530749
 21
651.2485281374993
 31
0.0
  0
LINE
  5
51F21
330
18
100
AcDbEntity
  8
DETAIL
  6
CONTINUOUS
 48
30.0
100
AcDbLine
 10
-99.99168395307789
 20
647.6485281373989
 30
0.0
 11
-99.99168395307789
 21
651.1485281374971
 31
0.0
  0
ARC
  5
51F22
330
18
100
AcDbEntity
  8
DETAIL
100
AcDbCircle
 10
-101.9879629595306
 20
645.4584929693719
 30
0.0
 40
5.694169056587149
100
AcDbArc
 50
69.47702039995637
 51
87.61396926510412
  0
ARC
  5
51F23
330
18
100
AcDbEntity
  8
DETAIL
100
AcDbCircle
 10
-102.0007638292768
 20
653.3890556117203
 30
0.0
 40
5.745947307903496
100
AcDbArc
 50
273.3367468602529
 51
290.466009098098
  0
LINE
  5
51F24
330
18
100
AcDbEntity
  8
DETAIL
  6
CONTINUOUS
 48
30.0
100
AcDbLine
 10
-103.9916839530778
 20
648.0057937272995
 30
0.0
 11
-103.9916839530778
 21
650.7912625474983
 31
0.0
  0
LINE
  5
51F25
330
18
100
AcDbEntity
  8
DETAIL
  6
CONTINUOUS
 48
30.0
100
AcDbLine
 10
-107.9916839530778
 20
647.6485281373989
 30
0.0
 11
-107.9916839530778
 21
651.1485281374971
 31
0.0
  0
LINE
  5
51F26
330
18
100
AcDbEntity
  8
DETAIL
  6
CONTINUOUS
 48
30.0
100
AcDbLine
 10
-103.9916839530778
 20
648.0057937272995
 30
0.0
 11
-101.9916839533761
 21
647.6485281373989
 31
0.0
  0
LINE
  5
51F27
330
18
100
AcDbEntity
  8
DETAIL
  6
CONTINUOUS
 48
30.0
100
AcDbLine
 10
-107.9916839530778
 20
648.0057937272995
 30
0.0
 11
-105.9916839533761
 21
647.6485281373989
 31
0.0
  0
LINE
  5
51F28
330
18
100
AcDbEntity
  8
DETAIL
  6
CONTINUOUS
 48
30.0
100
AcDbLine
 10
-107.9916839530778
 20
651.1485281373989
 30
0.0
 11
-99.99168395297601
 21
651.1485281373989
 31
0.0
  0
LINE
  5
51F29
330
18
100
AcDbEntity
  8
DETAIL
  6
CONTINUOUS
 48
30.0
100
AcDbLine
 10
-107.9916839530778
 20
650.7912625474983
 30
0.0
 11
-105.9916839533761
 21
651.1485281374971
 31
0.0
  0
LINE
  5
51F2A
330
18
100
AcDbEntity
  8
DETAIL
  6
CONTINUOUS
 48
30.0
100
AcDbLine
 10
-103.9916839530778
 20
650.7912625474983
 30
0.0
 11
-101.9916839533761
 21
651.1485281374971
 31
0.0
  0
ARC
  5
51F2B
330
18
100
AcDbEntity
  8
DETAIL
100
AcDbCircle
 10
-106.0018000173481
 20
645.4062645710491
 30
0.0
 40
5.747936133795897
100
AcDbArc
 50
69.53036495740768
 51
86.49839241495373
  0
ARC
  5
51F2C
330
18
100
AcDbEntity
  8
DETAIL
100
AcDbCircle
 10
-105.9904915547772
 20
653.3449135564315
 30
0.0
 40
5.701002752011445
100
AcDbArc
 50
272.9567513624492
 51
290.524404901412
  0
ARC
  5
51F2D
330
18
100
AcDbEntity
  8
DETAIL
100
AcDbCircle
 10
-95.9916795614804
 20
653.3449135564315
 30
0.0
 40
5.701002752011445
100
AcDbArc
 50
272.9567513624492
 51
290.524404901412
  0
ARC
  5
51F2E
330
18
100
AcDbEntity
  8
DETAIL
100
AcDbCircle
 10
-92.00195183597998
 20
653.3890556117203
 30
0.0
 40
5.745947307903496
100
AcDbArc
 50
273.3367468602529
 51
290.466009098098
  0
ARC
  5
51F2F
330
18
100
AcDbEntity
  8
DETAIL
100
AcDbCircle
 10
-96.00298802405133
 20
645.4062645710491
 30
0.0
 40
5.747936133795897
100
AcDbArc
 50
69.53036495740768
 51
86.49839241495373
  0
ARC
  5
51F30
330
18
100
AcDbEntity
  8
DETAIL
100
AcDbCircle
 10
-91.98915096623386
 20
645.4584929693719
 30
0.0
 40
5.694169056587149
100
AcDbArc
 50
69.47702039995637
 51
87.61396926510412
  0
LINE
  5
51F31
330
18
100
AcDbEntity
  8
DETAIL
  6
CONTINUOUS
 48
30.0
100
AcDbLine
 10
-93.99287195978104
 20
650.7912625474983
 30
0.0
 11
-91.99287196007935
 21
651.1485281374971
 31
0.0
  0
LINE
  5
51F32
330
18
100
AcDbEntity
  8
DETAIL
  6
CONTINUOUS
 48
30.0
100
AcDbLine
 10
-97.99287195978104
 20
650.7912625474983
 30
0.0
 11
-95.99287196007935
 21
651.1485281374971
 31
0.0
  0
LINE
  5
51F33
330
18
100
AcDbEntity
  8
DETAIL
  6
CONTINUOUS
 48
30.0
100
AcDbLine
 10
-97.99287195978104
 20
651.1485281373989
 30
0.0
 11
-89.99287195967918
 21
651.1485281373989
 31
0.0
  0
LINE
  5
51F34
330
18
100
AcDbEntity
  8
DETAIL
  6
CONTINUOUS
 48
30.0
100
AcDbLine
 10
-97.99287195978104
 20
648.0057937272995
 30
0.0
 11
-95.99287196007935
 21
647.6485281373989
 31
0.0
  0
LINE
  5
51F35
330
18
100
AcDbEntity
  8
DETAIL
  6
CONTINUOUS
 48
30.0
100
AcDbLine
 10
-93.99287195978104
 20
648.0057937272995
 30
0.0
 11
-91.99287196007935
 21
647.6485281373989
 31
0.0
  0
LINE
  5
51F36
330
18
100
AcDbEntity
  8
DETAIL
  6
CONTINUOUS
 48
30.0
100
AcDbLine
 10
-97.99287195978104
 20
647.6485281373989
 30
0.0
 11
-97.99287195978104
 21
651.1485281374971
 31
0.0
  0
LINE
  5
51F37
330
18
100
AcDbEntity
  8
DETAIL
  6
CONTINUOUS
 48
30.0
100
AcDbLine
 10
-93.99287195978104
 20
648.0057937272995
 30
0.0
 11
-93.99287195978104
 21
650.7912625474983
 31
0.0
  0
LINE
  5
51F38
330
18
100
AcDbEntity
  8
DETAIL
  6
CONTINUOUS
 48
30.0
100
AcDbLine
 10
-89.99287195978103
 20
647.6485281373989
 30
0.0
 11
-89.99287195978103
 21
651.1485281374971
 31
0.0
  0
LINE
  5
51F39
330
18
100
AcDbEntity
  8
DETAIL
  6
CONTINUOUS
 48
30.0
100
AcDbLine
 10
-110.0
 20
646.6485281373989
 30
0.0
 11
-100.0
 21
646.6485281373989
 31
0.0
  0
LINE
  5
51F3A
330
18
100
AcDbEntity
  8
DETAIL
  6
CONTINUOUS
 48
30.0
100
AcDbLine
 10
-100.0
 20
646.6485281373989
 30
0.0
 11
-88.0
 21
646.6485281373989
 31
0.0
  0
LINE
  5
51F3B
330
18
100
AcDbEntity
  8
DETAIL
  6
CONTINUOUS
 48
30.0
100
AcDbLine
 10
-89.60113651040229
 20
647.6485281373989
 30
0.0
 11
-98.3988119932983
 21
647.6485281373989
 31
0.0
  0
LINE
  5
51F3C
330
18
100
AcDbEntity
  8
DETAIL
  6
CONTINUOUS
 48
30.0
100
AcDbLine
 10
-99.60113651040229
 20
647.6485281373989
 30
0.0
 11
-108.3988119932983
 21
647.6485281373989
 31
0.0
  0
LINE
  5
51F3D
330
18
100
AcDbEntity
  8
DETAIL
  6
CONTINUOUS
 48
30.0
100
AcDbLine
 10
-110.0
 20
645.9485281374018
 30
0.0
 11
-110.0
 21
646.6485281373989
 31
0.0
  0
LINE
  5
51F3E
330
18
100
AcDbEntity
  8
DETAIL
  6
CONTINUOUS
 48
30.0
100
AcDbLine
 10
-108.4000000000014
 20
646.6485281373989
 30
0.0
 11
-108.4000000000014
 21
647.6485281373989
 31
0.0
  0
LINE
  5
51F3F
330
18
100
AcDbEntity
  8
DETAIL
  6
CONTINUOUS
 48
30.0
100
AcDbLine
 10
-100.0
 20
645.9485281374018
 30
0.0
 11
-100.0
 21
646.6485281373989
 31
0.0
  0
LINE
  5
51F40
330
18
100
AcDbEntity
  8
DETAIL
  6
CONTINUOUS
 48
30.0
100
AcDbLine
 10
-99.60113651040229
 20
646.6485281373989
 30
0.0
 11
-99.60113651040229
 21
647.6485281373989
 31
0.0
  0
LINE
  5
51F41
330
18
100
AcDbEntity
  8
DETAIL
  6
CONTINUOUS
 48
30.0
100
AcDbLine
 10
-98.40000000000145
 20
646.6485281373989
 30
0.0
 11
-98.40000000000145
 21
647.6485281373989
 31
0.0
  0
LINE
  5
51F42
330
18
100
AcDbEntity
  8
DETAIL
  6
CONTINUOUS
 48
30.0
100
AcDbLine
 10
-89.60113651040229
 20
646.6485281373989
 30
0.0
 11
-89.60113651040229
 21
647.6485281373989
 31
0.0
  0
LINE
  5
51F43
330
18
100
AcDbEntity
  8
DETAIL
  6
CONTINUOUS
 48
30.0
100
AcDbLine
 10
-88.0
 20
645.9485281374018
 30
0.0
 11
-88.0
 21
646.6485281373989
 31
0.0
  0
LINE
  5
51F44
330
18
100
AcDbEntity
  8
DETAIL
  6
CONTINUOUS
 48
30.0
100
AcDbLine
 10
-195.7000000000043
 20
646.7485281374011
 30
0.0
 11
-183.7000000000043
 21
646.7485281374011
 31
0.0
  0
LINE
  5
51F45
330
18
100
AcDbEntity
  8
DETAIL
  6
CONTINUOUS
 48
30.0
100
AcDbLine
 10
-185.301136510403
 20
647.748528137401
 30
0.0
 11
-194.0988119933026
 21
647.748528137401
 31
0.0
  0
LINE
  5
51F46
330
18
100
AcDbEntity
  8
DETAIL
  6
CONTINUOUS
 48
30.0
100
AcDbLine
 10
-195.7000000000043
 20
645.9485281374018
 30
0.0
 11
-195.7000000000043
 21
646.7485281374011
 31
0.0
  0
LINE
  5
51F47
330
18
100
AcDbEntity
  8
DETAIL
  6
CONTINUOUS
 48
30.0
100
AcDbLine
 10
-194.0999999999985
 20
646.7485281374011
 30
0.0
 11
-194.0999999999985
 21
647.748528137401
 31
0.0
  0
LINE
  5
51F48
330
18
100
AcDbEntity
  8
DETAIL
  6
CONTINUOUS
 48
30.0
100
AcDbLine
 10
-185.301136510403
 20
646.7485281374011
 30
0.0
 11
-185.301136510403
 21
647.748528137401
 31
0.0
  0
LINE
  5
51F49
330
18
100
AcDbEntity
  8
DETAIL
  6
CONTINUOUS
 48
30.0
100
AcDbLine
 10
-183.7000000000043
 20
645.9485281374018
 30
0.0
 11
-183.7000000000043
 21
646.7485281374011
 31
0.0
  0
LINE
  5
51F4A
330
18
100
AcDbEntity
  8
DETAIL
  6
CONTINUOUS
 48
30.0
100
AcDbLine
 10
10.00594003351579
 20
647.6485281373989
 30
0.0
 11
10.00594003351579
 21
651.1485281374971
 31
0.0
  0
LINE
  5
51F4B
330
18
100
AcDbEntity
  8
DETAIL
  6
CONTINUOUS
 48
30.0
100
AcDbLine
 10
6.005940033515798
 20
648.0057937272995
 30
0.0
 11
6.005940033515798
 21
650.7912625474983
 31
0.0
  0
LINE
  5
51F4C
330
18
100
AcDbEntity
  8
DETAIL
  6
CONTINUOUS
 48
30.0
100
AcDbLine
 10
2.005940033515798
 20
647.6485281373989
 30
0.0
 11
2.005940033515798
 21
651.1485281374971
 31
0.0
  0
LINE
  5
51F4D
330
18
100
AcDbEntity
  8
DETAIL
  6
CONTINUOUS
 48
30.0
100
AcDbLine
 10
6.005940033515798
 20
648.0057937272995
 30
0.0
 11
8.005940033217484
 21
647.6485281373989
 31
0.0
  0
LINE
  5
51F4E
330
18
100
AcDbEntity
  8
DETAIL
  6
CONTINUOUS
 48
30.0
100
AcDbLine
 10
2.005940033515798
 20
648.0057937272995
 30
0.0
 11
4.005940033217484
 21
647.6485281373989
 31
0.0
  0
LINE
  5
51F4F
330
18
100
AcDbEntity
  8
DETAIL
  6
CONTINUOUS
 48
30.0
100
AcDbLine
 10
2.005940033515798
 20
651.1485281373989
 30
0.0
 11
10.00594003361766
 21
651.1485281373989
 31
0.0
  0
LINE
  5
51F50
330
18
100
AcDbEntity
  8
DETAIL
  6
CONTINUOUS
 48
30.0
100
AcDbLine
 10
2.005940033515798
 20
650.7912625474983
 30
0.0
 11
4.005940033217484
 21
651.1485281374971
 31
0.0
  0
LINE
  5
51F51
330
18
100
AcDbEntity
  8
DETAIL
  6
CONTINUOUS
 48
30.0
100
AcDbLine
 10
6.005940033515798
 20
650.7912625474983
 30
0.0
 11
8.005940033217484
 21
651.1485281374971
 31
0.0
  0
ARC
  5
51F52
330
18
100
AcDbEntity
  8
DETAIL
100
AcDbCircle
 10
8.009661027062975
 20
645.4584929693719
 30
0.0
 40
5.694169056587149
100
AcDbArc
 50
69.47702039995637
 51
87.61396926510412
  0
ARC
  5
51F53
330
18
100
AcDbEntity
  8
DETAIL
100
AcDbCircle
 10
3.99582396924552
 20
645.4062645710491
 30
0.0
 40
5.747936133795897
100
AcDbArc
 50
69.53036495740768
 51
86.49839241495373
  0
ARC
  5
51F54
330
18
100
AcDbEntity
  8
DETAIL
100
AcDbCircle
 10
7.996860157316859
 20
653.3890556117203
 30
0.0
 40
5.745947307903496
100
AcDbArc
 50
273.3367468602529
 51
290.466009098098
  0
ARC
  5
51F55
330
18
100
AcDbEntity
  8
DETAIL
100
AcDbCircle
 10
4.007132431816444
 20
653.3449135564315
 30
0.0
 40
5.701002752011445
100
AcDbArc
 50
272.9567513624492
 51
290.524404901412
  0
ARC
  5
51F56
330
18
100
AcDbEntity
  8
DETAIL
100
AcDbCircle
 10
64.00594442511328
 20
653.3449135564315
 30
0.0
 40
5.701002752011445
100
AcDbArc
 50
272.9567513624492
 51
290.524404901412
  0
ARC
  5
51F57
330
18
100
AcDbEntity
  8
DETAIL
100
AcDbCircle
 10
67.9956721506137
 20
653.3890556117203
 30
0.0
 40
5.745947307903496
100
AcDbArc
 50
273.3367468602529
 51
290.466009098098
  0
ARC
  5
51F58
330
18
100
AcDbEntity
  8
DETAIL
100
AcDbCircle
 10
63.99463596254236
 20
645.4062645710491
 30
0.0
 40
5.747936133795897
100
AcDbArc
 50
69.53036495740768
 51
86.49839241495373
  0
ARC
  5
51F59
330
18
100
AcDbEntity
  8
DETAIL
100
AcDbCircle
 10
68.00847302035982
 20
645.4584929693719
 30
0.0
 40
5.694169056587149
100
AcDbArc
 50
69.47702039995637
 51
87.61396926510412
  0
LINE
  5
51F5A
330
18
100
AcDbEntity
  8
DETAIL
  6
CONTINUOUS
 48
30.0
100
AcDbLine
 10
66.00475202681264
 20
650.7912625474983
 30
0.0
 11
68.00475202651433
 21
651.1485281374971
 31
0.0
  0
LINE
  5
51F5B
330
18
100
AcDbEntity
  8
DETAIL
  6
CONTINUOUS
 48
30.0
100
AcDbLine
 10
62.00475202681264
 20
650.7912625474983
 30
0.0
 11
64.00475202651432
 21
651.1485281374971
 31
0.0
  0
LINE
  5
51F5C
330
18
100
AcDbEntity
  8
DETAIL
  6
CONTINUOUS
 48
30.0
100
AcDbLine
 10
62.00475202681264
 20
651.1485281373989
 30
0.0
 11
70.0047520269145
 21
651.1485281373989
 31
0.0
  0
LINE
  5
51F5D
330
18
100
AcDbEntity
  8
DETAIL
  6
CONTINUOUS
 48
30.0
100
AcDbLine
 10
62.00475202681264
 20
648.0057937272995
 30
0.0
 11
64.00475202651432
 21
647.6485281373989
 31
0.0
  0
LINE
  5
51F5E
330
18
100
AcDbEntity
  8
DETAIL
  6
CONTINUOUS
 48
30.0
100
AcDbLine
 10
66.00475202681264
 20
648.0057937272995
 30
0.0
 11
68.00475202651433
 21
647.6485281373989
 31
0.0
  0
LINE
  5
51F5F
330
18
100
AcDbEntity
  8
DETAIL
  6
CONTINUOUS
 48
30.0
100
AcDbLine
 10
62.00475202681264
 20
647.6485281373989
 30
0.0
 11
62.00475202681264
 21
651.1485281374971
 31
0.0
  0
LINE
  5
51F60
330
18
100
AcDbEntity
  8
DETAIL
  6
CONTINUOUS
 48
30.0
100
AcDbLine
 10
66.00475202681264
 20
648.0057937272995
 30
0.0
 11
66.00475202681264
 21
650.7912625474983
 31
0.0
  0
LINE
  5
51F61
330
18
100
AcDbEntity
  8
DETAIL
  6
CONTINUOUS
 48
30.0
100
AcDbLine
 10
70.00475202681264
 20
647.6485281373989
 30
0.0
 11
70.00475202681264
 21
651.1485281374971
 31
0.0
  0
LINE
  5
51F62
330
18
100
AcDbEntity
  8
DETAIL
  6
CONTINUOUS
 48
30.0
100
AcDbLine
 10
170.0035640201094
 20
647.6485281373989
 30
0.0
 11
170.0035640201094
 21
651.1485281374971
 31
0.0
  0
LINE
  5
51F63
330
18
100
AcDbEntity
  8
DETAIL
  6
CONTINUOUS
 48
30.0
100
AcDbLine
 10
166.0035640201094
 20
648.0057937272995
 30
0.0
 11
166.0035640201094
 21
650.7912625474983
 31
0.0
  0
LINE
  5
51F64
330
18
100
AcDbEntity
  8
DETAIL
  6
CONTINUOUS
 48
30.0
100
AcDbLine
 10
162.0035640201094
 20
647.6485281373989
 30
0.0
 11
162.0035640201094
 21
651.1485281374971
 31
0.0
  0
LINE
  5
51F65
330
18
100
AcDbEntity
  8
DETAIL
  6
CONTINUOUS
 48
30.0
100
AcDbLine
 10
166.0035640201094
 20
648.0057937272995
 30
0.0
 11
168.0035640198111
 21
647.6485281373989
 31
0.0
  0
LINE
  5
51F66
330
18
100
AcDbEntity
  8
DETAIL
  6
CONTINUOUS
 48
30.0
100
AcDbLine
 10
162.0035640201094
 20
648.0057937272995
 30
0.0
 11
164.0035640198111
 21
647.6485281373989
 31
0.0
  0
LINE
  5
51F67
330
18
100
AcDbEntity
  8
DETAIL
  6
CONTINUOUS
 48
30.0
100
AcDbLine
 10
162.0035640201094
 20
651.1485281373989
 30
0.0
 11
170.0035640202113
 21
651.1485281373989
 31
0.0
  0
LINE
  5
51F68
330
18
100
AcDbEntity
  8
DETAIL
  6
CONTINUOUS
 48
30.0
100
AcDbLine
 10
162.0035640201094
 20
650.7912625474983
 30
0.0
 11
164.0035640198111
 21
651.1485281374971
 31
0.0
  0
LINE
  5
51F69
330
18
100
AcDbEntity
  8
DETAIL
  6
CONTINUOUS
 48
30.0
100
AcDbLine
 10
166.0035640201094
 20
650.7912625474983
 30
0.0
 11
168.0035640198111
 21
651.1485281374971
 31
0.0
  0
ARC
  5
51F6A
330
18
100
AcDbEntity
  8
DETAIL
100
AcDbCircle
 10
168.0072850136566
 20
645.4584929693719
 30
0.0
 40
5.694169056587149
100
AcDbArc
 50
69.47702039995637
 51
87.61396926510412
  0
ARC
  5
51F6B
330
18
100
AcDbEntity
  8
DETAIL
100
AcDbCircle
 10
163.9934479558392
 20
645.4062645710491
 30
0.0
 40
5.747936133795897
100
AcDbArc
 50
69.53036495740768
 51
86.49839241495373
  0
ARC
  5
51F6C
330
18
100
AcDbEntity
  8
DETAIL
100
AcDbCircle
 10
167.9944841439105
 20
653.3890556117203
 30
0.0
 40
5.745947307903496
100
AcDbArc
 50
273.3367468602529
 51
290.466009098098
  0
ARC
  5
51F6D
330
18
100
AcDbEntity
  8
DETAIL
100
AcDbCircle
 10
164.0047564184101
 20
653.3449135564315
 30
0.0
 40
5.701002752011445
100
AcDbArc
 50
272.9567513624492
 51
290.524404901412
  0
ARC
  5
51F6E
330
18
100
AcDbEntity
  8
DETAIL
100
AcDbCircle
 10
201.5035684117069
 20
653.3449135564315
 30
0.0
 40
5.701002752011445
100
AcDbArc
 50
272.9567513624492
 51
290.524404901412
  0
ARC
  5
51F6F
330
18
100
AcDbEntity
  8
DETAIL
100
AcDbCircle
 10
205.4932961372073
 20
653.3890556117203
 30
0.0
 40
5.745947307903496
100
AcDbArc
 50
273.3367468602529
 51
290.466009098098
  0
ARC
  5
51F70
330
18
100
AcDbEntity
  8
DETAIL
100
AcDbCircle
 10
201.492259949136
 20
645.4062645710491
 30
0.0
 40
5.747936133795897
100
AcDbArc
 50
69.53036495740768
 51
86.49839241495373
  0
ARC
  5
51F71
330
18
100
AcDbEntity
  8
DETAIL
100
AcDbCircle
 10
205.5060970069535
 20
645.4584929693719
 30
0.0
 40
5.694169056587149
100
AcDbArc
 50
69.47702039995637
 51
87.61396926510412
  0
LINE
  5
51F72
330
18
100
AcDbEntity
  8
DETAIL
  6
CONTINUOUS
 48
30.0
100
AcDbLine
 10
203.5023760134063
 20
650.7912625474983
 30
0.0
 11
205.502376013108
 21
651.1485281374971
 31
0.0
  0
LINE
  5
51F73
330
18
100
AcDbEntity
  8
DETAIL
  6
CONTINUOUS
 48
30.0
100
AcDbLine
 10
199.5023760134063
 20
650.7912625474983
 30
0.0
 11
201.502376013108
 21
651.1485281374971
 31
0.0
  0
LINE
  5
51F74
330
18
100
AcDbEntity
  8
DETAIL
  6
CONTINUOUS
 48
30.0
100
AcDbLine
 10
199.5023760134063
 20
651.1485281373989
 30
0.0
 11
207.5023760135081
 21
651.1485281373989
 31
0.0
  0
LINE
  5
51F75
330
18
100
AcDbEntity
  8
DETAIL
  6
CONTINUOUS
 48
30.0
100
AcDbLine
 10
199.5023760134063
 20
648.0057937272995
 30
0.0
 11
201.502376013108
 21
647.6485281373989
 31
0.0
  0
LINE
  5
51F76
330
18
100
AcDbEntity
  8
DETAIL
  6
CONTINUOUS
 48
30.0
100
AcDbLine
 10
203.5023760134063
 20
648.0057937272995
 30
0.0
 11
205.502376013108
 21
647.6485281373989
 31
0.0
  0
LINE
  5
51F77
330
18
100
AcDbEntity
  8
DETAIL
  6
CONTINUOUS
 48
30.0
100
AcDbLine
 10
199.5023760134063
 20
647.6485281373989
 30
0.0
 11
199.5023760134063
 21
651.1485281374971
 31
0.0
  0
LINE
  5
51F78
330
18
100
AcDbEntity
  8
DETAIL
  6
CONTINUOUS
 48
30.0
100
AcDbLine
 10
203.5023760134063
 20
648.0057937272995
 30
0.0
 11
203.5023760134063
 21
650.7912625474983
 31
0.0
  0
LINE
  5
51F79
330
18
100
AcDbEntity
  8
DETAIL
  6
CONTINUOUS
 48
30.0
100
AcDbLine
 10
207.5023760134063
 20
647.6485281373989
 30
0.0
 11
207.5023760134063
 21
651.1485281374971
 31
0.0
  0
LINE
  5
51F7A
330
18
100
AcDbEntity
  8
DETAIL
  6
CONTINUOUS
 48
30.0
100
AcDbLine
 10
245.0011880067031
 20
647.6485281373989
 30
0.0
 11
245.0011880067031
 21
651.1485281374971
 31
0.0
  0
LINE
  5
51F7B
330
18
100
AcDbEntity
  8
DETAIL
  6
CONTINUOUS
 48
30.0
100
AcDbLine
 10
241.0011880067031
 20
648.0057937272995
 30
0.0
 11
241.0011880067031
 21
650.7912625474983
 31
0.0
  0
LINE
  5
51F7C
330
18
100
AcDbEntity
  8
DETAIL
  6
CONTINUOUS
 48
30.0
100
AcDbLine
 10
237.0011880067031
 20
647.6485281373989
 30
0.0
 11
237.0011880067031
 21
651.1485281374971
 31
0.0
  0
LINE
  5
51F7D
330
18
100
AcDbEntity
  8
DETAIL
  6
CONTINUOUS
 48
30.0
100
AcDbLine
 10
241.0011880067031
 20
648.0057937272995
 30
0.0
 11
243.0011880064048
 21
647.6485281373989
 31
0.0
  0
LINE
  5
51F7E
330
18
100
AcDbEntity
  8
DETAIL
  6
CONTINUOUS
 48
30.0
100
AcDbLine
 10
237.0011880067031
 20
648.0057937272995
 30
0.0
 11
239.0011880064048
 21
647.6485281373989
 31
0.0
  0
LINE
  5
51F7F
330
18
100
AcDbEntity
  8
DETAIL
  6
CONTINUOUS
 48
30.0
100
AcDbLine
 10
237.0011880067031
 20
651.1485281373989
 30
0.0
 11
245.001188006805
 21
651.1485281373989
 31
0.0
  0
LINE
  5
51F80
330
18
100
AcDbEntity
  8
DETAIL
  6
CONTINUOUS
 48
30.0
100
AcDbLine
 10
237.0011880067031
 20
650.7912625474983
 30
0.0
 11
239.0011880064048
 21
651.1485281374971
 31
0.0
  0
LINE
  5
51F81
330
18
100
AcDbEntity
  8
DETAIL
  6
CONTINUOUS
 48
30.0
100
AcDbLine
 10
241.0011880067031
 20
650.7912625474983
 30
0.0
 11
243.0011880064048
 21
651.1485281374971
 31
0.0
  0
ARC
  5
51F82
330
18
100
AcDbEntity
  8
DETAIL
100
AcDbCircle
 10
243.0049090002503
 20
645.4584929693719
 30
0.0
 40
5.694169056587149
100
AcDbArc
 50
69.47702039995637
 51
87.61396926510412
  0
ARC
  5
51F83
330
18
100
AcDbEntity
  8
DETAIL
100
AcDbCircle
 10
238.9910719424328
 20
645.4062645710491
 30
0.0
 40
5.747936133795897
100
AcDbArc
 50
69.53036495740768
 51
86.49839241495373
  0
ARC
  5
51F84
330
18
100
AcDbEntity
  8
DETAIL
100
AcDbCircle
 10
242.9921081305042
 20
653.3890556117203
 30
0.0
 40
5.745947307903496
100
AcDbArc
 50
273.3367468602529
 51
290.466009098098
  0
ARC
  5
51F85
330
18
100
AcDbEntity
  8
DETAIL
100
AcDbCircle
 10
239.0023804050037
 20
653.3449135564315
 30
0.0
 40
5.701002752011445
100
AcDbArc
 50
272.9567513624492
 51
290.524404901412
  0
LINE
  5
51F86
330
18
100
AcDbEntity
  8
DETAIL
  6
CONTINUOUS
 48
30.0
100
AcDbLine
 10
245.3988634895977
 20
646.6485281373989
 30
0.0
 11
245.3988634895977
 21
647.6485281373989
 31
0.0
  0
LINE
  5
51F87
330
18
100
AcDbEntity
  8
DETAIL
  6
CONTINUOUS
 48
30.0
100
AcDbLine
 10
247.0
 20
645.9485281374018
 30
0.0
 11
247.0
 21
646.6485281373989
 31
0.0
  0
LINE
  5
51F88
330
18
100
AcDbEntity
  8
DETAIL
  6
CONTINUOUS
 48
30.0
100
AcDbLine
 10
160.0
 20
646.6485281373989
 30
0.0
 11
172.0
 21
646.6485281373989
 31
0.0
  0
LINE
  5
51F89
330
18
100
AcDbEntity
  8
DETAIL
  6
CONTINUOUS
 48
30.0
100
AcDbLine
 10
197.5
 20
646.6485281373989
 30
0.0
 11
209.5
 21
646.6485281373989
 31
0.0
  0
LINE
  5
51F8A
330
18
100
AcDbEntity
  8
DETAIL
  6
CONTINUOUS
 48
30.0
100
AcDbLine
 10
207.8988634895977
 20
647.6485281373989
 30
0.0
 11
199.1011880067017
 21
647.6485281373989
 31
0.0
  0
LINE
  5
51F8B
330
18
100
AcDbEntity
  8
DETAIL
  6
CONTINUOUS
 48
30.0
100
AcDbLine
 10
170.3988634895977
 20
647.6485281373989
 30
0.0
 11
161.6011880067017
 21
647.6485281373989
 31
0.0
  0
LINE
  5
51F8C
330
18
100
AcDbEntity
  8
DETAIL
  6
CONTINUOUS
 48
30.0
100
AcDbLine
 10
160.0
 20
645.9485281374018
 30
0.0
 11
160.0
 21
646.6485281373989
 31
0.0
  0
LINE
  5
51F8D
330
18
100
AcDbEntity
  8
DETAIL
  6
CONTINUOUS
 48
30.0
100
AcDbLine
 10
161.5999999999985
 20
646.6485281373989
 30
0.0
 11
161.5999999999985
 21
647.6485281373989
 31
0.0
  0
LINE
  5
51F8E
330
18
100
AcDbEntity
  8
DETAIL
  6
CONTINUOUS
 48
30.0
100
AcDbLine
 10
170.3988634895977
 20
646.6485281373989
 30
0.0
 11
170.3988634895977
 21
647.6485281373989
 31
0.0
  0
LINE
  5
51F8F
330
18
100
AcDbEntity
  8
DETAIL
  6
CONTINUOUS
 48
30.0
100
AcDbLine
 10
172.0
 20
645.9485281374018
 30
0.0
 11
172.0
 21
646.6485281373989
 31
0.0
  0
LINE
  5
51F90
330
18
100
AcDbEntity
  8
DETAIL
  6
CONTINUOUS
 48
30.0
100
AcDbLine
 10
197.5
 20
645.9485281374018
 30
0.0
 11
197.5
 21
646.6485281373989
 31
0.0
  0
LINE
  5
51F91
330
18
100
AcDbEntity
  8
DETAIL
  6
CONTINUOUS
 48
30.0
100
AcDbLine
 10
199.0999999999985
 20
646.6485281373989
 30
0.0
 11
199.0999999999985
 21
647.6485281373989
 31
0.0
  0
LINE
  5
51F92
330
18
100
AcDbEntity
  8
DETAIL
  6
CONTINUOUS
 48
30.0
100
AcDbLine
 10
207.8988634895977
 20
646.6485281373989
 30
0.0
 11
207.8988634895977
 21
647.6485281373989
 31
0.0
  0
LINE
  5
51F93
330
18
100
AcDbEntity
  8
DETAIL
  6
CONTINUOUS
 48
30.0
100
AcDbLine
 10
209.5
 20
645.9485281374018
 30
0.0
 11
209.5
 21
646.6485281373989
 31
0.0
  0
LINE
  5
51F94
330
18
100
AcDbEntity
  8
DETAIL
  6
CONTINUOUS
 48
30.0
100
AcDbLine
 10
235.0
 20
645.9485281374018
 30
0.0
 11
235.0
 21
646.6485281373989
 31
0.0
  0
LINE
  5
51F95
330
18
100
AcDbEntity
  8
DETAIL
  6
CONTINUOUS
 48
30.0
100
AcDbLine
 10
236.5999999999985
 20
646.6485281373989
 30
0.0
 11
236.5999999999985
 21
647.6485281373989
 31
0.0
  0
LINE
  5
51F96
330
18
100
AcDbEntity
  8
DETAIL
  6
CONTINUOUS
 48
30.0
100
AcDbLine
 10
235.0
 20
646.6485281373989
 30
0.0
 11
247.0
 21
646.6485281373989
 31
0.0
  0
LINE
  5
51F97
330
18
100
AcDbEntity
  8
DETAIL
  6
CONTINUOUS
 48
30.0
100
AcDbLine
 10
245.3988634895977
 20
647.6485281373989
 30
0.0
 11
236.6011880067016
 21
647.6485281373989
 31
0.0
  0
LINE
  5
51F98
330
18
100
AcDbEntity
  8
DETAIL
  6
CONTINUOUS
 48
30.0
100
AcDbLine
 10
0.0
 20
646.6485281373989
 30
0.0
 11
12.0
 21
646.6485281373989
 31
0.0
  0
LINE
  5
51F99
330
18
100
AcDbEntity
  8
DETAIL
  6
CONTINUOUS
 48
30.0
100
AcDbLine
 10
60.0
 20
646.6485281373989
 30
0.0
 11
72.0
 21
646.6485281373989
 31
0.0
  0
LINE
  5
51F9A
330
18
100
AcDbEntity
  8
DETAIL
  6
CONTINUOUS
 48
30.0
100
AcDbLine
 10
70.39886348959772
 20
647.6485281373989
 30
0.0
 11
61.6011880067017
 21
647.6485281373989
 31
0.0
  0
LINE
  5
51F9B
330
18
100
AcDbEntity
  8
DETAIL
  6
CONTINUOUS
 48
30.0
100
AcDbLine
 10
10.39886348959771
 20
647.6485281373989
 30
0.0
 11
1.601188006701704
 21
647.6485281373989
 31
0.0
  0
LINE
  5
51F9C
330
18
100
AcDbEntity
  8
DETAIL
  6
CONTINUOUS
 48
30.0
100
AcDbLine
 10
0.0
 20
645.9485281374018
 30
0.0
 11
0.0
 21
646.6485281373989
 31
0.0
  0
LINE
  5
51F9D
330
18
100
AcDbEntity
  8
DETAIL
  6
CONTINUOUS
 48
30.0
100
AcDbLine
 10
1.599999999998544
 20
646.6485281373989
 30
0.0
 11
1.599999999998544
 21
647.6485281373989
 31
0.0
  0
LINE
  5
51F9E
330
18
100
AcDbEntity
  8
DETAIL
  6
CONTINUOUS
 48
30.0
100
AcDbLine
 10
10.39886348959771
 20
646.6485281373989
 30
0.0
 11
10.39886348959771
 21
647.6485281373989
 31
0.0
  0
LINE
  5
51F9F
330
18
100
AcDbEntity
  8
DETAIL
  6
CONTINUOUS
 48
30.0
100
AcDbLine
 10
12.0
 20
645.9485281374018
 30
0.0
 11
12.0
 21
646.6485281373989
 31
0.0
  0
LINE
  5
51FA0
330
18
100
AcDbEntity
  8
DETAIL
  6
CONTINUOUS
 48
30.0
100
AcDbLine
 10
60.0
 20
645.9485281374018
 30
0.0
 11
60.0
 21
646.6485281373989
 31
0.0
  0
LINE
  5
51FA1
330
18
100
AcDbEntity
  8
DETAIL
  6
CONTINUOUS
 48
30.0
100
AcDbLine
 10
61.59999999999854
 20
646.6485281373989
 30
0.0
 11
61.59999999999854
 21
647.6485281373989
 31
0.0
  0
LINE
  5
51FA2
330
18
100
AcDbEntity
  8
DETAIL
  6
CONTINUOUS
 48
30.0
100
AcDbLine
 10
70.39886348959772
 20
646.6485281373989
 30
0.0
 11
70.39886348959772
 21
647.6485281373989
 31
0.0
  0
LINE
  5
51FA3
330
18
100
AcDbEntity
  8
DETAIL
  6
CONTINUOUS
 48
30.0
100
AcDbLine
 10
72.0
 20
645.9485281374018
 30
0.0
 11
72.0
 21
646.6485281373989
 31
0.0
  0
ARC
  5
51FA4
330
18
100
AcDbEntity
  8
DETAIL
100
AcDbCircle
 10
339.0023804050038
 20
653.3449135564315
 30
0.0
 40
5.701002752011445
100
AcDbArc
 50
272.9567513624492
 51
290.524404901412
  0
ARC
  5
51FA5
330
18
100
AcDbEntity
  8
DETAIL
100
AcDbCircle
 10
342.9921081305042
 20
653.3890556117203
 30
0.0
 40
5.745947307903496
100
AcDbArc
 50
273.3367468602529
 51
290.466009098098
  0
ARC
  5
51FA6
330
18
100
AcDbEntity
  8
DETAIL
100
AcDbCircle
 10
338.9910719424328
 20
645.4062645710491
 30
0.0
 40
5.747936133795897
100
AcDbArc
 50
69.53036495740768
 51
86.49839241495373
  0
ARC
  5
51FA7
330
18
100
AcDbEntity
  8
DETAIL
100
AcDbCircle
 10
343.0049090002503
 20
645.4584929693719
 30
0.0
 40
5.694169056587149
100
AcDbArc
 50
69.47702039995637
 51
87.61396926510412
  0
LINE
  5
51FA8
330
18
100
AcDbEntity
  8
DETAIL
  6
CONTINUOUS
 48
30.0
100
AcDbLine
 10
341.0011880067031
 20
650.7912625474983
 30
0.0
 11
343.0011880064048
 21
651.1485281374971
 31
0.0
  0
LINE
  5
51FA9
330
18
100
AcDbEntity
  8
DETAIL
  6
CONTINUOUS
 48
30.0
100
AcDbLine
 10
337.0011880067031
 20
650.7912625474983
 30
0.0
 11
339.0011880064048
 21
651.1485281374971
 31
0.0
  0
LINE
  5
51FAA
330
18
100
AcDbEntity
  8
DETAIL
  6
CONTINUOUS
 48
30.0
100
AcDbLine
 10
337.0011880067031
 20
651.1485281373989
 30
0.0
 11
345.001188006805
 21
651.1485281373989
 31
0.0
  0
LINE
  5
51FAB
330
18
100
AcDbEntity
  8
DETAIL
  6
CONTINUOUS
 48
30.0
100
AcDbLine
 10
337.0011880067031
 20
648.0057937272995
 30
0.0
 11
339.0011880064048
 21
647.6485281373989
 31
0.0
  0
LINE
  5
51FAC
330
18
100
AcDbEntity
  8
DETAIL
  6
CONTINUOUS
 48
30.0
100
AcDbLine
 10
341.0011880067031
 20
648.0057937272995
 30
0.0
 11
343.0011880064048
 21
647.6485281373989
 31
0.0
  0
LINE
  5
51FAD
330
18
100
AcDbEntity
  8
DETAIL
  6
CONTINUOUS
 48
30.0
100
AcDbLine
 10
337.0011880067031
 20
647.6485281373989
 30
0.0
 11
337.0011880067031
 21
651.1485281374971
 31
0.0
  0
LINE
  5
51FAE
330
18
100
AcDbEntity
  8
DETAIL
  6
CONTINUOUS
 48
30.0
100
AcDbLine
 10
341.0011880067031
 20
648.0057937272995
 30
0.0
 11
341.0011880067031
 21
650.7912625474983
 31
0.0
  0
LINE
  5
51FAF
330
18
100
AcDbEntity
  8
DETAIL
  6
CONTINUOUS
 48
30.0
100
AcDbLine
 10
345.0011880067031
 20
647.6485281373989
 30
0.0
 11
345.0011880067031
 21
651.1485281374971
 31
0.0
  0
LINE
  5
51FB0
330
18
100
AcDbEntity
  8
DETAIL
  6
CONTINUOUS
 48
30.0
100
AcDbLine
 10
405.0011880067031
 20
647.6485281373989
 30
0.0
 11
405.0011880067031
 21
651.1485281374971
 31
0.0
  0
LINE
  5
51FB1
330
18
100
AcDbEntity
  8
DETAIL
  6
CONTINUOUS
 48
30.0
100
AcDbLine
 10
401.0011880067031
 20
648.0057937272995
 30
0.0
 11
401.0011880067031
 21
650.7912625474983
 31
0.0
  0
LINE
  5
51FB2
330
18
100
AcDbEntity
  8
DETAIL
  6
CONTINUOUS
 48
30.0
100
AcDbLine
 10
397.0011880067031
 20
647.6485281373989
 30
0.0
 11
397.0011880067031
 21
651.1485281374971
 31
0.0
  0
LINE
  5
51FB3
330
18
100
AcDbEntity
  8
DETAIL
  6
CONTINUOUS
 48
30.0
100
AcDbLine
 10
401.0011880067031
 20
648.0057937272995
 30
0.0
 11
403.0011880064048
 21
647.6485281373989
 31
0.0
  0
LINE
  5
51FB4
330
18
100
AcDbEntity
  8
DETAIL
  6
CONTINUOUS
 48
30.0
100
AcDbLine
 10
397.0011880067031
 20
648.0057937272995
 30
0.0
 11
399.0011880064048
 21
647.6485281373989
 31
0.0
  0
LINE
  5
51FB5
330
18
100
AcDbEntity
  8
DETAIL
  6
CONTINUOUS
 48
30.0
100
AcDbLine
 10
397.0011880067031
 20
651.1485281373989
 30
0.0
 11
405.001188006805
 21
651.1485281373989
 31
0.0
  0
LINE
  5
51FB6
330
18
100
AcDbEntity
  8
DETAIL
  6
CONTINUOUS
 48
30.0
100
AcDbLine
 10
397.0011880067031
 20
650.7912625474983
 30
0.0
 11
399.0011880064048
 21
651.1485281374971
 31
0.0
  0
LINE
  5
51FB7
330
18
100
AcDbEntity
  8
DETAIL
  6
CONTINUOUS
 48
30.0
100
AcDbLine
 10
401.0011880067031
 20
650.7912625474983
 30
0.0
 11
403.0011880064048
 21
651.1485281374971
 31
0.0
  0
ARC
  5
51FB8
330
18
100
AcDbEntity
  8
DETAIL
100
AcDbCircle
 10
403.0049090002503
 20
645.4584929693719
 30
0.0
 40
5.694169056587149
100
AcDbArc
 50
69.47702039995637
 51
87.61396926510412
  0
ARC
  5
51FB9
330
18
100
AcDbEntity
  8
DETAIL
100
AcDbCircle
 10
398.9910719424329
 20
645.4062645710491
 30
0.0
 40
5.747936133795897
100
AcDbArc
 50
69.53036495740768
 51
86.49839241495373
  0
ARC
  5
51FBA
330
18
100
AcDbEntity
  8
DETAIL
100
AcDbCircle
 10
402.9921081305042
 20
653.3890556117203
 30
0.0
 40
5.745947307903496
100
AcDbArc
 50
273.3367468602529
 51
290.466009098098
  0
ARC
  5
51FBB
330
18
100
AcDbEntity
  8
DETAIL
100
AcDbCircle
 10
399.0023804050037
 20
653.3449135564315
 30
0.0
 40
5.701002752011445
100
AcDbArc
 50
272.9567513624492
 51
290.524404901412
  0
ARC
  5
51FBC
330
18
100
AcDbEntity
  8
DETAIL
100
AcDbCircle
 10
499.001192398297
 20
653.3449135564315
 30
0.0
 40
5.701002752011445
100
AcDbArc
 50
272.9567513624492
 51
290.524404901412
  0
ARC
  5
51FBD
330
18
100
AcDbEntity
  8
DETAIL
100
AcDbCircle
 10
502.9909201237974
 20
653.3890556117203
 30
0.0
 40
5.745947307903496
100
AcDbArc
 50
273.3367468602529
 51
290.466009098098
  0
ARC
  5
51FBE
330
18
100
AcDbEntity
  8
DETAIL
100
AcDbCircle
 10
498.9898839357261
 20
645.4062645710491
 30
0.0
 40
5.747936133795897
100
AcDbArc
 50
69.53036495740768
 51
86.49839241495373
  0
ARC
  5
51FBF
330
18
100
AcDbEntity
  8
DETAIL
100
AcDbCircle
 10
503.0037209935435
 20
645.4584929693719
 30
0.0
 40
5.694169056587149
100
AcDbArc
 50
69.47702039995637
 51
87.61396926510412
  0
LINE
  5
51FC0
330
18
100
AcDbEntity
  8
DETAIL
  6
CONTINUOUS
 48
30.0
100
AcDbLine
 10
500.9999999999963
 20
650.7912625474983
 30
0.0
 11
502.999999999698
 21
651.1485281374971
 31
0.0
  0
LINE
  5
51FC1
330
18
100
AcDbEntity
  8
DETAIL
  6
CONTINUOUS
 48
30.0
100
AcDbLine
 10
496.9999999999963
 20
650.7912625474983
 30
0.0
 11
498.999999999698
 21
651.1485281374971
 31
0.0
  0
LINE
  5
51FC2
330
18
100
AcDbEntity
  8
DETAIL
  6
CONTINUOUS
 48
30.0
100
AcDbLine
 10
496.9999999999963
 20
651.1485281373989
 30
0.0
 11
505.0000000000982
 21
651.1485281373989
 31
0.0
  0
LINE
  5
51FC3
330
18
100
AcDbEntity
  8
DETAIL
  6
CONTINUOUS
 48
30.0
100
AcDbLine
 10
496.9999999999963
 20
648.0057937272995
 30
0.0
 11
498.999999999698
 21
647.6485281373989
 31
0.0
  0
LINE
  5
51FC4
330
18
100
AcDbEntity
  8
DETAIL
  6
CONTINUOUS
 48
30.0
100
AcDbLine
 10
500.9999999999963
 20
648.0057937272995
 30
0.0
 11
502.999999999698
 21
647.6485281373989
 31
0.0
  0
LINE
  5
51FC5
330
18
100
AcDbEntity
  8
DETAIL
  6
CONTINUOUS
 48
30.0
100
AcDbLine
 10
496.9999999999963
 20
647.6485281373989
 30
0.0
 11
496.9999999999963
 21
651.1485281374971
 31
0.0
  0
LINE
  5
51FC6
330
18
100
AcDbEntity
  8
DETAIL
  6
CONTINUOUS
 48
30.0
100
AcDbLine
 10
500.9999999999963
 20
648.0057937272995
 30
0.0
 11
500.9999999999963
 21
650.7912625474983
 31
0.0
  0
LINE
  5
51FC7
330
18
100
AcDbEntity
  8
DETAIL
  6
CONTINUOUS
 48
30.0
100
AcDbLine
 10
504.9999999999963
 20
647.6485281373989
 30
0.0
 11
504.9999999999963
 21
651.1485281374971
 31
0.0
  0
LINE
  5
51FC8
330
18
100
AcDbEntity
  8
DETAIL
  6
CONTINUOUS
 48
30.0
100
AcDbLine
 10
514.9999999999963
 20
647.6485281373989
 30
0.0
 11
514.9999999999963
 21
651.1485281374971
 31
0.0
  0
LINE
  5
51FC9
330
18
100
AcDbEntity
  8
DETAIL
  6
CONTINUOUS
 48
30.0
100
AcDbLine
 10
510.9999999999963
 20
648.0057937272995
 30
0.0
 11
510.9999999999963
 21
650.7912625474983
 31
0.0
  0
LINE
  5
51FCA
330
18
100
AcDbEntity
  8
DETAIL
  6
CONTINUOUS
 48
30.0
100
AcDbLine
 10
506.9999999999963
 20
647.6485281373989
 30
0.0
 11
506.9999999999963
 21
651.1485281374971
 31
0.0
  0
LINE
  5
51FCB
330
18
100
AcDbEntity
  8
DETAIL
  6
CONTINUOUS
 48
30.0
100
AcDbLine
 10
510.9999999999963
 20
648.0057937272995
 30
0.0
 11
512.999999999698
 21
647.6485281373989
 31
0.0
  0
LINE
  5
51FCC
330
18
100
AcDbEntity
  8
DETAIL
  6
CONTINUOUS
 48
30.0
100
AcDbLine
 10
506.9999999999963
 20
648.0057937272995
 30
0.0
 11
508.999999999698
 21
647.6485281373989
 31
0.0
  0
LINE
  5
51FCD
330
18
100
AcDbEntity
  8
DETAIL
  6
CONTINUOUS
 48
30.0
100
AcDbLine
 10
506.9999999999963
 20
651.1485281373989
 30
0.0
 11
515.0000000000982
 21
651.1485281373989
 31
0.0
  0
LINE
  5
51FCE
330
18
100
AcDbEntity
  8
DETAIL
  6
CONTINUOUS
 48
30.0
100
AcDbLine
 10
506.9999999999963
 20
650.7912625474983
 30
0.0
 11
508.999999999698
 21
651.1485281374971
 31
0.0
  0
LINE
  5
51FCF
330
18
100
AcDbEntity
  8
DETAIL
  6
CONTINUOUS
 48
30.0
100
AcDbLine
 10
510.9999999999963
 20
650.7912625474983
 30
0.0
 11
512.999999999698
 21
651.1485281374971
 31
0.0
  0
ARC
  5
51FD0
330
18
100
AcDbEntity
  8
DETAIL
100
AcDbCircle
 10
513.0037209935435
 20
645.4584929693719
 30
0.0
 40
5.694169056587149
100
AcDbArc
 50
69.47702039995637
 51
87.61396926510412
  0
ARC
  5
51FD1
330
18
100
AcDbEntity
  8
DETAIL
100
AcDbCircle
 10
508.989883935726
 20
645.4062645710491
 30
0.0
 40
5.747936133795897
100
AcDbArc
 50
69.53036495740768
 51
86.49839241495373
  0
ARC
  5
51FD2
330
18
100
AcDbEntity
  8
DETAIL
100
AcDbCircle
 10
512.9909201237974
 20
653.3890556117203
 30
0.0
 40
5.745947307903496
100
AcDbArc
 50
273.3367468602529
 51
290.466009098098
  0
ARC
  5
51FD3
330
18
100
AcDbEntity
  8
DETAIL
100
AcDbCircle
 10
509.0011923982969
 20
653.3449135564315
 30
0.0
 40
5.701002752011445
100
AcDbArc
 50
272.9567513624492
 51
290.524404901412
  0
ARC
  5
51FD4
330
18
100
AcDbEntity
  8
DETAIL
100
AcDbCircle
 10
537.7011923982977
 20
653.4449135564337
 30
0.0
 40
5.701002752011445
100
AcDbArc
 50
272.9567513624492
 51
290.524404901412
  0
ARC
  5
51FD5
330
18
100
AcDbEntity
  8
DETAIL
100
AcDbCircle
 10
541.6909201237981
 20
653.4890556117225
 30
0.0
 40
5.745947307903496
100
AcDbArc
 50
273.3367468602529
 51
290.466009098098
  0
ARC
  5
51FD6
330
18
100
AcDbEntity
  8
DETAIL
100
AcDbCircle
 10
537.6898839357267
 20
645.5062645710513
 30
0.0
 40
5.747936133795897
100
AcDbArc
 50
69.53036495740768
 51
86.49839241495373
  0
ARC
  5
51FD7
330
18
100
AcDbEntity
  8
DETAIL
100
AcDbCircle
 10
541.7037209935442
 20
645.5584929693741
 30
0.0
 40
5.694169056587149
100
AcDbArc
 50
69.47702039995637
 51
87.61396926510412
  0
LINE
  5
51FD8
330
18
100
AcDbEntity
  8
DETAIL
  6
CONTINUOUS
 48
30.0
100
AcDbLine
 10
539.699999999997
 20
650.8912625475004
 30
0.0
 11
541.6999999996988
 21
651.2485281374993
 31
0.0
  0
LINE
  5
51FD9
330
18
100
AcDbEntity
  8
DETAIL
  6
CONTINUOUS
 48
30.0
100
AcDbLine
 10
535.699999999997
 20
650.8912625475004
 30
0.0
 11
537.6999999996987
 21
651.2485281374993
 31
0.0
  0
LINE
  5
51FDA
330
18
100
AcDbEntity
  8
DETAIL
  6
CONTINUOUS
 48
30.0
100
AcDbLine
 10
495.0
 20
646.6485281373989
 30
0.0
 11
507.0
 21
646.6485281373989
 31
0.0
  0
LINE
  5
51FDB
330
18
100
AcDbEntity
  8
DETAIL
  6
CONTINUOUS
 48
30.0
100
AcDbLine
 10
507.0
 20
646.6485281373989
 30
0.0
 11
517.0
 21
646.6485281373989
 31
0.0
  0
LINE
  5
51FDC
330
18
100
AcDbEntity
  8
DETAIL
  6
CONTINUOUS
 48
30.0
100
AcDbLine
 10
533.6999999999971
 20
646.7485281374011
 30
0.0
 11
545.6999999999971
 21
646.7485281374011
 31
0.0
  0
LINE
  5
51FDD
330
18
100
AcDbEntity
  8
DETAIL
  6
CONTINUOUS
 48
30.0
100
AcDbLine
 10
515.3988634896013
 20
647.6485281373989
 30
0.0
 11
506.6011880067017
 21
647.6485281373989
 31
0.0
  0
LINE
  5
51FDE
330
18
100
AcDbEntity
  8
DETAIL
  6
CONTINUOUS
 48
30.0
100
AcDbLine
 10
505.3988634896013
 20
647.6485281373989
 30
0.0
 11
496.6011880067017
 21
647.6485281373989
 31
0.0
  0
LINE
  5
51FDF
330
18
100
AcDbEntity
  8
DETAIL
  6
CONTINUOUS
 48
30.0
100
AcDbLine
 10
544.0988634896021
 20
647.748528137401
 30
0.0
 11
535.3011880066987
 21
647.748528137401
 31
0.0
  0
LINE
  5
51FE0
330
18
100
AcDbEntity
  8
DETAIL
  6
CONTINUOUS
 48
30.0
100
AcDbLine
 10
535.699999999997
 20
651.2485281374011
 30
0.0
 11
543.7000000000989
 21
651.2485281374011
 31
0.0
  0
LINE
  5
51FE1
330
18
100
AcDbEntity
  8
DETAIL
  6
CONTINUOUS
 48
30.0
100
AcDbLine
 10
535.699999999997
 20
648.1057937273017
 30
0.0
 11
537.6999999996987
 21
647.748528137401
 31
0.0
  0
LINE
  5
51FE2
330
18
100
AcDbEntity
  8
DETAIL
  6
CONTINUOUS
 48
30.0
100
AcDbLine
 10
539.699999999997
 20
648.1057937273017
 30
0.0
 11
541.6999999996988
 21
647.748528137401
 31
0.0
  0
LINE
  5
51FE3
330
18
100
AcDbEntity
  8
DETAIL
  6
CONTINUOUS
 48
30.0
100
AcDbLine
 10
495.0
 20
645.9485281374018
 30
0.0
 11
495.0
 21
646.6485281373989
 31
0.0
  0
LINE
  5
51FE4
330
18
100
AcDbEntity
  8
DETAIL
  6
CONTINUOUS
 48
30.0
100
AcDbLine
 10
496.5999999999985
 20
646.6485281373989
 30
0.0
 11
496.5999999999985
 21
647.6485281373989
 31
0.0
  0
LINE
  5
51FE5
330
18
100
AcDbEntity
  8
DETAIL
  6
CONTINUOUS
 48
30.0
100
AcDbLine
 10
505.3988634896013
 20
646.6485281373989
 30
0.0
 11
505.3988634896013
 21
647.6485281373989
 31
0.0
  0
LINE
  5
51FE6
330
18
100
AcDbEntity
  8
DETAIL
  6
CONTINUOUS
 48
30.0
100
AcDbLine
 10
506.5999999999985
 20
646.6485281373989
 30
0.0
 11
506.5999999999985
 21
647.6485281373989
 31
0.0
  0
LINE
  5
51FE7
330
18
100
AcDbEntity
  8
DETAIL
  6
CONTINUOUS
 48
30.0
100
AcDbLine
 10
507.0
 20
645.9485281374018
 30
0.0
 11
507.0
 21
646.6485281373989
 31
0.0
  0
LINE
  5
51FE8
330
18
100
AcDbEntity
  8
DETAIL
  6
CONTINUOUS
 48
30.0
100
AcDbLine
 10
515.3988634896013
 20
646.6485281373989
 30
0.0
 11
515.3988634896013
 21
647.6485281373989
 31
0.0
  0
LINE
  5
51FE9
330
18
100
AcDbEntity
  8
DETAIL
  6
CONTINUOUS
 48
30.0
100
AcDbLine
 10
517.0
 20
645.9485281374018
 30
0.0
 11
517.0
 21
646.6485281373989
 31
0.0
  0
LINE
  5
51FEA
330
18
100
AcDbEntity
  8
DETAIL
  6
CONTINUOUS
 48
30.0
100
AcDbLine
 10
533.6999999999971
 20
645.9485281374018
 30
0.0
 11
533.6999999999971
 21
646.7485281374011
 31
0.0
  0
LINE
  5
51FEB
330
18
100
AcDbEntity
  8
DETAIL
  6
CONTINUOUS
 48
30.0
100
AcDbLine
 10
535.2999999999956
 20
646.7485281374011
 30
0.0
 11
535.2999999999956
 21
647.748528137401
 31
0.0
  0
LINE
  5
51FEC
330
18
100
AcDbEntity
  8
DETAIL
  6
CONTINUOUS
 48
30.0
100
AcDbLine
 10
535.699999999997
 20
647.748528137401
 30
0.0
 11
535.699999999997
 21
651.2485281374993
 31
0.0
  0
LINE
  5
51FED
330
18
100
AcDbEntity
  8
DETAIL
  6
CONTINUOUS
 48
30.0
100
AcDbLine
 10
539.699999999997
 20
648.1057937273017
 30
0.0
 11
539.699999999997
 21
650.8912625475004
 31
0.0
  0
LINE
  5
51FEE
330
18
100
AcDbEntity
  8
DETAIL
  6
CONTINUOUS
 48
30.0
100
AcDbLine
 10
543.699999999997
 20
647.748528137401
 30
0.0
 11
543.699999999997
 21
651.2485281374993
 31
0.0
  0
LINE
  5
51FEF
330
18
100
AcDbEntity
  8
DETAIL
  6
CONTINUOUS
 48
30.0
100
AcDbLine
 10
544.0988634896021
 20
646.7485281374011
 30
0.0
 11
544.0988634896021
 21
647.748528137401
 31
0.0
  0
LINE
  5
51FF0
330
18
100
AcDbEntity
  8
DETAIL
  6
CONTINUOUS
 48
30.0
100
AcDbLine
 10
545.6999999999971
 20
645.9485281374018
 30
0.0
 11
545.6999999999971
 21
646.7485281374011
 31
0.0
  0
LINE
  5
51FF1
330
18
100
AcDbEntity
  8
DETAIL
  6
CONTINUOUS
 48
30.0
100
AcDbLine
 10
395.0
 20
646.6485281373989
 30
0.0
 11
407.0
 21
646.6485281373989
 31
0.0
  0
LINE
  5
51FF2
330
18
100
AcDbEntity
  8
DETAIL
  6
CONTINUOUS
 48
30.0
100
AcDbLine
 10
405.3988634896013
 20
647.6485281373989
 30
0.0
 11
396.6011880067016
 21
647.6485281373989
 31
0.0
  0
LINE
  5
51FF3
330
18
100
AcDbEntity
  8
DETAIL
  6
CONTINUOUS
 48
30.0
100
AcDbLine
 10
395.0
 20
645.9485281374018
 30
0.0
 11
395.0
 21
646.6485281373989
 31
0.0
  0
LINE
  5
51FF4
330
18
100
AcDbEntity
  8
DETAIL
  6
CONTINUOUS
 48
30.0
100
AcDbLine
 10
396.5999999999985
 20
646.6485281373989
 30
0.0
 11
396.5999999999985
 21
647.6485281373989
 31
0.0
  0
LINE
  5
51FF5
330
18
100
AcDbEntity
  8
DETAIL
  6
CONTINUOUS
 48
30.0
100
AcDbLine
 10
405.3988634896013
 20
646.6485281373989
 30
0.0
 11
405.3988634896013
 21
647.6485281373989
 31
0.0
  0
LINE
  5
51FF6
330
18
100
AcDbEntity
  8
DETAIL
  6
CONTINUOUS
 48
30.0
100
AcDbLine
 10
407.0
 20
645.9485281374018
 30
0.0
 11
407.0
 21
646.6485281373989
 31
0.0
  0
LINE
  5
51FF7
330
18
100
AcDbEntity
  8
DETAIL
  6
CONTINUOUS
 48
30.0
100
AcDbLine
 10
335.0
 20
646.6485281373989
 30
0.0
 11
347.0
 21
646.6485281373989
 31
0.0
  0
LINE
  5
51FF8
330
18
100
AcDbEntity
  8
DETAIL
  6
CONTINUOUS
 48
30.0
100
AcDbLine
 10
345.3988634896013
 20
647.6485281373989
 30
0.0
 11
336.6011880067016
 21
647.6485281373989
 31
0.0
  0
LINE
  5
51FF9
330
18
100
AcDbEntity
  8
DETAIL
  6
CONTINUOUS
 48
30.0
100
AcDbLine
 10
335.0
 20
645.9485281374018
 30
0.0
 11
335.0
 21
646.6485281373989
 31
0.0
  0
LINE
  5
51FFA
330
18
100
AcDbEntity
  8
DETAIL
  6
CONTINUOUS
 48
30.0
100
AcDbLine
 10
336.5999999999985
 20
646.6485281373989
 30
0.0
 11
336.5999999999985
 21
647.6485281373989
 31
0.0
  0
LINE
  5
51FFB
330
18
100
AcDbEntity
  8
DETAIL
  6
CONTINUOUS
 48
30.0
100
AcDbLine
 10
345.3988634896013
 20
646.6485281373989
 30
0.0
 11
345.3988634896013
 21
647.6485281373989
 31
0.0
  0
LINE
  5
51FFC
330
18
100
AcDbEntity
  8
DETAIL
  6
CONTINUOUS
 48
30.0
100
AcDbLine
 10
347.0
 20
645.9485281374018
 30
0.0
 11
347.0
 21
646.6485281373989
 31
0.0
  0
LINE
  5
52003
330
18
100
AcDbEntity
  8
DETAIL
  6
CONTINUOUS
 48
30.0
100
AcDbLine
 10
-213.7999999999992
 20
-645.0
 30
0.0
 11
-213.7999999999992
 21
-645.3520439144012
 31
0.0
  0
LINE
  5
531CE
330
18
100
AcDbEntity
  8
SIZE
100
AcDbLine
 10
565.0
 20
664.6485281373989
 30
0.0
 11
565.0
 21
982.4170443883359
 31
0.0
  0
LINE
  5
531CF
330
18
100
AcDbEntity
  8
SIZE
100
AcDbLine
 10
175.0000000040899
 20
688.2485281412137
 30
0.0
 11
175.00000000409
 21
982.4170443883359
 31
0.0
  0
LINE
  5
531D0
330
18
100
AcDbEntity
  8
SIZE
100
AcDbLine
 10
553.0
 20
952.4170443883358
 30
0.0
 11
187.00000000409
 21
952.4170443883358
 31
0.0
  0
LINE
  5
531D4
330
18
100
AcDbEntity
  8
SIZE
100
AcDbLine
 10
565.0
 20
664.6485281373989
 30
0.0
 11
565.0
 21
1249.806511156386
 31
0.0
  0
LINE
  5
531D5
330
18
100
AcDbEntity
  8
SIZE
100
AcDbLine
 10
35.99999999567808
 20
760.6485281432269
 30
0.0
 11
35.99999999567811
 21
1249.806511156386
 31
0.0
  0
LINE
  5
531D6
330
18
100
AcDbEntity
  8
SIZE
100
AcDbLine
 10
553.0
 20
1219.806511156386
 30
0.0
 11
47.99999999567811
 21
1219.806511156386
 31
0.0
  0
LINE
  5
531DA
330
18
100
AcDbEntity
  8
SIZE
100
AcDbLine
 10
-150.0
 20
-685.3247701603031
 30
0.0
 11
-150.0
 21
-1132.506413604451
 31
0.0
  0
LINE
  5
531DB
330
18
100
AcDbEntity
  8
SIZE
100
AcDbLine
 10
500.0
 20
-678.0
 30
0.0
 11
499.9999999999999
 21
-1132.506413604451
 31
0.0
  0
LINE
  5
531DC
330
18
100
AcDbEntity
  8
SIZE
100
AcDbLine
 10
-138.0
 20
-1102.506413604451
 30
0.0
 11
488.0
 21
-1102.506413604451
 31
0.0
  0
LINE
  5
531E0
330
18
100
AcDbEntity
  8
SIZE
100
AcDbLine
 10
-215.0000000000027
 20
-664.1513760522993
 30
0.0
 11
-215.0000000000027
 21
-1273.06102274556
 31
0.0
  0
LINE
  5
531E1
330
18
100
AcDbEntity
  8
SIZE
100
AcDbLine
 10
565.0
 20
-664.1514718626003
 30
0.0
 11
565.0
 21
-1273.06102274556
 31
0.0
  0
LINE
  5
531E2
330
18
100
AcDbEntity
  8
SIZE
100
AcDbLine
 10
-203.0000000000027
 20
-1243.06102274556
 30
0.0
 11
553.0
 21
-1243.06102274556
 31
0.0
  0
LINE
  5
531E6
330
18
100
AcDbEntity
  8
SIZE
100
AcDbLine
 10
-142.0
 20
-614.9999998076983
 30
0.0
 11
-142.0
 21
-1006.130464930362
 31
0.0
  0
LINE
  5
531E7
330
18
100
AcDbEntity
  8
SIZE
100
AcDbLine
 10
492.0
 20
-614.9999998076983
 30
0.0
 11
492.0
 21
-1006.130464930362
 31
0.0
  0
LINE
  5
531E8
330
18
100
AcDbEntity
  8
SIZE
100
AcDbLine
 10
-130.0
 20
-976.1304649303619
 30
0.0
 11
480.0
 21
-976.1304649303619
 31
0.0
  0
LINE
  5
531EC
330
18
100
AcDbEntity
  8
SIZE
100
AcDbLine
 10
-565.0
 20
-584.8514718625938
 30
0.0
 11
-565.0
 21
-1427.00169909898
 31
0.0
  0
LINE
  5
531ED
330
18
100
AcDbEntity
  8
SIZE
100
AcDbLine
 10
565.0000000000011
 20
-664.1514718626003
 30
0.0
 11
565.0000000000011
 21
-1427.00169909898
 31
0.0
  0
LINE
  5
531EE
330
18
100
AcDbEntity
  8
SIZE
100
AcDbLine
 10
-553.0
 20
-1397.00169909898
 30
0.0
 11
553.0000000000011
 21
-1397.00169909898
 31
0.0
  0
LINE
  5
531F2
330
18
100
AcDbEntity
  8
SIZE
100
AcDbLine
 10
371.0000000040872
 20
756.6720248911824
 30
0.0
 11
371.0000000040872
 21
1118.463290676934
 31
0.0
  0
LINE
  5
531F3
330
18
100
AcDbEntity
  8
SIZE
100
AcDbLine
 10
-565.0
 20
662.9485281374018
 30
0.0
 11
-565.0
 21
1118.463290676934
 31
0.0
  0
LINE
  5
531F4
330
18
100
AcDbEntity
  8
SIZE
100
AcDbLine
 10
359.0000000040872
 20
1088.463290676934
 30
0.0
 11
-553.0
 21
1088.463290676934
 31
0.0
  0
LINE
  5
531F8
330
18
100
AcDbEntity
  8
SIZE
100
AcDbLine
 10
-583.2999999999993
 20
644.6485281373971
 30
0.0
 11
-791.4045148280928
 21
644.6485281373972
 31
0.0
  0
LINE
  5
531F9
330
18
100
AcDbEntity
  8
SIZE
100
AcDbLine
 10
-531.6370747625769
 20
-95.35147186259928
 30
0.0
 11
-791.4045148280929
 21
-95.35147186259921
 31
0.0
  0
LINE
  5
531FA
330
18
100
AcDbEntity
  8
SIZE
100
AcDbLine
 10
-761.4045148280928
 20
632.6485281373971
 30
0.0
 11
-761.4045148280929
 21
-83.35147186259922
 31
0.0
  0
LINE
  5
531FE
330
18
100
AcDbEntity
  8
SIZE
100
AcDbLine
 10
-531.6370747625769
 20
450.0
 30
0.0
 11
-918.5502587802838
 21
450.0
 31
0.0
  0
LINE
  5
531FF
330
18
100
AcDbEntity
  8
SIZE
100
AcDbLine
 10
-531.6370747625769
 20
-150.0
 30
0.0
 11
-918.5502587802838
 21
-149.9999999999998
 31
0.0
  0
LINE
  5
53200
330
18
100
AcDbEntity
  8
SIZE
100
AcDbLine
 10
-888.5502587802838
 20
438.0
 30
0.0
 11
-888.5502587802839
 21
-137.9999999999998
 31
0.0
  0
LINE
  5
53204
330
18
100
AcDbEntity
  8
SIZE
100
AcDbLine
 10
-583.2999999999993
 20
644.6485281373989
 30
0.0
 11
-679.0181494694478
 21
644.6485281373989
 31
0.0
  0
LINE
  5
53205
330
18
100
AcDbEntity
  8
SIZE
100
AcDbLine
 10
-435.0042971792572
 20
149.6485281374007
 30
0.0
 11
-679.0181494694479
 21
149.6485281374008
 31
0.0
  0
LINE
  5
53206
330
18
100
AcDbEntity
  8
SIZE
100
AcDbLine
 10
-649.0181494694478
 20
632.6485281373988
 30
0.0
 11
-649.0181494694479
 21
161.6485281374008
 31
0.0
  0
LINE
  5
5320A
330
18
100
AcDbEntity
  8
SIZE
100
AcDbLine
 10
-465.0
 20
-308.6762420229024
 30
0.0
 11
-465.0
 21
-783.3295068687712
 31
0.0
  0
LINE
  5
5320B
330
18
100
AcDbEntity
  8
SIZE
100
AcDbLine
 10
-564.9999999999993
 20
-664.9999999999981
 30
0.0
 11
-564.9999999999993
 21
-783.3295068687712
 31
0.0
  0
LINE
  5
5320C
330
18
100
AcDbEntity
  8
SIZE
100
AcDbLine
 10
-477.0
 20
-753.3295068687712
 30
0.0
 11
-552.9999999999993
 21
-753.3295068687712
 31
0.0
  0
LINE
  5
5320D
330
18
100
AcDbEntity
  8
SIZE
100
AcDbLine
 10
-564.9999999999993
 20
-753.3295068687712
 30
0.0
 11
-724.1428571428563
 21
-753.3295068687712
 31
0.0
  0
LINE
  5
53211
330
18
100
AcDbEntity
  8
SIZE
100
AcDbLine
 10
-565.0000000000018
 20
-584.8514718625993
 30
0.0
 11
-565.0000000000018
 21
-897.5655117857586
 31
0.0
  0
LINE
  5
53212
330
18
100
AcDbEntity
  8
SIZE
100
AcDbLine
 10
-315.0
 20
46.53516782690894
 30
0.0
 11
-315.0
 21
-897.5655117857586
 31
0.0
  0
LINE
  5
53213
330
18
100
AcDbEntity
  8
SIZE
100
AcDbLine
 10
-553.0000000000018
 20
-867.5655117857585
 30
0.0
 11
-327.0
 21
-867.5655117857585
 31
0.0
  0
LINE
  5
53217
330
18
100
AcDbEntity
  8
SIZE
100
AcDbLine
 10
-215.0
 20
-664.1508040003991
 30
0.0
 11
-215.0
 21
-1273.06102274556
 31
0.0
  0
LINE
  5
53218
330
18
100
AcDbEntity
  8
SIZE
100
AcDbLine
 10
-565.0000000000018
 20
-584.851471862601
 30
0.0
 11
-565.0000000000018
 21
-1273.06102274556
 31
0.0
  0
LINE
  5
53219
330
18
100
AcDbEntity
  8
SIZE
100
AcDbLine
 10
-227.0
 20
-1243.06102274556
 30
0.0
 11
-553.0000000000018
 21
-1243.06102274556
 31
0.0
  0
LINE
  5
5321D
330
18
100
AcDbEntity
  8
SIZE
100
AcDbLine
 10
-150.0
 20
-665.1000000000003
 30
0.0
 11
-150.0
 21
-1132.506413604451
 31
0.0
  0
LINE
  5
5321E
330
18
100
AcDbEntity
  8
SIZE
100
AcDbLine
 10
-215.0
 20
-664.1508040003991
 30
0.0
 11
-215.0
 21
-1132.506413604451
 31
0.0
  0
LINE
  5
5321F
330
18
100
AcDbEntity
  8
SIZE
100
AcDbLine
 10
-162.0
 20
-1102.506413604451
 30
0.0
 11
-203.0
 21
-1102.506413604451
 31
0.0
  0
LINE
  5
53220
330
18
100
AcDbEntity
  8
SIZE
100
AcDbLine
 10
-215.0
 20
-1102.506413604451
 30
0.0
 11
-339.8571428571429
 21
-1102.506413604451
 31
0.0
  0
LINE
  5
53224
330
18
100
AcDbEntity
  8
SIZE
100
AcDbLine
 10
-142.0
 20
-614.9999998076983
 30
0.0
 11
-142.0
 21
-1006.130464930362
 31
0.0
  0
LINE
  5
53225
330
18
100
AcDbEntity
  8
SIZE
100
AcDbLine
 10
-215.0
 20
-664.1508040003991
 30
0.0
 11
-215.0
 21
-1006.130464930362
 31
0.0
  0
LINE
  5
53226
330
18
100
AcDbEntity
  8
SIZE
100
AcDbLine
 10
-154.0
 20
-976.1304649303619
 30
0.0
 11
-203.0
 21
-976.1304649303619
 31
0.0
  0
LINE
  5
53227
330
18
100
AcDbEntity
  8
SIZE
100
AcDbLine
 10
-215.0
 20
-976.1304649303619
 30
0.0
 11
-339.8571428571429
 21
-976.1304649303619
 31
0.0
  0
LINE
  5
5322B
330
18
100
AcDbEntity
  8
SIZE
100
AcDbLine
 10
-531.6370747625769
 20
-95.35147186259928
 30
0.0
 11
-791.4045148280942
 21
-95.35147186259921
 31
0.0
  0
LINE
  5
5322C
330
18
100
AcDbEntity
  8
SIZE
100
AcDbLine
 10
-531.6370747625769
 20
-245.3514718625992
 30
0.0
 11
-791.4045148280942
 21
-245.3514718625992
 31
0.0
  0
LINE
  5
5322D
330
18
100
AcDbEntity
  8
SIZE
100
AcDbLine
 10
-761.4045148280943
 20
-107.3514718625992
 30
0.0
 11
-761.4045148280943
 21
-233.3514718625992
 31
0.0
  0
LINE
  5
53231
330
18
100
AcDbEntity
  8
SIZE
100
AcDbLine
 10
-565.0000000000018
 20
662.9485281374018
 30
0.0
 11
-565.0000000000018
 21
982.4170443883359
 31
0.0
  0
LINE
  5
53232
330
18
100
AcDbEntity
  8
SIZE
100
AcDbLine
 10
175.000000004089
 20
688.5000000038144
 30
0.0
 11
175.0000000040891
 21
982.4170443883359
 31
0.0
  0
LINE
  5
53233
330
18
100
AcDbEntity
  8
SIZE
100
AcDbLine
 10
-553.0000000000018
 20
952.4170443883358
 30
0.0
 11
163.0000000040891
 21
952.4170443883358
 31
0.0
  0
LINE
  5
53237
330
18
100
AcDbEntity
  8
SIZE
100
AcDbLine
 10
35.99999999567808
 20
760.6485281432269
 30
0.0
 11
35.99999999567811
 21
1249.806511156386
 31
0.0
  0
LINE
  5
53238
330
18
100
AcDbEntity
  8
SIZE
100
AcDbLine
 10
-565.0000000000018
 20
662.9485281374018
 30
0.0
 11
-565.0000000000018
 21
1249.806511156386
 31
0.0
  0
LINE
  5
53239
330
18
100
AcDbEntity
  8
SIZE
100
AcDbLine
 10
23.9999999956781
 20
1219.806511156386
 30
0.0
 11
-553.0000000000018
 21
1219.806511156386
 31
0.0
  0
LINE
  5
5323D
330
18
100
AcDbEntity
  8
SIZE
100
AcDbLine
 10
-583.3000000000065
 20
644.648528137398
 30
0.0
 11
-918.5502587802838
 21
644.6485281373981
 31
0.0
  0
LINE
  5
5323E
330
18
100
AcDbEntity
  8
SIZE
100
AcDbLine
 10
-531.6370747625769
 20
450.0
 30
0.0
 11
-918.5502587802838
 21
450.0
 31
0.0
  0
LINE
  5
5323F
330
18
100
AcDbEntity
  8
SIZE
100
AcDbLine
 10
-888.5502587802838
 20
632.648528137398
 30
0.0
 11
-888.5502587802838
 21
462.0
 31
0.0
  0
LINE
  5
53243
330
18
100
AcDbEntity
  8
SIZE
100
AcDbLine
 10
-235.0000000000032
 20
644.6485281379082
 30
0.0
 11
-335.3121571635382
 21
644.6485281379083
 31
0.0
  0
LINE
  5
53244
330
18
100
AcDbEntity
  8
SIZE
100
AcDbLine
 10
-22.15000000000145
 20
704.6485281373989
 30
0.0
 11
-335.3121571635382
 21
704.648528137399
 31
0.0
  0
LINE
  5
53245
330
18
100
AcDbEntity
  8
SIZE
100
AcDbLine
 10
-305.3121571635383
 20
632.6485281379083
 30
0.0
 11
-305.3121571635383
 21
620.6485281379083
 31
0.0
  0
LINE
  5
53246
330
18
100
AcDbEntity
  8
SIZE
100
AcDbLine
 10
-305.3121571635382
 20
716.648528137399
 30
0.0
 11
-305.3121571635382
 21
860.2485281374001
 31
0.0
  0
LINE
  5
53247
330
18
100
AcDbEntity
  8
SIZE
100
AcDbLine
 10
-305.3121571635382
 20
644.6485281379083
 30
0.0
 11
-305.3121571635382
 21
704.648528137399
 31
0.0
  0
LINE
  5
5324B
330
18
100
AcDbEntity
  8
SIZE
100
AcDbLine
 10
119.0000000040899
 20
632.2485281412136
 30
0.0
 11
-447.219996797019
 21
632.2485281412138
 31
0.0
  0
LINE
  5
5324C
330
18
100
AcDbEntity
  8
SIZE
100
AcDbLine
 10
-235.0000000000032
 20
644.6485281373989
 30
0.0
 11
-447.219996797019
 21
644.6485281373989
 31
0.0
  0
LINE
  5
5324D
330
18
100
AcDbEntity
  8
SIZE
100
AcDbLine
 10
-417.2199967970191
 20
620.2485281412138
 30
0.0
 11
-417.2199967970191
 21
608.2485281412138
 31
0.0
  0
LINE
  5
5324E
330
18
100
AcDbEntity
  8
SIZE
100
AcDbLine
 10
-417.219996797019
 20
656.648528137399
 30
0.0
 11
-417.219996797019
 21
859.719956708828
 31
0.0
  0
LINE
  5
5324F
330
18
100
AcDbEntity
  8
SIZE
100
AcDbLine
 10
-417.2199967970191
 20
632.2485281412138
 30
0.0
 11
-417.219996797019
 21
644.6485281373989
 31
0.0
  0
LINE
  5
53253
330
18
100
AcDbEntity
  8
SIZE
100
AcDbLine
 10
566.6370747625769
 20
-622.0000000000018
 30
0.0
 11
783.4090513721092
 21
-622.0000000000019
 31
0.0
  0
LINE
  5
53254
330
18
100
AcDbEntity
  8
SIZE
100
AcDbLine
 10
566.6370747625769
 20
622.0
 30
0.0
 11
783.4090513721094
 21
621.9999999999998
 31
0.0
  0
LINE
  5
53255
330
18
100
AcDbEntity
  8
SIZE
100
AcDbLine
 10
753.4090513721093
 20
-610.0000000000018
 30
0.0
 11
753.4090513721094
 21
610.0
 31
0.0
  0
LINE
  5
53259
330
18
100
AcDbEntity
  8
SIZE
100
AcDbLine
 10
585.0
 20
644.6485281373989
 30
0.0
 11
1027.031303758111
 21
644.6485281373988
 31
0.0
  0
LINE
  5
5325A
330
18
100
AcDbEntity
  8
SIZE
100
AcDbLine
 10
585.0
 20
-644.1514718626003
 30
0.0
 11
1027.03130375811
 21
-644.1514718626004
 31
0.0
  0
LINE
  5
5325B
330
18
100
AcDbEntity
  8
SIZE
100
AcDbLine
 10
997.031303758111
 20
632.6485281373988
 30
0.0
 11
997.0313037581107
 21
-632.1514718626005
 31
0.0
  0
LINE
  5
5325F
330
18
100
AcDbEntity
  8
SIZE
100
AcDbLine
 10
512.0
 20
-594.9999998076982
 30
0.0
 11
908.2610346444344
 21
-594.9999998076983
 31
0.0
  0
LINE
  5
53260
330
18
100
AcDbEntity
  8
SIZE
100
AcDbLine
 10
512.0
 20
595.0000001923017
 30
0.0
 11
908.2610346444345
 21
595.0000001923016
 31
0.0
  0
LINE
  5
53261
330
18
100
AcDbEntity
  8
SIZE
100
AcDbLine
 10
878.2610346444343
 20
-582.9999998076983
 30
0.0
 11
878.2610346444347
 21
583.0000001923016
 31
0.0
  0
LINE
  5
53265
330
18
100
AcDbEntity
  8
SIZE
100
AcDbLine
 10
565.0
 20
-664.1514718626003
 30
0.0
 11
565.0
 21
-1132.506413604451
 31
0.0
  0
LINE
  5
53266
330
18
100
AcDbEntity
  8
SIZE
100
AcDbLine
 10
500.0
 20
-685.3247701603031
 30
0.0
 11
499.9999999999999
 21
-1132.506413604451
 31
0.0
  0
LINE
  5
53267
330
18
100
AcDbEntity
  8
SIZE
100
AcDbLine
 10
512.0
 20
-1102.506413604451
 30
0.0
 11
553.0
 21
-1102.506413604451
 31
0.0
  0
LINE
  5
53268
330
18
100
AcDbEntity
  8
SIZE
100
AcDbLine
 10
565.0
 20
-1102.506413604451
 30
0.0
 11
689.8571428571429
 21
-1102.506413604451
 31
0.0
  0
LINE
  5
5326C
330
18
100
AcDbEntity
  8
SIZE
100
AcDbLine
 10
566.6370747625769
 20
-622.0000000000018
 30
0.0
 11
783.4090513721093
 21
-622.0000000000019
 31
0.0
  0
LINE
  5
5326D
330
18
100
AcDbEntity
  8
SIZE
100
AcDbLine
 10
585.0
 20
-644.1514718626003
 30
0.0
 11
783.4090513721093
 21
-644.1514718626004
 31
0.0
  0
LINE
  5
5326E
330
18
100
AcDbEntity
  8
SIZE
100
AcDbLine
 10
753.4090513721094
 20
-610.0000000000018
 30
0.0
 11
753.4090513721094
 21
-598.0000000000018
 31
0.0
  0
LINE
  5
5326F
330
18
100
AcDbEntity
  8
SIZE
100
AcDbLine
 10
753.4090513721094
 20
-656.1514718626003
 30
0.0
 11
753.4090513721093
 21
-781.0086147197432
 31
0.0
  0
LINE
  5
53270
330
18
100
AcDbEntity
  8
SIZE
100
AcDbLine
 10
753.4090513721094
 20
-622.0000000000018
 30
0.0
 11
753.4090513721094
 21
-644.1514718626003
 31
0.0
  0
LINE
  5
53274
330
18
100
AcDbEntity
  8
SIZE
100
AcDbLine
 10
492.0
 20
-614.9999998076983
 30
0.0
 11
492.0
 21
-1006.130464930362
 31
0.0
  0
LINE
  5
53275
330
18
100
AcDbEntity
  8
SIZE
100
AcDbLine
 10
565.0
 20
-664.1514718626003
 30
0.0
 11
565.0
 21
-1006.130464930362
 31
0.0
  0
LINE
  5
53276
330
18
100
AcDbEntity
  8
SIZE
100
AcDbLine
 10
504.0
 20
-976.1304649303619
 30
0.0
 11
553.0
 21
-976.1304649303619
 31
0.0
  0
LINE
  5
53277
330
18
100
AcDbEntity
  8
SIZE
100
AcDbLine
 10
565.0
 20
-976.1304649303619
 30
0.0
 11
689.8571428571429
 21
-976.1304649303619
 31
0.0
  0
LINE
  5
5327B
330
18
100
AcDbEntity
  8
SIZE
100
AcDbLine
 10
512.0
 20
-594.9999998076982
 30
0.0
 11
908.2610346444344
 21
-594.9999998076983
 31
0.0
  0
LINE
  5
5327C
330
18
100
AcDbEntity
  8
SIZE
100
AcDbLine
 10
583.7999999999956
 20
-645.0
 30
0.0
 11
908.2610346444344
 21
-645.0000000000001
 31
0.0
  0
LINE
  5
5327D
330
18
100
AcDbEntity
  8
SIZE
100
AcDbLine
 10
878.2610346444343
 20
-582.9999998076983
 30
0.0
 11
878.2610346444343
 21
-570.9999998076983
 31
0.0
  0
LINE
  5
5327E
330
18
100
AcDbEntity
  8
SIZE
100
AcDbLine
 10
878.2610346444343
 20
-657.0000000000001
 30
0.0
 11
878.2610346444343
 21
-781.8571428571429
 31
0.0
  0
LINE
  5
5327F
330
18
100
AcDbEntity
  8
SIZE
100
AcDbLine
 10
878.2610346444343
 20
-594.9999998076983
 30
0.0
 11
878.2610346444343
 21
-645.0000000000001
 31
0.0
  0
LINE
  5
53283
330
18
100
AcDbEntity
  8
SIZE
100
AcDbLine
 10
565.0
 20
664.6485281373989
 30
0.0
 11
565.0
 21
1118.463290676934
 31
0.0
  0
LINE
  5
53284
330
18
100
AcDbEntity
  8
SIZE
100
AcDbLine
 10
371.0
 20
760.7485281373993
 30
0.0
 11
371.0
 21
1118.463290676934
 31
0.0
  0
LINE
  5
53285
330
18
100
AcDbEntity
  8
SIZE
100
AcDbLine
 10
553.0
 20
1088.463290676934
 30
0.0
 11
383.0
 21
1088.463290676934
 31
0.0
  0
LINE
  5
53289
330
18
100
AcDbEntity
  8
SIZE
100
AcDbLine
 10
566.6370747625769
 20
622.0
 30
0.0
 11
783.4090513721096
 21
621.9999999999998
 31
0.0
  0
LINE
  5
5328A
330
18
100
AcDbEntity
  8
SIZE
100
AcDbLine
 10
585.0
 20
644.6485281373989
 30
0.0
 11
783.4090513721096
 21
644.6485281373988
 31
0.0
  0
LINE
  5
5328B
330
18
100
AcDbEntity
  8
SIZE
100
AcDbLine
 10
753.4090513721096
 20
610.0
 30
0.0
 11
753.4090513721096
 21
598.0
 31
0.0
  0
LINE
  5
5328C
330
18
100
AcDbEntity
  8
SIZE
100
AcDbLine
 10
753.4090513721096
 20
656.6485281373989
 30
0.0
 11
753.4090513721097
 21
781.5056709945418
 31
0.0
  0
LINE
  5
5328D
330
18
100
AcDbEntity
  8
SIZE
100
AcDbLine
 10
753.4090513721096
 20
622.0
 30
0.0
 11
753.4090513721096
 21
644.6485281373989
 31
0.0
  0
LINE
  5
53291
330
18
100
AcDbEntity
  8
SIZE
100
AcDbLine
 10
512.0
 20
595.0000001923017
 30
0.0
 11
908.2610346444345
 21
595.0000001923016
 31
0.0
  0
LINE
  5
53292
330
18
100
AcDbEntity
  8
SIZE
100
AcDbLine
 10
585.0
 20
644.6485281373989
 30
0.0
 11
908.2610346444345
 21
644.6485281373988
 31
0.0
  0
LINE
  5
53293
330
18
100
AcDbEntity
  8
SIZE
100
AcDbLine
 10
878.2610346444347
 20
583.0000001923016
 30
0.0
 11
878.2610346444347
 21
571.0000001923016
 31
0.0
  0
LINE
  5
53294
330
18
100
AcDbEntity
  8
SIZE
100
AcDbLine
 10
878.2610346444347
 20
656.6485281373988
 30
0.0
 11
878.2610346444347
 21
781.5056709945415
 31
0.0
  0
LINE
  5
53295
330
18
100
AcDbEntity
  8
SIZE
100
AcDbLine
 10
878.2610346444347
 20
595.0000001923016
 30
0.0
 11
878.2610346444347
 21
644.6485281373988
 31
0.0
  0
TEXT
  5
53299
330
18
100
AcDbEntity
  8
SIZE
100
AcDbText
 10
243.7142857121247
 20
1239.806511156386
 30
0.0
 40
50.0
  1
529
 41
0.9
100
AcDbText
  0
TEXT
  5
5329A
330
18
100
AcDbEntity
  8
SIZE
100
AcDbText
 10
234.1909733383602
 20
972.4170443883359
 30
0.0
 40
50.0
  1
390
 41
0.9
100
AcDbText
  0
TEXT
  5
5329B
330
18
100
AcDbEntity
  8
SIZE
100
AcDbText
 10
-669.0181494694479
 20
299.7858531598361
 30
0.0
 40
50.0
  1
495
 50
90.0
 41
0.9
100
AcDbText
  0
CIRCLE
  5
5329C
330
18
100
AcDbEntity
  8
SIZE
  6
BYBLOCK
100
AcDbCircle
 10
-565.0
 20
-1397.00169909898
 30
0.0
 40
6.0
  0
LINE
  5
5329D
330
18
100
AcDbEntity
  8
SIZE
  6
BYBLOCK
100
AcDbLine
 10
-565.0
 20
-1397.00169909898
 30
0.0
 11
-553.0
 21
-1397.00169909898
 31
0.0
  0
CIRCLE
  5
5329E
330
18
100
AcDbEntity
  8
SIZE
  6
BYBLOCK
100
AcDbCircle
 10
-565.0000000000018
 20
-1243.06102274556
 30
0.0
 40
6.0
  0
LINE
  5
5329F
330
18
100
AcDbEntity
  8
SIZE
  6
BYBLOCK
100
AcDbLine
 10
-565.0000000000018
 20
-1243.06102274556
 30
0.0
 11
-553.0000000000018
 21
-1243.06102274556
 31
0.0
  0
CIRCLE
  5
532A0
330
18
100
AcDbEntity
  8
SIZE
  6
BYBLOCK
100
AcDbCircle
 10
-565.0000000000018
 20
-867.5655117857585
 30
0.0
 40
6.0
  0
LINE
  5
532A1
330
18
100
AcDbEntity
  8
SIZE
  6
BYBLOCK
100
AcDbLine
 10
-565.0000000000018
 20
-867.5655117857585
 30
0.0
 11
-553.0000000000018
 21
-867.5655117857585
 31
0.0
  0
TEXT
  5
532A2
330
18
100
AcDbEntity
  8
SIZE
100
AcDbText
 10
-704.1428571428564
 20
-733.3295068687712
 30
0.0
 40
50.0
  1
100
 41
0.9
100
AcDbText
  0
CIRCLE
  5
532A3
330
18
100
AcDbEntity
  8
SIZE
  6
BYBLOCK
100
AcDbCircle
 10
-564.9999999999993
 20
-753.3295068687712
 30
0.0
 40
6.0
  0
LINE
  5
532A4
330
18
100
AcDbEntity
  8
SIZE
  6
BYBLOCK
100
AcDbLine
 10
-564.9999999999993
 20
-753.3295068687712
 30
0.0
 11
-552.9999999999993
 21
-753.3295068687712
 31
0.0
  0
TEXT
  5
532A5
330
18
100
AcDbEntity
  8
SIZE
100
AcDbText
 10
-319.8571428571428
 20
-1082.506413604451
 30
0.0
 40
50.0
  1
65
 41
0.9
100
AcDbText
  0
TEXT
  5
532A6
330
18
100
AcDbEntity
  8
SIZE
100
AcDbText
 10
112.9240925286815
 20
-1082.506413604451
 30
0.0
 40
50.0
  1
650
 41
0.9
100
AcDbText
  0
TEXT
  5
532A7
330
18
100
AcDbEntity
  8
SIZE
100
AcDbText
 10
-447.8571428571437
 20
-1223.06102274556
 30
0.0
 40
50.0
  1
350
 41
0.9
100
AcDbText
  0
CIRCLE
  5
532A8
330
18
100
AcDbEntity
  8
SIZE
  6
BYBLOCK
100
AcDbCircle
 10
-215.0
 20
-1102.506413604451
 30
0.0
 40
6.0
  0
LINE
  5
532A9
330
18
100
AcDbEntity
  8
SIZE
  6
BYBLOCK
100
AcDbLine
 10
-215.0
 20
-1102.506413604451
 30
0.0
 11
-203.0
 21
-1102.506413604451
 31
0.0
  0
CIRCLE
  5
532AA
330
18
100
AcDbEntity
  8
SIZE
  6
BYBLOCK
100
AcDbCircle
 10
-150.0
 20
-1102.506413604451
 30
0.0
 40
6.0
  0
LINE
  5
532AB
330
18
100
AcDbEntity
  8
SIZE
  6
BYBLOCK
100
AcDbLine
 10
-150.0
 20
-1102.506413604451
 30
0.0
 11
-162.0
 21
-1102.506413604451
 31
0.0
  0
CIRCLE
  5
532AC
330
18
100
AcDbEntity
  8
SIZE
  6
BYBLOCK
100
AcDbCircle
 10
-215.0
 20
-1243.06102274556
 30
0.0
 40
6.0
  0
LINE
  5
532AD
330
18
100
AcDbEntity
  8
SIZE
  6
BYBLOCK
100
AcDbLine
 10
-215.0
 20
-1243.06102274556
 30
0.0
 11
-227.0
 21
-1243.06102274556
 31
0.0
  0
CIRCLE
  5
532AE
330
18
100
AcDbEntity
  8
SIZE
  6
BYBLOCK
100
AcDbCircle
 10
-215.0000000000027
 20
-1243.06102274556
 30
0.0
 40
6.0
  0
LINE
  5
532AF
330
18
100
AcDbEntity
  8
SIZE
  6
BYBLOCK
100
AcDbLine
 10
-215.0000000000027
 20
-1243.06102274556
 30
0.0
 11
-203.0000000000027
 21
-1243.06102274556
 31
0.0
  0
CIRCLE
  5
532B0
330
18
100
AcDbEntity
  8
SIZE
  6
BYBLOCK
100
AcDbCircle
 10
-150.0
 20
-1102.506413604451
 30
0.0
 40
6.0
  0
LINE
  5
532B1
330
18
100
AcDbEntity
  8
SIZE
  6
BYBLOCK
100
AcDbLine
 10
-150.0
 20
-1102.506413604451
 30
0.0
 11
-138.0
 21
-1102.506413604451
 31
0.0
  0
TEXT
  5
532B2
330
18
100
AcDbEntity
  8
SIZE
100
AcDbText
 10
-70.71428571428514
 20
-1377.00169909898
 30
0.0
 40
50.0
  1
1130
 41
0.9
100
AcDbText
  0
TEXT
  5
532B3
330
18
100
AcDbEntity
  8
SIZE
100
AcDbText
 10
123.2289013796928
 20
-1223.06102274556
 30
0.0
 40
50.0
  1
780
 41
0.9
100
AcDbText
  0
TEXT
  5
532B4
330
18
100
AcDbEntity
  8
SIZE
100
AcDbText
 10
-319.8571428571428
 20
-956.130464930362
 30
0.0
 40
50.0
  1
73
 41
0.9
100
AcDbText
  0
CIRCLE
  5
532B5
330
18
100
AcDbEntity
  8
SIZE
  6
BYBLOCK
100
AcDbCircle
 10
-315.0
 20
-867.5655117857585
 30
0.0
 40
6.0
  0
LINE
  5
532B6
330
18
100
AcDbEntity
  8
SIZE
  6
BYBLOCK
100
AcDbLine
 10
-315.0
 20
-867.5655117857585
 30
0.0
 11
-327.0
 21
-867.5655117857585
 31
0.0
  0
TEXT
  5
532B7
330
18
100
AcDbEntity
  8
SIZE
100
AcDbText
 10
-497.8571428571437
 20
-847.5655117857586
 30
0.0
 40
50.0
  1
250
 41
0.9
100
AcDbText
  0
CIRCLE
  5
532B8
330
18
100
AcDbEntity
  8
SIZE
  6
BYBLOCK
100
AcDbCircle
 10
-215.0
 20
-976.1304649303619
 30
0.0
 40
6.0
  0
LINE
  5
532B9
330
18
100
AcDbEntity
  8
SIZE
  6
BYBLOCK
100
AcDbLine
 10
-215.0
 20
-976.1304649303619
 30
0.0
 11
-203.0
 21
-976.1304649303619
 31
0.0
  0
CIRCLE
  5
532BA
330
18
100
AcDbEntity
  8
SIZE
  6
BYBLOCK
100
AcDbCircle
 10
-142.0
 20
-976.1304649303619
 30
0.0
 40
6.0
  0
LINE
  5
532BB
330
18
100
AcDbEntity
  8
SIZE
  6
BYBLOCK
100
AcDbLine
 10
-142.0
 20
-976.1304649303619
 30
0.0
 11
-154.0
 21
-976.1304649303619
 31
0.0
  0
CIRCLE
  5
532BC
330
18
100
AcDbEntity
  8
SIZE
  6
BYBLOCK
100
AcDbCircle
 10
-142.0
 20
-976.1304649303619
 30
0.0
 40
6.0
  0
LINE
  5
532BD
330
18
100
AcDbEntity
  8
SIZE
  6
BYBLOCK
100
AcDbLine
 10
-142.0
 20
-976.1304649303619
 30
0.0
 11
-130.0
 21
-976.1304649303619
 31
0.0
  0
CIRCLE
  5
532BE
330
18
100
AcDbEntity
  8
SIZE
  6
BYBLOCK
100
AcDbCircle
 10
-465.0
 20
-753.3295068687712
 30
0.0
 40
6.0
  0
LINE
  5
532BF
330
18
100
AcDbEntity
  8
SIZE
  6
BYBLOCK
100
AcDbLine
 10
-465.0
 20
-753.3295068687712
 30
0.0
 11
-477.0
 21
-753.3295068687712
 31
0.0
  0
TEXT
  5
532C0
330
18
100
AcDbEntity
  8
SIZE
100
AcDbText
 10
116.0714285714285
 20
-956.130464930362
 30
0.0
 40
50.0
  1
634
 41
0.9
100
AcDbText
  0
TEXT
  5
532C1
330
18
100
AcDbEntity
  8
SIZE
100
AcDbText
 10
-781.4045148280943
 20
-223.9229004340279
 30
0.0
 40
50.0
  1
150
 50
90.0
 41
0.9
100
AcDbText
  0
CIRCLE
  5
532C2
330
18
100
AcDbEntity
  8
SIZE
  6
BYBLOCK
100
AcDbCircle
 10
-761.4045148280943
 20
-245.3514718625992
 30
0.0
 40
6.0
  0
LINE
  5
532C3
330
18
100
AcDbEntity
  8
SIZE
  6
BYBLOCK
100
AcDbLine
 10
-761.4045148280943
 20
-245.3514718625992
 30
0.0
 11
-761.4045148280943
 21
-233.3514718625992
 31
0.0
  0
CIRCLE
  5
532C4
330
18
100
AcDbEntity
  8
SIZE
  6
BYBLOCK
100
AcDbCircle
 10
-761.4045148280943
 20
-95.35147186259921
 30
0.0
 40
6.0
  0
LINE
  5
532C5
330
18
100
AcDbEntity
  8
SIZE
  6
BYBLOCK
100
AcDbLine
 10
-761.4045148280943
 20
-95.35147186259921
 30
0.0
 11
-761.4045148280943
 21
-107.3514718625992
 31
0.0
  0
CIRCLE
  5
532C6
330
18
100
AcDbEntity
  8
SIZE
  6
BYBLOCK
100
AcDbCircle
 10
-888.5502587802839
 20
-149.9999999999998
 30
0.0
 40
6.0
  0
LINE
  5
532C7
330
18
100
AcDbEntity
  8
SIZE
  6
BYBLOCK
100
AcDbLine
 10
-888.5502587802839
 20
-149.9999999999998
 30
0.0
 11
-888.5502587802839
 21
-137.9999999999998
 31
0.0
  0
CIRCLE
  5
532C8
330
18
100
AcDbEntity
  8
SIZE
  6
BYBLOCK
100
AcDbCircle
 10
-761.4045148280929
 20
-95.35147186259921
 30
0.0
 40
6.0
  0
LINE
  5
532C9
330
18
100
AcDbEntity
  8
SIZE
  6
BYBLOCK
100
AcDbLine
 10
-761.4045148280929
 20
-95.35147186259921
 30
0.0
 11
-761.4045148280929
 21
-83.35147186259922
 31
0.0
  0
TEXT
  5
532CA
330
18
100
AcDbEntity
  8
SIZE
100
AcDbText
 10
-908.5502587802839
 20
92.14285714285715
 30
0.0
 40
50.0
  1
600
 50
90.0
 41
0.9
100
AcDbText
  0
CIRCLE
  5
532CB
330
18
100
AcDbEntity
  8
SIZE
  6
BYBLOCK
100
AcDbCircle
 10
-649.0181494694479
 20
149.6485281374008
 30
0.0
 40
6.0
  0
LINE
  5
532CC
330
18
100
AcDbEntity
  8
SIZE
  6
BYBLOCK
100
AcDbLine
 10
-649.0181494694479
 20
149.6485281374008
 30
0.0
 11
-649.0181494694479
 21
161.6485281374008
 31
0.0
  0
TEXT
  5
532CD
330
18
100
AcDbEntity
  8
SIZE
100
AcDbText
 10
-781.4045148280929
 20
193.4413039036774
 30
0.0
 40
50.0
  1
740
 50
90.0
 41
0.9
100
AcDbText
  0
TEXT
  5
532CE
330
18
100
AcDbEntity
  8
SIZE
100
AcDbText
 10
-908.5502587802839
 20
493.1956653307361
 30
0.0
 40
50.0
  1
195
 50
90.0
 41
0.9
100
AcDbText
  0
CIRCLE
  5
532CF
330
18
100
AcDbEntity
  8
SIZE
  6
BYBLOCK
100
AcDbCircle
 10
-888.5502587802838
 20
644.6485281373981
 30
0.0
 40
6.0
  0
LINE
  5
532D0
330
18
100
AcDbEntity
  8
SIZE
  6
BYBLOCK
100
AcDbLine
 10
-888.5502587802838
 20
644.6485281373981
 30
0.0
 11
-888.5502587802838
 21
632.648528137398
 31
0.0
  0
CIRCLE
  5
532D1
330
18
100
AcDbEntity
  8
SIZE
  6
BYBLOCK
100
AcDbCircle
 10
-649.0181494694478
 20
644.6485281373989
 30
0.0
 40
6.0
  0
LINE
  5
532D2
330
18
100
AcDbEntity
  8
SIZE
  6
BYBLOCK
100
AcDbLine
 10
-649.0181494694478
 20
644.6485281373989
 30
0.0
 11
-649.0181494694478
 21
632.6485281373988
 31
0.0
  0
CIRCLE
  5
532D3
330
18
100
AcDbEntity
  8
SIZE
  6
BYBLOCK
100
AcDbCircle
 10
-761.4045148280928
 20
644.6485281373971
 30
0.0
 40
6.0
  0
LINE
  5
532D4
330
18
100
AcDbEntity
  8
SIZE
  6
BYBLOCK
100
AcDbLine
 10
-761.4045148280928
 20
644.6485281373971
 30
0.0
 11
-761.4045148280928
 21
632.6485281373971
 31
0.0
  0
CIRCLE
  5
532D5
330
18
100
AcDbEntity
  8
SIZE
  6
BYBLOCK
100
AcDbCircle
 10
-888.5502587802838
 20
450.0
 30
0.0
 40
6.0
  0
LINE
  5
532D6
330
18
100
AcDbEntity
  8
SIZE
  6
BYBLOCK
100
AcDbLine
 10
-888.5502587802838
 20
450.0
 30
0.0
 11
-888.5502587802838
 21
462.0
 31
0.0
  0
CIRCLE
  5
532D7
330
18
100
AcDbEntity
  8
SIZE
  6
BYBLOCK
100
AcDbCircle
 10
-888.5502587802838
 20
450.0
 30
0.0
 40
6.0
  0
LINE
  5
532D8
330
18
100
AcDbEntity
  8
SIZE
  6
BYBLOCK
100
AcDbLine
 10
-888.5502587802838
 20
450.0
 30
0.0
 11
-888.5502587802838
 21
438.0
 31
0.0
  0
CIRCLE
  5
532D9
330
18
100
AcDbEntity
  8
SIZE
  6
BYBLOCK
100
AcDbCircle
 10
-565.0000000000018
 20
952.4170443883358
 30
0.0
 40
6.0
  0
LINE
  5
532DA
330
18
100
AcDbEntity
  8
SIZE
  6
BYBLOCK
100
AcDbLine
 10
-565.0000000000018
 20
952.4170443883358
 30
0.0
 11
-553.0000000000018
 21
952.4170443883358
 31
0.0
  0
CIRCLE
  5
532DB
330
18
100
AcDbEntity
  8
SIZE
  6
BYBLOCK
100
AcDbCircle
 10
-565.0
 20
1088.463290676934
 30
0.0
 40
6.0
  0
LINE
  5
532DC
330
18
100
AcDbEntity
  8
SIZE
  6
BYBLOCK
100
AcDbLine
 10
-565.0
 20
1088.463290676934
 30
0.0
 11
-553.0
 21
1088.463290676934
 31
0.0
  0
CIRCLE
  5
532DD
330
18
100
AcDbEntity
  8
SIZE
  6
BYBLOCK
100
AcDbCircle
 10
-565.0000000000018
 20
1219.806511156386
 30
0.0
 40
6.0
  0
LINE
  5
532DE
330
18
100
AcDbEntity
  8
SIZE
  6
BYBLOCK
100
AcDbLine
 10
-565.0000000000018
 20
1219.806511156386
 30
0.0
 11
-553.0000000000018
 21
1219.806511156386
 31
0.0
  0
CIRCLE
  5
532DF
330
18
100
AcDbEntity
  8
SIZE
  6
BYBLOCK
100
AcDbCircle
 10
-417.219996797019
 20
644.6485281373989
 30
0.0
 40
6.0
  0
LINE
  5
532E0
330
18
100
AcDbEntity
  8
SIZE
  6
BYBLOCK
100
AcDbLine
 10
-417.219996797019
 20
644.6485281373989
 30
0.0
 11
-417.219996797019
 21
656.648528137399
 31
0.0
  0
CIRCLE
  5
532E1
330
18
100
AcDbEntity
  8
SIZE
  6
BYBLOCK
100
AcDbCircle
 10
-305.3121571635382
 20
644.6485281379083
 30
0.0
 40
6.0
  0
LINE
  5
532E2
330
18
100
AcDbEntity
  8
SIZE
  6
BYBLOCK
100
AcDbLine
 10
-305.3121571635382
 20
644.6485281379083
 30
0.0
 11
-305.3121571635382
 21
632.6485281379083
 31
0.0
  0
CIRCLE
  5
532E3
330
18
100
AcDbEntity
  8
SIZE
  6
BYBLOCK
100
AcDbCircle
 10
-417.2199967970191
 20
632.2485281412138
 30
0.0
 40
6.0
  0
LINE
  5
532E4
330
18
100
AcDbEntity
  8
SIZE
  6
BYBLOCK
100
AcDbLine
 10
-417.2199967970191
 20
632.2485281412138
 30
0.0
 11
-417.2199967970191
 21
620.2485281412138
 31
0.0
  0
TEXT
  5
532E5
330
18
100
AcDbEntity
  8
SIZE
100
AcDbText
 10
-437.2199967970191
 20
709.0056709945422
 30
0.0
 40
50.0
  1
12.4
 50
90.0
 41
0.9
100
AcDbText
  0
TEXT
  5
532E6
330
18
100
AcDbEntity
  8
SIZE
100
AcDbText
 10
-325.3121571635383
 20
767.3913852802571
 30
0.0
 40
50.0
  1
60
 50
90.0
 41
0.9
100
AcDbText
  0
CIRCLE
  5
532E7
330
18
100
AcDbEntity
  8
SIZE
  6
BYBLOCK
100
AcDbCircle
 10
-305.3121571635382
 20
704.648528137399
 30
0.0
 40
6.0
  0
LINE
  5
532E8
330
18
100
AcDbEntity
  8
SIZE
  6
BYBLOCK
100
AcDbLine
 10
-305.3121571635382
 20
704.648528137399
 30
0.0
 11
-305.3121571635382
 21
716.648528137399
 31
0.0
  0
TEXT
  5
532E9
330
18
100
AcDbEntity
  8
SIZE
100
AcDbText
 10
-153.7857142836706
 20
1108.463290676934
 30
0.0
 40
50.0
  1
936
 41
0.9
100
AcDbText
  0
TEXT
  5
532EA
330
18
100
AcDbEntity
  8
SIZE
100
AcDbText
 10
-252.8571428550992
 20
972.4170443883359
 30
0.0
 40
50.0
  1
740
 41
0.9
100
AcDbText
  0
TEXT
  5
532EB
330
18
100
AcDbEntity
  8
SIZE
100
AcDbText
 10
-312.7142857164475
 20
1239.806511156386
 30
0.0
 40
50.0
  1
601
 41
0.9
100
AcDbText
  0
CIRCLE
  5
532EC
330
18
100
AcDbEntity
  8
SIZE
  6
BYBLOCK
100
AcDbCircle
 10
175.0000000040891
 20
952.4170443883358
 30
0.0
 40
6.0
  0
LINE
  5
532ED
330
18
100
AcDbEntity
  8
SIZE
  6
BYBLOCK
100
AcDbLine
 10
175.0000000040891
 20
952.4170443883358
 30
0.0
 11
163.0000000040891
 21
952.4170443883358
 31
0.0
  0
CIRCLE
  5
532EE
330
18
100
AcDbEntity
  8
SIZE
  6
BYBLOCK
100
AcDbCircle
 10
175.00000000409
 20
952.4170443883358
 30
0.0
 40
6.0
  0
LINE
  5
532EF
330
18
100
AcDbEntity
  8
SIZE
  6
BYBLOCK
100
AcDbLine
 10
175.00000000409
 20
952.4170443883358
 30
0.0
 11
187.00000000409
 21
952.4170443883358
 31
0.0
  0
CIRCLE
  5
532F0
330
18
100
AcDbEntity
  8
SIZE
  6
BYBLOCK
100
AcDbCircle
 10
35.99999999567811
 20
1219.806511156386
 30
0.0
 40
6.0
  0
LINE
  5
532F1
330
18
100
AcDbEntity
  8
SIZE
  6
BYBLOCK
100
AcDbLine
 10
35.99999999567811
 20
1219.806511156386
 30
0.0
 11
23.9999999956781
 21
1219.806511156386
 31
0.0
  0
CIRCLE
  5
532F2
330
18
100
AcDbEntity
  8
SIZE
  6
BYBLOCK
100
AcDbCircle
 10
35.99999999567811
 20
1219.806511156386
 30
0.0
 40
6.0
  0
LINE
  5
532F3
330
18
100
AcDbEntity
  8
SIZE
  6
BYBLOCK
100
AcDbLine
 10
35.99999999567811
 20
1219.806511156386
 30
0.0
 11
47.99999999567811
 21
1219.806511156386
 31
0.0
  0
TEXT
  5
532F4
330
18
100
AcDbEntity
  8
SIZE
100
AcDbText
 10
597.0
 20
-1082.506413604451
 30
0.0
 40
50.0
  1
65
 41
0.9
100
AcDbText
  0
CIRCLE
  5
532F5
330
18
100
AcDbEntity
  8
SIZE
  6
BYBLOCK
100
AcDbCircle
 10
565.0000000000011
 20
-1397.00169909898
 30
0.0
 40
6.0
  0
LINE
  5
532F6
330
18
100
AcDbEntity
  8
SIZE
  6
BYBLOCK
100
AcDbLine
 10
565.0000000000011
 20
-1397.00169909898
 30
0.0
 11
553.0000000000011
 21
-1397.00169909898
 31
0.0
  0
CIRCLE
  5
532F7
330
18
100
AcDbEntity
  8
SIZE
  6
BYBLOCK
100
AcDbCircle
 10
565.0
 20
-1102.506413604451
 30
0.0
 40
6.0
  0
LINE
  5
532F8
330
18
100
AcDbEntity
  8
SIZE
  6
BYBLOCK
100
AcDbLine
 10
565.0
 20
-1102.506413604451
 30
0.0
 11
553.0
 21
-1102.506413604451
 31
0.0
  0
CIRCLE
  5
532F9
330
18
100
AcDbEntity
  8
SIZE
  6
BYBLOCK
100
AcDbCircle
 10
500.0
 20
-1102.506413604451
 30
0.0
 40
6.0
  0
LINE
  5
532FA
330
18
100
AcDbEntity
  8
SIZE
  6
BYBLOCK
100
AcDbLine
 10
500.0
 20
-1102.506413604451
 30
0.0
 11
512.0
 21
-1102.506413604451
 31
0.0
  0
CIRCLE
  5
532FB
330
18
100
AcDbEntity
  8
SIZE
  6
BYBLOCK
100
AcDbCircle
 10
565.0
 20
-1243.06102274556
 30
0.0
 40
6.0
  0
LINE
  5
532FC
330
18
100
AcDbEntity
  8
SIZE
  6
BYBLOCK
100
AcDbLine
 10
565.0
 20
-1243.06102274556
 30
0.0
 11
553.0
 21
-1243.06102274556
 31
0.0
  0
CIRCLE
  5
532FD
330
18
100
AcDbEntity
  8
SIZE
  6
BYBLOCK
100
AcDbCircle
 10
500.0
 20
-1102.506413604451
 30
0.0
 40
6.0
  0
LINE
  5
532FE
330
18
100
AcDbEntity
  8
SIZE
  6
BYBLOCK
100
AcDbLine
 10
500.0
 20
-1102.506413604451
 30
0.0
 11
488.0
 21
-1102.506413604451
 31
0.0
  0
TEXT
  5
532FF
330
18
100
AcDbEntity
  8
SIZE
100
AcDbText
 10
597.0
 20
-956.130464930362
 30
0.0
 40
50.0
  1
73
 41
0.9
100
AcDbText
  0
CIRCLE
  5
53300
330
18
100
AcDbEntity
  8
SIZE
  6
BYBLOCK
100
AcDbCircle
 10
565.0
 20
-976.1304649303619
 30
0.0
 40
6.0
  0
LINE
  5
53301
330
18
100
AcDbEntity
  8
SIZE
  6
BYBLOCK
100
AcDbLine
 10
565.0
 20
-976.1304649303619
 30
0.0
 11
553.0
 21
-976.1304649303619
 31
0.0
  0
CIRCLE
  5
53302
330
18
100
AcDbEntity
  8
SIZE
  6
BYBLOCK
100
AcDbCircle
 10
492.0
 20
-976.1304649303619
 30
0.0
 40
6.0
  0
LINE
  5
53303
330
18
100
AcDbEntity
  8
SIZE
  6
BYBLOCK
100
AcDbLine
 10
492.0
 20
-976.1304649303619
 30
0.0
 11
504.0
 21
-976.1304649303619
 31
0.0
  0
CIRCLE
  5
53304
330
18
100
AcDbEntity
  8
SIZE
  6
BYBLOCK
100
AcDbCircle
 10
492.0
 20
-976.1304649303619
 30
0.0
 40
6.0
  0
LINE
  5
53305
330
18
100
AcDbEntity
  8
SIZE
  6
BYBLOCK
100
AcDbLine
 10
492.0
 20
-976.1304649303619
 30
0.0
 11
480.0
 21
-976.1304649303619
 31
0.0
  0
CIRCLE
  5
53306
330
18
100
AcDbEntity
  8
SIZE
  6
BYBLOCK
100
AcDbCircle
 10
878.2610346444343
 20
-645.0000000000001
 30
0.0
 40
6.0
  0
LINE
  5
53307
330
18
100
AcDbEntity
  8
SIZE
  6
BYBLOCK
100
AcDbLine
 10
878.2610346444343
 20
-645.0000000000001
 30
0.0
 11
878.2610346444343
 21
-657.0000000000001
 31
0.0
  0
CIRCLE
  5
53308
330
18
100
AcDbEntity
  8
SIZE
  6
BYBLOCK
100
AcDbCircle
 10
878.2610346444343
 20
-594.9999998076983
 30
0.0
 40
6.0
  0
LINE
  5
53309
330
18
100
AcDbEntity
  8
SIZE
  6
BYBLOCK
100
AcDbLine
 10
878.2610346444343
 20
-594.9999998076983
 30
0.0
 11
878.2610346444343
 21
-582.9999998076983
 31
0.0
  0
CIRCLE
  5
5330A
330
18
100
AcDbEntity
  8
SIZE
  6
BYBLOCK
100
AcDbCircle
 10
878.2610346444343
 20
-594.9999998076983
 30
0.0
 40
6.0
  0
LINE
  5
5330B
330
18
100
AcDbEntity
  8
SIZE
  6
BYBLOCK
100
AcDbLine
 10
878.2610346444343
 20
-594.9999998076983
 30
0.0
 11
878.2610346444343
 21
-582.9999998076983
 31
0.0
  0
TEXT
  5
5330C
330
18
100
AcDbEntity
  8
SIZE
100
AcDbText
 10
858.2610346444345
 20
-761.8571428571428
 30
0.0
 40
50.0
  1
50
 50
90.0
 41
0.9
100
AcDbText
  0
TEXT
  5
5330D
330
18
100
AcDbEntity
  8
SIZE
100
AcDbText
 10
733.4090513721094
 20
-761.0086147197431
 30
0.0
 40
50.0
  1
22
 50
90.0
 41
0.9
100
AcDbText
  0
CIRCLE
  5
5330E
330
18
100
AcDbEntity
  8
SIZE
  6
BYBLOCK
100
AcDbCircle
 10
753.4090513721094
 20
-644.1514718626003
 30
0.0
 40
6.0
  0
LINE
  5
5330F
330
18
100
AcDbEntity
  8
SIZE
  6
BYBLOCK
100
AcDbLine
 10
753.4090513721094
 20
-644.1514718626003
 30
0.0
 11
753.4090513721094
 21
-656.1514718626003
 31
0.0
  0
CIRCLE
  5
53310
330
18
100
AcDbEntity
  8
SIZE
  6
BYBLOCK
100
AcDbCircle
 10
753.4090513721094
 20
-622.0000000000018
 30
0.0
 40
6.0
  0
LINE
  5
53311
330
18
100
AcDbEntity
  8
SIZE
  6
BYBLOCK
100
AcDbLine
 10
753.4090513721094
 20
-622.0000000000018
 30
0.0
 11
753.4090513721094
 21
-610.0000000000018
 31
0.0
  0
CIRCLE
  5
53312
330
18
100
AcDbEntity
  8
SIZE
  6
BYBLOCK
100
AcDbCircle
 10
753.4090513721093
 20
-622.0000000000018
 30
0.0
 40
6.0
  0
LINE
  5
53313
330
18
100
AcDbEntity
  8
SIZE
  6
BYBLOCK
100
AcDbLine
 10
753.4090513721093
 20
-622.0000000000018
 30
0.0
 11
753.4090513721093
 21
-610.0000000000018
 31
0.0
  0
TEXT
  5
53314
330
18
100
AcDbEntity
  8
SIZE
100
AcDbText
 10
733.4090513721093
 20
-76.07142857142946
 30
0.0
 40
50.0
  1
1244
 50
90.0
 41
0.9
100
AcDbText
  0
TEXT
  5
53315
330
18
100
AcDbEntity
  8
SIZE
100
AcDbText
 10
858.2610346444345
 20
-70.7142855219839
 30
0.0
 40
50.0
  1
1190
 50
90.0
 41
0.9
100
AcDbText
  0
TEXT
  5
53316
330
18
100
AcDbEntity
  8
SIZE
100
AcDbText
 10
977.0313037581109
 20
-59.96849430939697
 30
0.0
 40
50.0
  1
1289
 50
90.0
 41
0.9
100
AcDbText
  0
CIRCLE
  5
53317
330
18
100
AcDbEntity
  8
SIZE
  6
BYBLOCK
100
AcDbCircle
 10
878.2610346444347
 20
644.6485281373988
 30
0.0
 40
6.0
  0
LINE
  5
53318
330
18
100
AcDbEntity
  8
SIZE
  6
BYBLOCK
100
AcDbLine
 10
878.2610346444347
 20
644.6485281373988
 30
0.0
 11
878.2610346444347
 21
656.6485281373988
 31
0.0
  0
CIRCLE
  5
53319
330
18
100
AcDbEntity
  8
SIZE
  6
BYBLOCK
100
AcDbCircle
 10
753.4090513721096
 20
644.6485281373989
 30
0.0
 40
6.0
  0
LINE
  5
5331A
330
18
100
AcDbEntity
  8
SIZE
  6
BYBLOCK
100
AcDbLine
 10
753.4090513721096
 20
644.6485281373989
 30
0.0
 11
753.4090513721096
 21
656.6485281373989
 31
0.0
  0
CIRCLE
  5
5331B
330
18
100
AcDbEntity
  8
SIZE
  6
BYBLOCK
100
AcDbCircle
 10
878.2610346444347
 20
595.0000001923016
 30
0.0
 40
6.0
  0
LINE
  5
5331C
330
18
100
AcDbEntity
  8
SIZE
  6
BYBLOCK
100
AcDbLine
 10
878.2610346444347
 20
595.0000001923016
 30
0.0
 11
878.2610346444347
 21
583.0000001923016
 31
0.0
  0
CIRCLE
  5
5331D
330
18
100
AcDbEntity
  8
SIZE
  6
BYBLOCK
100
AcDbCircle
 10
878.2610346444347
 20
595.0000001923016
 30
0.0
 40
6.0
  0
LINE
  5
5331E
330
18
100
AcDbEntity
  8
SIZE
  6
BYBLOCK
100
AcDbLine
 10
878.2610346444347
 20
595.0000001923016
 30
0.0
 11
878.2610346444347
 21
583.0000001923016
 31
0.0
  0
CIRCLE
  5
5331F
330
18
100
AcDbEntity
  8
SIZE
  6
BYBLOCK
100
AcDbCircle
 10
753.4090513721096
 20
622.0
 30
0.0
 40
6.0
  0
LINE
  5
53320
330
18
100
AcDbEntity
  8
SIZE
  6
BYBLOCK
100
AcDbLine
 10
753.4090513721096
 20
622.0
 30
0.0
 11
753.4090513721096
 21
610.0
 31
0.0
  0
CIRCLE
  5
53321
330
18
100
AcDbEntity
  8
SIZE
  6
BYBLOCK
100
AcDbCircle
 10
753.4090513721094
 20
622.0
 30
0.0
 40
6.0
  0
LINE
  5
53322
330
18
100
AcDbEntity
  8
SIZE
  6
BYBLOCK
100
AcDbLine
 10
753.4090513721094
 20
622.0
 30
0.0
 11
753.4090513721094
 21
610.0
 31
0.0
  0
TEXT
  5
53323
330
18
100
AcDbEntity
  8
SIZE
100
AcDbText
 10
858.2610346444345
 20
688.648528137399
 30
0.0
 40
50.0
  1
50
 50
90.0
 41
0.9
100
AcDbText
  0
TEXT
  5
53324
330
18
100
AcDbEntity
  8
SIZE
100
AcDbText
 10
733.4090513721094
 20
688.648528137399
 30
0.0
 40
50.0
  1
23
 50
90.0
 41
0.9
100
AcDbText
  0
TEXT
  5
53325
330
18
100
AcDbEntity
  8
SIZE
100
AcDbText
 10
413.3571428571428
 20
1108.463290676934
 30
0.0
 40
50.0
  1
194
 41
0.9
100
AcDbText
  0
CIRCLE
  5
53326
330
18
100
AcDbEntity
  8
SIZE
  6
BYBLOCK
100
AcDbCircle
 10
371.0
 20
1088.463290676934
 30
0.0
 40
6.0
  0
LINE
  5
53327
330
18
100
AcDbEntity
  8
SIZE
  6
BYBLOCK
100
AcDbLine
 10
371.0
 20
1088.463290676934
 30
0.0
 11
383.0
 21
1088.463290676934
 31
0.0
  0
CIRCLE
  5
53328
330
18
100
AcDbEntity
  8
SIZE
  6
BYBLOCK
100
AcDbCircle
 10
371.0000000040872
 20
1088.463290676934
 30
0.0
 40
6.0
  0
LINE
  5
53329
330
18
100
AcDbEntity
  8
SIZE
  6
BYBLOCK
100
AcDbLine
 10
371.0000000040872
 20
1088.463290676934
 30
0.0
 11
359.0000000040872
 21
1088.463290676934
 31
0.0
  0
CIRCLE
  5
5332A
330
18
100
AcDbEntity
  8
SIZE
  6
BYBLOCK
100
AcDbCircle
 10
565.0
 20
1088.463290676934
 30
0.0
 40
6.0
  0
LINE
  5
5332B
330
18
100
AcDbEntity
  8
SIZE
  6
BYBLOCK
100
AcDbLine
 10
565.0
 20
1088.463290676934
 30
0.0
 11
553.0
 21
1088.463290676934
 31
0.0
  0
CIRCLE
  5
5332C
330
18
100
AcDbEntity
  8
SIZE
  6
BYBLOCK
100
AcDbCircle
 10
565.0
 20
952.4170443883358
 30
0.0
 40
6.0
  0
LINE
  5
5332D
330
18
100
AcDbEntity
  8
SIZE
  6
BYBLOCK
100
AcDbLine
 10
565.0
 20
952.4170443883358
 30
0.0
 11
553.0
 21
952.4170443883358
 31
0.0
  0
CIRCLE
  5
5332E
330
18
100
AcDbEntity
  8
SIZE
  6
BYBLOCK
100
AcDbCircle
 10
565.0
 20
1219.806511156386
 30
0.0
 40
6.0
  0
LINE
  5
5332F
330
18
100
AcDbEntity
  8
SIZE
  6
BYBLOCK
100
AcDbLine
 10
565.0
 20
1219.806511156386
 30
0.0
 11
553.0
 21
1219.806511156386
 31
0.0
  0
CIRCLE
  5
53330
330
18
100
AcDbEntity
  8
SIZE
  6
BYBLOCK
100
AcDbCircle
 10
997.0313037581107
 20
-644.1514718626004
 30
0.0
 40
6.0
  0
LINE
  5
53331
330
18
100
AcDbEntity
  8
SIZE
  6
BYBLOCK
100
AcDbLine
 10
997.0313037581107
 20
-644.1514718626004
 30
0.0
 11
997.0313037581107
 21
-632.1514718626005
 31
0.0
  0
CIRCLE
  5
53332
330
18
100
AcDbEntity
  8
SIZE
  6
BYBLOCK
100
AcDbCircle
 10
997.031303758111
 20
644.6485281373988
 30
0.0
 40
6.0
  0
LINE
  5
53333
330
18
100
AcDbEntity
  8
SIZE
  6
BYBLOCK
100
AcDbLine
 10
997.031303758111
 20
644.6485281373988
 30
0.0
 11
997.031303758111
 21
632.6485281373988
 31
0.0
  0
LINE
  5
53335
330
18
100
AcDbEntity
  8
OUTLINE
  6
CONTINUOUS
 48
30.0
100
AcDbLine
 10
-215.0
 20
645.9485281374027
 30
0.0
 11
-88.0
 21
645.9485281374026
 31
0.0
  0
LINE
  5
53337
330
18
100
AcDbEntity
  8
OUTLINE
  6
CONTINUOUS
 48
30.0
100
AcDbLine
 10
-2.150000000001455
 20
694.6485281373989
 30
0.0
 11
332.8499999999985
 21
694.6485281373989
 31
0.0
  0
LINE
  5
53339
330
18
100
AcDbEntity
  8
OUTLINE
  6
CONTINUOUS
 48
30.0
100
AcDbLine
 10
-213.7999999999992
 20
-645.3514718625992
 30
0.0
 11
563.7999999999956
 21
-645.3514718625992
 31
0.0
  0
LINE
  5
5333F
330
18
100
AcDbEntity
  8
OUTLINE
  6
CONTINUOUS
 48
30.0
100
AcDbLine
 10
-565.0
 20
642.9485281374017
 30
0.0
 11
-565.0
 21
-343.6514718626003
 31
0.0
  0
LINE
  5
53341
330
18
100
AcDbEntity
  8
OUTLINE
  6
CONTINUOUS
 48
30.0
100
AcDbLine
 10
-565.0
 20
-564.8514718625992
 30
0.0
 11
-565.0
 21
-346.5514718625982
 31
0.0
  0
LINE
  5
53343
330
18
100
AcDbEntity
  8
OUTLINE
  6
CONTINUOUS
 48
30.0
100
AcDbLine
 10
-564.6485281374043
 20
-565.6999999999989
 30
0.0
 11
-485.3486239476987
 21
-644.9999041897008
 31
0.0
  0
ARC
  5
53346
330
18
100
AcDbEntity
  8
OUTLINE
  6
CONTINUOUS
 48
30.0
100
AcDbCircle
 10
-563.7999999999919
 20
-564.8514718625938
 30
0.0
 40
1.200000000009822
100
AcDbArc
 50
180.0000000002605
 51
224.9999999998895
  0
LINE
  5
53347
330
18
100
AcDbEntity
  8
OUTLINE
  6
CONTINUOUS
 48
30.0
100
AcDbLine
 10
-484.5000958102027
 20
-645.3513760523001
 30
0.0
 11
-216.2000000000043
 21
-645.3513760523001
 31
0.0
  0
ARC
  5
5334B
330
18
100
AcDbEntity
  8
OUTLINE
  6
CONTINUOUS
 48
30.0
100
AcDbCircle
 10
-484.5000958102027
 20
-644.1513760523012
 30
0.0
 40
1.199999999999173
100
AcDbArc
 50
225.0
 51
270.0
  0
ARC
  5
5334D
330
18
100
AcDbEntity
  8
OUTLINE
  6
CONTINUOUS
 48
30.0
100
AcDbCircle
 10
-216.2000000000043
 20
-644.1513760522994
 30
0.0
 40
1.200000000001636
100
AcDbArc
 50
270.0
 51
359.9999999998958
  0
ARC
  5
5334E
330
18
100
AcDbEntity
  8
OUTLINE
  6
CONTINUOUS
 48
30.0
100
AcDbCircle
 10
-213.7999999999992
 20
-644.1514718625986
 30
0.0
 40
1.200000000001636
100
AcDbArc
 50
180.0000000000521
 51
270.0
  0
ARC
  5
53351
330
18
100
AcDbEntity
  8
OUTLINE
  6
CONTINUOUS
 48
30.0
100
AcDbCircle
 10
-563.3000000000065
 20
-343.651471862604
 30
0.0
 40
1.699999999996179
100
AcDbArc
 50
179.9999999998436
 51
270.0000000001042
  0
ARC
  5
53352
330
18
100
AcDbEntity
  8
OUTLINE
  6
CONTINUOUS
 48
30.0
100
AcDbCircle
 10
-563.2999999999992
 20
-343.6514718625985
 30
0.0
 40
0.1000000000020442
100
AcDbArc
 50
187.5000000006145
 51
270.0
  0
LINE
  5
53355
330
18
100
AcDbEntity
  8
OUTLINE
  6
CONTINUOUS
 48
30.0
100
AcDbLine
 10
-216.7000000000043
 20
644.6485281373989
 30
0.0
 11
-563.2999999999992
 21
644.6485281373989
 31
0.0
  0
ARC
  5
53356
330
18
100
AcDbEntity
  8
OUTLINE
  6
CONTINUOUS
 48
30.0
100
AcDbCircle
 10
-563.3000000000065
 20
642.9485281374017
 30
0.0
 40
1.699999999995271
100
AcDbArc
 50
89.99999999979156
 51
180.0000000001042
  0
ARC
  5
53359
330
18
100
AcDbEntity
  8
OUTLINE
  6
CONTINUOUS
 48
30.0
100
AcDbCircle
 10
-216.699999999997
 20
642.9485281374017
 30
0.0
 40
1.699999999995271
100
AcDbArc
 50
359.9999999998436
 51
90.00000000020843
  0
ARC
  5
5335B
330
18
100
AcDbEntity
  8
OUTLINE
100
AcDbCircle
 10
-191.6904915547743
 20
653.4449135564337
 30
0.0
 40
5.701002752011445
100
AcDbArc
 50
272.9567513624492
 51
290.524404901412
  0
ARC
  5
5335C
330
18
100
AcDbEntity
  8
OUTLINE
100
AcDbCircle
 10
-191.7018000173452
 20
645.5062645710513
 30
0.0
 40
5.747936133795897
100
AcDbArc
 50
69.53036495740768
 51
86.49839241495373
  0
LINE
  5
5335D
330
18
100
AcDbEntity
  8
OUTLINE
  6
CONTINUOUS
 48
30.0
100
AcDbLine
 10
-189.6916839530749
 20
650.8912625475004
 30
0.0
 11
-187.6916839533732
 21
651.2485281374993
 31
0.0
  0
LINE
  5
5335E
330
18
100
AcDbEntity
  8
OUTLINE
  6
CONTINUOUS
 48
30.0
100
AcDbLine
 10
-193.6916839530749
 20
650.8912625475004
 30
0.0
 11
-191.6916839533732
 21
651.2485281374993
 31
0.0
  0
LINE
  5
5335F
330
18
100
AcDbEntity
  8
OUTLINE
  6
CONTINUOUS
 48
30.0
100
AcDbLine
 10
-193.6916839530749
 20
651.2485281374011
 30
0.0
 11
-185.6916839529731
 21
651.2485281374011
 31
0.0
  0
LINE
  5
53360
330
18
100
AcDbEntity
  8
OUTLINE
  6
CONTINUOUS
 48
30.0
100
AcDbLine
 10
-193.6916839530749
 20
648.1057937273017
 30
0.0
 11
-191.6916839533732
 21
647.748528137401
 31
0.0
  0
LINE
  5
53361
330
18
100
AcDbEntity
  8
OUTLINE
  6
CONTINUOUS
 48
30.0
100
AcDbLine
 10
-189.6916839530749
 20
648.1057937273017
 30
0.0
 11
-187.6916839533732
 21
647.748528137401
 31
0.0
  0
LINE
  5
53362
330
18
100
AcDbEntity
  8
OUTLINE
  6
CONTINUOUS
 48
30.0
100
AcDbLine
 10
-193.6916839530749
 20
647.748528137401
 30
0.0
 11
-193.6916839530749
 21
651.2485281374993
 31
0.0
  0
LINE
  5
53363
330
18
100
AcDbEntity
  8
OUTLINE
  6
CONTINUOUS
 48
30.0
100
AcDbLine
 10
-189.6916839530749
 20
648.1057937273017
 30
0.0
 11
-189.6916839530749
 21
650.8912625475004
 31
0.0
  0
ARC
  5
53364
330
18
100
AcDbEntity
  8
OUTLINE
100
AcDbCircle
 10
-187.7007638292739
 20
653.4890556117225
 30
0.0
 40
5.745947307903496
100
AcDbArc
 50
273.3367468602529
 51
290.466009098098
  0
ARC
  5
53365
330
18
100
AcDbEntity
  8
OUTLINE
100
AcDbCircle
 10
-187.6879629595277
 20
645.5584929693741
 30
0.0
 40
5.694169056587149
100
AcDbArc
 50
69.47702039995637
 51
87.61396926510412
  0
LINE
  5
53366
330
18
100
AcDbEntity
  8
OUTLINE
  6
CONTINUOUS
 48
30.0
100
AcDbLine
 10
-185.6916839530749
 20
647.748528137401
 30
0.0
 11
-185.6916839530749
 21
651.2485281374993
 31
0.0
  0
LINE
  5
53367
330
18
100
AcDbEntity
  8
OUTLINE
  6
CONTINUOUS
 48
30.0
100
AcDbLine
 10
-195.7000000000043
 20
646.7485281374011
 30
0.0
 11
-183.7000000000043
 21
646.7485281374011
 31
0.0
  0
LINE
  5
53368
330
18
100
AcDbEntity
  8
OUTLINE
  6
CONTINUOUS
 48
30.0
100
AcDbLine
 10
-185.301136510403
 20
647.748528137401
 30
0.0
 11
-194.0988119933026
 21
647.748528137401
 31
0.0
  0
LINE
  5
53369
330
18
100
AcDbEntity
  8
OUTLINE
  6
CONTINUOUS
 48
30.0
100
AcDbLine
 10
-195.7000000000043
 20
645.9485281374018
 30
0.0
 11
-195.7000000000043
 21
646.7485281374011
 31
0.0
  0
LINE
  5
5336A
330
18
100
AcDbEntity
  8
OUTLINE
  6
CONTINUOUS
 48
30.0
100
AcDbLine
 10
-194.0999999999985
 20
646.7485281374011
 30
0.0
 11
-194.0999999999985
 21
647.748528137401
 31
0.0
  0
LINE
  5
5336B
330
18
100
AcDbEntity
  8
OUTLINE
  6
CONTINUOUS
 48
30.0
100
AcDbLine
 10
-185.301136510403
 20
646.7485281374011
 30
0.0
 11
-185.301136510403
 21
647.748528137401
 31
0.0
  0
LINE
  5
5336C
330
18
100
AcDbEntity
  8
OUTLINE
  6
CONTINUOUS
 48
30.0
100
AcDbLine
 10
-183.7000000000043
 20
645.9485281374018
 30
0.0
 11
-183.7000000000043
 21
646.7485281374011
 31
0.0
  0
LINE
  5
5336D
330
18
100
AcDbEntity
  8
OUTLINE
  6
CONTINUOUS
 48
30.0
100
AcDbLine
 10
-2.150000000001455
 20
704.6485281373989
 30
0.0
 11
74.15000000000145
 21
704.6485281373989
 31
0.0
  0
LINE
  5
5336F
330
18
100
AcDbEntity
  8
OUTLINE
  6
CONTINUOUS
 48
30.0
100
AcDbLine
 10
-88.90000000000146
 20
694.6485281373989
 30
0.0
 11
-2.150000000001455
 21
694.6485281373989
 31
0.0
  0
LINE
  5
53371
330
18
100
AcDbEntity
  8
OUTLINE
  6
CONTINUOUS
 48
30.0
100
AcDbLine
 10
-90.20000000000436
 20
651.1485281373989
 30
0.0
 11
-90.20000000000436
 21
693.3485281373996
 31
0.0
  0
ARC
  5
53374
330
18
100
AcDbEntity
  8
OUTLINE
  6
CONTINUOUS
 48
30.0
100
AcDbCircle
 10
-88.89999999999782
 20
693.3485281373959
 30
0.0
 40
1.30000000000382
100
AcDbArc
 50
90.0
 51
179.9999999997915
  0
LINE
  5
53376
330
18
100
AcDbEntity
  8
OUTLINE
  6
CONTINUOUS
 48
30.0
100
AcDbLine
 10
-2.150000000001455
 20
694.6485281373989
 30
0.0
 11
-2.150000000001455
 21
704.6485281373989
 31
0.0
  0
LINE
  5
53377
330
18
100
AcDbEntity
  8
OUTLINE
  6
CONTINUOUS
 48
30.0
100
AcDbLine
 10
74.15000000000145
 20
694.6485281373989
 30
0.0
 11
74.15000000000145
 21
704.6485281373989
 31
0.0
  0
LINE
  5
53378
330
18
100
AcDbEntity
  8
OUTLINE
  6
CONTINUOUS
 48
30.0
100
AcDbLine
 10
-99.99168395307789
 20
647.6485281373989
 30
0.0
 11
-99.99168395307789
 21
651.1485281374971
 31
0.0
  0
ARC
  5
53379
330
18
100
AcDbEntity
  8
OUTLINE
100
AcDbCircle
 10
-101.9879629595306
 20
645.4584929693719
 30
0.0
 40
5.694169056587149
100
AcDbArc
 50
69.47702039995637
 51
87.61396926510412
  0
ARC
  5
5337A
330
18
100
AcDbEntity
  8
OUTLINE
100
AcDbCircle
 10
-102.0007638292768
 20
653.3890556117203
 30
0.0
 40
5.745947307903496
100
AcDbArc
 50
273.3367468602529
 51
290.466009098098
  0
LINE
  5
5337B
330
18
100
AcDbEntity
  8
OUTLINE
  6
CONTINUOUS
 48
30.0
100
AcDbLine
 10
-103.9916839530778
 20
648.0057937272995
 30
0.0
 11
-103.9916839530778
 21
650.7912625474983
 31
0.0
  0
LINE
  5
5337C
330
18
100
AcDbEntity
  8
OUTLINE
  6
CONTINUOUS
 48
30.0
100
AcDbLine
 10
-107.9916839530778
 20
647.6485281373989
 30
0.0
 11
-107.9916839530778
 21
651.1485281374971
 31
0.0
  0
LINE
  5
5337D
330
18
100
AcDbEntity
  8
OUTLINE
  6
CONTINUOUS
 48
30.0
100
AcDbLine
 10
-103.9916839530778
 20
648.0057937272995
 30
0.0
 11
-101.9916839533761
 21
647.6485281373989
 31
0.0
  0
LINE
  5
5337E
330
18
100
AcDbEntity
  8
OUTLINE
  6
CONTINUOUS
 48
30.0
100
AcDbLine
 10
-107.9916839530778
 20
648.0057937272995
 30
0.0
 11
-105.9916839533761
 21
647.6485281373989
 31
0.0
  0
LINE
  5
5337F
330
18
100
AcDbEntity
  8
OUTLINE
  6
CONTINUOUS
 48
30.0
100
AcDbLine
 10
-107.9916839530778
 20
651.1485281373989
 30
0.0
 11
-99.99168395297601
 21
651.1485281373989
 31
0.0
  0
LINE
  5
53380
330
18
100
AcDbEntity
  8
OUTLINE
  6
CONTINUOUS
 48
30.0
100
AcDbLine
 10
-107.9916839530778
 20
650.7912625474983
 30
0.0
 11
-105.9916839533761
 21
651.1485281374971
 31
0.0
  0
LINE
  5
53381
330
18
100
AcDbEntity
  8
OUTLINE
  6
CONTINUOUS
 48
30.0
100
AcDbLine
 10
-103.9916839530778
 20
650.7912625474983
 30
0.0
 11
-101.9916839533761
 21
651.1485281374971
 31
0.0
  0
ARC
  5
53382
330
18
100
AcDbEntity
  8
OUTLINE
100
AcDbCircle
 10
-106.0018000173481
 20
645.4062645710491
 30
0.0
 40
5.747936133795897
100
AcDbArc
 50
69.53036495740768
 51
86.49839241495373
  0
ARC
  5
53383
330
18
100
AcDbEntity
  8
OUTLINE
100
AcDbCircle
 10
-105.9904915547772
 20
653.3449135564315
 30
0.0
 40
5.701002752011445
100
AcDbArc
 50
272.9567513624492
 51
290.524404901412
  0
ARC
  5
53384
330
18
100
AcDbEntity
  8
OUTLINE
100
AcDbCircle
 10
-95.9916795614804
 20
653.3449135564315
 30
0.0
 40
5.701002752011445
100
AcDbArc
 50
272.9567513624492
 51
290.524404901412
  0
ARC
  5
53385
330
18
100
AcDbEntity
  8
OUTLINE
100
AcDbCircle
 10
-92.00195183597998
 20
653.3890556117203
 30
0.0
 40
5.745947307903496
100
AcDbArc
 50
273.3367468602529
 51
290.466009098098
  0
ARC
  5
53386
330
18
100
AcDbEntity
  8
OUTLINE
100
AcDbCircle
 10
-96.00298802405133
 20
645.4062645710491
 30
0.0
 40
5.747936133795897
100
AcDbArc
 50
69.53036495740768
 51
86.49839241495373
  0
ARC
  5
53387
330
18
100
AcDbEntity
  8
OUTLINE
100
AcDbCircle
 10
-91.98915096623386
 20
645.4584929693719
 30
0.0
 40
5.694169056587149
100
AcDbArc
 50
69.47702039995637
 51
87.61396926510412
  0
LINE
  5
53388
330
18
100
AcDbEntity
  8
OUTLINE
  6
CONTINUOUS
 48
30.0
100
AcDbLine
 10
-93.99287195978104
 20
650.7912625474983
 30
0.0
 11
-91.99287196007935
 21
651.1485281374971
 31
0.0
  0
LINE
  5
53389
330
18
100
AcDbEntity
  8
OUTLINE
  6
CONTINUOUS
 48
30.0
100
AcDbLine
 10
-97.99287195978104
 20
650.7912625474983
 30
0.0
 11
-95.99287196007935
 21
651.1485281374971
 31
0.0
  0
LINE
  5
5338A
330
18
100
AcDbEntity
  8
OUTLINE
  6
CONTINUOUS
 48
30.0
100
AcDbLine
 10
-97.99287195978104
 20
651.1485281373989
 30
0.0
 11
-89.99287195967918
 21
651.1485281373989
 31
0.0
  0
LINE
  5
5338B
330
18
100
AcDbEntity
  8
OUTLINE
  6
CONTINUOUS
 48
30.0
100
AcDbLine
 10
-97.99287195978104
 20
648.0057937272995
 30
0.0
 11
-95.99287196007935
 21
647.6485281373989
 31
0.0
  0
LINE
  5
5338C
330
18
100
AcDbEntity
  8
OUTLINE
  6
CONTINUOUS
 48
30.0
100
AcDbLine
 10
-93.99287195978104
 20
648.0057937272995
 30
0.0
 11
-91.99287196007935
 21
647.6485281373989
 31
0.0
  0
LINE
  5
5338D
330
18
100
AcDbEntity
  8
OUTLINE
  6
CONTINUOUS
 48
30.0
100
AcDbLine
 10
-97.99287195978104
 20
647.6485281373989
 30
0.0
 11
-97.99287195978104
 21
651.1485281374971
 31
0.0
  0
LINE
  5
5338E
330
18
100
AcDbEntity
  8
OUTLINE
  6
CONTINUOUS
 48
30.0
100
AcDbLine
 10
-93.99287195978104
 20
648.0057937272995
 30
0.0
 11
-93.99287195978104
 21
650.7912625474983
 31
0.0
  0
LINE
  5
5338F
330
18
100
AcDbEntity
  8
OUTLINE
  6
CONTINUOUS
 48
30.0
100
AcDbLine
 10
-89.99287195978103
 20
647.6485281373989
 30
0.0
 11
-89.99287195978103
 21
651.1485281374971
 31
0.0
  0
LINE
  5
53390
330
18
100
AcDbEntity
  8
OUTLINE
  6
CONTINUOUS
 48
30.0
100
AcDbLine
 10
-110.0
 20
646.6485281373989
 30
0.0
 11
-100.0
 21
646.6485281373989
 31
0.0
  0
LINE
  5
53391
330
18
100
AcDbEntity
  8
OUTLINE
  6
CONTINUOUS
 48
30.0
100
AcDbLine
 10
-100.0
 20
646.6485281373989
 30
0.0
 11
-88.0
 21
646.6485281373989
 31
0.0
  0
LINE
  5
53392
330
18
100
AcDbEntity
  8
OUTLINE
  6
CONTINUOUS
 48
30.0
100
AcDbLine
 10
-89.60113651040229
 20
647.6485281373989
 30
0.0
 11
-98.3988119932983
 21
647.6485281373989
 31
0.0
  0
LINE
  5
53393
330
18
100
AcDbEntity
  8
OUTLINE
  6
CONTINUOUS
 48
30.0
100
AcDbLine
 10
-99.60113651040229
 20
647.6485281373989
 30
0.0
 11
-108.3988119932983
 21
647.6485281373989
 31
0.0
  0
LINE
  5
53394
330
18
100
AcDbEntity
  8
OUTLINE
  6
CONTINUOUS
 48
30.0
100
AcDbLine
 10
-110.0
 20
645.9485281374018
 30
0.0
 11
-110.0
 21
646.6485281373989
 31
0.0
  0
LINE
  5
53395
330
18
100
AcDbEntity
  8
OUTLINE
  6
CONTINUOUS
 48
30.0
100
AcDbLine
 10
-108.4000000000014
 20
646.6485281373989
 30
0.0
 11
-108.4000000000014
 21
647.6485281373989
 31
0.0
  0
LINE
  5
53396
330
18
100
AcDbEntity
  8
OUTLINE
  6
CONTINUOUS
 48
30.0
100
AcDbLine
 10
-100.0
 20
645.9485281374018
 30
0.0
 11
-100.0
 21
646.6485281373989
 31
0.0
  0
LINE
  5
53397
330
18
100
AcDbEntity
  8
OUTLINE
  6
CONTINUOUS
 48
30.0
100
AcDbLine
 10
-99.60113651040229
 20
646.6485281373989
 30
0.0
 11
-99.60113651040229
 21
647.6485281373989
 31
0.0
  0
LINE
  5
53398
330
18
100
AcDbEntity
  8
OUTLINE
  6
CONTINUOUS
 48
30.0
100
AcDbLine
 10
-98.40000000000145
 20
646.6485281373989
 30
0.0
 11
-98.40000000000145
 21
647.6485281373989
 31
0.0
  0
LINE
  5
53399
330
18
100
AcDbEntity
  8
OUTLINE
  6
CONTINUOUS
 48
30.0
100
AcDbLine
 10
-89.60113651040229
 20
646.6485281373989
 30
0.0
 11
-89.60113651040229
 21
647.6485281373989
 31
0.0
  0
LINE
  5
5339A
330
18
100
AcDbEntity
  8
OUTLINE
  6
CONTINUOUS
 48
30.0
100
AcDbLine
 10
-88.0
 20
645.9485281374026
 30
0.0
 11
-88.0
 21
646.6485281373989
 31
0.0
  0
LINE
  5
533F5
330
18
100
AcDbEntity
  8
OUTLINE
  6
CONTINUOUS
 48
30.0
100
AcDbLine
 10
563.6999999999968
 20
644.6485281373989
 30
0.0
 11
563.6999999999971
 21
645.9485281374018
 31
0.0
  0
LINE
  5
533F6
330
18
100
AcDbEntity
  8
OUTLINE
  6
CONTINUOUS
 48
30.0
100
AcDbLine
 10
565.0
 20
-345.3514718625992
 30
0.0
 11
565.0
 21
644.6485281373989
 31
0.0
  0
LINE
  5
533F8
330
18
100
AcDbEntity
  8
OUTLINE
  6
CONTINUOUS
 48
30.0
100
AcDbLine
 10
563.7999999999956
 20
-645.3514718625992
 30
0.0
 11
563.7995999999954
 21
-644.1514718626003
 31
0.0
  0
LINE
  5
533F9
330
18
100
AcDbEntity
  8
OUTLINE
  6
CONTINUOUS
 48
30.0
100
AcDbLine
 10
565.0
 20
-644.1514718626003
 30
0.0
 11
565.0
 21
-345.3514718625992
 31
0.0
  0
LINE
  5
533FA
330
18
100
AcDbEntity
  8
OUTLINE
  6
CONTINUOUS
 48
30.0
100
AcDbLine
 10
563.7995999999954
 20
-644.1514718626003
 30
0.0
 11
565.0
 21
-644.1514718626003
 31
0.0
  0
LINE
  5
533FE
330
18
100
AcDbEntity
  8
OUTLINE
  6
CONTINUOUS
 48
30.0
100
AcDbLine
 10
332.8499999999985
 20
694.6485281373989
 30
0.0
 11
495.8999999999978
 21
694.6485281373989
 31
0.0
  0
LINE
  5
533FF
330
18
100
AcDbEntity
  8
OUTLINE
  6
CONTINUOUS
 48
30.0
100
AcDbLine
 10
332.8499999999985
 20
704.6485281373989
 30
0.0
 11
409.1499999999978
 21
704.6485281373989
 31
0.0
  0
LINE
  5
53400
330
18
100
AcDbEntity
  8
OUTLINE
  6
CONTINUOUS
 48
30.0
100
AcDbLine
 10
332.8499999999985
 20
694.6485281373997
 30
0.0
 11
332.8499999999985
 21
704.6485281373989
 31
0.0
  0
LINE
  5
53401
330
18
100
AcDbEntity
  8
OUTLINE
  6
CONTINUOUS
 48
30.0
100
AcDbLine
 10
409.1499999999978
 20
694.6485281373997
 30
0.0
 11
409.1499999999978
 21
704.6485281373989
 31
0.0
  0
LINE
  5
53429
330
18
100
AcDbEntity
  8
OUTLINE
  6
CONTINUOUS
 48
30.0
100
AcDbLine
 10
497.1999999999971
 20
651.1485281373989
 30
0.0
 11
497.1999999999971
 21
693.3485281373996
 31
0.0
  0
ARC
  5
5342A
330
18
100
AcDbEntity
  8
OUTLINE
  6
CONTINUOUS
 48
30.0
100
AcDbCircle
 10
495.9000000000014
 20
693.3485281374014
 30
0.0
 40
1.299999999997452
100
AcDbArc
 50
359.9999999998958
 51
90.00000000010421
  0
ARC
  5
5342C
330
18
100
AcDbEntity
  8
OUTLINE
100
AcDbCircle
 10
499.001192398297
 20
653.3449135564315
 30
0.0
 40
5.701002752011445
100
AcDbArc
 50
272.9567513624492
 51
290.524404901412
  0
ARC
  5
5342D
330
18
100
AcDbEntity
  8
OUTLINE
100
AcDbCircle
 10
502.9909201237974
 20
653.3890556117203
 30
0.0
 40
5.745947307903496
100
AcDbArc
 50
273.3367468602529
 51
290.466009098098
  0
ARC
  5
5342E
330
18
100
AcDbEntity
  8
OUTLINE
100
AcDbCircle
 10
498.9898839357261
 20
645.4062645710491
 30
0.0
 40
5.747936133795897
100
AcDbArc
 50
69.53036495740768
 51
86.49839241495373
  0
ARC
  5
5342F
330
18
100
AcDbEntity
  8
OUTLINE
100
AcDbCircle
 10
503.0037209935435
 20
645.4584929693719
 30
0.0
 40
5.694169056587149
100
AcDbArc
 50
69.47702039995637
 51
87.61396926510412
  0
LINE
  5
53430
330
18
100
AcDbEntity
  8
OUTLINE
  6
CONTINUOUS
 48
30.0
100
AcDbLine
 10
500.9999999999963
 20
650.7912625474983
 30
0.0
 11
502.999999999698
 21
651.1485281374971
 31
0.0
  0
LINE
  5
53431
330
18
100
AcDbEntity
  8
OUTLINE
  6
CONTINUOUS
 48
30.0
100
AcDbLine
 10
496.9999999999963
 20
650.7912625474983
 30
0.0
 11
498.999999999698
 21
651.1485281374971
 31
0.0
  0
LINE
  5
53432
330
18
100
AcDbEntity
  8
OUTLINE
  6
CONTINUOUS
 48
30.0
100
AcDbLine
 10
496.9999999999963
 20
651.1485281373989
 30
0.0
 11
505.0000000000982
 21
651.1485281373989
 31
0.0
  0
LINE
  5
53433
330
18
100
AcDbEntity
  8
OUTLINE
  6
CONTINUOUS
 48
30.0
100
AcDbLine
 10
496.9999999999963
 20
648.0057937272995
 30
0.0
 11
498.999999999698
 21
647.6485281373989
 31
0.0
  0
LINE
  5
53434
330
18
100
AcDbEntity
  8
OUTLINE
  6
CONTINUOUS
 48
30.0
100
AcDbLine
 10
500.9999999999963
 20
648.0057937272995
 30
0.0
 11
502.999999999698
 21
647.6485281373989
 31
0.0
  0
LINE
  5
53435
330
18
100
AcDbEntity
  8
OUTLINE
  6
CONTINUOUS
 48
30.0
100
AcDbLine
 10
496.9999999999963
 20
647.6485281373989
 30
0.0
 11
496.9999999999963
 21
651.1485281374971
 31
0.0
  0
LINE
  5
53436
330
18
100
AcDbEntity
  8
OUTLINE
  6
CONTINUOUS
 48
30.0
100
AcDbLine
 10
500.9999999999963
 20
648.0057937272995
 30
0.0
 11
500.9999999999963
 21
650.7912625474983
 31
0.0
  0
LINE
  5
53437
330
18
100
AcDbEntity
  8
OUTLINE
  6
CONTINUOUS
 48
30.0
100
AcDbLine
 10
504.9999999999963
 20
647.6485281373989
 30
0.0
 11
504.9999999999963
 21
651.1485281374971
 31
0.0
  0
LINE
  5
53438
330
18
100
AcDbEntity
  8
OUTLINE
  6
CONTINUOUS
 48
30.0
100
AcDbLine
 10
514.9999999999963
 20
647.6485281373989
 30
0.0
 11
514.9999999999963
 21
651.1485281374971
 31
0.0
  0
LINE
  5
53439
330
18
100
AcDbEntity
  8
OUTLINE
  6
CONTINUOUS
 48
30.0
100
AcDbLine
 10
510.9999999999963
 20
648.0057937272995
 30
0.0
 11
510.9999999999963
 21
650.7912625474983
 31
0.0
  0
LINE
  5
5343A
330
18
100
AcDbEntity
  8
OUTLINE
  6
CONTINUOUS
 48
30.0
100
AcDbLine
 10
506.9999999999963
 20
647.6485281373989
 30
0.0
 11
506.9999999999963
 21
651.1485281374971
 31
0.0
  0
LINE
  5
5343B
330
18
100
AcDbEntity
  8
OUTLINE
  6
CONTINUOUS
 48
30.0
100
AcDbLine
 10
510.9999999999963
 20
648.0057937272995
 30
0.0
 11
512.999999999698
 21
647.6485281373989
 31
0.0
  0
LINE
  5
5343C
330
18
100
AcDbEntity
  8
OUTLINE
  6
CONTINUOUS
 48
30.0
100
AcDbLine
 10
506.9999999999963
 20
648.0057937272995
 30
0.0
 11
508.999999999698
 21
647.6485281373989
 31
0.0
  0
LINE
  5
5343D
330
18
100
AcDbEntity
  8
OUTLINE
  6
CONTINUOUS
 48
30.0
100
AcDbLine
 10
506.9999999999963
 20
651.1485281373989
 30
0.0
 11
515.0000000000982
 21
651.1485281373989
 31
0.0
  0
LINE
  5
5343E
330
18
100
AcDbEntity
  8
OUTLINE
  6
CONTINUOUS
 48
30.0
100
AcDbLine
 10
506.9999999999963
 20
650.7912625474983
 30
0.0
 11
508.999999999698
 21
651.1485281374971
 31
0.0
  0
LINE
  5
5343F
330
18
100
AcDbEntity
  8
OUTLINE
  6
CONTINUOUS
 48
30.0
100
AcDbLine
 10
510.9999999999963
 20
650.7912625474983
 30
0.0
 11
512.999999999698
 21
651.1485281374971
 31
0.0
  0
ARC
  5
53440
330
18
100
AcDbEntity
  8
OUTLINE
100
AcDbCircle
 10
513.0037209935435
 20
645.4584929693719
 30
0.0
 40
5.694169056587149
100
AcDbArc
 50
69.47702039995637
 51
87.61396926510412
  0
ARC
  5
53441
330
18
100
AcDbEntity
  8
OUTLINE
100
AcDbCircle
 10
508.989883935726
 20
645.4062645710491
 30
0.0
 40
5.747936133795897
100
AcDbArc
 50
69.53036495740768
 51
86.49839241495373
  0
ARC
  5
53442
330
18
100
AcDbEntity
  8
OUTLINE
100
AcDbCircle
 10
512.9909201237974
 20
653.3890556117203
 30
0.0
 40
5.745947307903496
100
AcDbArc
 50
273.3367468602529
 51
290.466009098098
  0
ARC
  5
53443
330
18
100
AcDbEntity
  8
OUTLINE
100
AcDbCircle
 10
509.0011923982969
 20
653.3449135564315
 30
0.0
 40
5.701002752011445
100
AcDbArc
 50
272.9567513624492
 51
290.524404901412
  0
ARC
  5
53444
330
18
100
AcDbEntity
  8
OUTLINE
100
AcDbCircle
 10
537.7011923982977
 20
653.4449135564337
 30
0.0
 40
5.701002752011445
100
AcDbArc
 50
272.9567513624492
 51
290.524404901412
  0
ARC
  5
53445
330
18
100
AcDbEntity
  8
OUTLINE
100
AcDbCircle
 10
541.6909201237981
 20
653.4890556117225
 30
0.0
 40
5.745947307903496
100
AcDbArc
 50
273.3367468602529
 51
290.466009098098
  0
ARC
  5
53446
330
18
100
AcDbEntity
  8
OUTLINE
100
AcDbCircle
 10
537.6898839357267
 20
645.5062645710513
 30
0.0
 40
5.747936133795897
100
AcDbArc
 50
69.53036495740768
 51
86.49839241495373
  0
ARC
  5
53447
330
18
100
AcDbEntity
  8
OUTLINE
100
AcDbCircle
 10
541.7037209935442
 20
645.5584929693741
 30
0.0
 40
5.694169056587149
100
AcDbArc
 50
69.47702039995637
 51
87.61396926510412
  0
LINE
  5
53448
330
18
100
AcDbEntity
  8
OUTLINE
  6
CONTINUOUS
 48
30.0
100
AcDbLine
 10
539.699999999997
 20
650.8912625475004
 30
0.0
 11
541.6999999996988
 21
651.2485281374993
 31
0.0
  0
LINE
  5
53449
330
18
100
AcDbEntity
  8
OUTLINE
  6
CONTINUOUS
 48
30.0
100
AcDbLine
 10
535.699999999997
 20
650.8912625475004
 30
0.0
 11
537.6999999996987
 21
651.2485281374993
 31
0.0
  0
LINE
  5
5344A
330
18
100
AcDbEntity
  8
OUTLINE
  6
CONTINUOUS
 48
30.0
100
AcDbLine
 10
495.0
 20
646.6485281373989
 30
0.0
 11
507.0
 21
646.6485281373989
 31
0.0
  0
LINE
  5
5344B
330
18
100
AcDbEntity
  8
OUTLINE
  6
CONTINUOUS
 48
30.0
100
AcDbLine
 10
507.0
 20
646.6485281373989
 30
0.0
 11
517.0
 21
646.6485281373989
 31
0.0
  0
LINE
  5
5344C
330
18
100
AcDbEntity
  8
OUTLINE
  6
CONTINUOUS
 48
30.0
100
AcDbLine
 10
533.6999999999971
 20
646.7485281374011
 30
0.0
 11
545.6999999999971
 21
646.7485281374011
 31
0.0
  0
LINE
  5
5344D
330
18
100
AcDbEntity
  8
OUTLINE
  6
CONTINUOUS
 48
30.0
100
AcDbLine
 10
515.3988634896013
 20
647.6485281373989
 30
0.0
 11
506.6011880067017
 21
647.6485281373989
 31
0.0
  0
LINE
  5
5344E
330
18
100
AcDbEntity
  8
OUTLINE
  6
CONTINUOUS
 48
30.0
100
AcDbLine
 10
505.3988634896013
 20
647.6485281373989
 30
0.0
 11
496.6011880067017
 21
647.6485281373989
 31
0.0
  0
LINE
  5
5344F
330
18
100
AcDbEntity
  8
OUTLINE
  6
CONTINUOUS
 48
30.0
100
AcDbLine
 10
544.0988634896021
 20
647.748528137401
 30
0.0
 11
535.3011880066987
 21
647.748528137401
 31
0.0
  0
LINE
  5
53450
330
18
100
AcDbEntity
  8
OUTLINE
  6
CONTINUOUS
 48
30.0
100
AcDbLine
 10
535.699999999997
 20
651.2485281374011
 30
0.0
 11
543.7000000000989
 21
651.2485281374011
 31
0.0
  0
LINE
  5
53451
330
18
100
AcDbEntity
  8
OUTLINE
  6
CONTINUOUS
 48
30.0
100
AcDbLine
 10
535.699999999997
 20
648.1057937273017
 30
0.0
 11
537.6999999996987
 21
647.748528137401
 31
0.0
  0
LINE
  5
53452
330
18
100
AcDbEntity
  8
OUTLINE
  6
CONTINUOUS
 48
30.0
100
AcDbLine
 10
539.699999999997
 20
648.1057937273017
 30
0.0
 11
541.6999999996988
 21
647.748528137401
 31
0.0
  0
LINE
  5
53453
330
18
100
AcDbEntity
  8
OUTLINE
  6
CONTINUOUS
 48
30.0
100
AcDbLine
 10
495.0
 20
645.9485281374018
 30
0.0
 11
495.0
 21
646.6485281373989
 31
0.0
  0
LINE
  5
53454
330
18
100
AcDbEntity
  8
OUTLINE
  6
CONTINUOUS
 48
30.0
100
AcDbLine
 10
496.5999999999985
 20
646.6485281373989
 30
0.0
 11
496.5999999999985
 21
647.6485281373989
 31
0.0
  0
LINE
  5
53455
330
18
100
AcDbEntity
  8
OUTLINE
  6
CONTINUOUS
 48
30.0
100
AcDbLine
 10
505.3988634896013
 20
646.6485281373989
 30
0.0
 11
505.3988634896013
 21
647.6485281373989
 31
0.0
  0
LINE
  5
53456
330
18
100
AcDbEntity
  8
OUTLINE
  6
CONTINUOUS
 48
30.0
100
AcDbLine
 10
506.5999999999985
 20
646.6485281373989
 30
0.0
 11
506.5999999999985
 21
647.6485281373989
 31
0.0
  0
LINE
  5
53457
330
18
100
AcDbEntity
  8
OUTLINE
  6
CONTINUOUS
 48
30.0
100
AcDbLine
 10
507.0
 20
645.9485281374018
 30
0.0
 11
507.0
 21
646.6485281373989
 31
0.0
  0
LINE
  5
53458
330
18
100
AcDbEntity
  8
OUTLINE
  6
CONTINUOUS
 48
30.0
100
AcDbLine
 10
515.3988634896013
 20
646.6485281373989
 30
0.0
 11
515.3988634896013
 21
647.6485281373989
 31
0.0
  0
LINE
  5
53459
330
18
100
AcDbEntity
  8
OUTLINE
  6
CONTINUOUS
 48
30.0
100
AcDbLine
 10
517.0
 20
645.9485281374018
 30
0.0
 11
517.0
 21
646.6485281373989
 31
0.0
  0
LINE
  5
5345A
330
18
100
AcDbEntity
  8
OUTLINE
  6
CONTINUOUS
 48
30.0
100
AcDbLine
 10
533.6999999999971
 20
645.9485281374018
 30
0.0
 11
533.6999999999971
 21
646.7485281374011
 31
0.0
  0
LINE
  5
5345B
330
18
100
AcDbEntity
  8
OUTLINE
  6
CONTINUOUS
 48
30.0
100
AcDbLine
 10
535.2999999999956
 20
646.7485281374011
 30
0.0
 11
535.2999999999956
 21
647.748528137401
 31
0.0
  0
LINE
  5
5345C
330
18
100
AcDbEntity
  8
OUTLINE
  6
CONTINUOUS
 48
30.0
100
AcDbLine
 10
535.699999999997
 20
647.748528137401
 30
0.0
 11
535.699999999997
 21
651.2485281374993
 31
0.0
  0
LINE
  5
5345D
330
18
100
AcDbEntity
  8
OUTLINE
  6
CONTINUOUS
 48
30.0
100
AcDbLine
 10
539.699999999997
 20
648.1057937273017
 30
0.0
 11
539.699999999997
 21
650.8912625475004
 31
0.0
  0
LINE
  5
5345E
330
18
100
AcDbEntity
  8
OUTLINE
  6
CONTINUOUS
 48
30.0
100
AcDbLine
 10
543.699999999997
 20
647.748528137401
 30
0.0
 11
543.699999999997
 21
651.2485281374993
 31
0.0
  0
LINE
  5
5345F
330
18
100
AcDbEntity
  8
OUTLINE
  6
CONTINUOUS
 48
30.0
100
AcDbLine
 10
544.0988634896021
 20
646.7485281374011
 30
0.0
 11
544.0988634896021
 21
647.748528137401
 31
0.0
  0
LINE
  5
53460
330
18
100
AcDbEntity
  8
OUTLINE
  6
CONTINUOUS
 48
30.0
100
AcDbLine
 10
545.6999999999971
 20
645.9485281374018
 30
0.0
 11
545.6999999999971
 21
646.7485281374011
 31
0.0
  0
LINE
  5
53461
330
18
100
AcDbEntity
  8
OUTLINE
  6
CONTINUOUS
 48
30.0
100
AcDbLine
 10
-215.0
 20
642.9485281374017
 30
0.0
 11
-215.0
 21
645.0000001923017
 31
0.0
  0
LINE
  5
53462
330
18
100
AcDbEntity
  8
OUTLINE
  6
CONTINUOUS
 48
30.0
100
AcDbLine
 10
-215.0
 20
642.9485281373972
 30
0.0
 11
-215.0
 21
645.9485281374027
 31
0.0
  0
LINE
  5
53464
330
18
100
AcDbEntity
  8
OUTLINE
100
AcDbLine
 10
565.0
 20
644.6485281373989
 30
0.0
 11
563.6999999999968
 21
644.6485281373989
 31
0.0
  0
LINE
  5
53465
330
18
100
AcDbEntity
  8
OUTLINE
  6
CONTINUOUS
 48
30.0
100
AcDbLine
 10
495.0
 20
645.9485281374019
 30
0.0
 11
563.6999999999971
 21
645.9485281374018
 31
0.0
  0
ENDSEC
  0
SECTION
  2
OBJECTS
  0
DICTIONARY
  5
C
330
0
100
AcDbDictionary
  3
ACAD_GROUP
350
D
  3
ACAD_LAYOUT
350
FD9
  3
ACAD_MLINESTYLE
350
1B
  3
ACAD_PLOTSETTINGS
350
FDA
  3
ACAD_PLOTSTYLENAME
350
FD7
  3
ACDBHEADERROUNDTRIPXREC
350
5346D
  3
ACDBVARIABLEDICTIONARY
350
50B28
  3
DWGPROPS
350
422DA
  0
DICTIONARY
  5
53490
330
18
100
AcDbDictionary
280
     1
  3
ACAD_LAYOUTSELFREF
360
53491
  0
DICTIONARY
  5
5348E
330
15
100
AcDbDictionary
280
     1
  3
ACAD_LAYOUTSELFREF
360
5348F
  0
DICTIONARY
  5
D
102
{ACAD_REACTORS
330
C
102
}
330
C
100
AcDbDictionary
  0
DICTIONARY
  5
FD9
102
{ACAD_REACTORS
330
C
102
}
330
C
100
AcDbDictionary
  0
DICTIONARY
  5
1B
102
{ACAD_REACTORS
330
C
102
}
330
C
100
AcDbDictionary
  3
STANDARD
350
1C
  0
DICTIONARY
  5
FDA
102
{ACAD_REACTORS
330
C
102
}
330
C
100
AcDbDictionary
  0
ACDBDICTIONARYWDFLT
  5
FD7
102
{ACAD_REACTORS
330
C
102
}
330
C
100
AcDbDictionary
281
     1
  3
Normal
350
FD8
100
AcDbDictionaryWithDefault
340
FD8
  0
DICTIONARY
  5
5346D
102
{ACAD_REACTORS
330
C
102
}
330
C
100
AcDbDictionary
  3
CEPSNTYPE
350
53477
  3
DIMSTYLEDATA
350
5347B
  3
FINGERPRINTGUID
350
53478
  3
HYPERLINKBASE
350
53470
  3
INSUNITS
350
53476
  3
LAYOUTDICT
350
53472
  3
LWETCUNION
350
53475
  3
PLOTSETDICT
350
53473
  3
PLOTSTYLNAMDICT
350
53474
  3
PSVPSCALE
350
5347A
  3
PUCSBASE
350
5347E
  3
PUCSORGBACK
350
53484
  3
PUCSORGBOTTOM
350
53480
  3
PUCSORGFRONT
350
53483
  3
PUCSORGLEFT
350
53481
  3
PUCSORGRIGHT
350
53482
  3
PUCSORGTOP
350
5347F
  3
PUCSORTHOREF
350
5347C
  3
PUCSORTHOVIEW
350
5347D
  3
STYLESHEET
350
53471
  3
TSTACKALIGN
350
5346E
  3
TSTACKSIZE
350
5346F
  3
UCSBASE
350
53487
  3
UCSORGBACK
350
5348D
  3
UCSORGBOTTOM
350
53489
  3
UCSORGFRONT
350
5348C
  3
UCSORGLEFT
350
5348A
  3
UCSORGRIGHT
350
5348B
  3
UCSORGTOP
350
53488
  3
UCSORTHOREF
350
53485
  3
UCSORTHOVIEW
350
53486
  3
VERSIONGUID
350
53479
  0
DICTIONARY
  5
50B28
102
{ACAD_REACTORS
330
C
102
}
330
C
100
AcDbDictionary
  3
SORTENTS
350
50B29
  0
XRECORD
  5
422DA
102
{ACAD_REACTORS
330
C
102
}
330
C
100
AcDbXrecord
  1
DWGPROPS COOKIE
  2

  3

  4

  6

  7

  8

  9

300
=
301
=
302
=
303
=
304
=
305
=
306
=
307
=
308
=
309
=
 40
5.710785821759259
 41
2449761.493622685
 42
2454379.68583912
  1

 90
        0
  0
XRECORD
  5
53491
102
{ACAD_REACTORS
330
53490
102
}
330
53490
100
AcDbXrecord
340
18
  0
XRECORD
  5
5348F
102
{ACAD_REACTORS
330
5348E
102
}
330
5348E
100
AcDbXrecord
340
15
  0
MLINESTYLE
  5
1C
102
{ACAD_REACTORS
330
1B
102
}
330
1B
100
AcDbMlineStyle
  2
STANDARD
 70
     0
  3

 62
   256
 51
90.0
 52
90.0
 71
     2
 49
0.5
 62
   256
  6
BYLAYER
 49
-0.5
 62
   256
  6
BYLAYER
  0
ACDBPLACEHOLDER
  5
FD8
102
{ACAD_REACTORS
330
FD7
102
}
330
FD7
100
AcDbPlaceHolder
280
     0
  0
XRECORD
  5
53477
102
{ACAD_REACTORS
330
5346D
102
}
330
5346D
100
AcDbXrecord
 90
        0
  0
XRECORD
  5
5347B
102
{ACAD_REACTORS
330
5346D
102
}
330
5346D
100
AcDbXrecord
1000
DSTYLE
1002
{
1070
   341
340
24C
1070
   343
340
24C
1070
   344
340
24C
1002
}
  0
XRECORD
  5
53478
102
{ACAD_REACTORS
330
5346D
102
}
330
5346D
100
AcDbXrecord
  1
{A4E2D666-79C1-40CA-A6AF-C72AE7BABF3A}
  0
XRECORD
  5
53470
102
{ACAD_REACTORS
330
5346D
102
}
330
5346D
100
AcDbXrecord
  1

  0
XRECORD
  5
53476
102
{ACAD_REACTORS
330
5346D
102
}
330
5346D
100
AcDbXrecord
 90
        0
  0
XRECORD
  5
53472
102
{ACAD_REACTORS
330
5346D
102
}
330
5346D
100
AcDbXrecord
340
FD9
  0
XRECORD
  5
53475
102
{ACAD_REACTORS
330
5346D
102
}
330
5346D
100
AcDbXrecord
 90
    14877
  0
XRECORD
  5
53473
102
{ACAD_REACTORS
330
5346D
102
}
330
5346D
100
AcDbXrecord
340
FDA
  0
XRECORD
  5
53474
102
{ACAD_REACTORS
330
5346D
102
}
330
5346D
100
AcDbXrecord
340
FD7
  0
XRECORD
  5
5347A
102
{ACAD_REACTORS
330
5346D
102
}
330
5346D
100
AcDbXrecord
 40
0.0
  0
XRECORD
  5
5347E
102
{ACAD_REACTORS
330
5346D
102
}
330
5346D
100
AcDbXrecord
340
0
  0
XRECORD
  5
53484
102
{ACAD_REACTORS
330
5346D
102
}
330
5346D
100
AcDbXrecord
 10
0.0
 20
0.0
 30
0.0
  0
XRECORD
  5
53480
102
{ACAD_REACTORS
330
5346D
102
}
330
5346D
100
AcDbXrecord
 10
0.0
 20
0.0
 30
0.0
  0
XRECORD
  5
53483
102
{ACAD_REACTORS
330
5346D
102
}
330
5346D
100
AcDbXrecord
 10
0.0
 20
0.0
 30
0.0
  0
XRECORD
  5
53481
102
{ACAD_REACTORS
330
5346D
102
}
330
5346D
100
AcDbXrecord
 10
0.0
 20
0.0
 30
0.0
  0
XRECORD
  5
53482
102
{ACAD_REACTORS
330
5346D
102
}
330
5346D
100
AcDbXrecord
 10
0.0
 20
0.0
 30
0.0
  0
XRECORD
  5
5347F
102
{ACAD_REACTORS
330
5346D
102
}
330
5346D
100
AcDbXrecord
 10
0.0
 20
0.0
 30
0.0
  0
XRECORD
  5
5347C
102
{ACAD_REACTORS
330
5346D
102
}
330
5346D
100
AcDbXrecord
340
0
  0
XRECORD
  5
5347D
102
{ACAD_REACTORS
330
5346D
102
}
330
5346D
100
AcDbXrecord
 70
     0
  0
XRECORD
  5
53471
102
{ACAD_REACTORS
330
5346D
102
}
330
5346D
100
AcDbXrecord
  1

  0
XRECORD
  5
5346E
102
{ACAD_REACTORS
330
5346D
102
}
330
5346D
100
AcDbXrecord
 90
        1
  0
XRECORD
  5
5346F
102
{ACAD_REACTORS
330
5346D
102
}
330
5346D
100
AcDbXrecord
 90
       70
  0
XRECORD
  5
53487
102
{ACAD_REACTORS
330
5346D
102
}
330
5346D
100
AcDbXrecord
340
0
  0
XRECORD
  5
5348D
102
{ACAD_REACTORS
330
5346D
102
}
330
5346D
100
AcDbXrecord
 10
0.0
 20
0.0
 30
0.0
  0
XRECORD
  5
53489
102
{ACAD_REACTORS
330
5346D
102
}
330
5346D
100
AcDbXrecord
 10
0.0
 20
0.0
 30
0.0
  0
XRECORD
  5
5348C
102
{ACAD_REACTORS
330
5346D
102
}
330
5346D
100
AcDbXrecord
 10
0.0
 20
0.0
 30
0.0
  0
XRECORD
  5
5348A
102
{ACAD_REACTORS
330
5346D
102
}
330
5346D
100
AcDbXrecord
 10
0.0
 20
0.0
 30
0.0
  0
XRECORD
  5
5348B
102
{ACAD_REACTORS
330
5346D
102
}
330
5346D
100
AcDbXrecord
 10
0.0
 20
0.0
 30
0.0
  0
XRECORD
  5
53488
102
{ACAD_REACTORS
330
5346D
102
}
330
5346D
100
AcDbXrecord
 10
0.0
 20
0.0
 30
0.0
  0
XRECORD
  5
53485
102
{ACAD_REACTORS
330
5346D
102
}
330
5346D
100
AcDbXrecord
340
0
  0
XRECORD
  5
53486
102
{ACAD_REACTORS
330
5346D
102
}
330
5346D
100
AcDbXrecord
 70
     0
  0
XRECORD
  5
53479
102
{ACAD_REACTORS
330
5346D
102
}
330
5346D
100
AcDbXrecord
  1
{F4A8DE04-9E5F-4DDE-96AA-EA34727ADB29}
  0
DICTIONARYVAR
  5
50B29
102
{ACAD_REACTORS
330
50B28
102
}
330
50B28
100
DictionaryVariables
280
     0
  1
96
  0
ENDSEC
  0
EOF
