  0
SECTION
  2
HEADER
  9
$ACADVER
  1
AC1009
  9
$DWGCODEPAGE
  3
ANSI_932
  9
$INSBASE
 10
0.0
 20
0.0
 30
0.0
  9
$EXTMIN
 10
0
 20
0
 30
0
  9
$EXTMAX
 10
0
 20
0
 30
0
  9
$LIMMIN
 10
0.0
 20
0.0
  9
$LIMMAX
 10
420.0
 20
297.0
  9
$ORTHOMODE
 70
0
  9
$REGENMODE
 70
1
  9
$FILLMODE
 70
1
  9
$DRAGMODE
 70
2
  9
$QTEXTMODE
 70
0
  9
$MIRRTEXT
 70
1
  9
$OSMODE
 70
37
  9
$LTSCALE
 40
25.4
  9
$ATTMODE
 70
1
  9
$TEXTSIZE
 40
0.2
  9
$TRACEWID
 40
1.0
  9
$TEXTSTYLE
  7
STANDARD
  9
$CLAYER
  8
__
  9
$CELTYPE
  6
BYLAYER
  9
$CECOLOR
 62
256
  9
$DIMSCALE
 40
1.0
  9
$DIMASZ
 40
0.18
  9
$DIMEXO
 40
0.0625
  9
$DIMDLI
 40
0.38
  9
$DIMRND
 40
0.0
  9
$DIMDLE
 40
0.0
  9
$DIMEXE
 40
0.18
  9
$DIMTP
 40
0.0
  9
$DIMTM
 40
0.0
  9
$DIMTXT
 40
0.18
  9
$DIMCEN
 40
0.09
  9
$DIMTSZ
 40
0.0
  9
$DIMTOL
 70
0
  9
$DIMLIM
 70
0
  9
$DIMTIH
 70
1
  9
$DIMTOH
 70
1
  9
$DIMSE1
 70
0
  9
$DIMSE2
 70
0
  9
$DIMTAD
 70
0
  9
$DIMZIN
 70
0
  9
$DIMBLK
  1

  9
$DIMASO
 70
1
  9
$DIMSHO
 70
1
  9
$DIMPOST
  1

  9
$DIMAPOST
  1

  9
$DIMALT
 70
0
  9
$DIMALTD
 70
2
  9
$DIMALTF
 40
25.4
  9
$DIMLFAC
 40
1.0
  9
$DIMTOFL
 70
0
  9
$DIMTVP
 40
0.0
  9
$DIMTIX
 70
0
  9
$DIMSOXD
 70
0
  9
$DIMSAH
 70
0
  9
$DIMBLK1
  1

  9
$DIMBLK2
  1

  9
$DIMSTYLE
  2
STANDARD
  9
$DIMCLRD
 70
0
  9
$DIMCLRE
 70
0
  9
$DIMCLRT
 70
0
  9
$DIMTFAC
 40
1.0
  9
$DIMGAP
 40
0.09
  9
$COORDS
 70
1
  9
$ATTDIA
 70
0
  9
$ATTREQ
 70
1
  9
$HANDLING
 70
1
  9
$LUNITS
 70
2
  9
$LUPREC
 70
2
  9
$SKETCHINC
 40
0.1
  9
$FILLETRAD
 40
0.5
  9
$AUNITS
 70
0
  9
$AUPREC
 70
2
  9
$MENU
  1
.
  9
$ELEVATION
 40
0.0
  9
$PELEVATION
 40
0.0
  9
$THICKNESS
 40
0.0
  9
$LIMCHECK
 70
0
  9
$CHAMFERA
 40
0.0
  9
$CHAMFERB
 40
0.0
  9
$SKPOLY
 70
0
  9
$TDCREATE
 40
2460040.411875
  9
$TDUPDATE
 40
2460040.411875
  9
$TDINDWG
 40
1.16e-08
  9
$TDUSRTIMER
 40
1.16e-08
  9
$USRTIMER
 70
1
  9
$ANGBASE
 50
0.0
  9
$ANGDIR
 70
0
  9
$PDMODE
 70
1
  9
$PDSIZE
 40
-2.0
  9
$PLINEWID
 40
0.0
  9
$SPLFRAME
 70
0
  9
$SPLINETYPE
 70
6
  9
$SPLINESEGS
 70
8
  9
$HANDSEED
  5
1F3
  9
$SURFTAB1
 70
6
  9
$SURFTAB2
 70
6
  9
$SURFTYPE
 70
6
  9
$SURFU
 70
6
  9
$SURFV
 70
6
  9
$UCSNAME
  2

  9
$UCSORG
 10
0.0
 20
0.0
 30
0.0
  9
$UCSXDIR
 10
1.0
 20
0.0
 30
0.0
  9
$UCSYDIR
 10
0.0
 20
1.0
 30
0.0
  9
$PUCSNAME
  2

  9
$PUCSORG
 10
0.0
 20
0.0
 30
0.0
  9
$PUCSXDIR
 10
1.0
 20
0.0
 30
0.0
  9
$PUCSYDIR
 10
0.0
 20
1.0
 30
0.0
  9
$USERI1
 70
0
  9
$USERI2
 70
0
  9
$USERI3
 70
0
  9
$USERI4
 70
0
  9
$USERI5
 70
0
  9
$USERR1
 40
0.0
  9
$USERR2
 40
0.0
  9
$USERR3
 40
0.0
  9
$USERR4
 40
0.0
  9
$USERR5
 40
0.0
  9
$WORLDVIEW
 70
1
  9
$SHADEDGE
 70
3
  9
$SHADEDIF
 70
70
  9
$TILEMODE
 70
1
  9
$MAXACTVP
 70
64
  9
$PLIMCHECK
 70
0
  9
$PEXTMIN
 10
1e+20
 20
1e+20
 30
1e+20
  9
$PEXTMAX
 10
-1e+20
 20
-1e+20
 30
-1e+20
  9
$PLIMMIN
 10
0.0
 20
0.0
  9
$PLIMMAX
 10
420.0
 20
297.0
  9
$UNITMODE
 70
0
  9
$VISRETAIN
 70
1
  9
$PLINEGEN
 70
0
  9
$PSLTSCALE
 70
1
  0
ENDSEC
  0
SECTION
  2
TABLES
  0
TABLE
  2
VPORT
 70
1
  0
VPORT
  5
81
  2
*ACTIVE
 70
0
 10
0.0
 20
0.0
 11
1.0
 21
1.0
 12
0.0
 22
0.0
 13
0.0
 23
0.0
 14
0.5
 24
0.5
 15
0.5
 25
0.5
 16
0.0
 26
0.0
 36
1.0
 17
0.0
 27
0.0
 37
0.0
 40
296.9895
 41
0.7067921032000568
 42
2000.0
 43
0.0
 44
0.0
 50
0.0
 51
0.0
 71
0
 72
100
 73
1
 74
3
 75
0
 76
0
 77
0
 78
0
  0
ENDTAB
  0
TABLE
  2
LTYPE
 70
3
  0
LTYPE
  5
82
  2
CONTINUOUS
 70
0
  3
Solid line
 72
65
 73
0
 40
0.0
  0
LTYPE
  5
AB
  2
ByBlock
 70
0
  3

 72
65
 73
0
 40
0.0
  0
LTYPE
  5
AC
  2
ByLayer
 70
0
  3

 72
65
 73
0
 40
0.0
  0
ENDTAB
  0
TABLE
  2
LAYER
 70
3
  0
LAYER
  5
83
  2
0
 70
0
 62
7
  6
CONTINUOUS
  0
LAYER
  5
84
  2
__
 70
0
 62
7
  6
CONTINUOUS
  0
LAYER
  5
AD
  2
Defpoints
 70
0
 62
7
  6
Continuous
  0
ENDTAB
  0
TABLE
  2
STYLE
 70
1
  0
STYLE
  5
85
  2
STANDARD
 70
0
 40
0.0
 41
1.0
 50
0.0
 71
0
 42
0.2
  3
txt
  4
BIGFONT.SHX
  0
ENDTAB
  0
TABLE
  2
VIEW
 70
0
  0
ENDTAB
  0
TABLE
  2
UCS
 70
0
  0
ENDTAB
  0
TABLE
  2
APPID
 70
5
  0
APPID
  5
86
  2
ACAD
 70
0
  0
APPID
  5
87
  2
ACCMTRANSPARENCY
 70
0
  0
APPID
  5
88
  2
ACAECLAYERSTANDARD
 70
0
  0
APPID
  5
1F1
  2
HATCHBACKGROUNDCOLOR
 70
0
  0
APPID
  5
1F2
  2
EZDXF
 70
0
  0
ENDTAB
  0
TABLE
  2
DIMSTYLE
 70
1
  0
DIMSTYLE
105
89
  2
STANDARD
 70
0
  3

  4

  5

  6

  7

 40
1.0
 41
0.18
 42
0.0625
 43
0.38
 44
0.18
 45
0.0
 46
0.0
 47
0.0
 48
0.0
140
0.18
141
0.09
142
0.0
143
25.4
144
1.0
145
0.0
146
1.0
147
0.09
 71
0
 72
0
 73
1
 74
1
 75
0
 76
0
 77
0
 78
0
170
0
171
2
172
0
173
0
174
0
175
0
176
0
177
0
178
0
  0
ENDTAB
  0
ENDSEC
  0
SECTION
  2
BLOCKS
  0
BLOCK
  5
8A
  8
0
  2
$Model_Space
 70
0
 10
0.0
 20
0.0
 30
0.0
  3
$Model_Space
  1

1001
EZDXF
1000
WRITTEN_BY_EZDXF
1000
0.16.4 @ 2023-04-05T00:53:06.452831+00:00
  0
ENDBLK
  5
21
  8
0
  0
BLOCK
  5
8B
 67
1
  8
0
  2
$Paper_Space
 70
0
 10
0.0
 20
0.0
 30
0.0
  3
$Paper_Space
  1

  0
ENDBLK
  5
1D
 67
1
  8
0
  0
ENDSEC
  0
SECTION
  2
ENTITIES
  0
LINE
  5
AF
  8
0
 10
47.658
 20
52.77
 30
0.0
 11
47.905
 21
52.962
 31
0.0
  0
LINE
  5
B0
  8
0
 10
47.905
 20
52.962
 30
0.0
 11
48.07
 21
53.154
 31
0.0
  0
LINE
  5
B1
  8
0
 10
46.589
 20
52.14
 30
0.0
 11
46.973
 21
52.331
 31
0.0
  0
LINE
  5
B2
  8
0
 10
46.973
 20
52.331
 30
0.0
 11
47.357
 21
52.578
 31
0.0
  0
LINE
  5
B3
  8
0
 10
12.0
 20
53.648
 30
0.0
 11
12.0
 21
81.379
 31
0.0
  0
LINE
  5
B4
  8
0
 10
12.0
 20
53.648
 30
0.0
 11
12.055
 21
53.401
 31
0.0
  0
LINE
  5
B5
  8
0
 10
12.055
 20
53.401
 30
0.0
 11
12.165
 21
53.154
 31
0.0
  0
LINE
  5
B6
  8
0
 10
12.165
 20
53.154
 30
0.0
 11
12.329
 21
52.99
 31
0.0
  0
LINE
  5
B7
  8
0
 10
48.18
 20
53.648
 30
0.0
 11
48.18
 21
81.379
 31
0.0
  0
LINE
  5
B8
  8
0
 10
33.203
 20
50.027
 30
0.0
 11
34.328
 21
50.11
 31
0.0
  0
LINE
  5
B9
  8
0
 10
34.328
 20
50.11
 30
0.0
 11
35.342
 21
50.165
 31
0.0
  0
LINE
  5
BA
  8
0
 10
35.342
 20
50.165
 30
0.0
 11
36.412
 21
50.274
 31
0.0
  0
LINE
  5
BB
  8
0
 10
36.412
 20
50.274
 30
0.0
 11
37.455
 21
50.329
 31
0.0
  0
LINE
  5
BC
  8
0
 10
37.455
 20
50.329
 30
0.0
 11
38.442
 21
50.439
 31
0.0
  0
LINE
  5
BD
  8
0
 10
38.442
 20
50.439
 30
0.0
 11
39.375
 21
50.521
 31
0.0
  0
LINE
  5
BE
  8
0
 10
39.375
 20
50.521
 30
0.0
 11
40.28
 21
50.658
 31
0.0
  0
LINE
  5
BF
  8
0
 10
40.28
 20
50.658
 30
0.0
 11
41.185
 21
50.768
 31
0.0
  0
LINE
  5
C0
  8
0
 10
41.185
 20
50.768
 30
0.0
 11
42.063
 21
50.933
 31
0.0
  0
LINE
  5
C1
  8
0
 10
42.063
 20
50.933
 30
0.0
 11
42.831
 21
51.097
 31
0.0
  0
LINE
  5
C2
  8
0
 10
42.831
 20
51.097
 30
0.0
 11
43.571
 21
51.262
 31
0.0
  0
LINE
  5
C3
  8
0
 10
43.571
 20
51.262
 30
0.0
 11
44.285
 21
51.426
 31
0.0
  0
LINE
  5
C4
  8
0
 10
44.285
 20
51.426
 30
0.0
 11
44.943
 21
51.591
 31
0.0
  0
LINE
  5
C5
  8
0
 10
44.943
 20
51.591
 30
0.0
 11
45.546
 21
51.755
 31
0.0
  0
LINE
  5
C6
  8
0
 10
26.867
 20
50.027
 30
0.0
 11
29.006
 21
50.027
 31
0.0
  0
LINE
  5
C7
  8
0
 10
29.006
 20
50.027
 30
0.0
 11
30.076
 21
50.0
 31
0.0
  0
LINE
  5
C8
  8
0
 10
30.076
 20
50.0
 30
0.0
 11
31.201
 21
50.027
 31
0.0
  0
LINE
  5
C9
  8
0
 10
31.063
 20
50.027
 30
0.0
 11
33.368
 21
50.027
 31
0.0
  0
LINE
  5
CA
  8
0
 10
33.368
 20
50.027
 30
0.0
 11
34.437
 21
50.11
 31
0.0
  0
LINE
  5
CB
  8
0
 10
34.437
 20
50.11
 30
0.0
 11
35.48
 21
50.165
 31
0.0
  0
LINE
  5
CC
  8
0
 10
35.48
 20
50.165
 30
0.0
 11
36.495
 21
50.274
 31
0.0
  0
LINE
  5
CD
  8
0
 10
36.495
 20
50.274
 30
0.0
 11
37.482
 21
50.329
 31
0.0
  0
LINE
  5
CE
  8
0
 10
37.482
 20
50.329
 30
0.0
 11
38.469
 21
50.439
 31
0.0
  0
LINE
  5
CF
  8
0
 10
38.469
 20
50.439
 30
0.0
 11
39.457
 21
50.521
 31
0.0
  0
LINE
  5
D0
  8
0
 10
39.457
 20
50.521
 30
0.0
 11
40.417
 21
50.658
 31
0.0
  0
LINE
  5
D1
  8
0
 10
40.417
 20
50.658
 30
0.0
 11
41.267
 21
50.768
 31
0.0
  0
LINE
  5
D2
  8
0
 10
41.267
 20
50.768
 30
0.0
 11
42.09
 21
50.933
 31
0.0
  0
LINE
  5
D3
  8
0
 10
42.09
 20
50.933
 30
0.0
 11
42.886
 21
51.097
 31
0.0
  0
LINE
  5
D4
  8
0
 10
42.886
 20
51.097
 30
0.0
 11
43.626
 21
51.262
 31
0.0
  0
LINE
  5
D5
  8
0
 10
43.626
 20
51.262
 30
0.0
 11
44.367
 21
51.426
 31
0.0
  0
LINE
  5
D6
  8
0
 10
44.367
 20
51.426
 30
0.0
 11
45.025
 21
51.591
 31
0.0
  0
LINE
  5
D7
  8
0
 10
45.025
 20
51.591
 30
0.0
 11
45.546
 21
51.755
 31
0.0
  0
LINE
  5
D8
  8
0
 10
45.546
 20
51.755
 30
0.0
 11
46.095
 21
51.975
 31
0.0
  0
LINE
  5
D9
  8
0
 10
46.095
 20
51.975
 30
0.0
 11
46.589
 21
52.14
 31
0.0
  0
LINE
  5
DA
  8
0
 10
46.589
 20
52.14
 30
0.0
 11
47.027
 21
52.331
 31
0.0
  0
LINE
  5
DB
  8
0
 10
47.027
 20
52.331
 30
0.0
 11
47.357
 21
52.578
 31
0.0
  0
LINE
  5
DC
  8
0
 10
47.357
 20
52.578
 30
0.0
 11
47.658
 21
52.77
 31
0.0
  0
LINE
  5
DD
  8
0
 10
47.658
 20
52.77
 30
0.0
 11
47.905
 21
52.99
 31
0.0
  0
LINE
  5
DE
  8
0
 10
47.905
 20
52.99
 30
0.0
 11
48.07
 21
53.154
 31
0.0
  0
LINE
  5
DF
  8
0
 10
48.07
 20
53.154
 30
0.0
 11
48.125
 21
53.401
 31
0.0
  0
LINE
  5
E0
  8
0
 10
48.125
 20
53.401
 30
0.0
 11
48.18
 21
53.648
 31
0.0
  0
LINE
  5
E1
  8
0
 10
28.43
 20
50.356
 30
0.0
 11
31.722
 21
50.356
 31
0.0
  0
LINE
  5
E2
  8
0
 10
31.722
 20
50.356
 30
0.0
 11
32.792
 21
50.439
 31
0.0
  0
LINE
  5
E3
  8
0
 10
32.792
 20
50.439
 30
0.0
 11
33.861
 21
50.494
 31
0.0
  0
LINE
  5
E4
  8
0
 10
33.861
 20
50.494
 30
0.0
 11
34.931
 21
50.521
 31
0.0
  0
LINE
  5
E5
  8
0
 10
34.931
 20
50.521
 30
0.0
 11
35.973
 21
50.603
 31
0.0
  0
LINE
  5
E6
  8
0
 10
35.973
 20
50.603
 30
0.0
 11
36.961
 21
50.686
 31
0.0
  0
LINE
  5
E7
  8
0
 10
36.961
 20
50.686
 30
0.0
 11
37.948
 21
50.768
 31
0.0
  0
LINE
  5
E8
  8
0
 10
37.948
 20
50.768
 30
0.0
 11
38.881
 21
50.85
 31
0.0
  0
LINE
  5
E9
  8
0
 10
38.881
 20
50.85
 30
0.0
 11
39.759
 21
50.987
 31
0.0
  0
LINE
  5
EA
  8
0
 10
39.759
 20
50.987
 30
0.0
 11
40.609
 21
51.152
 31
0.0
  0
LINE
  5
EB
  8
0
 10
40.609
 20
51.152
 30
0.0
 11
41.405
 21
51.317
 31
0.0
  0
LINE
  5
EC
  8
0
 10
41.405
 20
51.317
 30
0.0
 11
42.172
 21
51.481
 31
0.0
  0
LINE
  5
ED
  8
0
 10
42.172
 20
51.481
 30
0.0
 11
42.886
 21
51.646
 31
0.0
  0
LINE
  5
EE
  8
0
 10
42.886
 20
51.646
 30
0.0
 11
43.544
 21
51.81
 31
0.0
  0
LINE
  5
EF
  8
0
 10
43.544
 20
51.81
 30
0.0
 11
44.065
 21
51.975
 31
0.0
  0
LINE
  5
F0
  8
0
 10
44.065
 20
51.975
 30
0.0
 11
44.614
 21
52.167
 31
0.0
  0
LINE
  5
F1
  8
0
 10
44.614
 20
52.167
 30
0.0
 11
45.053
 21
52.331
 31
0.0
  0
LINE
  5
F2
  8
0
 10
45.053
 20
52.331
 30
0.0
 11
45.437
 21
52.578
 31
0.0
  0
LINE
  5
F3
  8
0
 10
45.437
 20
52.578
 30
0.0
 11
45.766
 21
52.77
 31
0.0
  0
LINE
  5
F4
  8
0
 10
45.766
 20
52.77
 30
0.0
 11
46.04
 21
52.99
 31
0.0
  0
LINE
  5
F5
  8
0
 10
46.04
 20
52.99
 30
0.0
 11
46.205
 21
53.154
 31
0.0
  0
LINE
  5
F6
  8
0
 10
46.205
 20
53.154
 30
0.0
 11
46.342
 21
53.401
 31
0.0
  0
LINE
  5
F7
  8
0
 10
46.342
 20
53.401
 30
0.0
 11
46.369
 21
53.648
 31
0.0
  0
LINE
  5
F8
  8
0
 10
27.909
 20
52.14
 30
0.0
 11
32.353
 21
52.14
 31
0.0
  0
LINE
  5
F9
  8
0
 10
32.353
 20
52.14
 30
0.0
 11
33.45
 21
52.167
 31
0.0
  0
LINE
  5
FA
  8
0
 10
33.45
 20
52.167
 30
0.0
 11
34.52
 21
52.249
 31
0.0
  0
LINE
  5
FB
  8
0
 10
34.52
 20
52.249
 30
0.0
 11
35.589
 21
52.304
 31
0.0
  0
LINE
  5
FC
  8
0
 10
35.589
 20
52.304
 30
0.0
 11
36.632
 21
52.414
 31
0.0
  0
LINE
  5
FD
  8
0
 10
36.632
 20
52.414
 30
0.0
 11
37.619
 21
52.469
 31
0.0
  0
LINE
  5
FE
  8
0
 10
37.619
 20
52.469
 30
0.0
 11
38.607
 21
52.578
 31
0.0
  0
LINE
  5
FF
  8
0
 10
38.607
 20
52.578
 30
0.0
 11
39.539
 21
52.661
 31
0.0
  0
LINE
  5
100
  8
0
 10
39.539
 20
52.661
 30
0.0
 11
40.417
 21
52.825
 31
0.0
  0
LINE
  5
101
  8
0
 10
40.417
 20
52.825
 30
0.0
 11
41.24
 21
52.99
 31
0.0
  0
LINE
  5
102
  8
0
 10
41.24
 20
52.99
 30
0.0
 11
42.063
 21
53.154
 31
0.0
  0
LINE
  5
103
  8
0
 10
42.063
 20
53.154
 30
0.0
 11
42.748
 21
53.319
 31
0.0
  0
LINE
  5
104
  8
0
 10
42.748
 20
53.319
 30
0.0
 11
43.407
 21
53.483
 31
0.0
  0
LINE
  5
105
  8
0
 10
43.407
 20
53.483
 30
0.0
 11
44.038
 21
53.648
 31
0.0
  0
LINE
  5
106
  8
0
 10
44.038
 20
53.648
 30
0.0
 11
44.559
 21
53.895
 31
0.0
  0
LINE
  5
107
  8
0
 10
44.559
 20
53.895
 30
0.0
 11
45.053
 21
54.114
 31
0.0
  0
LINE
  5
108
  8
0
 10
45.053
 20
54.114
 30
0.0
 11
45.437
 21
54.279
 31
0.0
  0
LINE
  5
109
  8
0
 10
45.437
 20
54.279
 30
0.0
 11
45.766
 21
54.471
 31
0.0
  0
LINE
  5
10A
  8
0
 10
31.722
 20
56.885
 30
0.0
 11
28.43
 21
56.885
 31
0.0
  0
LINE
  5
10B
  8
0
 10
28.43
 20
56.885
 30
0.0
 11
27.415
 21
56.857
 31
0.0
  0
LINE
  5
10C
  8
0
 10
27.415
 20
56.857
 30
0.0
 11
26.291
 21
56.775
 31
0.0
  0
LINE
  5
10D
  8
0
 10
26.291
 20
56.775
 30
0.0
 11
25.276
 21
56.748
 31
0.0
  0
LINE
  5
10E
  8
0
 10
25.276
 20
56.748
 30
0.0
 11
24.234
 21
56.693
 31
0.0
  0
LINE
  5
10F
  8
0
 10
24.234
 20
56.693
 30
0.0
 11
23.246
 21
56.583
 31
0.0
  0
LINE
  5
110
  8
0
 10
23.246
 20
56.583
 30
0.0
 11
22.314
 21
56.528
 31
0.0
  0
LINE
  5
111
  8
0
 10
22.314
 20
56.528
 30
0.0
 11
21.326
 21
56.419
 31
0.0
  0
LINE
  5
112
  8
0
 10
21.326
 20
56.419
 30
0.0
 11
20.448
 21
56.281
 31
0.0
  0
LINE
  5
113
  8
0
 10
20.448
 20
56.281
 30
0.0
 11
19.625
 21
56.117
 31
0.0
  0
LINE
  5
114
  8
0
 10
19.625
 20
56.117
 30
0.0
 11
18.802
 21
55.952
 31
0.0
  0
LINE
  5
115
  8
0
 10
18.802
 20
55.952
 30
0.0
 11
18.035
 21
55.788
 31
0.0
  0
LINE
  5
116
  8
0
 10
18.035
 20
55.788
 30
0.0
 11
17.321
 21
55.623
 31
0.0
  0
LINE
  5
117
  8
0
 10
17.321
 20
55.623
 30
0.0
 11
16.718
 21
55.458
 31
0.0
  0
LINE
  5
118
  8
0
 10
16.718
 20
55.458
 30
0.0
 11
16.114
 21
55.294
 31
0.0
  0
LINE
  5
119
  8
0
 10
16.114
 20
55.294
 30
0.0
 11
15.566
 21
55.102
 31
0.0
  0
LINE
  5
11A
  8
0
 10
15.566
 20
55.102
 30
0.0
 11
15.127
 21
54.91
 31
0.0
  0
LINE
  5
11B
  8
0
 10
15.127
 20
54.91
 30
0.0
 11
14.743
 21
54.718
 31
0.0
  0
LINE
  5
11C
  8
0
 10
14.743
 20
54.718
 30
0.0
 11
14.414
 21
54.471
 31
0.0
  0
LINE
  5
11D
  8
0
 10
14.414
 20
54.471
 30
0.0
 11
14.14
 21
54.279
 31
0.0
  0
LINE
  5
11E
  8
0
 10
14.14
 20
54.279
 30
0.0
 11
13.975
 21
54.114
 31
0.0
  0
LINE
  5
11F
  8
0
 10
13.975
 20
54.114
 30
0.0
 11
13.865
 21
53.895
 31
0.0
  0
LINE
  5
120
  8
0
 10
13.865
 20
53.895
 30
0.0
 11
13.81
 21
53.648
 31
0.0
  0
LINE
  5
121
  8
0
 10
13.81
 20
53.648
 30
0.0
 11
13.865
 21
53.401
 31
0.0
  0
LINE
  5
122
  8
0
 10
13.865
 20
53.401
 30
0.0
 11
13.975
 21
53.154
 31
0.0
  0
LINE
  5
123
  8
0
 10
13.975
 20
53.154
 30
0.0
 11
14.14
 21
52.99
 31
0.0
  0
LINE
  5
124
  8
0
 10
14.14
 20
52.99
 30
0.0
 11
14.414
 21
52.77
 31
0.0
  0
LINE
  5
125
  8
0
 10
14.414
 20
52.77
 30
0.0
 11
14.743
 21
52.578
 31
0.0
  0
LINE
  5
126
  8
0
 10
14.743
 20
52.578
 30
0.0
 11
15.127
 21
52.331
 31
0.0
  0
LINE
  5
127
  8
0
 10
15.127
 20
52.331
 30
0.0
 11
15.566
 21
52.167
 31
0.0
  0
LINE
  5
128
  8
0
 10
15.566
 20
52.167
 30
0.0
 11
16.114
 21
51.975
 31
0.0
  0
LINE
  5
129
  8
0
 10
16.114
 20
51.975
 30
0.0
 11
16.663
 21
51.81
 31
0.0
  0
LINE
  5
12A
  8
0
 10
16.663
 20
51.81
 30
0.0
 11
17.321
 21
51.646
 31
0.0
  0
LINE
  5
12B
  8
0
 10
17.321
 20
51.646
 30
0.0
 11
18.035
 21
51.481
 31
0.0
  0
LINE
  5
12C
  8
0
 10
18.035
 20
51.481
 30
0.0
 11
18.802
 21
51.317
 31
0.0
  0
LINE
  5
12D
  8
0
 10
18.802
 20
51.317
 30
0.0
 11
19.625
 21
51.152
 31
0.0
  0
LINE
  5
12E
  8
0
 10
19.625
 20
51.152
 30
0.0
 11
20.448
 21
50.987
 31
0.0
  0
LINE
  5
12F
  8
0
 10
20.448
 20
50.987
 30
0.0
 11
21.326
 21
50.85
 31
0.0
  0
LINE
  5
130
  8
0
 10
21.326
 20
50.85
 30
0.0
 11
22.259
 21
50.768
 31
0.0
  0
LINE
  5
131
  8
0
 10
22.259
 20
50.768
 30
0.0
 11
23.246
 21
50.686
 31
0.0
  0
LINE
  5
132
  8
0
 10
23.246
 20
50.686
 30
0.0
 11
24.234
 21
50.603
 31
0.0
  0
LINE
  5
133
  8
0
 10
24.234
 20
50.603
 30
0.0
 11
25.276
 21
50.521
 31
0.0
  0
LINE
  5
134
  8
0
 10
25.276
 20
50.521
 30
0.0
 11
26.291
 21
50.494
 31
0.0
  0
LINE
  5
135
  8
0
 10
26.291
 20
50.494
 30
0.0
 11
27.415
 21
50.439
 31
0.0
  0
LINE
  5
136
  8
0
 10
27.415
 20
50.439
 30
0.0
 11
28.43
 21
50.356
 31
0.0
  0
LINE
  5
137
  8
0
 10
33.368
 20
57.241
 30
0.0
 11
31.201
 21
57.241
 31
0.0
  0
LINE
  5
138
  8
0
 10
31.201
 20
57.241
 30
0.0
 11
30.076
 21
57.269
 31
0.0
  0
LINE
  5
139
  8
0
 10
30.076
 20
57.269
 30
0.0
 11
29.006
 21
57.241
 31
0.0
  0
LINE
  5
13A
  8
0
 10
29.006
 20
57.241
 30
0.0
 11
26.867
 21
57.241
 31
0.0
  0
LINE
  5
13B
  8
0
 10
26.867
 20
57.241
 30
0.0
 11
25.77
 21
57.186
 31
0.0
  0
LINE
  5
13C
  8
0
 10
25.77
 20
57.186
 30
0.0
 11
24.727
 21
57.104
 31
0.0
  0
LINE
  5
13D
  8
0
 10
24.727
 20
57.104
 30
0.0
 11
23.658
 21
57.022
 31
0.0
  0
LINE
  5
13E
  8
0
 10
23.658
 20
57.022
 30
0.0
 11
22.67
 21
56.94
 31
0.0
  0
LINE
  5
13F
  8
0
 10
22.67
 20
56.94
 30
0.0
 11
21.683
 21
56.857
 31
0.0
  0
LINE
  5
140
  8
0
 10
21.683
 20
56.857
 30
0.0
 11
20.777
 21
56.748
 31
0.0
  0
LINE
  5
141
  8
0
 10
20.777
 20
56.748
 30
0.0
 11
19.845
 21
56.61
 31
0.0
  0
LINE
  5
142
  8
0
 10
19.845
 20
56.61
 30
0.0
 11
18.967
 21
56.528
 31
0.0
  0
LINE
  5
143
  8
0
 10
18.967
 20
56.528
 30
0.0
 11
18.089
 21
56.364
 31
0.0
  0
LINE
  5
144
  8
0
 10
18.089
 20
56.364
 30
0.0
 11
17.321
 21
56.199
 31
0.0
  0
LINE
  5
145
  8
0
 10
17.321
 20
56.199
 30
0.0
 11
16.553
 21
56.034
 31
0.0
  0
LINE
  5
146
  8
0
 10
16.553
 20
56.034
 30
0.0
 11
15.84
 21
55.87
 31
0.0
  0
LINE
  5
147
  8
0
 10
15.84
 20
55.87
 30
0.0
 11
15.237
 21
55.705
 31
0.0
  0
LINE
  5
148
  8
0
 10
15.237
 20
55.705
 30
0.0
 11
14.633
 21
55.541
 31
0.0
  0
LINE
  5
149
  8
0
 10
14.633
 20
55.541
 30
0.0
 11
14.085
 21
55.294
 31
0.0
  0
LINE
  5
14A
  8
0
 10
14.085
 20
55.294
 30
0.0
 11
13.591
 21
55.129
 31
0.0
  0
LINE
  5
14B
  8
0
 10
13.591
 20
55.129
 30
0.0
 11
13.207
 21
54.91
 31
0.0
  0
LINE
  5
14C
  8
0
 10
13.207
 20
54.91
 30
0.0
 11
12.823
 21
54.718
 31
0.0
  0
LINE
  5
14D
  8
0
 10
12.823
 20
54.718
 30
0.0
 11
12.549
 21
54.471
 31
0.0
  0
LINE
  5
14E
  8
0
 10
12.549
 20
54.471
 30
0.0
 11
12.329
 21
54.279
 31
0.0
  0
LINE
  5
14F
  8
0
 10
12.329
 20
54.279
 30
0.0
 11
12.165
 21
54.114
 31
0.0
  0
LINE
  5
150
  8
0
 10
12.165
 20
54.114
 30
0.0
 11
12.055
 21
53.895
 31
0.0
  0
LINE
  5
151
  8
0
 10
12.055
 20
53.895
 30
0.0
 11
12.0
 21
53.648
 31
0.0
  0
LINE
  5
152
  8
0
 10
28.897
 20
50.027
 30
0.0
 11
29.994
 21
50.0
 31
0.0
  0
LINE
  5
153
  8
0
 10
29.994
 20
50.0
 30
0.0
 11
31.063
 21
50.027
 31
0.0
  0
LINE
  5
154
  8
0
 10
35.48
 20
57.104
 30
0.0
 11
33.368
 21
57.241
 31
0.0
  0
LINE
  5
155
  8
0
 10
46.369
 20
53.648
 30
0.0
 11
46.342
 21
53.895
 31
0.0
  0
LINE
  5
156
  8
0
 10
46.342
 20
53.895
 30
0.0
 11
46.205
 21
54.114
 31
0.0
  0
LINE
  5
157
  8
0
 10
46.205
 20
54.114
 30
0.0
 11
46.04
 21
54.279
 31
0.0
  0
LINE
  5
158
  8
0
 10
46.04
 20
54.279
 30
0.0
 11
45.766
 21
54.471
 31
0.0
  0
LINE
  5
159
  8
0
 10
45.766
 20
54.471
 30
0.0
 11
45.519
 21
54.718
 31
0.0
  0
LINE
  5
15A
  8
0
 10
45.519
 20
54.718
 30
0.0
 11
45.053
 21
54.91
 31
0.0
  0
LINE
  5
15B
  8
0
 10
45.053
 20
54.91
 30
0.0
 11
44.614
 21
55.102
 31
0.0
  0
LINE
  5
15C
  8
0
 10
44.614
 20
55.102
 30
0.0
 11
44.065
 21
55.294
 31
0.0
  0
LINE
  5
15D
  8
0
 10
44.065
 20
55.294
 30
0.0
 11
43.544
 21
55.458
 31
0.0
  0
LINE
  5
15E
  8
0
 10
43.544
 20
55.458
 30
0.0
 11
42.886
 21
55.623
 31
0.0
  0
LINE
  5
15F
  8
0
 10
42.886
 20
55.623
 30
0.0
 11
42.172
 21
55.788
 31
0.0
  0
LINE
  5
160
  8
0
 10
48.18
 20
53.648
 30
0.0
 11
48.125
 21
53.895
 31
0.0
  0
LINE
  5
161
  8
0
 10
48.125
 20
53.895
 30
0.0
 11
48.07
 21
54.114
 31
0.0
  0
LINE
  5
162
  8
0
 10
48.07
 20
54.114
 30
0.0
 11
47.905
 21
54.279
 31
0.0
  0
LINE
  5
163
  8
0
 10
47.905
 20
54.279
 30
0.0
 11
47.658
 21
54.471
 31
0.0
  0
LINE
  5
164
  8
0
 10
47.658
 20
54.471
 30
0.0
 11
47.357
 21
54.718
 31
0.0
  0
LINE
  5
165
  8
0
 10
47.357
 20
54.718
 30
0.0
 11
47.027
 21
54.91
 31
0.0
  0
LINE
  5
166
  8
0
 10
47.027
 20
54.91
 30
0.0
 11
46.589
 21
55.129
 31
0.0
  0
LINE
  5
167
  8
0
 10
46.589
 20
55.129
 30
0.0
 11
46.095
 21
55.294
 31
0.0
  0
LINE
  5
168
  8
0
 10
46.095
 20
55.294
 30
0.0
 11
45.546
 21
55.541
 31
0.0
  0
LINE
  5
169
  8
0
 10
45.546
 20
55.541
 30
0.0
 11
45.025
 21
55.705
 31
0.0
  0
LINE
  5
16A
  8
0
 10
45.025
 20
55.705
 30
0.0
 11
44.367
 21
55.87
 31
0.0
  0
LINE
  5
16B
  8
0
 10
44.367
 20
55.87
 30
0.0
 11
43.626
 21
56.034
 31
0.0
  0
LINE
  5
16C
  8
0
 10
43.626
 20
56.034
 30
0.0
 11
42.886
 21
56.199
 31
0.0
  0
LINE
  5
16D
  8
0
 10
42.886
 20
56.199
 30
0.0
 11
42.09
 21
56.364
 31
0.0
  0
LINE
  5
16E
  8
0
 10
42.09
 20
56.364
 30
0.0
 11
41.267
 21
56.528
 31
0.0
  0
LINE
  5
16F
  8
0
 10
41.267
 20
56.528
 30
0.0
 11
40.417
 21
56.61
 31
0.0
  0
LINE
  5
170
  8
0
 10
40.417
 20
56.61
 30
0.0
 11
39.457
 21
56.748
 31
0.0
  0
LINE
  5
171
  8
0
 10
39.457
 20
56.748
 30
0.0
 11
38.469
 21
56.857
 31
0.0
  0
LINE
  5
172
  8
0
 10
38.469
 20
56.857
 30
0.0
 11
37.482
 21
56.94
 31
0.0
  0
LINE
  5
173
  8
0
 10
37.482
 20
56.94
 30
0.0
 11
36.495
 21
57.022
 31
0.0
  0
LINE
  5
174
  8
0
 10
36.495
 20
57.022
 30
0.0
 11
35.48
 21
57.104
 31
0.0
  0
LINE
  5
175
  8
0
 10
28.567
 20
85.0
 30
0.0
 11
27.443
 21
84.918
 31
0.0
  0
LINE
  5
176
  8
0
 10
27.443
 20
84.918
 30
0.0
 11
26.373
 21
84.918
 31
0.0
  0
LINE
  5
177
  8
0
 10
26.373
 20
84.918
 30
0.0
 11
25.276
 21
84.863
 31
0.0
  0
LINE
  5
178
  8
0
 10
25.276
 20
84.863
 30
0.0
 11
24.151
 21
84.753
 31
0.0
  0
LINE
  5
179
  8
0
 10
24.151
 20
84.753
 30
0.0
 11
23.136
 21
84.698
 31
0.0
  0
LINE
  5
17A
  8
0
 10
23.136
 20
84.698
 30
0.0
 11
22.149
 21
84.589
 31
0.0
  0
LINE
  5
17B
  8
0
 10
22.149
 20
84.589
 30
0.0
 11
21.162
 21
84.506
 31
0.0
  0
LINE
  5
17C
  8
0
 10
21.162
 20
84.506
 30
0.0
 11
20.174
 21
84.369
 31
0.0
  0
LINE
  5
17D
  8
0
 10
20.174
 20
84.369
 30
0.0
 11
19.296
 21
84.259
 31
0.0
  0
LINE
  5
17E
  8
0
 10
19.296
 20
84.259
 30
0.0
 11
18.419
 21
84.095
 31
0.0
  0
LINE
  5
17F
  8
0
 10
18.419
 20
84.095
 30
0.0
 11
17.596
 21
84.013
 31
0.0
  0
LINE
  5
180
  8
0
 10
17.596
 20
84.013
 30
0.0
 11
16.773
 21
83.848
 31
0.0
  0
LINE
  5
181
  8
0
 10
16.773
 20
83.848
 30
0.0
 11
16.06
 21
83.601
 31
0.0
  0
LINE
  5
182
  8
0
 10
16.06
 20
83.601
 30
0.0
 11
15.346
 21
83.437
 31
0.0
  0
LINE
  5
183
  8
0
 10
15.346
 20
83.437
 30
0.0
 11
14.743
 21
83.272
 31
0.0
  0
LINE
  5
184
  8
0
 10
14.743
 20
83.272
 30
0.0
 11
14.194
 21
83.053
 31
0.0
  0
LINE
  5
185
  8
0
 10
14.194
 20
83.053
 30
0.0
 11
13.701
 21
82.888
 31
0.0
  0
LINE
  5
186
  8
0
 10
13.701
 20
82.888
 30
0.0
 11
13.262
 21
82.696
 31
0.0
  0
LINE
  5
187
  8
0
 10
13.262
 20
82.696
 30
0.0
 11
12.878
 21
82.449
 31
0.0
  0
LINE
  5
188
  8
0
 10
12.878
 20
82.449
 30
0.0
 11
12.549
 21
82.23
 31
0.0
  0
LINE
  5
189
  8
0
 10
12.549
 20
82.23
 30
0.0
 11
12.329
 21
82.038
 31
0.0
  0
LINE
  5
18A
  8
0
 10
12.329
 20
82.038
 30
0.0
 11
12.165
 21
81.791
 31
0.0
  0
LINE
  5
18B
  8
0
 10
12.165
 20
81.791
 30
0.0
 11
12.055
 21
81.571
 31
0.0
  0
LINE
  5
18C
  8
0
 10
12.055
 20
81.571
 30
0.0
 11
12.0
 21
81.379
 31
0.0
  0
LINE
  5
18D
  8
0
 10
42.172
 20
55.788
 30
0.0
 11
40.609
 21
56.117
 31
0.0
  0
LINE
  5
18E
  8
0
 10
40.609
 20
56.117
 30
0.0
 11
39.759
 21
56.281
 31
0.0
  0
LINE
  5
18F
  8
0
 10
39.759
 20
56.281
 30
0.0
 11
38.881
 21
56.419
 31
0.0
  0
LINE
  5
190
  8
0
 10
38.881
 20
56.419
 30
0.0
 11
37.948
 21
56.528
 31
0.0
  0
LINE
  5
191
  8
0
 10
37.948
 20
56.528
 30
0.0
 11
36.961
 21
56.583
 31
0.0
  0
LINE
  5
192
  8
0
 10
36.961
 20
56.583
 30
0.0
 11
35.973
 21
56.693
 31
0.0
  0
LINE
  5
193
  8
0
 10
35.973
 20
56.693
 30
0.0
 11
34.931
 21
56.748
 31
0.0
  0
LINE
  5
194
  8
0
 10
34.931
 20
56.748
 30
0.0
 11
33.861
 21
56.775
 31
0.0
  0
LINE
  5
195
  8
0
 10
33.861
 20
56.775
 30
0.0
 11
32.792
 21
56.857
 31
0.0
  0
LINE
  5
196
  8
0
 10
32.792
 20
56.857
 30
0.0
 11
31.722
 21
56.885
 31
0.0
  0
LINE
  5
197
  8
0
 10
14.414
 20
54.471
 30
0.0
 11
14.743
 21
54.279
 31
0.0
  0
LINE
  5
198
  8
0
 10
14.743
 20
54.279
 30
0.0
 11
15.127
 21
54.114
 31
0.0
  0
LINE
  5
199
  8
0
 10
15.127
 20
54.114
 30
0.0
 11
15.621
 21
53.895
 31
0.0
  0
LINE
  5
19A
  8
0
 10
15.621
 20
53.895
 30
0.0
 11
16.169
 21
53.648
 31
0.0
  0
LINE
  5
19B
  8
0
 10
16.169
 20
53.648
 30
0.0
 11
16.773
 21
53.483
 31
0.0
  0
LINE
  5
19C
  8
0
 10
16.773
 20
53.483
 30
0.0
 11
17.431
 21
53.319
 31
0.0
  0
LINE
  5
19D
  8
0
 10
17.431
 20
53.319
 30
0.0
 11
18.199
 21
53.154
 31
0.0
  0
LINE
  5
19E
  8
0
 10
18.199
 20
53.154
 30
0.0
 11
18.967
 21
52.99
 31
0.0
  0
LINE
  5
19F
  8
0
 10
18.967
 20
52.99
 30
0.0
 11
19.79
 21
52.825
 31
0.0
  0
LINE
  5
1A0
  8
0
 10
19.79
 20
52.825
 30
0.0
 11
20.668
 21
52.661
 31
0.0
  0
LINE
  5
1A1
  8
0
 10
20.668
 20
52.661
 30
0.0
 11
21.6
 21
52.578
 31
0.0
  0
LINE
  5
1A2
  8
0
 10
21.6
 20
52.578
 30
0.0
 11
22.588
 21
52.469
 31
0.0
  0
LINE
  5
1A3
  8
0
 10
22.588
 20
52.469
 30
0.0
 11
23.575
 21
52.414
 31
0.0
  0
LINE
  5
1A4
  8
0
 10
23.575
 20
52.414
 30
0.0
 11
24.618
 21
52.304
 31
0.0
  0
LINE
  5
1A5
  8
0
 10
24.618
 20
52.304
 30
0.0
 11
25.715
 21
52.249
 31
0.0
  0
LINE
  5
1A6
  8
0
 10
25.715
 20
52.249
 30
0.0
 11
26.757
 21
52.167
 31
0.0
  0
LINE
  5
1A7
  8
0
 10
26.757
 20
52.167
 30
0.0
 11
27.909
 21
52.14
 31
0.0
  0
LINE
  5
1A8
  8
0
 10
12.494
 20
52.825
 30
0.0
 11
12.768
 21
52.633
 31
0.0
  0
LINE
  5
1A9
  8
0
 10
12.768
 20
52.633
 30
0.0
 11
13.097
 21
52.414
 31
0.0
  0
LINE
  5
1AA
  8
0
 10
13.097
 20
52.414
 30
0.0
 11
13.536
 21
52.167
 31
0.0
  0
LINE
  5
1AB
  8
0
 10
13.536
 20
52.167
 30
0.0
 11
13.975
 21
51.975
 31
0.0
  0
LINE
  5
1AC
  8
0
 10
13.975
 20
51.975
 30
0.0
 11
14.523
 21
51.81
 31
0.0
  0
LINE
  5
1AD
  8
0
 10
14.523
 20
51.81
 30
0.0
 11
15.072
 21
51.646
 31
0.0
  0
LINE
  5
1AE
  8
0
 10
15.072
 20
51.646
 30
0.0
 11
15.73
 21
51.426
 31
0.0
  0
LINE
  5
1AF
  8
0
 10
15.73
 20
51.426
 30
0.0
 11
16.444
 21
51.262
 31
0.0
  0
LINE
  5
1B0
  8
0
 10
16.444
 20
51.262
 30
0.0
 11
17.157
 21
51.097
 31
0.0
  0
LINE
  5
1B1
  8
0
 10
17.157
 20
51.097
 30
0.0
 11
17.98
 21
50.987
 31
0.0
  0
LINE
  5
1B2
  8
0
 10
17.98
 20
50.987
 30
0.0
 11
18.802
 21
50.823
 31
0.0
  0
LINE
  5
1B3
  8
0
 10
18.802
 20
50.823
 30
0.0
 11
19.68
 21
50.686
 31
0.0
  0
LINE
  5
1B4
  8
0
 10
19.68
 20
50.686
 30
0.0
 11
20.531
 21
50.521
 31
0.0
  0
LINE
  5
1B5
  8
0
 10
20.531
 20
50.521
 30
0.0
 11
21.518
 21
50.439
 31
0.0
  0
LINE
  5
1B6
  8
0
 10
21.518
 20
50.439
 30
0.0
 11
22.505
 21
50.329
 31
0.0
  0
LINE
  5
1B7
  8
0
 10
22.505
 20
50.329
 30
0.0
 11
23.493
 21
50.274
 31
0.0
  0
LINE
  5
1B8
  8
0
 10
23.493
 20
50.274
 30
0.0
 11
24.563
 21
50.192
 31
0.0
  0
LINE
  5
1B9
  8
0
 10
24.563
 20
50.192
 30
0.0
 11
25.605
 21
50.11
 31
0.0
  0
LINE
  5
1BA
  8
0
 10
25.605
 20
50.11
 30
0.0
 11
26.702
 21
50.11
 31
0.0
  0
LINE
  5
1BB
  8
0
 10
26.702
 20
50.11
 30
0.0
 11
27.772
 21
50.027
 31
0.0
  0
LINE
  5
1BC
  8
0
 10
12.11
 20
53.237
 30
0.0
 11
12.274
 21
53.072
 31
0.0
  0
LINE
  5
1BD
  8
0
 10
12.274
 20
53.072
 30
0.0
 11
12.549
 21
52.77
 31
0.0
  0
LINE
  5
1BE
  8
0
 10
12.549
 20
52.77
 30
0.0
 11
12.823
 21
52.578
 31
0.0
  0
LINE
  5
1BF
  8
0
 10
12.823
 20
52.578
 30
0.0
 11
13.207
 21
52.331
 31
0.0
  0
LINE
  5
1C0
  8
0
 10
13.207
 20
52.331
 30
0.0
 11
13.591
 21
52.14
 31
0.0
  0
LINE
  5
1C1
  8
0
 10
13.591
 20
52.14
 30
0.0
 11
14.085
 21
51.975
 31
0.0
  0
LINE
  5
1C2
  8
0
 10
14.085
 20
51.975
 30
0.0
 11
14.633
 21
51.755
 31
0.0
  0
LINE
  5
1C3
  8
0
 10
14.633
 20
51.755
 30
0.0
 11
15.237
 21
51.591
 31
0.0
  0
LINE
  5
1C4
  8
0
 10
15.237
 20
51.591
 30
0.0
 11
15.84
 21
51.426
 31
0.0
  0
LINE
  5
1C5
  8
0
 10
15.84
 20
51.426
 30
0.0
 11
16.553
 21
51.262
 31
0.0
  0
LINE
  5
1C6
  8
0
 10
16.553
 20
51.262
 30
0.0
 11
17.321
 21
51.097
 31
0.0
  0
LINE
  5
1C7
  8
0
 10
17.321
 20
51.097
 30
0.0
 11
18.089
 21
50.933
 31
0.0
  0
LINE
  5
1C8
  8
0
 10
18.089
 20
50.933
 30
0.0
 11
18.967
 21
50.768
 31
0.0
  0
LINE
  5
1C9
  8
0
 10
18.967
 20
50.768
 30
0.0
 11
19.845
 21
50.658
 31
0.0
  0
LINE
  5
1CA
  8
0
 10
19.845
 20
50.658
 30
0.0
 11
20.777
 21
50.521
 31
0.0
  0
LINE
  5
1CB
  8
0
 10
20.777
 20
50.521
 30
0.0
 11
21.683
 21
50.439
 31
0.0
  0
LINE
  5
1CC
  8
0
 10
21.683
 20
50.439
 30
0.0
 11
22.67
 21
50.329
 31
0.0
  0
LINE
  5
1CD
  8
0
 10
22.67
 20
50.329
 30
0.0
 11
23.658
 21
50.274
 31
0.0
  0
LINE
  5
1CE
  8
0
 10
23.658
 20
50.274
 30
0.0
 11
24.727
 21
50.165
 31
0.0
  0
LINE
  5
1CF
  8
0
 10
24.727
 20
50.165
 30
0.0
 11
25.77
 21
50.11
 31
0.0
  0
LINE
  5
1D0
  8
0
 10
25.77
 20
50.11
 30
0.0
 11
26.867
 21
50.027
 31
0.0
  0
LINE
  5
1D1
  8
0
 10
48.18
 20
81.379
 30
0.0
 11
48.125
 21
81.571
 31
0.0
  0
LINE
  5
1D2
  8
0
 10
48.125
 20
81.571
 30
0.0
 11
48.015
 21
81.791
 31
0.0
  0
LINE
  5
1D3
  8
0
 10
48.015
 20
81.791
 30
0.0
 11
47.85
 21
82.038
 31
0.0
  0
LINE
  5
1D4
  8
0
 10
47.85
 20
82.038
 30
0.0
 11
47.658
 21
82.23
 31
0.0
  0
LINE
  5
1D5
  8
0
 10
47.658
 20
82.23
 30
0.0
 11
47.329
 21
82.449
 31
0.0
  0
LINE
  5
1D6
  8
0
 10
47.329
 20
82.449
 30
0.0
 11
46.973
 21
82.696
 31
0.0
  0
LINE
  5
1D7
  8
0
 10
46.973
 20
82.696
 30
0.0
 11
46.534
 21
82.888
 31
0.0
  0
LINE
  5
1D8
  8
0
 10
46.534
 20
82.888
 30
0.0
 11
45.985
 21
83.053
 31
0.0
  0
LINE
  5
1D9
  8
0
 10
45.985
 20
83.053
 30
0.0
 11
45.437
 21
83.272
 31
0.0
  0
LINE
  5
1DA
  8
0
 10
45.437
 20
83.272
 30
0.0
 11
44.833
 21
83.437
 31
0.0
  0
LINE
  5
1DB
  8
0
 10
44.833
 20
83.437
 30
0.0
 11
44.12
 21
83.601
 31
0.0
  0
LINE
  5
1DC
  8
0
 10
44.12
 20
83.601
 30
0.0
 11
43.407
 21
83.848
 31
0.0
  0
LINE
  5
1DD
  8
0
 10
43.407
 20
83.848
 30
0.0
 11
42.666
 21
84.013
 31
0.0
  0
LINE
  5
1DE
  8
0
 10
42.666
 20
84.013
 30
0.0
 11
41.843
 21
84.095
 31
0.0
  0
LINE
  5
1DF
  8
0
 10
41.843
 20
84.095
 30
0.0
 11
40.938
 21
84.259
 31
0.0
  0
LINE
  5
1E0
  8
0
 10
40.938
 20
84.259
 30
0.0
 11
40.033
 21
84.369
 31
0.0
  0
LINE
  5
1E1
  8
0
 10
40.033
 20
84.369
 30
0.0
 11
39.1
 21
84.506
 31
0.0
  0
LINE
  5
1E2
  8
0
 10
39.1
 20
84.506
 30
0.0
 11
38.113
 21
84.589
 31
0.0
  0
LINE
  5
1E3
  8
0
 10
38.113
 20
84.589
 30
0.0
 11
37.071
 21
84.698
 31
0.0
  0
LINE
  5
1E4
  8
0
 10
37.071
 20
84.698
 30
0.0
 11
36.001
 21
84.753
 31
0.0
  0
LINE
  5
1E5
  8
0
 10
36.001
 20
84.753
 30
0.0
 11
34.931
 21
84.863
 31
0.0
  0
LINE
  5
1E6
  8
0
 10
34.931
 20
84.863
 30
0.0
 11
33.861
 21
84.918
 31
0.0
  0
LINE
  5
1E7
  8
0
 10
33.861
 20
84.918
 30
0.0
 11
32.792
 21
84.918
 31
0.0
  0
LINE
  5
1E8
  8
0
 10
32.792
 20
84.918
 30
0.0
 11
31.64
 21
85.0
 31
0.0
  0
LINE
  5
1E9
  8
0
 10
31.64
 20
85.0
 30
0.0
 11
28.567
 21
85.0
 31
0.0
  0
TEXT
  5
1EA
  8
0
 10
0.0
 20
95.0
 30
0.0
 40
3.0
  1
LEDｸﾗｽ200 ｼｰﾘﾝｸﾞ
 11
0.0
 21
95.0
 31
0.0
  0
TEXT
  5
1EB
  8
0
 10
0.0
 20
10.0
 30
0.0
 40
3.0
  1
三菱 EL-C2010AL/W AHN
 11
0.0
 21
10.0
 31
0.0
  0
TEXT
  5
1EC
  8
0
 10
50.0
 20
35.0
 30
0.0
 40
1.5
  1
シーリング 電球色(3000K)　Ra83
 11
50.0
 21
35.0
 31
0.0
  0
TEXT
  5
1ED
  8
0
 10
50.0
 20
32.0
 30
0.0
 40
1.5
  1
100V～242V共用タイプ
 11
50.0
 21
32.0
 31
0.0
  0
TEXT
  5
1EE
  8
0
 10
50.0
 20
29.0
 30
0.0
 40
1.5
  1
本体：アルミ 白色半ツヤ粉体塗装仕上
 11
50.0
 21
29.0
 31
0.0
  0
TEXT
  5
1EF
  8
0
 10
50.0
 20
26.0
 30
0.0
 40
1.5
  1
光源寿命：40,000時間(光束維持率85％)
 11
50.0
 21
26.0
 31
0.0
  0
TEXT
  5
1F0
  8
0
 10
50.0
 20
23.0
 30
0.0
 40
1.5
  1
光束：1820lm 消費電力：13.7W 消費効率：132.8lm/W
 11
50.0
 21
23.0
 31
0.0
  0
VIEWPORT
  5
76
 67
1
  8
0
 10
128.5
 20
97.5
 30
0.0
 40
314.226
 41
222.18
 68
1
 69
1
1001
ACAD
1000
MVIEW
1002
{
1070
16
1010
0.0
1020
0.0
1030
0.0
1010
0.0
1020
0.0
1030
0.0
1040
0
1040
1
1040
0.0
1040
0.0
1040
50
1040
0
1040
0
1070
0
1070
100
1070
0
1070
0
1070
0
1070
0
1070
0
1070
0
1040
0
1040
0.0
1040
0.0
1040
10.0
1040
10.0
1040
10.0
1040
10.0
1070
0
1002
{
1002
}
1002
}
  0
ENDSEC
  0
EOF
