  0
SECTION
  2
HEADER
  9
$ACADVER
  1
AC1009
  9
$DWGCODEPAGE
  3
dos932
  9
$INSBASE
 10
0
 20
0
 30
0
  9
$EXTMIN
 10
1.8977353621758817
 20
-8.0953276713580884
 30
0
  9
$EXTMAX
 10
113.0940021185715
 20
83.01790571827155
 30
0
  9
$LIMMIN
 10
0
 20
0
  9
$LIMMAX
 10
105.125
 20
74.25
  9
$SNAPMODE
 70
0
  9
$SNAPUNIT
 10
1
 20
1
  9
$SNAPBASE
 10
0
 20
0
  9
$SNAPANG
 50
0
  9
$SNAPSTYLE
 70
0
  9
$SNAPISOPAIR
 70
0
  9
$ORTHOMODE
 70
0
  9
$REGENMODE
 70
1
  9
$FILLMODE
 70
1
  9
$QTEXTMODE
 70
0
  9
$MIRRTEXT
 70
0
  9
$LTSCALE
 40
0.125
  9
$OSMODE
 70
37
  9
$ATTMODE
 70
1
  9
$TEXTSIZE
 40
0.2
  9
$TRACEWID
 40
0.05
  9
$TEXTSTYLE
  7
STANDARD
  9
$CLAYER
  8
0
  9
$CELTYPE
  6
CONTINUOUS
  9
$CECOLOR
 62
256
  9
$DIMSCALE
 40
1
  9
$DIMASZ
 40
0.18
  9
$DIMEXO
 40
0.0625
  9
$DIMDLI
 40
0.38
  9
$DIMRND
 40
0
  9
$DIMDLE
 40
0
  9
$DIMEXE
 40
0.18
  9
$DIMTP
 40
0
  9
$DIMTM
 40
0
  9
$DIMTXT
 40
0.18
  9
$DIMCEN
 40
0.09
  9
$DIMTSZ
 40
0
  9
$DIMTOL
 70
0
  9
$DIMLIM
 70
0
  9
$DIMTIH
 70
1
  9
$DIMTOH
 70
1
  9
$DIMSE1
 70
0
  9
$DIMSE2
 70
0
  9
$DIMTAD
 70
0
  9
$DIMZIN
 70
0
  9
$DIMBLK
  1

  9
$DIMASO
 70
1
  9
$DIMSHO
 70
1
  9
$DIMPOST
  1

  9
$DIMAPOST
  1

  9
$DIMALT
 70
0
  9
$DIMALTD
 70
2
  9
$DIMALTF
 40
25.4
  9
$DIMLFAC
 40
1
  9
$DIMTOFL
 70
0
  9
$DIMTVP
 40
0
  9
$DIMTIX
 70
0
  9
$DIMSOXD
 70
0
  9
$DIMSAH
 70
0
  9
$DIMBLK1
  1

  9
$DIMBLK2
  1

  9
$DIMSTYLE
  2
STANDARD
  9
$DIMCLRD
 70
0
  9
$DIMCLRE
 70
0
  9
$DIMCLRT
 70
0
  9
$DIMTFAC
 40
1
  9
$DIMGAP
 40
0.09
  9
$LUNITS
 70
2
  9
$LUPREC
 70
4
  9
$SKETCHINC
 40
0.1
  9
$FILLETRAD
 40
0
  9
$AUNITS
 70
0
  9
$AUPREC
 70
0
  9
$MENU
  1
.
  9
$ELEVATION
 40
0
  9
$PELEVATION
 40
0
  9
$THICKNESS
 40
0
  9
$LIMCHECK
 70
0
  9
$CHAMFERA
 40
0
  9
$CHAMFERB
 40
0
  9
$SKPOLY
 70
0
  9
$TDCREATE
 40
2456622.5502427896
  9
$TDUPDATE
 40
2456622.5517150695
  9
$TDINDWG
 40
0.001473136574074074
  9
$TDUSRTIMER
 40
0.001473136574074074
  9
$USRTIMER
 70
1
  9
$ANGBASE
 50
0
  9
$ANGDIR
 70
0
  9
$PDMODE
 70
0
  9
$PDSIZE
 40
0
  9
$PLINEWID
 40
0
  9
$SPLFRAME
 70
0
  9
$SPLINETYPE
 70
6
  9
$SPLINESEGS
 70
8
  9
$HANDLING
 70
1
  9
$HANDSEED
  5
27F
  9
$SURFTAB1
 70
6
  9
$SURFTAB2
 70
6
  9
$SURFTYPE
 70
6
  9
$SURFU
 70
6
  9
$SURFV
 70
6
  9
$UCSORG
 10
0
 20
0
 30
0
  9
$UCSXDIR
 10
1
 20
0
 30
0
  9
$UCSYDIR
 10
0
 20
1
 30
0
  9
$PUCSORG
 10
0
 20
0
 30
0
  9
$PUCSXDIR
 10
1
 20
0
 30
0
  9
$PUCSYDIR
 10
0
 20
1
 30
0
  9
$USERI1
 70
0
  9
$USERI2
 70
0
  9
$USERI3
 70
0
  9
$USERI4
 70
0
  9
$USERI5
 70
0
  9
$USERR1
 40
0
  9
$USERR2
 40
0
  9
$USERR3
 40
0
  9
$USERR4
 40
0
  9
$USERR5
 40
0
  9
$WORLDVIEW
 70
1
  9
$SHADEDGE
 70
3
  9
$SHADEDIF
 70
70
  9
$TILEMODE
 70
1
  9
$MAXACTVP
 70
64
  9
$PINSBASE
 10
0
 20
0
 30
0
  9
$PLIMCHECK
 70
0
  9
$PEXTMIN
 10
1E+20
 20
1E+20
 30
1E+20
  9
$PEXTMAX
 10
-1E+20
 20
-1E+20
 30
-1E+20
  9
$PLIMMAX
 10
12
 20
9
  9
$PLIMMIN
 10
0
 20
0
  9
$UNITMODE
 70
0
  9
$VISRETAIN
 70
1
  9
$PLINEGEN
 70
0
  9
$PSLTSCALE
 70
1
  9
$TREEDEPTH
 70
3020
  9
$DRAGMODE
 70
     2
  9
$BLIPMODE
 70
     0
  9
$COORDS
 70
     1
  9
$ATTDIA
 70
     0
  9
$ATTREQ
 70
     1
  0
ENDSEC
  0
SECTION
  2
TABLES
  0
TABLE
  2
VPORT
  5
271
 70
1
  0
VPORT
  5
245
  2
*ACTIVE
 70
0
 10
0
 20
0
 11
1
 21
1
 12
85.6241275450054
 22
6.6632149890409664
 13
0
 23
0
 14
1
 24
1
 15
0
 25
0
 16
0
 26
0
 36
1
 17
0
 27
0
 37
0
 40
229.05243923717649
 41
1.7893639207507821
 42
50
 43
0
 44
0
 50
0
 51
0
 71
0
 72
100
 73
1
 74
1
 75
0
 76
0
 77
0
 78
0
  0
ENDTAB
  0
TABLE
  2
LTYPE
  5
272
 70
40
  0
LTYPE
  5
21B
  2
CONTINUOUS
  3
実線
 70
0
 72
65
 73
0
 40
0
  0
LTYPE
  5
21C
  2
DASHED1
  3
--  --  --  --  --  --  --  --  
 70
0
 72
65
 73
2
 40
2.5
 49
1.25
 49
-1.25
  0
LTYPE
  5
21D
  2
DASHED2
  3
----    ----    ----    ----    
 70
0
 72
65
 73
2
 40
5
 49
2.5
 49
-2.5
  0
LTYPE
  5
21E
  2
DASHED3
  3
------  ------  ------  ------  
 70
0
 72
65
 73
2
 40
5
 49
3.75
 49
-1.25
  0
LTYPE
  5
21F
  2
CENTER1
  3
----- - ----- - ----- - ----- - 
 70
0
 72
65
 73
4
 40
10
 49
6.25
 49
-1.25
 49
1.25
 49
-1.25
  0
LTYPE
  5
220
  2
CENTER2
  3
----------  --  ----------  --  
 70
0
 72
65
 73
4
 40
20
 49
12.5
 49
-2.5
 49
2.5
 49
-2.5
  0
LTYPE
  5
221
  2
PHANTOM1
  3
--- - - --- - - --- - - --- - - 
 70
0
 72
65
 73
6
 40
9.5
 49
3.25
 49
-1.25
 49
1.25
 49
-1.25
 49
1.25
 49
-1.25
  0
LTYPE
  5
222
  2
PHANTOM2
  3
--------  -  -  --------  -  -  
 70
0
 72
65
 73
6
 40
20
 49
10
 49
-2.5
 49
1.25
 49
-2.5
 49
1.25
 49
-2.5
  0
LTYPE
  5
223
  2
DOT
  3
-   -   -   -   -   -   -   -   
 70
0
 72
65
 73
2
 40
2.5
 49
0.625
 49
-1.875
  0
LTYPE
  5
224
  2
DUMMY
  3
ダミー
 70
0
 72
65
 73
0
 40
0
  0
LTYPE
  5
225
  2
RAND1
  3
ランダム線1
 70
0
 72
65
 73
4
 40
10
 49
1
 49
-2
 49
3
 49
-4
  0
LTYPE
  5
226
  2
RAND2
  3
ランダム線2
 70
0
 72
65
 73
4
 40
14
 49
2
 49
-3
 49
4
 49
-5
  0
LTYPE
  5
227
  2
RAND3
  3
ランダム線3
 70
0
 72
65
 73
4
 40
18
 49
3
 49
-4
 49
5
 49
-6
  0
LTYPE
  5
228
  2
RAND4
  3
ランダム線4
 70
0
 72
65
 73
4
 40
22
 49
4
 49
-5
 49
6
 49
-7
  0
LTYPE
  5
229
  2
RAND5
  3
ランダム線5
 70
0
 72
65
 73
4
 40
26
 49
5
 49
-6
 49
7
 49
-8
  0
LTYPE
  5
22A
  2
LONG1
  3
----------  --  ----------  --  
 70
0
 72
65
 73
4
 40
40
 49
32.5
 49
-2.5
 49
2.5
 49
-2.5
  0
LTYPE
  5
22B
  2
LONG2
  3
--------  -  -  --------  -  -  
 70
0
 72
65
 73
6
 40
40
 49
30
 49
-2.5
 49
1.25
 49
-2.5
 49
1.25
 49
-2.5
  0
LTYPE
  5
22C
  2
LONG3
  3
+++++++++++++++..+++++++++++++++
 70
0
 72
65
 73
2
 40
40
 49
37.5
 49
-2.5
  0
LTYPE
  5
22D
  2
LONG4
  3
+++++++++++++++..+++++++++++++++
 70
0
 72
65
 73
2
 40
80
 49
75
 49
-5
  0
LTYPE
  5
22E
  2
LONG5
  3
----------  --  ----------  --  
 70
0
 72
65
 73
4
 40
60
 49
37.5
 49
-7.5
 49
7.5
 49
-7.5
  0
LTYPE
  5
22F
  2
DASHED
  3
-------   -------------   ------
 70
0
 72
65
 73
2
 40
3.8
 49
3
 49
-0.8
  0
LTYPE
  5
230
  2
DASHED_SPACED
  3
----        --------        ----
 70
0
 72
65
 73
2
 40
12
 49
6
 49
-6
  0
LTYPE
  5
231
  2
LONG_DASHED_DOTTED
  3
------------- --- --------------
 70
0
 72
65
 73
4
 40
15.25
 49
12
 49
-1.5
 49
0.25
 49
-1.5
  0
LTYPE
  5
232
  2
LONG_DASHED_DOUBLE-DOTTED
  3
----------- --- --- ------------
 70
0
 72
65
 73
6
 40
17
 49
12
 49
-1.5
 49
0.25
 49
-1.5
 49
0.25
 49
-1.5
  0
LTYPE
  5
233
  2
LONG_DASHED_TRIPLICATE-DOT
  3
--------- --- --- --- ----------
 70
0
 72
65
 73
8
 40
18.75
 49
12
 49
-1.5
 49
0.25
 49
-1.5
 49
0.25
 49
-1.5
 49
0.25
 49
-1.5
  0
LTYPE
  5
234
  2
DOTTED
  3
   -       -       -       -    
 70
0
 72
65
 73
2
 40
1.75
 49
0.25
 49
-1.5
  0
LTYPE
  5
235
  2
CHAIN
  3
-------------- -- --------------
 70
0
 72
65
 73
4
 40
18.5
 49
12
 49
-1.5
 49
3.5
 49
-1.5
  0
LTYPE
  5
236
  2
CHAIN_DOUBLE_DASH
  3
------------ -- -- -------------
 70
0
 72
65
 73
6
 40
23.5
 49
12
 49
-1.5
 49
3.5
 49
-1.5
 49
3.5
 49
-1.5
  0
LTYPE
  5
237
  2
DASHED_DOTTED
  3
-----------     -     ----------
 70
0
 72
65
 73
4
 40
9.25
 49
6
 49
-1.5
 49
0.25
 49
-1.5
  0
LTYPE
  5
238
  2
DOUBLE-DASHED_DOTTED
  3
------   -----------   -   -----
 70
0
 72
65
 73
6
 40
16.75
 49
6
 49
-1.5
 49
6
 49
-1.5
 49
0.25
 49
-1.5
  0
LTYPE
  5
239
  2
DASHED_DOUBLE-DOTTED
  3
---------    -    -    ---------
 70
0
 72
65
 73
6
 40
11
 49
6
 49
-1.5
 49
0.25
 49
-1.5
 49
0.25
 49
-1.5
  0
LTYPE
  5
23A
  2
DOUBLE-DASHED_DOUBLE-DOTTE
  3
-----   ---------   -   -   ----
 70
0
 72
65
 73
8
 40
18.5
 49
6
 49
-1.5
 49
6
 49
-1.5
 49
0.25
 49
-1.5
 49
0.25
 49
-1.5
  0
LTYPE
  5
23B
  2
DASHED_TRIPLICATE-DOTTED
  3
-------    -    -    -    ------
 70
0
 72
65
 73
8
 40
12.75
 49
6
 49
-1.5
 49
0.25
 49
-1.5
 49
0.25
 49
-1.5
 49
0.25
 49
-1.5
  0
LTYPE
  5
23C
  2
DOUBLE-DASHED_TRIPLICATE-D
  3
-----  ---------  -  -  -  -----
 70
0
 72
65
 73
10
 40
20.25
 49
6
 49
-1.5
 49
6
 49
-1.5
 49
0.25
 49
-1.5
 49
0.25
 49
-1.5
 49
0.25
 49
-1.5
  0
LTYPE
  5
23D
  2
UNDEFINED
  3
--------------------------------
 70
0
 72
65
 73
0
 40
0
  0
LTYPE
  5
23E
  2
DOT_18
  3
----        --------        ----
 70
0
 72
65
 73
2
 40
2
 49
1
 49
-1
  0
LTYPE
  5
23F
  2
DASHDOT
  3
------------   --   ------------
 70
0
 72
65
 73
4
 40
25.6
 49
20
 49
-2
 49
1.6
 49
-2
  0
LTYPE
  5
240
  2
DIVIDE
  3
-----------  --  --  -----------
 70
0
 72
65
 73
6
 40
31.199999999999996
 49
20
 49
-2.399999999999999
 49
2
 49
-2.399999999999999
 49
2
 49
-2.399999999999999
  0
LTYPE
  5
241
  2
ByBlock
  3

 70
64
 72
65
 73
0
 40
0
  0
LTYPE
  5
242
  2
ByLayer
  3

 70
64
 72
65
 73
0
 40
0
  0
ENDTAB
  0
TABLE
  2
LAYER
  5
273
 70
2
  0
LAYER
  5
205
 70
0
  2
0
 62
7
  6
CONTINUOUS
  0
LAYER
  5
206
 70
0
  2
SPEC
 62
7
  6
CONTINUOUS
  0
ENDTAB
  0
TABLE
  2
STYLE
  5
274
 70
3
  0
STYLE
  5
218
  2
STANDARD
 70
0
 40
0
 41
1
 50
0
 71
0
 42
0.2
  3
txt.shx
  4
extfont2.shx
  0
STYLE
  5
219
  2
ANNOTATIVE
 70
0
 40
0
 41
1
 50
0
 71
0
 42
0.2
  3
txt
  0
STYLE
  5
21A
  2
TATEGAKI
 70
4
 40
0
 41
1
 50
0
 71
0
 42
1
  3
txt
  4
bigfont.shx
  0
ENDTAB
  0
TABLE
  2
APPID
  5
277
 70
4
  0
APPID
  5
278
  2
ACAD
 70
0
  0
APPID
  5
27B
  2
ACADANNOTATIVE
 70
0
  0
APPID
  5
27C
  2
ACAD_MLEADERVER
 70
0
  0
APPID
  5
27D
  2
ACAD_EXEMPT_FROM_CAD_STANDARDS
 70
0
  0
ENDTAB
  0
TABLE
  2
DIMSTYLE
  5
279
 70
2
  0
DIMSTYLE
105
243
  2
STANDARD
 70
0
  3

  4

  5

  6

  7

 40
1
 41
0.18
 42
0.0625
 43
0.38
 44
0.18
 45
0
 46
0
 47
0
 48
0
140
0.18
141
0.09
142
0
143
25.4
144
1
145
0
146
1
147
0.09
 71
0
 72
0
 73
1
 74
1
 75
0
 76
0
 77
0
 78
0
170
0
171
2
172
0
173
0
174
0
175
0
176
0
177
0
178
0
  0
DIMSTYLE
105
244
  2
ANNOTATIVE
 70
0
  3

  4

  5

  6

  7

 40
1
 41
0.18
 42
0.0625
 43
0.38
 44
0.18
 45
0
 46
0
 47
0
 48
0
140
0.18
141
0.09
142
0
143
25.4
144
1
145
0
146
1
147
0.09
 71
0
 72
0
 73
1
 74
1
 75
0
 76
0
 77
0
 78
0
170
0
171
2
172
0
173
0
174
0
175
0
176
0
177
0
178
0
  0
ENDTAB
  0
ENDSEC
  0
SECTION
  2
BLOCKS
  0
BLOCK
  5
208
  8
0
  2
$MODEL_SPACE
 70
0
 10
0
 20
0
 30
0
  3
$MODEL_SPACE
  0
ENDBLK
  5
76
  8
0
  0
BLOCK
  5
20A
  8
0
 67
1
  2
$PAPER_SPACE
 70
0
 10
0
 20
0
 30
0
  3
$PAPER_SPACE
  0
ENDBLK
  5
72
  8
0
  0
BLOCK
  5
20C
  8
0
  2
SPECEL-CE1700C
 70
64
 10
0
 20
0
 30
0
  3
SPECEL-CE1700C
  0
TEXT
  5
20D
  8
SPEC
 10
0
 20
0
 30
0
 40
1.5
  1
口金:E17
  7
STANDARD
  0
TEXT
  5
20E
  8
SPEC
 10
0
 20
-3
 30
0
 40
1.5
  1
本体:ﾌﾟﾗｽﾁｯｸ 白色仕上
  7
STANDARD
  0
ENDBLK
  5
20F
  8
0
  0
BLOCK
  5
211
  8
0
  2
*MODEL_SPACE
 70
64
 10
0
 20
0
 30
0
  3
*MODEL_SPACE
  0
ENDBLK
  5
214
  8
0
  0
BLOCK
  5
216
  8
0
 67
1
  2
*PAPER_SPACE
 70
64
 10
0
 20
0
 30
0
  3
*PAPER_SPACE
  0
ENDBLK
  5
217
  8
0
  0
ENDSEC
  0
SECTION
  2
ENTITIES
  0
TEXT
  5
A3
  8
0
 62
7
 10
1.2974626033994019
 20
-7.3750000000000142
 30
0
 40
5
  1
三菱　ＥＬ－ＣＥ１７００Ｃ
  7
STANDARD
  0
TEXT
  5
A4
  8
0
 62
7
 10
1.2974626033994019
 20
76.624999999999986
 30
0
 40
5
  1
ＬＥＤ６Ｗ×１　小型シーリング
  7
STANDARD
  0
LINE
  5
A5
  8
0
  6
CONTINUOUS
 62
7
 10
56.811431238512313
 20
49.366032341861057
 30
0
 11
56.768712054495211
 21
49.535703294509588
 31
0
  0
LINE
  5
A6
  8
0
  6
CONTINUOUS
 62
7
 10
56.768712054495211
 20
49.535703294509588
 30
0
 11
56.684651724655112
 21
49.747576666852467
 31
0
  0
LINE
  5
A7
  8
0
  6
CONTINUOUS
 62
7
 10
56.684651724655112
 20
49.747576666852467
 30
0
 11
56.515153026780851
 21
49.917247619500991
 31
0
  0
LINE
  5
A8
  8
0
  6
CONTINUOUS
 62
7
 10
56.515153026780851
 20
49.917247619500991
 30
0
 11
56.260215960872323
 21
50.085196024406919
 31
0
  0
LINE
  5
A9
  8
0
  6
CONTINUOUS
 62
7
 10
56.260215960872323
 20
50.085196024406919
 30
0
 11
55.963937749140847
 21
50.2548669770555
 31
0
  0
LINE
  5
AA
  8
0
  6
CONTINUOUS
 62
7
 10
55.963937749140847
 20
50.2548669770555
 30
0
 11
55.6263183915864
 21
50.4243656749298
 31
0
  0
LINE
  5
AB
  8
0
  6
CONTINUOUS
 62
7
 10
55.6263183915864
 20
50.4243656749298
 30
0
 11
55.20188262780362
 21
50.594036627578383
 31
0
  0
LINE
  5
AC
  8
0
  6
CONTINUOUS
 62
7
 10
55.20188262780362
 20
50.594036627578383
 30
0
 11
54.694764572374822
 21
50.720643886661271
 31
0
  0
LINE
  5
AD
  8
0
  6
CONTINUOUS
 62
7
 10
54.694764572374822
 20
50.720643886661271
 30
0
 11
54.143549294734839
 21
50.847251145744238
 31
0
  0
LINE
  5
AE
  8
0
  6
CONTINUOUS
 62
7
 10
54.143549294734839
 20
50.847251145744238
 30
0
 11
53.550992871271859
 21
50.975580952569779
 31
0
  0
LINE
  5
AF
  8
0
  6
CONTINUOUS
 62
7
 10
53.550992871271859
 20
50.975580952569779
 30
0
 11
52.874376117968822
 21
51.102360466426973
 31
0
  0
LINE
  5
B0
  8
0
  6
CONTINUOUS
 62
7
 10
52.874376117968822
 20
51.102360466426973
 30
0
 11
52.196381326471631
 21
51.2293122350584
 31
0
  0
LINE
  5
B1
  8
0
  6
CONTINUOUS
 62
7
 10
52.196381326471631
 20
51.2293122350584
 30
0
 11
51.477045389151492
 21
51.313200310124223
 31
0
  0
LINE
  5
B2
  8
0
  6
CONTINUOUS
 62
7
 10
51.477045389151492
 20
51.313200310124223
 30
0
 11
50.714990267814208
 21
51.398638678158427
 31
0
  0
LINE
  5
B3
  8
0
  6
CONTINUOUS
 62
7
 10
50.714990267814208
 20
51.398638678158427
 30
0
 11
49.910215962459837
 21
51.43997982398146
 31
0
  0
LINE
  5
B4
  8
0
  6
CONTINUOUS
 62
7
 10
49.910215962459837
 20
51.43997982398146
 30
0
 11
49.1068196952996
 21
51.525245937241387
 31
0
  0
LINE
  5
B5
  8
0
  6
CONTINUOUS
 62
7
 10
49.1068196952996
 20
51.525245937241387
 30
0
 11
48.259326205928133
 21
51.525245937241387
 31
0
  0
LINE
  5
B6
  8
0
  6
CONTINUOUS
 62
7
 10
48.259326205928133
 20
51.525245937241387
 30
0
 11
47.413210754750772
 21
51.567965121258467
 31
0
  0
LINE
  5
B7
  8
0
  6
CONTINUOUS
 62
7
 10
47.413210754750772
 20
51.567965121258467
 30
0
 11
46.524376119556322
 21
51.567965121258467
 31
0
  0
LINE
  5
B8
  8
0
  6
CONTINUOUS
 62
7
 10
46.524376119556322
 20
51.567965121258467
 30
0
 11
45.676882630184863
 21
51.567965121258467
 31
0
  0
LINE
  5
B9
  8
0
  6
CONTINUOUS
 62
7
 10
45.676882630184863
 20
51.567965121258467
 30
0
 11
44.830767179007474
 21
51.525245937241387
 31
0
  0
LINE
  5
BA
  8
0
  6
CONTINUOUS
 62
7
 10
44.830767179007474
 20
51.525245937241387
 30
0
 11
43.9846517278301
 21
51.525245937241387
 31
0
  0
LINE
  5
BB
  8
0
  6
CONTINUOUS
 62
7
 10
43.9846517278301
 20
51.525245937241387
 30
0
 11
43.179877422475748
 21
51.43997982398146
 31
0
  0
LINE
  5
BC
  8
0
  6
CONTINUOUS
 62
7
 10
43.179877422475748
 20
51.43997982398146
 30
0
 11
42.3751031171214
 21
51.398638678158427
 31
0
  0
LINE
  5
BD
  8
0
  6
CONTINUOUS
 62
7
 10
42.3751031171214
 20
51.398638678158427
 30
0
 11
41.61304799578415
 21
51.313200310124223
 31
0
  0
LINE
  5
BE
  8
0
  6
CONTINUOUS
 62
7
 10
41.61304799578415
 20
51.313200310124223
 30
0
 11
40.893712058463962
 21
51.2293122350584
 31
0
  0
LINE
  5
BF
  8
0
  6
CONTINUOUS
 62
7
 10
40.893712058463962
 20
51.2293122350584
 30
0
 11
40.174376121143808
 21
51.102360466426973
 31
0
  0
LINE
  5
C0
  8
0
  6
CONTINUOUS
 62
7
 10
40.174376121143808
 20
51.102360466426973
 30
0
 11
39.539100513663733
 21
50.975580952569779
 31
0
  0
LINE
  5
C1
  8
0
  6
CONTINUOUS
 62
7
 10
39.539100513663733
 20
50.975580952569779
 30
0
 11
38.946544090200753
 21
50.847251145744238
 31
0
  0
LINE
  5
C2
  8
0
  6
CONTINUOUS
 62
7
 10
38.946544090200753
 20
50.847251145744238
 30
0
 11
38.39670685075491
 21
50.720643886661271
 31
0
  0
LINE
  5
C3
  8
0
  6
CONTINUOUS
 62
7
 10
38.39670685075491
 20
50.720643886661271
 30
0
 11
37.888210757132008
 21
50.594036627578383
 31
0
  0
LINE
  5
C4
  8
0
  6
CONTINUOUS
 62
7
 10
37.888210757132008
 20
50.594036627578383
 30
0
 11
37.465153031543352
 21
50.4243656749298
 31
0
  0
LINE
  5
C5
  8
0
  6
CONTINUOUS
 62
7
 10
37.465153031543352
 20
50.4243656749298
 30
0
 11
37.083436451777672
 21
50.2548669770555
 31
0
  0
LINE
  5
C6
  8
0
  6
CONTINUOUS
 62
7
 10
37.083436451777672
 20
50.2548669770555
 30
0
 11
36.787158240046161
 21
50.085196024406919
 31
0
  0
LINE
  5
C7
  8
0
  6
CONTINUOUS
 62
7
 10
36.787158240046161
 20
50.085196024406919
 30
0
 11
36.5763183963489
 21
49.917247619500991
 31
0
  0
LINE
  5
C8
  8
0
  6
CONTINUOUS
 62
7
 10
36.5763183963489
 20
49.917247619500991
 30
0
 11
36.406819698474592
 21
49.747576666852467
 31
0
  0
LINE
  5
C9
  8
0
  6
CONTINUOUS
 62
7
 10
36.406819698474592
 20
49.747576666852467
 30
0
 11
36.321381330440381
 21
49.535703294509588
 31
0
  0
LINE
  5
CA
  8
0
  6
CONTINUOUS
 62
7
 10
36.321381330440381
 20
49.535703294509588
 30
0
 11
36.280040184617377
 21
49.366032341861057
 31
0
  0
LINE
  5
CB
  8
0
  6
CONTINUOUS
 62
7
 10
55.75309790544356
 20
45.980364753731749
 30
0
 11
56.092095301192153
 21
46.191032342654822
 31
0
  0
LINE
  5
CC
  8
0
  6
CONTINUOUS
 62
7
 10
56.092095301192153
 20
46.191032342654822
 30
0
 11
56.345654328906527
 21
46.360703295303338
 31
0
  0
LINE
  5
CD
  8
0
  6
CONTINUOUS
 62
7
 10
56.345654328906527
 20
46.360703295303338
 30
0
 11
56.515153026780851
 21
46.572576667646238
 31
0
  0
LINE
  5
CE
  8
0
  6
CONTINUOUS
 62
7
 10
56.515153026780851
 20
46.572576667646238
 30
0
 11
56.599213356620943
 21
46.783588766117767
 31
0
  0
LINE
  5
CF
  8
0
  6
CONTINUOUS
 62
7
 10
59.43521596007858
 20
22.484641289553611
 30
0
 11
59.393874814255582
 21
22.654312242202192
 31
0
  0
LINE
  5
D0
  8
0
  6
CONTINUOUS
 62
7
 10
59.393874814255582
 20
22.654312242202192
 30
0
 11
59.3084364462214
 21
22.823638685302178
 31
0
  0
LINE
  5
D1
  8
0
  6
CONTINUOUS
 62
7
 10
59.3084364462214
 20
22.823638685302178
 30
0
 11
59.1389377483471
 21
22.992965128402229
 31
0
  0
LINE
  5
D2
  8
0
  6
CONTINUOUS
 62
7
 10
59.1389377483471
 20
22.992965128402229
 30
0
 11
58.92809790464981
 21
23.203977226873789
 31
0
  0
LINE
  5
D3
  8
0
  6
CONTINUOUS
 62
7
 10
58.92809790464981
 20
23.203977226873789
 30
0
 11
58.673160838741332
 21
23.330584485956731
 31
0
  0
LINE
  5
D4
  8
0
  6
CONTINUOUS
 62
7
 10
58.673160838741332
 20
23.330584485956731
 30
0
 11
58.376882627009863
 21
23.500255438605262
 31
0
  0
LINE
  5
D5
  8
0
  6
CONTINUOUS
 62
7
 10
58.376882627009863
 20
23.500255438605262
 30
0
 11
57.996544085438252
 21
23.6695818817053
 31
0
  0
LINE
  5
D6
  8
0
  6
CONTINUOUS
 62
7
 10
57.996544085438252
 20
23.6695818817053
 30
0
 11
57.573486359849568
 21
23.79653365033673
 31
0
  0
LINE
  5
D7
  8
0
  6
CONTINUOUS
 62
7
 10
57.573486359849568
 20
23.79653365033673
 30
0
 11
57.150428634260912
 21
23.966032348211051
 31
0
  0
LINE
  5
D8
  8
0
  6
CONTINUOUS
 62
7
 10
57.150428634260912
 20
23.966032348211051
 30
0
 11
56.641932540638017
 21
24.092984116842519
 31
0
  0
LINE
  5
D9
  8
0
  6
CONTINUOUS
 62
7
 10
56.641932540638017
 20
24.092984116842519
 30
0
 11
56.092095301192153
 21
24.22096941411953
 31
0
  0
LINE
  5
DA
  8
0
  6
CONTINUOUS
 62
7
 10
56.092095301192153
 20
24.22096941411953
 30
0
 11
55.540880023552177
 21
24.34757667320245
 31
0
  0
LINE
  5
DB
  8
0
  6
CONTINUOUS
 62
7
 10
55.540880023552177
 20
24.34757667320245
 30
0
 11
54.9056044160721
 21
24.4747006966082
 31
0
  0
LINE
  5
DC
  8
0
  6
CONTINUOUS
 62
7
 10
54.9056044160721
 20
24.4747006966082
 30
0
 11
54.271706846786138
 21
24.60130795569113
 31
0
  0
LINE
  5
DD
  8
0
  6
CONTINUOUS
 62
7
 10
54.271706846786138
 20
24.60130795569113
 30
0
 11
53.593712055288961
 21
24.685196030756959
 31
0
  0
LINE
  5
DE
  8
0
  6
CONTINUOUS
 62
7
 10
53.593712055288961
 20
24.685196030756959
 30
0
 11
52.874376117968822
 21
24.770978908339679
 31
0
  0
LINE
  5
DF
  8
0
  6
CONTINUOUS
 62
7
 10
52.874376117968822
 20
24.770978908339679
 30
0
 11
52.155040180648633
 21
24.85486698340549
 31
0
  0
LINE
  5
E0
  8
0
  6
CONTINUOUS
 62
7
 10
52.155040180648633
 20
24.85486698340549
 30
0
 11
51.392985059311378
 21
24.9403053514397
 31
0
  0
LINE
  5
E1
  8
0
  6
CONTINUOUS
 62
7
 10
51.392985059311378
 20
24.9403053514397
 30
0
 11
50.630929937974109
 21
24.981646497262709
 31
0
  0
LINE
  5
E2
  8
0
  6
CONTINUOUS
 62
7
 10
50.630929937974109
 20
24.981646497262709
 30
0
 11
49.826155632619752
 21
25.0243656812798
 31
0
  0
LINE
  5
E3
  8
0
  6
CONTINUOUS
 62
7
 10
49.826155632619752
 20
25.0243656812798
 30
0
 11
49.021381327265381
 21
25.066912610522639
 31
0
  0
LINE
  5
E4
  8
0
  6
CONTINUOUS
 62
7
 10
49.021381327265381
 20
25.066912610522639
 30
0
 11
48.175265876088027
 21
25.109631794539741
 31
0
  0
LINE
  5
E5
  8
0
  6
CONTINUOUS
 62
7
 10
48.175265876088027
 20
25.109631794539741
 30
0
 11
47.370491570733648
 21
25.109631794539741
 31
0
  0
LINE
  5
E6
  8
0
  6
CONTINUOUS
 62
7
 10
47.370491570733648
 20
25.109631794539741
 30
0
 11
46.524376119556322
 21
25.15131744991125
 31
0
  0
LINE
  5
E7
  8
0
  6
CONTINUOUS
 62
7
 10
46.524376119556322
 20
25.15131744991125
 30
0
 11
45.719601814201958
 21
25.109631794539741
 31
0
  0
LINE
  5
E8
  8
0
  6
CONTINUOUS
 62
7
 10
45.719601814201958
 20
25.109631794539741
 30
0
 11
44.873486363024568
 21
25.109631794539741
 31
0
  0
LINE
  5
E9
  8
0
  6
CONTINUOUS
 62
7
 10
44.873486363024568
 20
25.109631794539741
 30
0
 11
44.0687120576702
 21
25.066912610522639
 31
0
  0
LINE
  5
EA
  8
0
  6
CONTINUOUS
 62
7
 10
44.0687120576702
 20
25.066912610522639
 30
0
 11
43.263937752315847
 21
25.0243656812798
 31
0
  0
LINE
  5
EB
  8
0
  6
CONTINUOUS
 62
7
 10
43.263937752315847
 20
25.0243656812798
 30
0
 11
42.4605414851556
 21
24.981646497262709
 31
0
  0
LINE
  5
EC
  8
0
  6
CONTINUOUS
 62
7
 10
42.4605414851556
 20
24.981646497262709
 30
0
 11
41.698486363818319
 21
24.9403053514397
 31
0
  0
LINE
  5
ED
  8
0
  6
CONTINUOUS
 62
7
 10
41.698486363818319
 20
24.9403053514397
 30
0
 11
40.936431242481071
 21
24.85486698340549
 31
0
  0
LINE
  5
EE
  8
0
  6
CONTINUOUS
 62
7
 10
40.936431242481071
 20
24.85486698340549
 30
0
 11
40.174376121143808
 21
24.770978908339679
 31
0
  0
LINE
  5
EF
  8
0
  6
CONTINUOUS
 62
7
 10
40.174376121143808
 20
24.770978908339679
 30
0
 11
39.496381329646631
 21
24.685196030756959
 31
0
  0
LINE
  5
F0
  8
0
  6
CONTINUOUS
 62
7
 10
39.496381329646631
 20
24.685196030756959
 30
0
 11
38.819764576343573
 21
24.60130795569113
 31
0
  0
LINE
  5
F1
  8
0
  6
CONTINUOUS
 62
7
 10
38.819764576343573
 20
24.60130795569113
 30
0
 11
38.1417697848464
 21
24.4747006966082
 31
0
  0
LINE
  5
F2
  8
0
  6
CONTINUOUS
 62
7
 10
38.1417697848464
 20
24.4747006966082
 30
0
 11
37.549213361383437
 21
24.34757667320245
 31
0
  0
LINE
  5
F3
  8
0
  6
CONTINUOUS
 62
7
 10
37.549213361383437
 20
24.34757667320245
 30
0
 11
36.956656937920471
 21
24.22096941411953
 31
0
  0
LINE
  5
F4
  8
0
  6
CONTINUOUS
 62
7
 10
36.956656937920471
 20
24.22096941411953
 30
0
 11
36.448160844297583
 21
24.092984116842519
 31
0
  0
LINE
  5
F5
  8
0
  6
CONTINUOUS
 62
7
 10
36.448160844297583
 20
24.092984116842519
 30
0
 11
35.941042788868813
 21
23.966032348211051
 31
0
  0
LINE
  5
F6
  8
0
  6
CONTINUOUS
 62
7
 10
35.941042788868813
 20
23.966032348211051
 30
0
 11
35.475265879263027
 21
23.79653365033673
 31
0
  0
LINE
  5
F7
  8
0
  6
CONTINUOUS
 62
7
 10
35.475265879263027
 20
23.79653365033673
 30
0
 11
35.093549299497347
 21
23.6695818817053
 31
0
  0
LINE
  5
F8
  8
0
  6
CONTINUOUS
 62
7
 10
35.093549299497347
 20
23.6695818817053
 30
0
 11
34.713210757925772
 21
23.500255438605262
 31
0
  0
LINE
  5
F9
  8
0
  6
CONTINUOUS
 62
7
 10
34.713210757925772
 20
23.500255438605262
 30
0
 11
34.416932546194282
 21
23.330584485956731
 31
0
  0
LINE
  5
FA
  8
0
  6
CONTINUOUS
 62
7
 10
34.416932546194282
 20
23.330584485956731
 30
0
 11
34.163373518479887
 21
23.203977226873789
 31
0
  0
LINE
  5
FB
  8
0
  6
CONTINUOUS
 62
7
 10
34.163373518479887
 20
23.203977226873789
 30
0
 11
33.9511556365885
 21
22.992965128402229
 31
0
  0
LINE
  5
FC
  8
0
  6
CONTINUOUS
 62
7
 10
33.9511556365885
 20
22.992965128402229
 30
0
 11
33.781656938714207
 21
22.823638685302178
 31
0
  0
LINE
  5
FD
  8
0
  6
CONTINUOUS
 62
7
 10
33.781656938714207
 20
22.823638685302178
 30
0
 11
33.697596608874122
 21
22.654312242202192
 31
0
  0
LINE
  5
FE
  8
0
  6
CONTINUOUS
 62
7
 10
33.697596608874122
 20
22.654312242202192
 30
0
 11
33.612158240839911
 21
22.484641289553611
 31
0
  0
LINE
  5
FF
  8
0
  6
CONTINUOUS
 62
7
 10
55.287320995837781
 20
42.719581876942833
 30
0
 11
55.0337619681234
 21
42.973313159431463
 31
0
  0
LINE
  5
100
  8
0
  6
CONTINUOUS
 62
7
 10
55.0337619681234
 20
42.973313159431463
 30
0
 11
54.652045388357713
 21
43.228250225339949
 31
0
  0
LINE
  5
101
  8
0
  6
CONTINUOUS
 62
7
 10
54.652045388357713
 20
43.228250225339949
 30
0
 11
54.059488964894747
 21
43.48198150782855
 31
0
  0
LINE
  5
102
  8
0
  6
CONTINUOUS
 62
7
 10
54.059488964894747
 20
43.48198150782855
 30
0
 11
53.340153027574587
 21
43.694027134945721
 31
0
  0
LINE
  5
103
  8
0
  6
CONTINUOUS
 62
7
 10
56.599213356620943
 20
46.783588766117767
 30
0
 11
56.811431238512313
 21
49.366032341861057
 31
0
  0
LINE
  5
104
  8
0
  6
CONTINUOUS
 62
7
 10
36.490880028314692
 20
46.783588766117767
 30
0
 11
36.280040184617377
 21
49.366032341861057
 31
0
  0
LINE
  5
105
  8
0
  6
CONTINUOUS
 62
7
 10
53.340153027574587
 20
45.089979825568953
 30
0
 11
53.297433843557492
 21
45.302369962234607
 31
0
  0
LINE
  5
106
  8
0
  6
CONTINUOUS
 62
7
 10
53.297433843557492
 20
45.302369962234607
 30
0
 11
53.127935145683182
 21
45.471696405334633
 31
0
  0
LINE
  5
107
  8
0
  6
CONTINUOUS
 62
7
 10
53.127935145683182
 20
45.471696405334633
 30
0
 11
52.831656933951713
 21
45.641367357983157
 31
0
  0
LINE
  5
108
  8
0
  6
CONTINUOUS
 62
7
 10
52.831656933951713
 20
45.641367357983157
 30
0
 11
52.451318392380152
 21
45.8106938010832
 31
0
  0
LINE
  5
109
  8
0
  6
CONTINUOUS
 62
7
 10
52.451318392380152
 20
45.8106938010832
 30
0
 11
51.942822298757243
 21
45.980364753731749
 31
0
  0
LINE
  5
10A
  8
0
  6
CONTINUOUS
 62
7
 10
51.942822298757243
 20
45.980364753731749
 30
0
 11
51.350265875294248
 21
46.106972012814722
 31
0
  0
LINE
  5
10B
  8
0
  6
CONTINUOUS
 62
7
 10
51.350265875294248
 20
46.106972012814722
 30
0
 11
50.672271083797121
 21
46.233579271897611
 31
0
  0
LINE
  5
10C
  8
0
  6
CONTINUOUS
 62
7
 10
50.672271083797121
 20
46.233579271897611
 30
0
 11
49.952935146476918
 21
46.317984111286258
 31
0
  0
LINE
  5
10D
  8
0
  6
CONTINUOUS
 62
7
 10
49.952935146476918
 20
46.317984111286258
 30
0
 11
49.148160841122582
 21
46.403250224546213
 31
0
  0
LINE
  5
10E
  8
0
  6
CONTINUOUS
 62
7
 10
49.148160841122582
 20
46.403250224546213
 30
0
 11
48.302045389945242
 21
46.4873105543863
 31
0
  0
LINE
  5
10F
  8
0
  6
CONTINUOUS
 62
7
 10
48.302045389945242
 20
46.4873105543863
 30
0
 11
47.413210754750772
 21
46.530029738403357
 31
0
  0
LINE
  5
110
  8
0
  6
CONTINUOUS
 62
7
 10
47.413210754750772
 20
46.530029738403357
 30
0
 11
46.524376119556322
 21
46.530029738403357
 31
0
  0
LINE
  5
111
  8
0
  6
CONTINUOUS
 62
7
 10
46.524376119556322
 20
46.530029738403357
 30
0
 11
45.635541484361852
 21
46.530029738403357
 31
0
  0
LINE
  5
112
  8
0
  6
CONTINUOUS
 62
7
 10
45.635541484361852
 20
46.530029738403357
 30
0
 11
44.788047994990379
 21
46.4873105543863
 31
0
  0
LINE
  5
113
  8
0
  6
CONTINUOUS
 62
7
 10
44.788047994990379
 20
46.4873105543863
 30
0
 11
43.94193254381301
 21
46.403250224546213
 31
0
  0
LINE
  5
114
  8
0
  6
CONTINUOUS
 62
7
 10
43.94193254381301
 20
46.403250224546213
 30
0
 11
43.137158238458653
 21
46.317984111286258
 31
0
  0
LINE
  5
115
  8
0
  6
CONTINUOUS
 62
7
 10
43.137158238458653
 20
46.317984111286258
 30
0
 11
42.4178223011385
 21
46.233579271897611
 31
0
  0
LINE
  5
116
  8
0
  6
CONTINUOUS
 62
7
 10
42.4178223011385
 20
46.233579271897611
 30
0
 11
41.739827509641309
 21
46.106972012814722
 31
0
  0
LINE
  5
117
  8
0
  6
CONTINUOUS
 62
7
 10
41.739827509641309
 20
46.106972012814722
 30
0
 11
41.147271086178371
 21
45.980364753731749
 31
0
  0
LINE
  5
118
  8
0
  6
CONTINUOUS
 62
7
 10
41.147271086178371
 20
45.980364753731749
 30
0
 11
40.6401530307496
 21
45.8106938010832
 31
0
  0
LINE
  5
119
  8
0
  6
CONTINUOUS
 62
7
 10
40.6401530307496
 20
45.8106938010832
 30
0
 11
40.258436450983922
 21
45.641367357983157
 31
0
  0
LINE
  5
11A
  8
0
  6
CONTINUOUS
 62
7
 10
40.258436450983922
 20
45.641367357983157
 30
0
 11
39.9621582392524
 21
45.471696405334633
 31
0
  0
LINE
  5
11B
  8
0
  6
CONTINUOUS
 62
7
 10
39.9621582392524
 20
45.471696405334633
 30
0
 11
39.792659541378129
 21
45.302369962234607
 31
0
  0
LINE
  5
11C
  8
0
  6
CONTINUOUS
 62
7
 10
39.792659541378129
 20
45.302369962234607
 30
0
 11
39.751318395555131
 21
45.089979825568953
 31
0
  0
LINE
  5
11D
  8
0
  6
CONTINUOUS
 62
7
 10
53.340153027574587
 20
44.793529359063207
 30
0
 11
55.75309790544356
 21
45.980364753731749
 31
0
  0
LINE
  5
11E
  8
0
  6
CONTINUOUS
 62
7
 10
39.751318395555131
 20
44.793529359063207
 30
0
 11
37.295654333669042
 21
45.980364753731749
 31
0
  0
LINE
  5
11F
  8
0
  6
CONTINUOUS
 62
7
 10
53.340153027574587
 20
43.694027134945721
 30
0
 11
53.340153027574587
 21
44.793529359063207
 31
0
  0
LINE
  5
120
  8
0
  6
CONTINUOUS
 62
7
 10
39.751318395555131
 20
43.694027134945721
 30
0
 11
39.751318395555131
 21
44.793529359063207
 31
0
  0
LINE
  5
121
  8
0
  6
CONTINUOUS
 62
7
 10
58.039263269455361
 20
37.470978905164657
 30
0
 11
57.869764571581072
 21
38.402360469601959
 31
0
  0
LINE
  5
122
  8
0
  6
CONTINUOUS
 62
7
 10
57.869764571581072
 20
38.402360469601959
 30
0
 11
57.5307671758325
 21
39.291367359570657
 31
0
  0
LINE
  5
123
  8
0
  6
CONTINUOUS
 62
7
 10
57.5307671758325
 20
39.291367359570657
 30
0
 11
57.191769780083888
 21
40.137310555973791
 31
0
  0
LINE
  5
124
  8
0
  6
CONTINUOUS
 62
7
 10
57.191769780083888
 20
40.137310555973791
 30
0
 11
56.725992870478123
 21
40.941912606553842
 31
0
  0
LINE
  5
125
  8
0
  6
CONTINUOUS
 62
7
 10
56.725992870478123
 20
40.941912606553842
 30
0
 11
56.176155631032231
 21
41.704312237439659
 31
0
  0
LINE
  5
126
  8
0
  6
CONTINUOUS
 62
7
 10
56.176155631032231
 20
41.704312237439659
 30
0
 11
55.583599207569279
 21
42.423648174759833
 31
0
  0
LINE
  5
127
  8
0
  6
CONTINUOUS
 62
7
 10
55.583599207569279
 20
42.423648174759833
 30
0
 11
54.9056044160721
 21
43.1012984567085
 31
0
  0
LINE
  5
128
  8
0
  6
CONTINUOUS
 62
7
 10
59.43521596007858
 20
22.484641289553611
 30
0
 11
59.351155630238473
 21
26.252369966997112
 31
0
  0
LINE
  5
129
  8
0
  6
CONTINUOUS
 62
7
 10
59.351155630238473
 20
26.252369966997112
 30
0
 11
59.054877418507
 21
30.0195818801178
 31
0
  0
LINE
  5
12A
  8
0
  6
CONTINUOUS
 62
7
 10
59.054877418507
 20
30.0195818801178
 30
0
 11
58.631819692918349
 21
33.745969411738272
 31
0
  0
LINE
  5
12B
  8
0
  6
CONTINUOUS
 62
7
 10
58.631819692918349
 20
33.745969411738272
 30
0
 11
58.039263269455361
 21
37.470978905164657
 31
0
  0
LINE
  5
12C
  8
0
  6
CONTINUOUS
 62
7
 10
38.1417697848464
 20
43.1012984567085
 30
0
 11
37.506494177366342
 21
42.423648174759833
 31
0
  0
LINE
  5
12D
  8
0
  6
CONTINUOUS
 62
7
 10
37.506494177366342
 20
42.423648174759833
 30
0
 11
36.872596608080372
 21
41.704312237439659
 31
0
  0
LINE
  5
12E
  8
0
  6
CONTINUOUS
 62
7
 10
36.872596608080372
 20
41.704312237439659
 30
0
 11
36.364100514457483
 21
40.941912606553842
 31
0
  0
LINE
  5
12F
  8
0
  6
CONTINUOUS
 62
7
 10
36.364100514457483
 20
40.941912606553842
 30
0
 11
35.8983236048517
 21
40.137310555973791
 31
0
  0
LINE
  5
130
  8
0
  6
CONTINUOUS
 62
7
 10
35.8983236048517
 20
40.137310555973791
 30
0
 11
35.517985063280143
 21
39.291367359570657
 31
0
  0
LINE
  5
131
  8
0
  6
CONTINUOUS
 62
7
 10
35.517985063280143
 20
39.291367359570657
 30
0
 11
35.221706851548653
 21
38.402360469601959
 31
0
  0
LINE
  5
132
  8
0
  6
CONTINUOUS
 62
7
 10
35.221706851548653
 20
38.402360469601959
 30
0
 11
35.009488969657248
 21
37.470978905164657
 31
0
  0
LINE
  5
133
  8
0
  6
CONTINUOUS
 62
7
 10
35.009488969657248
 20
37.470978905164657
 30
0
 11
34.45965173021137
 21
33.745969411738272
 31
0
  0
LINE
  5
134
  8
0
  6
CONTINUOUS
 62
7
 10
34.45965173021137
 20
33.745969411738272
 30
0
 11
34.0352159664286
 21
30.0195818801178
 31
0
  0
LINE
  5
135
  8
0
  6
CONTINUOUS
 62
7
 10
34.0352159664286
 20
30.0195818801178
 30
0
 11
33.7389377546971
 21
26.252369966997112
 31
0
  0
LINE
  5
136
  8
0
  6
CONTINUOUS
 62
7
 10
33.7389377546971
 20
26.252369966997112
 30
0
 11
33.612158240839911
 21
22.484641289553611
 31
0
  0
LINE
  5
137
  8
0
  6
CONTINUOUS
 62
7
 10
58.92809790464981
 20
22.400580959713508
 30
0
 11
58.92809790464981
 21
22.611248548636539
 31
0
  0
LINE
  5
138
  8
0
  6
CONTINUOUS
 62
7
 10
58.92809790464981
 20
22.611248548636539
 30
0
 11
58.801318390792638
 21
22.780919501285119
 31
0
  0
LINE
  5
139
  8
0
  6
CONTINUOUS
 62
7
 10
58.801318390792638
 20
22.780919501285119
 30
0
 11
58.673160838741332
 21
22.95024594438512
 31
0
  0
LINE
  5
13A
  8
0
  6
CONTINUOUS
 62
7
 10
58.673160838741332
 20
22.95024594438512
 30
0
 11
58.462320995044031
 21
23.1199168970337
 31
0
  0
LINE
  5
13B
  8
0
  6
CONTINUOUS
 62
7
 10
58.462320995044031
 20
23.1199168970337
 30
0
 11
58.208761967329657
 21
23.289243340133719
 31
0
  0
LINE
  5
13C
  8
0
  6
CONTINUOUS
 62
7
 10
58.208761967329657
 20
23.289243340133719
 30
0
 11
57.91110571740407
 21
23.458914292782271
 31
0
  0
LINE
  5
13D
  8
0
  6
CONTINUOUS
 62
7
 10
57.91110571740407
 20
23.458914292782271
 30
0
 11
57.5307671758325
 21
23.6268626976882
 31
0
  0
LINE
  5
13E
  8
0
  6
CONTINUOUS
 62
7
 10
57.5307671758325
 20
23.6268626976882
 30
0
 11
57.150428634260912
 21
23.75536475928801
 31
0
  0
LINE
  5
13F
  8
0
  6
CONTINUOUS
 62
7
 10
57.150428634260912
 20
23.75536475928801
 30
0
 11
56.684651724655112
 21
23.923313164193949
 31
0
  0
LINE
  5
140
  8
0
  6
CONTINUOUS
 62
7
 10
56.684651724655112
 20
23.923313164193949
 30
0
 11
56.176155631032231
 21
24.051298461470981
 31
0
  0
LINE
  5
141
  8
0
  6
CONTINUOUS
 62
7
 10
56.176155631032231
 20
24.051298461470981
 30
0
 11
55.583599207569279
 21
24.178250230102432
 31
0
  0
LINE
  5
142
  8
0
  6
CONTINUOUS
 62
7
 10
55.583599207569279
 20
24.178250230102432
 30
0
 11
54.991042784106313
 21
24.305029743959611
 31
0
  0
LINE
  5
143
  8
0
  6
CONTINUOUS
 62
7
 10
54.991042784106313
 20
24.305029743959611
 30
0
 11
54.355767176626252
 21
24.43198151259109
 31
0
  0
LINE
  5
144
  8
0
  6
CONTINUOUS
 62
7
 10
54.355767176626252
 20
24.43198151259109
 30
0
 11
53.67777238512906
 21
24.558588771674021
 31
0
  0
LINE
  5
145
  8
0
  6
CONTINUOUS
 62
7
 10
53.67777238512906
 20
24.558588771674021
 30
0
 11
53.001155631826
 21
24.644027139708211
 31
0
  0
LINE
  5
146
  8
0
  6
CONTINUOUS
 62
7
 10
53.001155631826
 20
24.644027139708211
 30
0
 11
52.239100510488733
 21
24.727915214774061
 31
0
  0
LINE
  5
147
  8
0
  6
CONTINUOUS
 62
7
 10
52.239100510488733
 20
24.727915214774061
 30
0
 11
51.477045389151492
 21
24.81369809235677
 31
0
  0
LINE
  5
148
  8
0
  6
CONTINUOUS
 62
7
 10
51.477045389151492
 20
24.81369809235677
 30
0
 11
50.714990267814208
 21
24.85486698340549
 31
0
  0
LINE
  5
149
  8
0
  6
CONTINUOUS
 62
7
 10
50.714990267814208
 20
24.85486698340549
 30
0
 11
49.868874816636847
 21
24.9403053514397
 31
0
  0
LINE
  5
14A
  8
0
  6
CONTINUOUS
 62
7
 10
49.868874816636847
 20
24.9403053514397
 30
0
 11
49.064100511282469
 21
24.981646497262709
 31
0
  0
LINE
  5
14B
  8
0
  6
CONTINUOUS
 62
7
 10
49.064100511282469
 20
24.981646497262709
 30
0
 11
48.217985060105107
 21
24.981646497262709
 31
0
  0
LINE
  5
14C
  8
0
  6
CONTINUOUS
 62
7
 10
48.217985060105107
 20
24.981646497262709
 30
0
 11
47.370491570733648
 21
25.0243656812798
 31
0
  0
LINE
  5
14D
  8
0
  6
CONTINUOUS
 62
7
 10
47.370491570733648
 20
25.0243656812798
 30
0
 11
46.524376119556322
 21
25.0243656812798
 31
0
  0
LINE
  5
14E
  8
0
  6
CONTINUOUS
 62
7
 10
46.524376119556322
 20
25.0243656812798
 30
0
 11
45.676882630184863
 21
25.0243656812798
 31
0
  0
LINE
  5
14F
  8
0
  6
CONTINUOUS
 62
7
 10
45.676882630184863
 20
25.0243656812798
 30
0
 11
44.830767179007474
 21
24.981646497262709
 31
0
  0
LINE
  5
150
  8
0
  6
CONTINUOUS
 62
7
 10
44.830767179007474
 20
24.981646497262709
 30
0
 11
44.025992873653109
 21
24.981646497262709
 31
0
  0
LINE
  5
151
  8
0
  6
CONTINUOUS
 62
7
 10
44.025992873653109
 20
24.981646497262709
 30
0
 11
43.179877422475748
 21
24.9403053514397
 31
0
  0
LINE
  5
152
  8
0
  6
CONTINUOUS
 62
7
 10
43.179877422475748
 20
24.9403053514397
 30
0
 11
42.3751031171214
 21
24.85486698340549
 31
0
  0
LINE
  5
153
  8
0
  6
CONTINUOUS
 62
7
 10
42.3751031171214
 20
24.85486698340549
 30
0
 11
41.61304799578415
 21
24.81369809235677
 31
0
  0
LINE
  5
154
  8
0
  6
CONTINUOUS
 62
7
 10
41.61304799578415
 20
24.81369809235677
 30
0
 11
40.809651728623848
 21
24.727915214774061
 31
0
  0
LINE
  5
155
  8
0
  6
CONTINUOUS
 62
7
 10
40.809651728623848
 20
24.727915214774061
 30
0
 11
40.0889377531096
 21
24.644027139708211
 31
0
  0
LINE
  5
156
  8
0
  6
CONTINUOUS
 62
7
 10
40.0889377531096
 20
24.644027139708211
 30
0
 11
39.369601815789451
 21
24.558588771674021
 31
0
  0
LINE
  5
157
  8
0
  6
CONTINUOUS
 62
7
 10
39.369601815789451
 20
24.558588771674021
 30
0
 11
38.692985062486358
 21
24.43198151259109
 31
0
  0
LINE
  5
158
  8
0
  6
CONTINUOUS
 62
7
 10
38.692985062486358
 20
24.43198151259109
 30
0
 11
38.057709455006311
 21
24.305029743959611
 31
0
  0
LINE
  5
159
  8
0
  6
CONTINUOUS
 62
7
 10
38.057709455006311
 20
24.305029743959611
 30
0
 11
37.465153031543352
 21
24.178250230102432
 31
0
  0
LINE
  5
15A
  8
0
  6
CONTINUOUS
 62
7
 10
37.465153031543352
 20
24.178250230102432
 30
0
 11
36.913937753903362
 21
24.051298461470981
 31
0
  0
LINE
  5
15B
  8
0
  6
CONTINUOUS
 62
7
 10
36.913937753903362
 20
24.051298461470981
 30
0
 11
36.406819698474592
 21
23.923313164193949
 31
0
  0
LINE
  5
15C
  8
0
  6
CONTINUOUS
 62
7
 10
36.406819698474592
 20
23.923313164193949
 30
0
 11
35.941042788868813
 21
23.75536475928801
 31
0
  0
LINE
  5
15D
  8
0
  6
CONTINUOUS
 62
7
 10
35.941042788868813
 20
23.75536475928801
 30
0
 11
35.517985063280143
 21
23.6268626976882
 31
0
  0
LINE
  5
15E
  8
0
  6
CONTINUOUS
 62
7
 10
35.517985063280143
 20
23.6268626976882
 30
0
 11
35.178987667531551
 21
23.458914292782271
 31
0
  0
LINE
  5
15F
  8
0
  6
CONTINUOUS
 62
7
 10
35.178987667531551
 20
23.458914292782271
 30
0
 11
34.839990271782952
 21
23.289243340133719
 31
0
  0
LINE
  5
160
  8
0
  6
CONTINUOUS
 62
7
 10
34.839990271782952
 20
23.289243340133719
 30
0
 11
34.586431244068571
 21
23.1199168970337
 31
0
  0
LINE
  5
161
  8
0
  6
CONTINUOUS
 62
7
 10
34.586431244068571
 20
23.1199168970337
 30
0
 11
34.374213362177187
 21
22.95024594438512
 31
0
  0
LINE
  5
162
  8
0
  6
CONTINUOUS
 62
7
 10
34.374213362177187
 20
22.95024594438512
 30
0
 11
34.24743384832
 21
22.780919501285119
 31
0
  0
LINE
  5
163
  8
0
  6
CONTINUOUS
 62
7
 10
34.24743384832
 20
22.780919501285119
 30
0
 11
34.163373518479887
 21
22.611248548636539
 31
0
  0
LINE
  5
164
  8
0
  6
CONTINUOUS
 62
7
 10
34.163373518479887
 20
22.611248548636539
 30
0
 11
34.120654334462792
 21
22.400580959713508
 31
0
  0
LINE
  5
165
  8
0
  6
CONTINUOUS
 62
7
 10
34.120654334462792
 20
22.400580959713508
 30
0
 11
34.163373518479887
 21
22.230910007064971
 31
0
  0
LINE
  5
166
  8
0
  6
CONTINUOUS
 62
7
 10
34.163373518479887
 20
22.230910007064971
 30
0
 11
34.24743384832
 21
22.06158356396493
 31
0
  0
LINE
  5
167
  8
0
  6
CONTINUOUS
 62
7
 10
34.24743384832
 20
22.06158356396493
 30
0
 11
34.374213362177187
 21
21.891912611316389
 31
0
  0
LINE
  5
168
  8
0
  6
CONTINUOUS
 62
7
 10
34.374213362177187
 20
21.891912611316389
 30
0
 11
34.586431244068571
 21
21.72258616821636
 31
0
  0
LINE
  5
169
  8
0
  6
CONTINUOUS
 62
7
 10
34.586431244068571
 20
21.72258616821636
 30
0
 11
34.839990271782952
 21
21.552915215567811
 31
0
  0
LINE
  5
16A
  8
0
  6
CONTINUOUS
 62
7
 10
34.839990271782952
 20
21.552915215567811
 30
0
 11
35.178987667531551
 21
21.383588772467778
 31
0
  0
LINE
  5
16B
  8
0
  6
CONTINUOUS
 62
7
 10
35.178987667531551
 20
21.383588772467778
 30
0
 11
35.517985063280143
 21
21.213917819819208
 31
0
  0
LINE
  5
16C
  8
0
  6
CONTINUOUS
 62
7
 10
35.517985063280143
 20
21.213917819819208
 30
0
 11
35.941042788868813
 21
21.045969414913269
 31
0
  0
LINE
  5
16D
  8
0
  6
CONTINUOUS
 62
7
 10
35.941042788868813
 20
21.045969414913269
 30
0
 11
36.406819698474592
 21
20.917984117636241
 31
0
  0
LINE
  5
16E
  8
0
  6
CONTINUOUS
 62
7
 10
36.406819698474592
 20
20.917984117636241
 30
0
 11
36.913937753903362
 21
20.748313164987689
 31
0
  0
LINE
  5
16F
  8
0
  6
CONTINUOUS
 62
7
 10
36.913937753903362
 20
20.748313164987689
 30
0
 11
37.465153031543352
 21
20.621533651130491
 31
0
  0
LINE
  5
170
  8
0
  6
CONTINUOUS
 62
7
 10
37.465153031543352
 20
20.621533651130491
 30
0
 11
38.057709455006311
 21
20.494581882499041
 31
0
  0
LINE
  5
171
  8
0
  6
CONTINUOUS
 62
7
 10
38.057709455006311
 20
20.494581882499041
 30
0
 11
38.692985062486358
 21
20.367974623416121
 31
0
  0
LINE
  5
172
  8
0
  6
CONTINUOUS
 62
7
 10
38.692985062486358
 20
20.367974623416121
 30
0
 11
39.369601815789451
 21
20.283914293576021
 31
0
  0
LINE
  5
173
  8
0
  6
CONTINUOUS
 62
7
 10
39.369601815789451
 20
20.283914293576021
 30
0
 11
40.0889377531096
 21
20.198648180316081
 31
0
  0
LINE
  5
174
  8
0
  6
CONTINUOUS
 62
7
 10
40.0889377531096
 20
20.198648180316081
 30
0
 11
40.809651728623848
 21
20.11424334092748
 31
0
  0
LINE
  5
175
  8
0
  6
CONTINUOUS
 62
7
 10
40.809651728623848
 20
20.11424334092748
 30
0
 11
41.61304799578415
 21
20.02897722766755
 31
0
  0
LINE
  5
176
  8
0
  6
CONTINUOUS
 62
7
 10
41.61304799578415
 20
20.02897722766755
 30
0
 11
42.3751031171214
 21
19.94491689782744
 31
0
  0
LINE
  5
177
  8
0
  6
CONTINUOUS
 62
7
 10
42.3751031171214
 20
19.94491689782744
 30
0
 11
43.179877422475748
 21
19.902369968584608
 31
0
  0
LINE
  5
178
  8
0
  6
CONTINUOUS
 62
7
 10
43.179877422475748
 20
19.902369968584608
 30
0
 11
44.025992873653109
 21
19.8596507845675
 31
0
  0
LINE
  5
179
  8
0
  6
CONTINUOUS
 62
7
 10
44.025992873653109
 20
19.8596507845675
 30
0
 11
44.830767179007474
 21
19.817965129195969
 31
0
  0
LINE
  5
17A
  8
0
  6
CONTINUOUS
 62
7
 10
44.830767179007474
 20
19.817965129195969
 30
0
 11
45.676882630184863
 21
19.817965129195969
 31
0
  0
LINE
  5
17B
  8
0
  6
CONTINUOUS
 62
7
 10
45.676882630184863
 20
19.817965129195969
 30
0
 11
46.524376119556322
 21
19.817965129195969
 31
0
  0
LINE
  5
17C
  8
0
  6
CONTINUOUS
 62
7
 10
46.524376119556322
 20
19.817965129195969
 30
0
 11
47.370491570733648
 21
19.817965129195969
 31
0
  0
LINE
  5
17D
  8
0
  6
CONTINUOUS
 62
7
 10
47.370491570733648
 20
19.817965129195969
 30
0
 11
48.217985060105107
 21
19.817965129195969
 31
0
  0
LINE
  5
17E
  8
0
  6
CONTINUOUS
 62
7
 10
48.217985060105107
 20
19.817965129195969
 30
0
 11
49.064100511282469
 21
19.8596507845675
 31
0
  0
LINE
  5
17F
  8
0
  6
CONTINUOUS
 62
7
 10
49.064100511282469
 20
19.8596507845675
 30
0
 11
49.868874816636847
 21
19.902369968584608
 31
0
  0
LINE
  5
180
  8
0
  6
CONTINUOUS
 62
7
 10
49.868874816636847
 20
19.902369968584608
 30
0
 11
50.672271083797121
 21
19.94491689782744
 31
0
  0
LINE
  5
181
  8
0
  6
CONTINUOUS
 62
7
 10
50.672271083797121
 20
19.94491689782744
 30
0
 11
51.477045389151492
 21
20.02897722766755
 31
0
  0
LINE
  5
182
  8
0
  6
CONTINUOUS
 62
7
 10
51.477045389151492
 20
20.02897722766755
 30
0
 11
52.239100510488733
 21
20.11424334092748
 31
0
  0
LINE
  5
183
  8
0
  6
CONTINUOUS
 62
7
 10
52.239100510488733
 20
20.11424334092748
 30
0
 11
53.001155631826
 21
20.198648180316081
 31
0
  0
LINE
  5
184
  8
0
  6
CONTINUOUS
 62
7
 10
53.001155631826
 20
20.198648180316081
 30
0
 11
53.67777238512906
 21
20.283914293576021
 31
0
  0
LINE
  5
185
  8
0
  6
CONTINUOUS
 62
7
 10
53.67777238512906
 20
20.283914293576021
 30
0
 11
54.355767176626252
 21
20.367974623416121
 31
0
  0
LINE
  5
186
  8
0
  6
CONTINUOUS
 62
7
 10
54.355767176626252
 20
20.367974623416121
 30
0
 11
54.991042784106313
 21
20.494581882499041
 31
0
  0
LINE
  5
187
  8
0
  6
CONTINUOUS
 62
7
 10
54.991042784106313
 20
20.494581882499041
 30
0
 11
55.583599207569279
 21
20.621533651130491
 31
0
  0
LINE
  5
188
  8
0
  6
CONTINUOUS
 62
7
 10
55.583599207569279
 20
20.621533651130491
 30
0
 11
56.176155631032231
 21
20.748313164987689
 31
0
  0
LINE
  5
189
  8
0
  6
CONTINUOUS
 62
7
 10
56.176155631032231
 20
20.748313164987689
 30
0
 11
56.684651724655112
 21
20.917984117636241
 31
0
  0
LINE
  5
18A
  8
0
  6
CONTINUOUS
 62
7
 10
56.684651724655112
 20
20.917984117636241
 30
0
 11
57.150428634260912
 21
21.045969414913269
 31
0
  0
LINE
  5
18B
  8
0
  6
CONTINUOUS
 62
7
 10
57.150428634260912
 20
21.045969414913269
 30
0
 11
57.5307671758325
 21
21.213917819819208
 31
0
  0
LINE
  5
18C
  8
0
  6
CONTINUOUS
 62
7
 10
57.5307671758325
 20
21.213917819819208
 30
0
 11
57.91110571740407
 21
21.383588772467778
 31
0
  0
LINE
  5
18D
  8
0
  6
CONTINUOUS
 62
7
 10
57.91110571740407
 20
21.383588772467778
 30
0
 11
58.208761967329657
 21
21.552915215567811
 31
0
  0
LINE
  5
18E
  8
0
  6
CONTINUOUS
 62
7
 10
58.208761967329657
 20
21.552915215567811
 30
0
 11
58.462320995044031
 21
21.72258616821636
 31
0
  0
LINE
  5
18F
  8
0
  6
CONTINUOUS
 62
7
 10
58.462320995044031
 20
21.72258616821636
 30
0
 11
58.673160838741332
 21
21.891912611316389
 31
0
  0
LINE
  5
190
  8
0
  6
CONTINUOUS
 62
7
 10
58.673160838741332
 20
21.891912611316389
 30
0
 11
58.801318390792638
 21
22.06158356396493
 31
0
  0
LINE
  5
191
  8
0
  6
CONTINUOUS
 62
7
 10
58.801318390792638
 20
22.06158356396493
 30
0
 11
58.92809790464981
 21
22.230910007064971
 31
0
  0
LINE
  5
192
  8
0
  6
CONTINUOUS
 62
7
 10
58.92809790464981
 20
22.230910007064971
 30
0
 11
58.92809790464981
 21
22.400580959713508
 31
0
  0
LINE
  5
193
  8
0
  6
CONTINUOUS
 62
7
 10
36.490880028314692
 20
46.783588766117767
 30
0
 11
36.533599212331787
 21
46.572576667646238
 31
0
  0
LINE
  5
194
  8
0
  6
CONTINUOUS
 62
7
 10
36.533599212331787
 20
46.572576667646238
 30
0
 11
36.703097910206061
 21
46.360703295303338
 31
0
  0
LINE
  5
195
  8
0
  6
CONTINUOUS
 62
7
 10
36.703097910206061
 20
46.360703295303338
 30
0
 11
36.956656937920471
 21
46.191032342654822
 31
0
  0
LINE
  5
196
  8
0
  6
CONTINUOUS
 62
7
 10
36.956656937920471
 20
46.191032342654822
 30
0
 11
37.295654333669042
 21
45.980364753731749
 31
0
  0
LINE
  5
197
  8
0
  6
CONTINUOUS
 62
7
 10
56.599213356620943
 20
46.783588766117767
 30
0
 11
56.556494172603841
 21
46.952915209217807
 31
0
  0
LINE
  5
198
  8
0
  6
CONTINUOUS
 62
7
 10
56.556494172603841
 20
46.952915209217807
 30
0
 11
56.472433842763742
 21
47.122586161866373
 31
0
  0
LINE
  5
199
  8
0
  6
CONTINUOUS
 62
7
 10
56.472433842763742
 20
47.122586161866373
 30
0
 11
56.302935144889432
 21
47.334631788983479
 31
0
  0
LINE
  5
19A
  8
0
  6
CONTINUOUS
 62
7
 10
56.302935144889432
 20
47.334631788983479
 30
0
 11
56.092095301192153
 21
47.504302741632053
 31
0
  0
LINE
  5
19B
  8
0
  6
CONTINUOUS
 62
7
 10
56.092095301192153
 20
47.504302741632053
 30
0
 11
55.794439051266536
 21
47.630910000714962
 31
0
  0
LINE
  5
19C
  8
0
  6
CONTINUOUS
 62
7
 10
55.794439051266536
 20
47.630910000714962
 30
0
 11
55.414100509694968
 21
47.800580953363543
 31
0
  0
LINE
  5
19D
  8
0
  6
CONTINUOUS
 62
7
 10
55.414100509694968
 20
47.800580953363543
 30
0
 11
55.0337619681234
 21
47.968529358269457
 31
0
  0
LINE
  5
19E
  8
0
  6
CONTINUOUS
 62
7
 10
55.0337619681234
 20
47.968529358269457
 30
0
 11
54.525265874500533
 21
48.097031419869282
 31
0
  0
LINE
  5
19F
  8
0
  6
CONTINUOUS
 62
7
 10
54.525265874500533
 20
48.097031419869282
 30
0
 11
53.975428635054648
 21
48.223638678952177
 31
0
  0
LINE
  5
1A0
  8
0
  6
CONTINUOUS
 62
7
 10
53.975428635054648
 20
48.223638678952177
 30
0
 11
53.38149417339757
 21
48.350245938035137
 31
0
  0
LINE
  5
1A1
  8
0
  6
CONTINUOUS
 62
7
 10
53.38149417339757
 20
48.350245938035137
 30
0
 11
52.7889377499346
 21
48.47736996144085
 31
0
  0
LINE
  5
1A2
  8
0
  6
CONTINUOUS
 62
7
 10
52.7889377499346
 20
48.47736996144085
 30
0
 11
52.069601812614451
 21
48.603977220523753
 31
0
  0
LINE
  5
1A3
  8
0
  6
CONTINUOUS
 62
7
 10
52.069601812614451
 20
48.603977220523753
 30
0
 11
51.392985059311378
 21
48.689243333783693
 31
0
  0
LINE
  5
1A4
  8
0
  6
CONTINUOUS
 62
7
 10
51.392985059311378
 20
48.689243333783693
 30
0
 11
50.630929937974109
 21
48.773648173172333
 31
0
  0
LINE
  5
1A5
  8
0
  6
CONTINUOUS
 62
7
 10
50.630929937974109
 20
48.773648173172333
 30
0
 11
49.826155632619752
 21
48.816367357189407
 31
0
  0
LINE
  5
1A6
  8
0
  6
CONTINUOUS
 62
7
 10
49.826155632619752
 20
48.816367357189407
 30
0
 11
49.021381327265381
 21
48.85891428643226
 31
0
  0
LINE
  5
1A7
  8
0
  6
CONTINUOUS
 62
7
 10
49.021381327265381
 20
48.85891428643226
 30
0
 11
48.217985060105107
 21
48.900255432255292
 31
0
  0
LINE
  5
1A8
  8
0
  6
CONTINUOUS
 62
7
 10
48.217985060105107
 20
48.900255432255292
 30
0
 11
47.370491570733648
 21
48.942974616272359
 31
0
  0
LINE
  5
1A9
  8
0
  6
CONTINUOUS
 62
7
 10
47.370491570733648
 20
48.942974616272359
 30
0
 11
46.524376119556322
 21
48.942974616272359
 31
0
  0
LINE
  5
1AA
  8
0
  6
CONTINUOUS
 62
7
 10
46.524376119556322
 20
48.942974616272359
 30
0
 11
45.676882630184863
 21
48.942974616272359
 31
0
  0
LINE
  5
1AB
  8
0
  6
CONTINUOUS
 62
7
 10
45.676882630184863
 20
48.942974616272359
 30
0
 11
44.873486363024568
 21
48.900255432255292
 31
0
  0
LINE
  5
1AC
  8
0
  6
CONTINUOUS
 62
7
 10
44.873486363024568
 20
48.900255432255292
 30
0
 11
44.0687120576702
 21
48.85891428643226
 31
0
  0
LINE
  5
1AD
  8
0
  6
CONTINUOUS
 62
7
 10
44.0687120576702
 20
48.85891428643226
 30
0
 11
43.222596606492857
 21
48.816367357189407
 31
0
  0
LINE
  5
1AE
  8
0
  6
CONTINUOUS
 62
7
 10
43.222596606492857
 20
48.816367357189407
 30
0
 11
42.4605414851556
 21
48.773648173172333
 31
0
  0
LINE
  5
1AF
  8
0
  6
CONTINUOUS
 62
7
 10
42.4605414851556
 20
48.773648173172333
 30
0
 11
41.698486363818319
 21
48.689243333783693
 31
0
  0
LINE
  5
1B0
  8
0
  6
CONTINUOUS
 62
7
 10
41.698486363818319
 20
48.689243333783693
 30
0
 11
40.977772388304047
 21
48.603977220523753
 31
0
  0
LINE
  5
1B1
  8
0
  6
CONTINUOUS
 62
7
 10
40.977772388304047
 20
48.603977220523753
 30
0
 11
40.301155635000967
 21
48.47736996144085
 31
0
  0
LINE
  5
1B2
  8
0
  6
CONTINUOUS
 62
7
 10
40.301155635000967
 20
48.47736996144085
 30
0
 11
39.665880027520927
 21
48.350245938035137
 31
0
  0
LINE
  5
1B3
  8
0
  6
CONTINUOUS
 62
7
 10
39.665880027520927
 20
48.350245938035137
 30
0
 11
39.073323604057961
 21
48.223638678952177
 31
0
  0
LINE
  5
1B4
  8
0
  6
CONTINUOUS
 62
7
 10
39.073323604057961
 20
48.223638678952177
 30
0
 11
38.523486364612083
 21
48.097031419869282
 31
0
  0
LINE
  5
1B5
  8
0
  6
CONTINUOUS
 62
7
 10
38.523486364612083
 20
48.097031419869282
 30
0
 11
38.057709455006311
 21
47.968529358269457
 31
0
  0
LINE
  5
1B6
  8
0
  6
CONTINUOUS
 62
7
 10
38.057709455006311
 20
47.968529358269457
 30
0
 11
37.634651729417612
 21
47.800580953363543
 31
0
  0
LINE
  5
1B7
  8
0
  6
CONTINUOUS
 62
7
 10
37.634651729417612
 20
47.800580953363543
 30
0
 11
37.295654333669042
 21
47.630910000714962
 31
0
  0
LINE
  5
1B8
  8
0
  6
CONTINUOUS
 62
7
 10
37.295654333669042
 20
47.630910000714962
 30
0
 11
36.999376121937573
 21
47.504302741632053
 31
0
  0
LINE
  5
1B9
  8
0
  6
CONTINUOUS
 62
7
 10
36.999376121937573
 20
47.504302741632053
 30
0
 11
36.744439056029073
 21
47.334631788983479
 31
0
  0
LINE
  5
1BA
  8
0
  6
CONTINUOUS
 62
7
 10
36.744439056029073
 20
47.334631788983479
 30
0
 11
36.617659542171893
 21
47.122586161866373
 31
0
  0
LINE
  5
1BB
  8
0
  6
CONTINUOUS
 62
7
 10
36.617659542171893
 20
47.122586161866373
 30
0
 11
36.490880028314692
 21
46.952915209217807
 31
0
  0
LINE
  5
1BC
  8
0
  6
CONTINUOUS
 62
7
 10
36.490880028314692
 20
46.952915209217807
 30
0
 11
36.490880028314692
 21
46.783588766117767
 31
0
  0
LINE
  5
1BD
  8
0
  6
CONTINUOUS
 62
7
 10
39.751318395555131
 20
44.793529359063207
 30
0
 11
39.751318395555131
 21
45.089979825568953
 31
0
  0
LINE
  5
1BE
  8
0
  6
CONTINUOUS
 62
7
 10
53.340153027574587
 20
44.793529359063207
 30
0
 11
53.340153027574587
 21
45.089979825568953
 31
0
  0
LINE
  5
1BF
  8
0
  6
CONTINUOUS
 62
7
 10
53.340153027574587
 20
43.694027134945721
 30
0
 11
52.747596604111607
 21
43.820978903577178
 31
0
  0
LINE
  5
1C0
  8
0
  6
CONTINUOUS
 62
7
 10
52.747596604111607
 20
43.820978903577178
 30
0
 11
52.112320996631532
 21
43.947586162660123
 31
0
  0
LINE
  5
1C1
  8
0
  6
CONTINUOUS
 62
7
 10
52.112320996631532
 20
43.947586162660123
 30
0
 11
51.434326205134383
 21
44.031646492500172
 31
0
  0
LINE
  5
1C2
  8
0
  6
CONTINUOUS
 62
7
 10
51.434326205134383
 20
44.031646492500172
 30
0
 11
50.672271083797121
 21
44.159631789777237
 31
0
  0
LINE
  5
1C3
  8
0
  6
CONTINUOUS
 62
7
 10
50.672271083797121
 20
44.159631789777237
 30
0
 11
49.910215962459837
 21
44.201317445148753
 31
0
  0
LINE
  5
1C4
  8
0
  6
CONTINUOUS
 62
7
 10
49.910215962459837
 20
44.201317445148753
 30
0
 11
49.1068196952996
 21
44.286583558408687
 31
0
  0
LINE
  5
1C5
  8
0
  6
CONTINUOUS
 62
7
 10
49.1068196952996
 20
44.286583558408687
 30
0
 11
48.259326205928133
 21
44.329302742425817
 31
0
  0
LINE
  5
1C6
  8
0
  6
CONTINUOUS
 62
7
 10
48.259326205928133
 20
44.329302742425817
 30
0
 11
47.413210754750772
 21
44.370643888248779
 31
0
  0
LINE
  5
1C7
  8
0
  6
CONTINUOUS
 62
7
 10
47.413210754750772
 20
44.370643888248779
 30
0
 11
46.524376119556322
 21
44.370643888248779
 31
0
  0
LINE
  5
1C8
  8
0
  6
CONTINUOUS
 62
7
 10
46.524376119556322
 20
44.370643888248779
 30
0
 11
45.676882630184863
 21
44.370643888248779
 31
0
  0
LINE
  5
1C9
  8
0
  6
CONTINUOUS
 62
7
 10
45.676882630184863
 20
44.370643888248779
 30
0
 11
44.830767179007474
 21
44.329302742425817
 31
0
  0
LINE
  5
1CA
  8
0
  6
CONTINUOUS
 62
7
 10
44.830767179007474
 20
44.329302742425817
 30
0
 11
43.9846517278301
 21
44.286583558408687
 31
0
  0
LINE
  5
1CB
  8
0
  6
CONTINUOUS
 62
7
 10
43.9846517278301
 20
44.286583558408687
 30
0
 11
43.179877422475748
 21
44.201317445148753
 31
0
  0
LINE
  5
1CC
  8
0
  6
CONTINUOUS
 62
7
 10
43.179877422475748
 20
44.201317445148753
 30
0
 11
42.3751031171214
 21
44.159631789777237
 31
0
  0
LINE
  5
1CD
  8
0
  6
CONTINUOUS
 62
7
 10
42.3751031171214
 20
44.159631789777237
 30
0
 11
41.655767179801217
 21
44.031646492500172
 31
0
  0
LINE
  5
1CE
  8
0
  6
CONTINUOUS
 62
7
 10
41.655767179801217
 20
44.031646492500172
 30
0
 11
40.936431242481071
 21
43.947586162660123
 31
0
  0
LINE
  5
1CF
  8
0
  6
CONTINUOUS
 62
7
 10
40.936431242481071
 20
43.947586162660123
 30
0
 11
40.301155635000967
 21
43.820978903577178
 31
0
  0
LINE
  5
1D0
  8
0
  6
CONTINUOUS
 62
7
 10
40.301155635000967
 20
43.820978903577178
 30
0
 11
39.751318395555131
 21
43.694027134945721
 31
0
  0
LINE
  5
1D1
  8
0
  6
CONTINUOUS
 62
7
 10
39.751318395555131
 20
43.694027134945721
 30
0
 11
39.030604420040852
 21
43.48198150782855
 31
0
  0
LINE
  5
1D2
  8
0
  6
CONTINUOUS
 62
7
 10
39.030604420040852
 20
43.48198150782855
 30
0
 11
38.4380479965779
 21
43.228250225339949
 31
0
  0
LINE
  5
1D3
  8
0
  6
CONTINUOUS
 62
7
 10
38.4380479965779
 20
43.228250225339949
 30
0
 11
38.0149902709892
 21
42.973313159431463
 31
0
  0
LINE
  5
1D4
  8
0
  6
CONTINUOUS
 62
7
 10
38.0149902709892
 20
42.973313159431463
 30
0
 11
37.761431243274806
 21
42.719581876942833
 31
0
  0
LINE
  5
1D5
  8
0
  6
CONTINUOUS
 62
7
 10
33.612158240839911
 20
22.484641289553611
 30
0
 11
33.654877424857013
 21
22.315314846453571
 31
0
  0
LINE
  5
1D6
  8
0
  6
CONTINUOUS
 62
7
 10
33.654877424857013
 20
22.315314846453571
 30
0
 11
33.697596608874122
 21
22.145643893805019
 31
0
  0
LINE
  5
1D7
  8
0
  6
CONTINUOUS
 62
7
 10
33.697596608874122
 20
22.145643893805019
 30
0
 11
33.824376122731323
 21
21.934631795333491
 31
0
  0
LINE
  5
1D8
  8
0
  6
CONTINUOUS
 62
7
 10
33.824376122731323
 20
21.934631795333491
 30
0
 11
33.993874820605591
 21
21.765305352233462
 31
0
  0
LINE
  5
1D9
  8
0
  6
CONTINUOUS
 62
7
 10
33.993874820605591
 20
21.765305352233462
 30
0
 11
34.204714664302891
 21
21.595978909133422
 31
0
  0
LINE
  5
1DA
  8
0
  6
CONTINUOUS
 62
7
 10
34.204714664302891
 20
21.595978909133422
 30
0
 11
34.50099287603436
 21
21.42630795648488
 31
0
  0
LINE
  5
1DB
  8
0
  6
CONTINUOUS
 62
7
 10
34.50099287603436
 20
21.42630795648488
 30
0
 11
34.839990271782952
 21
21.25698151338484
 31
0
  0
LINE
  5
1DC
  8
0
  6
CONTINUOUS
 62
7
 10
34.839990271782952
 20
21.25698151338484
 30
0
 11
35.221706851548653
 21
21.08731056073627
 31
0
  0
LINE
  5
1DD
  8
0
  6
CONTINUOUS
 62
7
 10
35.221706851548653
 20
21.08731056073627
 30
0
 11
35.68610572296032
 21
20.96070330165335
 31
0
  0
LINE
  5
1DE
  8
0
  6
CONTINUOUS
 62
7
 10
35.68610572296032
 20
20.96070330165335
 30
0
 11
36.151882632566107
 21
20.7910323490048
 31
0
  0
LINE
  5
1DF
  8
0
  6
CONTINUOUS
 62
7
 10
36.151882632566107
 20
20.7910323490048
 30
0
 11
36.703097910206061
 21
20.66425283514759
 31
0
  0
LINE
  5
1E0
  8
0
  6
CONTINUOUS
 62
7
 10
36.703097910206061
 20
20.66425283514759
 30
0
 11
37.25293514965194
 21
20.494581882499041
 31
0
  0
LINE
  5
1E1
  8
0
  6
CONTINUOUS
 62
7
 10
37.25293514965194
 20
20.494581882499041
 30
0
 11
37.888210757132008
 21
20.410693807433219
 31
0
  0
LINE
  5
1E2
  8
0
  6
CONTINUOUS
 62
7
 10
37.888210757132008
 20
20.410693807433219
 30
0
 11
38.56482751043508
 21
20.283914293576021
 31
0
  0
LINE
  5
1E3
  8
0
  6
CONTINUOUS
 62
7
 10
38.56482751043508
 20
20.283914293576021
 30
0
 11
39.24282230193225
 21
20.155584486750481
 31
0
  0
LINE
  5
1E4
  8
0
  6
CONTINUOUS
 62
7
 10
39.24282230193225
 20
20.155584486750481
 30
0
 11
39.9621582392524
 21
20.071696411684648
 31
0
  0
LINE
  5
1E5
  8
0
  6
CONTINUOUS
 62
7
 10
39.9621582392524
 20
20.071696411684648
 30
0
 11
40.724213360589687
 21
19.987636081844538
 31
0
  0
LINE
  5
1E6
  8
0
  6
CONTINUOUS
 62
7
 10
40.724213360589687
 20
19.987636081844538
 30
0
 11
41.528987665944037
 21
19.902369968584608
 31
0
  0
LINE
  5
1E7
  8
0
  6
CONTINUOUS
 62
7
 10
41.528987665944037
 20
19.902369968584608
 30
0
 11
42.2910427872813
 21
19.8596507845675
 31
0
  0
LINE
  5
1E8
  8
0
  6
CONTINUOUS
 62
7
 10
42.2910427872813
 20
19.8596507845675
 30
0
 11
43.137158238458653
 21
19.77524594517887
 31
0
  0
LINE
  5
1E9
  8
0
  6
CONTINUOUS
 62
7
 10
43.137158238458653
 20
19.77524594517887
 30
0
 11
43.9846517278301
 21
19.732699015936031
 31
0
  0
LINE
  5
1EA
  8
0
  6
CONTINUOUS
 62
7
 10
43.9846517278301
 20
19.732699015936031
 30
0
 11
44.830767179007474
 21
19.732699015936031
 31
0
  0
LINE
  5
1EB
  8
0
  6
CONTINUOUS
 62
7
 10
44.830767179007474
 20
19.732699015936031
 30
0
 11
45.676882630184863
 21
19.689979831918929
 31
0
  0
LINE
  5
1EC
  8
0
  6
CONTINUOUS
 62
7
 10
45.676882630184863
 20
19.689979831918929
 30
0
 11
46.524376119556322
 21
19.689979831918929
 31
0
  0
LINE
  5
1ED
  8
0
  6
CONTINUOUS
 62
7
 10
46.524376119556322
 20
19.689979831918929
 30
0
 11
47.413210754750772
 21
19.689979831918929
 31
0
  0
LINE
  5
1EE
  8
0
  6
CONTINUOUS
 62
7
 10
47.413210754750772
 20
19.689979831918929
 30
0
 11
48.259326205928133
 21
19.732699015936031
 31
0
  0
LINE
  5
1EF
  8
0
  6
CONTINUOUS
 62
7
 10
48.259326205928133
 20
19.732699015936031
 30
0
 11
49.1068196952996
 21
19.732699015936031
 31
0
  0
LINE
  5
1F0
  8
0
  6
CONTINUOUS
 62
7
 10
49.1068196952996
 20
19.732699015936031
 30
0
 11
49.952935146476918
 21
19.77524594517887
 31
0
  0
LINE
  5
1F1
  8
0
  6
CONTINUOUS
 62
7
 10
49.952935146476918
 20
19.77524594517887
 30
0
 11
50.7577094518313
 21
19.8596507845675
 31
0
  0
LINE
  5
1F2
  8
0
  6
CONTINUOUS
 62
7
 10
50.7577094518313
 20
19.8596507845675
 30
0
 11
51.561105718991563
 21
19.902369968584608
 31
0
  0
LINE
  5
1F3
  8
0
  6
CONTINUOUS
 62
7
 10
51.561105718991563
 20
19.902369968584608
 30
0
 11
52.323160840328811
 21
19.987636081844538
 31
0
  0
LINE
  5
1F4
  8
0
  6
CONTINUOUS
 62
7
 10
52.323160840328811
 20
19.987636081844538
 30
0
 11
53.08521596166608
 21
20.071696411684648
 31
0
  0
LINE
  5
1F5
  8
0
  6
CONTINUOUS
 62
7
 10
53.08521596166608
 20
20.071696411684648
 30
0
 11
53.847271083003371
 21
20.155584486750481
 31
0
  0
LINE
  5
1F6
  8
0
  6
CONTINUOUS
 62
7
 10
53.847271083003371
 20
20.155584486750481
 30
0
 11
54.525265874500533
 21
20.283914293576021
 31
0
  0
LINE
  5
1F7
  8
0
  6
CONTINUOUS
 62
7
 10
54.525265874500533
 20
20.283914293576021
 30
0
 11
55.20188262780362
 21
20.410693807433219
 31
0
  0
LINE
  5
1F8
  8
0
  6
CONTINUOUS
 62
7
 10
55.20188262780362
 20
20.410693807433219
 30
0
 11
55.794439051266536
 21
20.494581882499041
 31
0
  0
LINE
  5
1F9
  8
0
  6
CONTINUOUS
 62
7
 10
55.794439051266536
 20
20.494581882499041
 30
0
 11
56.388373512923643
 21
20.66425283514759
 31
0
  0
LINE
  5
1FA
  8
0
  6
CONTINUOUS
 62
7
 10
56.388373512923643
 20
20.66425283514759
 30
0
 11
56.895491568352419
 21
20.7910323490048
 31
0
  0
LINE
  5
1FB
  8
0
  6
CONTINUOUS
 62
7
 10
56.895491568352419
 20
20.7910323490048
 30
0
 11
57.4039876619753
 21
20.96070330165335
 31
0
  0
LINE
  5
1FC
  8
0
  6
CONTINUOUS
 62
7
 10
57.4039876619753
 20
20.96070330165335
 30
0
 11
57.82704538756397
 21
21.08731056073627
 31
0
  0
LINE
  5
1FD
  8
0
  6
CONTINUOUS
 62
7
 10
57.82704538756397
 20
21.08731056073627
 30
0
 11
58.250103113152647
 21
21.25698151338484
 31
0
  0
LINE
  5
1FE
  8
0
  6
CONTINUOUS
 62
7
 10
58.250103113152647
 20
21.25698151338484
 30
0
 11
58.589100508901232
 21
21.42630795648488
 31
0
  0
LINE
  5
1FF
  8
0
  6
CONTINUOUS
 62
7
 10
58.589100508901232
 20
21.42630795648488
 30
0
 11
58.842659536615642
 21
21.595978909133422
 31
0
  0
LINE
  5
200
  8
0
  6
CONTINUOUS
 62
7
 10
58.842659536615642
 20
21.595978909133422
 30
0
 11
59.097596602524114
 21
21.765305352233462
 31
0
  0
LINE
  5
201
  8
0
  6
CONTINUOUS
 62
7
 10
59.097596602524114
 20
21.765305352233462
 30
0
 11
59.267095300398417
 21
21.934631795333491
 31
0
  0
LINE
  5
202
  8
0
  6
CONTINUOUS
 62
7
 10
59.267095300398417
 20
21.934631795333491
 30
0
 11
59.393874814255582
 21
22.145643893805019
 31
0
  0
LINE
  5
203
  8
0
  6
CONTINUOUS
 62
7
 10
59.393874814255582
 20
22.145643893805019
 30
0
 11
59.43521596007858
 21
22.315314846453571
 31
0
  0
LINE
  5
204
  8
0
  6
CONTINUOUS
 62
7
 10
59.43521596007858
 20
22.315314846453571
 30
0
 11
59.43521596007858
 21
22.484641289553611
 31
0
  0
INSERT
  5
212
  8
0
  2
SPECEL-CE1700C
 10
89.969650495674728
 20
-1.3778684880559524
 30
0
 41
1
 42
1
 43
1
 50
0
  0
ENDSEC
999
Created By CadLib version 4.0.36.7
999
CadLib website: www.woutware.com
  0
EOF
