  0
SECTION
  2
HEADER
  9
$ACADVER
  1
AC1009
  9
$DWGCODEPAGE
  3
dos932
  9
$INSBASE
 10
0
 20
0
 30
0
  9
$EXTMIN
 10
-3.0466332221965926
 20
-8.0953276713580884
 30
0
  9
$EXTMAX
 10
94.7490462770076
 20
83.01790571827155
 30
0
  9
$LIMMIN
 10
0
 20
0
  9
$LIMMAX
 10
105.125
 20
74.25
  9
$SNAPMODE
 70
0
  9
$SNAPUNIT
 10
1
 20
1
  9
$SNAPBASE
 10
0
 20
0
  9
$SNAPANG
 50
0
  9
$SNAPSTYLE
 70
0
  9
$SNAPISOPAIR
 70
0
  9
$ORTHOMODE
 70
0
  9
$REGENMODE
 70
1
  9
$FILLMODE
 70
1
  9
$QTEXTMODE
 70
0
  9
$MIRRTEXT
 70
0
  9
$LTSCALE
 40
0.125
  9
$OSMODE
 70
37
  9
$ATTMODE
 70
1
  9
$TEXTSIZE
 40
0.2
  9
$TRACEWID
 40
0.05
  9
$TEXTSTYLE
  7
STANDARD
  9
$CLAYER
  8
0
  9
$CELTYPE
  6
CONTINUOUS
  9
$CECOLOR
 62
256
  9
$DIMSCALE
 40
1
  9
$DIMASZ
 40
0.18
  9
$DIMEXO
 40
0.0625
  9
$DIMDLI
 40
0.38
  9
$DIMRND
 40
0
  9
$DIMDLE
 40
0
  9
$DIMEXE
 40
0.18
  9
$DIMTP
 40
0
  9
$DIMTM
 40
0
  9
$DIMTXT
 40
0.18
  9
$DIMCEN
 40
0.09
  9
$DIMTSZ
 40
0
  9
$DIMTOL
 70
0
  9
$DIMLIM
 70
0
  9
$DIMTIH
 70
1
  9
$DIMTOH
 70
1
  9
$DIMSE1
 70
0
  9
$DIMSE2
 70
0
  9
$DIMTAD
 70
0
  9
$DIMZIN
 70
0
  9
$DIMBLK
  1

  9
$DIMASO
 70
1
  9
$DIMSHO
 70
1
  9
$DIMPOST
  1

  9
$DIMAPOST
  1

  9
$DIMALT
 70
0
  9
$DIMALTD
 70
2
  9
$DIMALTF
 40
25.4
  9
$DIMLFAC
 40
1
  9
$DIMTOFL
 70
0
  9
$DIMTVP
 40
0
  9
$DIMTIX
 70
0
  9
$DIMSOXD
 70
0
  9
$DIMSAH
 70
0
  9
$DIMBLK1
  1

  9
$DIMBLK2
  1

  9
$DIMSTYLE
  2
STANDARD
  9
$DIMCLRD
 70
0
  9
$DIMCLRE
 70
0
  9
$DIMCLRT
 70
0
  9
$DIMTFAC
 40
1
  9
$DIMGAP
 40
0.09
  9
$LUNITS
 70
2
  9
$LUPREC
 70
4
  9
$SKETCHINC
 40
0.1
  9
$FILLETRAD
 40
0
  9
$AUNITS
 70
0
  9
$AUPREC
 70
0
  9
$MENU
  1
.
  9
$ELEVATION
 40
0
  9
$PELEVATION
 40
0
  9
$THICKNESS
 40
0
  9
$LIMCHECK
 70
0
  9
$CHAMFERA
 40
0
  9
$CHAMFERB
 40
0
  9
$SKPOLY
 70
0
  9
$TDCREATE
 40
2456622.5523805902
  9
$TDUPDATE
 40
2457205.4766457062
  9
$TDINDWG
 40
0.018311435185185184
  9
$TDUSRTIMER
 40
0.018311435185185184
  9
$USRTIMER
 70
1
  9
$ANGBASE
 50
0
  9
$ANGDIR
 70
0
  9
$PDMODE
 70
0
  9
$PDSIZE
 40
0
  9
$PLINEWID
 40
0
  9
$SPLFRAME
 70
0
  9
$SPLINETYPE
 70
6
  9
$SPLINESEGS
 70
8
  9
$HANDLING
 70
1
  9
$HANDSEED
  5
A4C2
  9
$SURFTAB1
 70
6
  9
$SURFTAB2
 70
6
  9
$SURFTYPE
 70
6
  9
$SURFU
 70
6
  9
$SURFV
 70
6
  9
$UCSORG
 10
0
 20
0
 30
0
  9
$UCSXDIR
 10
1
 20
0
 30
0
  9
$UCSYDIR
 10
0
 20
1
 30
0
  9
$PUCSORG
 10
0
 20
0
 30
0
  9
$PUCSXDIR
 10
1
 20
0
 30
0
  9
$PUCSYDIR
 10
0
 20
1
 30
0
  9
$USERI1
 70
0
  9
$USERI2
 70
0
  9
$USERI3
 70
0
  9
$USERI4
 70
0
  9
$USERI5
 70
0
  9
$USERR1
 40
0
  9
$USERR2
 40
0
  9
$USERR3
 40
0
  9
$USERR4
 40
0
  9
$USERR5
 40
0
  9
$WORLDVIEW
 70
1
  9
$SHADEDGE
 70
3
  9
$SHADEDIF
 70
70
  9
$TILEMODE
 70
1
  9
$MAXACTVP
 70
64
  9
$PINSBASE
 10
0
 20
0
 30
0
  9
$PLIMCHECK
 70
0
  9
$PEXTMIN
 10
1E+20
 20
1E+20
 30
1E+20
  9
$PEXTMAX
 10
-1E+20
 20
-1E+20
 30
-1E+20
  9
$PLIMMAX
 10
12
 20
9
  9
$PLIMMIN
 10
0
 20
0
  9
$UNITMODE
 70
0
  9
$VISRETAIN
 70
1
  9
$PLINEGEN
 70
0
  9
$PSLTSCALE
 70
1
  9
$TREEDEPTH
 70
3020
  9
$DRAGMODE
 70
     2
  9
$BLIPMODE
 70
     0
  9
$COORDS
 70
     1
  9
$ATTDIA
 70
     0
  9
$ATTREQ
 70
     1
  0
ENDSEC
  0
SECTION
  2
TABLES
  0
TABLE
  2
VPORT
  5
A4B4
 70
1
  0
VPORT
  5
A488
  2
*ACTIVE
 70
0
 10
0
 20
0
 11
1
 21
1
 12
82.975241266997713
 22
50.918795507668463
 13
0
 23
0
 14
1
 24
1
 15
0
 25
0
 16
0
 26
0
 36
1
 17
0
 27
0
 37
0
 40
174.87720013628339
 41
1.5119047619047621
 42
50
 43
0
 44
0
 50
0
 51
0
 71
0
 72
100
 73
1
 74
1
 75
0
 76
0
 77
0
 78
0
  0
ENDTAB
  0
TABLE
  2
LTYPE
  5
A4B5
 70
40
  0
LTYPE
  5
A45E
  2
CONTINUOUS
  3
実線
 70
0
 72
65
 73
0
 40
0
  0
LTYPE
  5
A45F
  2
DASHED1
  3
--  --  --  --  --  --  --  --  
 70
0
 72
65
 73
2
 40
2.5
 49
1.25
 49
-1.25
  0
LTYPE
  5
A460
  2
DASHED2
  3
----    ----    ----    ----    
 70
0
 72
65
 73
2
 40
5
 49
2.5
 49
-2.5
  0
LTYPE
  5
A461
  2
DASHED3
  3
------  ------  ------  ------  
 70
0
 72
65
 73
2
 40
5
 49
3.75
 49
-1.25
  0
LTYPE
  5
A462
  2
CENTER1
  3
----- - ----- - ----- - ----- - 
 70
0
 72
65
 73
4
 40
10
 49
6.25
 49
-1.25
 49
1.25
 49
-1.25
  0
LTYPE
  5
A463
  2
CENTER2
  3
----------  --  ----------  --  
 70
0
 72
65
 73
4
 40
20
 49
12.5
 49
-2.5
 49
2.5
 49
-2.5
  0
LTYPE
  5
A464
  2
PHANTOM1
  3
--- - - --- - - --- - - --- - - 
 70
0
 72
65
 73
6
 40
9.5
 49
3.25
 49
-1.25
 49
1.25
 49
-1.25
 49
1.25
 49
-1.25
  0
LTYPE
  5
A465
  2
PHANTOM2
  3
--------  -  -  --------  -  -  
 70
0
 72
65
 73
6
 40
20
 49
10
 49
-2.5
 49
1.25
 49
-2.5
 49
1.25
 49
-2.5
  0
LTYPE
  5
A466
  2
DOT
  3
-   -   -   -   -   -   -   -   
 70
0
 72
65
 73
2
 40
2.5
 49
0.625
 49
-1.875
  0
LTYPE
  5
A467
  2
DUMMY
  3
ダミー
 70
0
 72
65
 73
0
 40
0
  0
LTYPE
  5
A468
  2
RAND1
  3
ランダム線1
 70
0
 72
65
 73
4
 40
10
 49
1
 49
-2
 49
3
 49
-4
  0
LTYPE
  5
A469
  2
RAND2
  3
ランダム線2
 70
0
 72
65
 73
4
 40
14
 49
2
 49
-3
 49
4
 49
-5
  0
LTYPE
  5
A46A
  2
RAND3
  3
ランダム線3
 70
0
 72
65
 73
4
 40
18
 49
3
 49
-4
 49
5
 49
-6
  0
LTYPE
  5
A46B
  2
RAND4
  3
ランダム線4
 70
0
 72
65
 73
4
 40
22
 49
4
 49
-5
 49
6
 49
-7
  0
LTYPE
  5
A46C
  2
RAND5
  3
ランダム線5
 70
0
 72
65
 73
4
 40
26
 49
5
 49
-6
 49
7
 49
-8
  0
LTYPE
  5
A46D
  2
LONG1
  3
----------  --  ----------  --  
 70
0
 72
65
 73
4
 40
40
 49
32.5
 49
-2.5
 49
2.5
 49
-2.5
  0
LTYPE
  5
A46E
  2
LONG2
  3
--------  -  -  --------  -  -  
 70
0
 72
65
 73
6
 40
40
 49
30
 49
-2.5
 49
1.25
 49
-2.5
 49
1.25
 49
-2.5
  0
LTYPE
  5
A46F
  2
LONG3
  3
+++++++++++++++..+++++++++++++++
 70
0
 72
65
 73
2
 40
40
 49
37.5
 49
-2.5
  0
LTYPE
  5
A470
  2
LONG4
  3
+++++++++++++++..+++++++++++++++
 70
0
 72
65
 73
2
 40
80
 49
75
 49
-5
  0
LTYPE
  5
A471
  2
LONG5
  3
----------  --  ----------  --  
 70
0
 72
65
 73
4
 40
60
 49
37.5
 49
-7.5
 49
7.5
 49
-7.5
  0
LTYPE
  5
A472
  2
DASHED
  3
-------   -------------   ------
 70
0
 72
65
 73
2
 40
3.8
 49
3
 49
-0.8
  0
LTYPE
  5
A473
  2
DASHED_SPACED
  3
----        --------        ----
 70
0
 72
65
 73
2
 40
12
 49
6
 49
-6
  0
LTYPE
  5
A474
  2
LONG_DASHED_DOTTED
  3
------------- --- --------------
 70
0
 72
65
 73
4
 40
15.25
 49
12
 49
-1.5
 49
0.25
 49
-1.5
  0
LTYPE
  5
A475
  2
LONG_DASHED_DOUBLE-DOTTED
  3
----------- --- --- ------------
 70
0
 72
65
 73
6
 40
17
 49
12
 49
-1.5
 49
0.25
 49
-1.5
 49
0.25
 49
-1.5
  0
LTYPE
  5
A476
  2
LONG_DASHED_TRIPLICATE-DOT
  3
--------- --- --- --- ----------
 70
0
 72
65
 73
8
 40
18.75
 49
12
 49
-1.5
 49
0.25
 49
-1.5
 49
0.25
 49
-1.5
 49
0.25
 49
-1.5
  0
LTYPE
  5
A477
  2
DOTTED
  3
   -       -       -       -    
 70
0
 72
65
 73
2
 40
1.75
 49
0.25
 49
-1.5
  0
LTYPE
  5
A478
  2
CHAIN
  3
-------------- -- --------------
 70
0
 72
65
 73
4
 40
18.5
 49
12
 49
-1.5
 49
3.5
 49
-1.5
  0
LTYPE
  5
A479
  2
CHAIN_DOUBLE_DASH
  3
------------ -- -- -------------
 70
0
 72
65
 73
6
 40
23.5
 49
12
 49
-1.5
 49
3.5
 49
-1.5
 49
3.5
 49
-1.5
  0
LTYPE
  5
A47A
  2
DASHED_DOTTED
  3
-----------     -     ----------
 70
0
 72
65
 73
4
 40
9.25
 49
6
 49
-1.5
 49
0.25
 49
-1.5
  0
LTYPE
  5
A47B
  2
DOUBLE-DASHED_DOTTED
  3
------   -----------   -   -----
 70
0
 72
65
 73
6
 40
16.75
 49
6
 49
-1.5
 49
6
 49
-1.5
 49
0.25
 49
-1.5
  0
LTYPE
  5
A47C
  2
DASHED_DOUBLE-DOTTED
  3
---------    -    -    ---------
 70
0
 72
65
 73
6
 40
11
 49
6
 49
-1.5
 49
0.25
 49
-1.5
 49
0.25
 49
-1.5
  0
LTYPE
  5
A47D
  2
DOUBLE-DASHED_DOUBLE-DOTTE
  3
-----   ---------   -   -   ----
 70
0
 72
65
 73
8
 40
18.5
 49
6
 49
-1.5
 49
6
 49
-1.5
 49
0.25
 49
-1.5
 49
0.25
 49
-1.5
  0
LTYPE
  5
A47E
  2
DASHED_TRIPLICATE-DOTTED
  3
-------    -    -    -    ------
 70
0
 72
65
 73
8
 40
12.75
 49
6
 49
-1.5
 49
0.25
 49
-1.5
 49
0.25
 49
-1.5
 49
0.25
 49
-1.5
  0
LTYPE
  5
A47F
  2
DOUBLE-DASHED_TRIPLICATE-D
  3
-----  ---------  -  -  -  -----
 70
0
 72
65
 73
10
 40
20.25
 49
6
 49
-1.5
 49
6
 49
-1.5
 49
0.25
 49
-1.5
 49
0.25
 49
-1.5
 49
0.25
 49
-1.5
  0
LTYPE
  5
A480
  2
UNDEFINED
  3
--------------------------------
 70
0
 72
65
 73
0
 40
0
  0
LTYPE
  5
A481
  2
DOT_18
  3
----        --------        ----
 70
0
 72
65
 73
2
 40
2
 49
1
 49
-1
  0
LTYPE
  5
A482
  2
DASHDOT
  3
------------   --   ------------
 70
0
 72
65
 73
4
 40
25.6
 49
20
 49
-2
 49
1.6
 49
-2
  0
LTYPE
  5
A483
  2
DIVIDE
  3
-----------  --  --  -----------
 70
0
 72
65
 73
6
 40
31.199999999999996
 49
20
 49
-2.399999999999999
 49
2
 49
-2.399999999999999
 49
2
 49
-2.399999999999999
  0
LTYPE
  5
A484
  2
ByBlock
  3

 70
64
 72
65
 73
0
 40
0
  0
LTYPE
  5
A485
  2
ByLayer
  3

 70
64
 72
65
 73
0
 40
0
  0
ENDTAB
  0
TABLE
  2
LAYER
  5
A4B6
 70
2
  0
LAYER
  5
A447
 70
0
  2
0
 62
7
  6
CONTINUOUS
  0
LAYER
  5
A448
 70
0
  2
SPEC
 62
7
  6
CONTINUOUS
  0
ENDTAB
  0
TABLE
  2
STYLE
  5
A4B7
 70
3
  0
STYLE
  5
A45B
  2
STANDARD
 70
0
 40
0
 41
1
 50
0
 71
0
 42
0.2
  3
txt.shx
  4
extfont2.shx
  0
STYLE
  5
A45C
  2
ANNOTATIVE
 70
0
 40
0
 41
1
 50
0
 71
0
 42
0.2
  3
txt
  0
STYLE
  5
A45D
  2
TATEGAKI
 70
4
 40
0
 41
1
 50
0
 71
0
 42
1
  3
txt
  4
bigfont.shx
  0
ENDTAB
  0
TABLE
  2
APPID
  5
A4BA
 70
4
  0
APPID
  5
A4BB
  2
ACAD
 70
0
  0
APPID
  5
A4BE
  2
ACADANNOTATIVE
 70
0
  0
APPID
  5
A4BF
  2
ACAD_MLEADERVER
 70
0
  0
APPID
  5
A4C0
  2
ACAD_EXEMPT_FROM_CAD_STANDARDS
 70
0
  0
ENDTAB
  0
TABLE
  2
DIMSTYLE
  5
A4BC
 70
2
  0
DIMSTYLE
105
A486
  2
STANDARD
 70
0
  3

  4

  5

  6

  7

 40
1
 41
0.18
 42
0.0625
 43
0.38
 44
0.18
 45
0
 46
0
 47
0
 48
0
140
0.18
141
0.09
142
0
143
25.4
144
1
145
0
146
1
147
0.09
 71
0
 72
0
 73
1
 74
1
 75
0
 76
0
 77
0
 78
0
170
0
171
2
172
0
173
0
174
0
175
0
176
0
177
0
178
0
  0
DIMSTYLE
105
A487
  2
ANNOTATIVE
 70
0
  3

  4

  5

  6

  7

 40
1
 41
0.18
 42
0.0625
 43
0.38
 44
0.18
 45
0
 46
0
 47
0
 48
0
140
0.18
141
0.09
142
0
143
25.4
144
1
145
0
146
1
147
0.09
 71
0
 72
0
 73
1
 74
1
 75
0
 76
0
 77
0
 78
0
170
0
171
2
172
0
173
0
174
0
175
0
176
0
177
0
178
0
  0
ENDTAB
  0
ENDSEC
  0
SECTION
  2
BLOCKS
  0
BLOCK
  5
A44A
  8
0
  2
$MODEL_SPACE
 70
0
 10
0
 20
0
 30
0
  3
$MODEL_SPACE
  0
ENDBLK
  5
9FE8
  8
0
  0
BLOCK
  5
A44C
  8
0
 67
1
  2
$PAPER_SPACE
 70
0
 10
0
 20
0
 30
0
  3
$PAPER_SPACE
  0
ENDBLK
  5
9FE4
  8
0
  0
BLOCK
  5
A44E
  8
0
  2
SPEC_BLOCK
 70
64
 10
0
 20
0
 30
0
  3
SPEC_BLOCK
  0
TEXT
  5
A44F
  8
SPEC
 10
0
 20
0
 30
0
 40
1.5
  1
LED 口金:E17
  7
STANDARD
  0
TEXT
  5
A450
  8
SPEC
 10
0
 20
-3
 30
0
 40
1.5
  1
本体:ｱﾙﾐ ｼﾙﾊﾞｰ色塗装仕上
  7
STANDARD
  0
TEXT
  5
A451
  8
SPEC
 10
0
 20
-6
 30
0
 40
1.5
  1
質量:0.4kg
  7
STANDARD
  0
ENDBLK
  5
A452
  8
0
  0
BLOCK
  5
A454
  8
0
  2
*MODEL_SPACE
 70
64
 10
0
 20
0
 30
0
  3
*MODEL_SPACE
  0
ENDBLK
  5
A457
  8
0
  0
BLOCK
  5
A459
  8
0
 67
1
  2
*PAPER_SPACE
 70
64
 10
0
 20
0
 30
0
  3
*PAPER_SPACE
  0
ENDBLK
  5
A45A
  8
0
  0
ENDSEC
  0
SECTION
  2
ENTITIES
  0
TEXT
  5
A3
  8
0
 62
7
 10
-3.5582294022784482
 20
-7.3750000000000142
 30
0
 40
5
  1
三菱 EL-CE1708C/S
  7
STANDARD
  0
TEXT
  5
A4
  8
0
 62
7
 10
-3.5582294022784482
 20
76.624999999999986
 30
0
 40
5
  1
LEDx1 小形シーリング
  7
STANDARD
  0
POLYLINE
  5
99C8
  8
0
 62
7
 66
1
 70
0
 10
0
 20
0
 30
0
  0
VERTEX
  5
A027
  8
0
 62
7
 10
41.342162474524173
 20
31.61039299260824
 70
0
  0
VERTEX
  5
A028
  8
0
 62
7
 10
42.188277925701549
 20
31.69565910586817
 70
0
  0
SEQEND
  5
A029
  8
0
  0
POLYLINE
  5
99CC
  8
0
 62
7
 66
1
 70
0
 10
0
 20
0
 30
0
  0
VERTEX
  5
A02A
  8
0
 62
7
 10
42.188277925701549
 20
31.69565910586817
 70
0
  0
VERTEX
  5
A02B
  8
0
 62
7
 10
42.9930522310559
 20
31.822783129273891
 70
0
  0
SEQEND
  5
A02C
  8
0
  0
POLYLINE
  5
99D0
  8
0
 62
7
 66
1
 70
0
 10
0
 20
0
 30
0
  0
VERTEX
  5
A02D
  8
0
 62
7
 10
42.9930522310559
 20
31.822783129273891
 70
0
  0
VERTEX
  5
A02E
  8
0
 62
7
 10
43.797826536410277
 20
31.99210957237392
 70
0
  0
SEQEND
  5
A02F
  8
0
  0
POLYLINE
  5
99D4
  8
0
 62
7
 66
1
 70
0
 10
0
 20
0
 30
0
  0
VERTEX
  5
A030
  8
0
 62
7
 10
43.797826536410277
 20
31.99210957237392
 70
0
  0
VERTEX
  5
A031
  8
0
 62
7
 10
44.55850361955342
 20
32.161780525022493
 70
0
  0
SEQEND
  5
A032
  8
0
  0
POLYLINE
  5
99D8
  8
0
 62
7
 66
1
 70
0
 10
0
 20
0
 30
0
  0
VERTEX
  5
A033
  8
0
 62
7
 10
44.55850361955342
 20
32.161780525022493
 70
0
  0
VERTEX
  5
A034
  8
0
 62
7
 10
45.2364984110506
 20
32.3724481139455
 70
0
  0
SEQEND
  5
A035
  8
0
  0
POLYLINE
  5
99DC
  8
0
 62
7
 66
1
 70
0
 10
0
 20
0
 30
0
  0
VERTEX
  5
A036
  8
0
 62
7
 10
45.2364984110506
 20
32.3724481139455
 70
0
  0
VERTEX
  5
A037
  8
0
 62
7
 10
45.91311516435367
 20
32.62600714165989
 70
0
  0
SEQEND
  5
A038
  8
0
  0
POLYLINE
  5
99E0
  8
0
 62
7
 66
1
 70
0
 10
0
 20
0
 30
0
  0
VERTEX
  5
A039
  8
0
 62
7
 10
45.91311516435367
 20
32.62600714165989
 70
0
  0
VERTEX
  5
A03A
  8
0
 62
7
 10
46.505671587816629
 20
32.881116462342682
 70
0
  0
SEQEND
  5
A03B
  8
0
  0
POLYLINE
  5
99E4
  8
0
 62
7
 66
1
 70
0
 10
0
 20
0
 30
0
  0
VERTEX
  5
A03C
  8
0
 62
7
 10
46.505671587816629
 20
32.881116462342682
 70
0
  0
VERTEX
  5
A03D
  8
0
 62
7
 10
47.014167681439517
 20
33.177394674074151
 70
0
  0
SEQEND
  5
A03E
  8
0
  0
POLYLINE
  5
99E8
  8
0
 62
7
 66
1
 70
0
 10
0
 20
0
 30
0
  0
VERTEX
  5
A03F
  8
0
 62
7
 10
41.850658568147047
 20
32.668726325677042
 70
0
  0
VERTEX
  5
A040
  8
0
 62
7
 10
42.611335651290219
 20
32.753992438936962
 70
0
  0
SEQEND
  5
A041
  8
0
  0
POLYLINE
  5
99EC
  8
0
 62
7
 66
1
 70
0
 10
0
 20
0
 30
0
  0
VERTEX
  5
A042
  8
0
 62
7
 10
42.611335651290219
 20
32.753992438936962
 70
0
  0
VERTEX
  5
A043
  8
0
 62
7
 10
43.3733907726275
 20
32.923663391585478
 70
0
  0
SEQEND
  5
A044
  8
0
  0
POLYLINE
  5
99F0
  8
0
 62
7
 66
1
 70
0
 10
0
 20
0
 30
0
  0
VERTEX
  5
A045
  8
0
 62
7
 10
43.3733907726275
 20
32.923663391585478
 70
0
  0
VERTEX
  5
A046
  8
0
 62
7
 10
44.094104748141739
 20
33.050442905442708
 70
0
  0
SEQEND
  5
A047
  8
0
  0
POLYLINE
  5
99F4
  8
0
 62
7
 66
1
 70
0
 10
0
 20
0
 30
0
  0
VERTEX
  5
A048
  8
0
 62
7
 10
44.094104748141739
 20
33.050442905442708
 70
0
  0
VERTEX
  5
A049
  8
0
 62
7
 10
44.770721501444818
 20
33.220113858091231
 70
0
  0
SEQEND
  5
A04A
  8
0
  0
POLYLINE
  5
99F8
  8
0
 62
7
 66
1
 70
0
 10
0
 20
0
 30
0
  0
VERTEX
  5
A04B
  8
0
 62
7
 10
44.770721501444818
 20
33.220113858091231
 70
0
  0
VERTEX
  5
A04C
  8
0
 62
7
 10
45.405997108924893
 20
33.430781447014283
 70
0
  0
SEQEND
  5
A04D
  8
0
  0
POLYLINE
  5
99FC
  8
0
 62
7
 66
1
 70
0
 10
0
 20
0
 30
0
  0
VERTEX
  5
A04E
  8
0
 62
7
 10
45.405997108924893
 20
33.430781447014283
 70
0
  0
VERTEX
  5
A04F
  8
0
 62
7
 10
45.998553532387859
 20
33.64299932890566
 70
0
  0
SEQEND
  5
A050
  8
0
  0
POLYLINE
  5
9A00
  8
0
 62
7
 66
1
 70
0
 10
0
 20
0
 30
0
  0
VERTEX
  5
A051
  8
0
 62
7
 10
41.850658568147047
 20
33.684340474728693
 70
0
  0
VERTEX
  5
A052
  8
0
 62
7
 10
42.527275321450126
 20
33.769778842762818
 70
0
  0
SEQEND
  5
A053
  8
0
  0
POLYLINE
  5
9A04
  8
0
 62
7
 66
1
 70
0
 10
0
 20
0
 30
0
  0
VERTEX
  5
A054
  8
0
 62
7
 10
42.527275321450126
 20
33.769778842762818
 70
0
  0
VERTEX
  5
A055
  8
0
 62
7
 10
43.203892074753171
 20
33.853666917828662
 70
0
  0
SEQEND
  5
A056
  8
0
  0
POLYLINE
  5
9A08
  8
0
 62
7
 66
1
 70
0
 10
0
 20
0
 30
0
  0
VERTEX
  5
A057
  8
0
 62
7
 10
43.203892074753171
 20
33.853666917828662
 70
0
  0
VERTEX
  5
A058
  8
0
 62
7
 10
43.881886866250369
 20
34.023337870477228
 70
0
  0
SEQEND
  5
A059
  8
0
  0
POLYLINE
  5
9A0C
  8
0
 62
7
 66
1
 70
0
 10
0
 20
0
 30
0
  0
VERTEX
  5
A05A
  8
0
 62
7
 10
43.881886866250369
 20
34.023337870477228
 70
0
  0
VERTEX
  5
A05B
  8
0
 62
7
 10
44.517162473730409
 20
34.149945129560187
 70
0
  0
SEQEND
  5
A05C
  8
0
  0
POLYLINE
  5
9A10
  8
0
 62
7
 66
1
 70
0
 10
0
 20
0
 30
0
  0
VERTEX
  5
A05D
  8
0
 62
7
 10
37.786823933746341
 20
34.701332661974391
 70
0
  0
VERTEX
  5
A05E
  8
0
 62
7
 10
37.362388169963573
 20
34.023337870477228
 70
0
  0
SEQEND
  5
A05F
  8
0
  0
POLYLINE
  5
9A14
  8
0
 62
7
 66
1
 70
0
 10
0
 20
0
 30
0
  0
VERTEX
  5
A060
  8
0
 62
7
 10
37.362388169963573
 20
34.023337870477228
 70
0
  0
VERTEX
  5
A061
  8
0
 62
7
 10
37.2356086561064
 20
33.30400193315706
 70
0
  0
SEQEND
  5
A062
  8
0
  0
POLYLINE
  5
9A18
  8
0
 62
7
 66
1
 70
0
 10
0
 20
0
 30
0
  0
VERTEX
  5
A063
  8
0
 62
7
 10
37.2356086561064
 20
33.30400193315706
 70
0
  0
VERTEX
  5
A064
  8
0
 62
7
 10
37.278327840123467
 20
32.542119066594068
 70
0
  0
SEQEND
  5
A065
  8
0
  0
POLYLINE
  5
9A1C
  8
0
 62
7
 66
1
 70
0
 10
0
 20
0
 30
0
  0
VERTEX
  5
A066
  8
0
 62
7
 10
37.278327840123467
 20
32.542119066594068
 70
0
  0
VERTEX
  5
A067
  8
0
 62
7
 10
37.61732523587208
 20
31.865330058516751
 70
0
  0
SEQEND
  5
A068
  8
0
  0
POLYLINE
  5
9A20
  8
0
 62
7
 66
1
 70
0
 10
0
 20
0
 30
0
  0
VERTEX
  5
A069
  8
0
 62
7
 10
37.61732523587208
 20
31.865330058516751
 70
0
  0
VERTEX
  5
A06A
  8
0
 62
7
 10
38.12444329130085
 20
31.2727736350538
 70
0
  0
SEQEND
  5
A06B
  8
0
  0
POLYLINE
  5
9A24
  8
0
 62
7
 66
1
 70
0
 10
0
 20
0
 30
0
  0
VERTEX
  5
A06C
  8
0
 62
7
 10
38.12444329130085
 20
31.2727736350538
 70
0
  0
VERTEX
  5
A06D
  8
0
 62
7
 10
38.802438082798
 20
30.933776239305189
 70
0
  0
SEQEND
  5
A06E
  8
0
  0
POLYLINE
  5
9A28
  8
0
 62
7
 66
1
 70
0
 10
0
 20
0
 30
0
  0
VERTEX
  5
A06F
  8
0
 62
7
 10
38.802438082798
 20
30.933776239305189
 70
0
  0
VERTEX
  5
A070
  8
0
 62
7
 10
39.56449320413526
 20
30.80699672544803
 70
0
  0
SEQEND
  5
A071
  8
0
  0
POLYLINE
  5
9A2C
  8
0
 62
7
 66
1
 70
0
 10
0
 20
0
 30
0
  0
VERTEX
  5
A072
  8
0
 62
7
 10
39.56449320413526
 20
30.80699672544803
 70
0
  0
VERTEX
  5
A073
  8
0
 62
7
 10
40.32654832547253
 20
30.933776239305189
 70
0
  0
SEQEND
  5
A074
  8
0
  0
POLYLINE
  5
9A30
  8
0
 62
7
 66
1
 70
0
 10
0
 20
0
 30
0
  0
VERTEX
  5
A075
  8
0
 62
7
 10
40.32654832547253
 20
30.933776239305189
 70
0
  0
VERTEX
  5
A076
  8
0
 62
7
 10
40.960445894758493
 20
31.2727736350538
 70
0
  0
SEQEND
  5
A077
  8
0
  0
POLYLINE
  5
9A34
  8
0
 62
7
 66
1
 70
0
 10
0
 20
0
 30
0
  0
VERTEX
  5
A078
  8
0
 62
7
 10
40.960445894758493
 20
31.2727736350538
 70
0
  0
VERTEX
  5
A079
  8
0
 62
7
 10
41.511661172398469
 20
31.865330058516751
 70
0
  0
SEQEND
  5
A07A
  8
0
  0
POLYLINE
  5
9A38
  8
0
 62
7
 66
1
 70
0
 10
0
 20
0
 30
0
  0
VERTEX
  5
A07B
  8
0
 62
7
 10
41.511661172398469
 20
31.865330058516751
 70
0
  0
VERTEX
  5
A07C
  8
0
 62
7
 10
41.807939384129952
 20
32.542119066594068
 70
0
  0
SEQEND
  5
A07D
  8
0
  0
POLYLINE
  5
9A3C
  8
0
 62
7
 66
1
 70
0
 10
0
 20
0
 30
0
  0
VERTEX
  5
A07E
  8
0
 62
7
 10
41.807939384129952
 20
32.542119066594068
 70
0
  0
VERTEX
  5
A07F
  8
0
 62
7
 10
41.891999713970037
 20
33.30400193315706
 70
0
  0
SEQEND
  5
A080
  8
0
  0
POLYLINE
  5
9A40
  8
0
 62
7
 66
1
 70
0
 10
0
 20
0
 30
0
  0
VERTEX
  5
A081
  8
0
 62
7
 10
41.891999713970037
 20
33.30400193315706
 70
0
  0
VERTEX
  5
A082
  8
0
 62
7
 10
41.722501016095762
 20
34.023337870477228
 70
0
  0
SEQEND
  5
A083
  8
0
  0
POLYLINE
  5
9A44
  8
0
 62
7
 66
1
 70
0
 10
0
 20
0
 30
0
  0
VERTEX
  5
A084
  8
0
 62
7
 10
41.722501016095762
 20
34.023337870477228
 70
0
  0
VERTEX
  5
A085
  8
0
 62
7
 10
41.342162474524173
 20
34.701332661974391
 70
0
  0
SEQEND
  5
A086
  8
0
  0
POLYLINE
  5
9A48
  8
0
 62
7
 66
1
 70
0
 10
0
 20
0
 30
0
  0
VERTEX
  5
A087
  8
0
 62
7
 10
34.569104750523
 20
34.149945129560187
 70
0
  0
VERTEX
  5
A088
  8
0
 62
7
 10
35.204380358003078
 20
34.023337870477228
 70
0
  0
SEQEND
  5
A089
  8
0
  0
POLYLINE
  5
9A4C
  8
0
 62
7
 66
1
 70
0
 10
0
 20
0
 30
0
  0
VERTEX
  5
A08A
  8
0
 62
7
 10
35.204380358003078
 20
34.023337870477228
 70
0
  0
VERTEX
  5
A08B
  8
0
 62
7
 10
35.880997111306137
 20
33.853666917828662
 70
0
  0
SEQEND
  5
A08C
  8
0
  0
POLYLINE
  5
9A50
  8
0
 62
7
 66
1
 70
0
 10
0
 20
0
 30
0
  0
VERTEX
  5
A08D
  8
0
 62
7
 10
35.880997111306137
 20
33.853666917828662
 70
0
  0
VERTEX
  5
A08E
  8
0
 62
7
 10
36.558991902803321
 20
33.769778842762818
 70
0
  0
SEQEND
  5
A08F
  8
0
  0
POLYLINE
  5
9A54
  8
0
 62
7
 66
1
 70
0
 10
0
 20
0
 30
0
  0
VERTEX
  5
A090
  8
0
 62
7
 10
36.558991902803321
 20
33.769778842762818
 70
0
  0
VERTEX
  5
A091
  8
0
 62
7
 10
37.278327840123467
 20
33.684340474728693
 70
0
  0
SEQEND
  5
A092
  8
0
  0
POLYLINE
  5
9A58
  8
0
 62
7
 66
1
 70
0
 10
0
 20
0
 30
0
  0
VERTEX
  5
A093
  8
0
 62
7
 10
33.0877136918656
 20
33.64299932890566
 70
0
  0
VERTEX
  5
A094
  8
0
 62
7
 10
33.68027011532854
 20
33.430781447014283
 70
0
  0
SEQEND
  5
A095
  8
0
  0
POLYLINE
  5
9A5C
  8
0
 62
7
 66
1
 70
0
 10
0
 20
0
 30
0
  0
VERTEX
  5
A096
  8
0
 62
7
 10
33.68027011532854
 20
33.430781447014283
 70
0
  0
VERTEX
  5
A097
  8
0
 62
7
 10
34.315545722808622
 20
33.220113858091231
 70
0
  0
SEQEND
  5
A098
  8
0
  0
POLYLINE
  5
9A60
  8
0
 62
7
 66
1
 70
0
 10
0
 20
0
 30
0
  0
VERTEX
  5
A099
  8
0
 62
7
 10
34.315545722808622
 20
33.220113858091231
 70
0
  0
VERTEX
  5
A09A
  8
0
 62
7
 10
34.99216247611168
 20
33.050442905442708
 70
0
  0
SEQEND
  5
A09B
  8
0
  0
POLYLINE
  5
9A64
  8
0
 62
7
 66
1
 70
0
 10
0
 20
0
 30
0
  0
VERTEX
  5
A09C
  8
0
 62
7
 10
34.99216247611168
 20
33.050442905442708
 70
0
  0
VERTEX
  5
A09D
  8
0
 62
7
 10
35.711498413431848
 20
32.923663391585478
 70
0
  0
SEQEND
  5
A09E
  8
0
  0
POLYLINE
  5
9A68
  8
0
 62
7
 66
1
 70
0
 10
0
 20
0
 30
0
  0
VERTEX
  5
A09F
  8
0
 62
7
 10
35.711498413431848
 20
32.923663391585478
 70
0
  0
VERTEX
  5
A0A0
  8
0
 62
7
 10
36.47355353476911
 20
32.753992438936962
 70
0
  0
SEQEND
  5
A0A1
  8
0
  0
POLYLINE
  5
9A6C
  8
0
 62
7
 66
1
 70
0
 10
0
 20
0
 30
0
  0
VERTEX
  5
A0A2
  8
0
 62
7
 10
36.47355353476911
 20
32.753992438936962
 70
0
  0
VERTEX
  5
A0A3
  8
0
 62
7
 10
37.278327840123467
 20
32.668726325677042
 70
0
  0
SEQEND
  5
A0A4
  8
0
  0
POLYLINE
  5
9A70
  8
0
 62
7
 66
1
 70
0
 10
0
 20
0
 30
0
  0
VERTEX
  5
A0A5
  8
0
 62
7
 10
32.07209954281393
 20
33.177394674074151
 70
0
  0
VERTEX
  5
A0A6
  8
0
 62
7
 10
32.621936782259809
 20
32.881116462342682
 70
0
  0
SEQEND
  5
A0A7
  8
0
  0
POLYLINE
  5
9A74
  8
0
 62
7
 66
1
 70
0
 10
0
 20
0
 30
0
  0
VERTEX
  5
A0A8
  8
0
 62
7
 10
32.621936782259809
 20
32.881116462342682
 70
0
  0
VERTEX
  5
A0A9
  8
0
 62
7
 10
33.214493205722761
 20
32.62600714165989
 70
0
  0
SEQEND
  5
A0AA
  8
0
  0
POLYLINE
  5
9A78
  8
0
 62
7
 66
1
 70
0
 10
0
 20
0
 30
0
  0
VERTEX
  5
A0AB
  8
0
 62
7
 10
33.214493205722761
 20
32.62600714165989
 70
0
  0
VERTEX
  5
A0AC
  8
0
 62
7
 10
33.849768813202843
 20
32.3724481139455
 70
0
  0
SEQEND
  5
A0AD
  8
0
  0
POLYLINE
  5
9A7C
  8
0
 62
7
 66
1
 70
0
 10
0
 20
0
 30
0
  0
VERTEX
  5
A0AE
  8
0
 62
7
 10
33.849768813202843
 20
32.3724481139455
 70
0
  0
VERTEX
  5
A0AF
  8
0
 62
7
 10
34.569104750523
 20
32.161780525022493
 70
0
  0
SEQEND
  5
A0B0
  8
0
  0
POLYLINE
  5
9A80
  8
0
 62
7
 66
1
 70
0
 10
0
 20
0
 30
0
  0
VERTEX
  5
A0B1
  8
0
 62
7
 10
34.569104750523
 20
32.161780525022493
 70
0
  0
VERTEX
  5
A0B2
  8
0
 62
7
 10
35.28844068784317
 20
31.99210957237392
 70
0
  0
SEQEND
  5
A0B3
  8
0
  0
POLYLINE
  5
9A84
  8
0
 62
7
 66
1
 70
0
 10
0
 20
0
 30
0
  0
VERTEX
  5
A0B4
  8
0
 62
7
 10
35.28844068784317
 20
31.99210957237392
 70
0
  0
VERTEX
  5
A0B5
  8
0
 62
7
 10
36.093214993197527
 20
31.822783129273891
 70
0
  0
SEQEND
  5
A0B6
  8
0
  0
POLYLINE
  5
9A88
  8
0
 62
7
 66
1
 70
0
 10
0
 20
0
 30
0
  0
VERTEX
  5
A0B7
  8
0
 62
7
 10
36.093214993197527
 20
31.822783129273891
 70
0
  0
VERTEX
  5
A0B8
  8
0
 62
7
 10
36.939330444374889
 20
31.69565910586817
 70
0
  0
SEQEND
  5
A0B9
  8
0
  0
POLYLINE
  5
9A8C
  8
0
 62
7
 66
1
 70
0
 10
0
 20
0
 30
0
  0
VERTEX
  5
A0BA
  8
0
 62
7
 10
36.939330444374889
 20
31.69565910586817
 70
0
  0
VERTEX
  5
A0BB
  8
0
 62
7
 10
37.786823933746341
 20
31.61039299260824
 70
0
  0
SEQEND
  5
A0BC
  8
0
  0
POLYLINE
  5
9A90
  8
0
 62
7
 66
1
 70
0
 10
0
 20
0
 30
0
  0
VERTEX
  5
A0BD
  8
0
 62
7
 10
31.39410475131675
 20
32.668726325677042
 70
0
  0
VERTEX
  5
A0BE
  8
0
 62
7
 10
31.733102147065349
 20
32.3724481139455
 70
0
  0
SEQEND
  5
A0BF
  8
0
  0
POLYLINE
  5
9A94
  8
0
 62
7
 66
1
 70
0
 10
0
 20
0
 30
0
  0
VERTEX
  5
A0C0
  8
0
 62
7
 10
31.733102147065349
 20
32.3724481139455
 70
0
  0
VERTEX
  5
A0C1
  8
0
 62
7
 10
32.114818726831039
 20
32.161780525022493
 70
0
  0
SEQEND
  5
A0C2
  8
0
  0
POLYLINE
  5
9A98
  8
0
 62
7
 66
1
 70
0
 10
0
 20
0
 30
0
  0
VERTEX
  5
A0C3
  8
0
 62
7
 10
32.114818726831039
 20
32.161780525022493
 70
0
  0
VERTEX
  5
A0C4
  8
0
 62
7
 10
32.537876452419709
 20
31.90667120433972
 70
0
  0
SEQEND
  5
A0C5
  8
0
  0
POLYLINE
  5
9A9C
  8
0
 62
7
 66
1
 70
0
 10
0
 20
0
 30
0
  0
VERTEX
  5
A0C6
  8
0
 62
7
 10
32.537876452419709
 20
31.90667120433972
 70
0
  0
VERTEX
  5
A0C7
  8
0
 62
7
 10
33.003653362025489
 20
31.69565910586817
 70
0
  0
SEQEND
  5
A0C8
  8
0
  0
POLYLINE
  5
9AA0
  8
0
 62
7
 66
1
 70
0
 10
0
 20
0
 30
0
  0
VERTEX
  5
A0C9
  8
0
 62
7
 10
33.003653362025489
 20
31.69565910586817
 70
0
  0
VERTEX
  5
A0CA
  8
0
 62
7
 10
33.553490601471367
 20
31.483785733525341
 70
0
  0
SEQEND
  5
A0CB
  8
0
  0
POLYLINE
  5
9AA4
  8
0
 62
7
 66
1
 70
0
 10
0
 20
0
 30
0
  0
VERTEX
  5
A0CC
  8
0
 62
7
 10
33.553490601471367
 20
31.483785733525341
 70
0
  0
VERTEX
  5
A0CD
  8
0
 62
7
 10
34.103327840917217
 20
31.2727736350538
 70
0
  0
SEQEND
  5
A0CE
  8
0
  0
POLYLINE
  5
9AA8
  8
0
 62
7
 66
1
 70
0
 10
0
 20
0
 30
0
  0
VERTEX
  5
A0CF
  8
0
 62
7
 10
34.103327840917217
 20
31.2727736350538
 70
0
  0
VERTEX
  5
A0D0
  8
0
 62
7
 10
34.6958842643802
 20
31.144616083002461
 70
0
  0
SEQEND
  5
A0D1
  8
0
  0
POLYLINE
  5
9AAC
  8
0
 62
7
 66
1
 70
0
 10
0
 20
0
 30
0
  0
VERTEX
  5
A0D2
  8
0
 62
7
 10
34.6958842643802
 20
31.144616083002461
 70
0
  0
VERTEX
  5
A0D3
  8
0
 62
7
 10
35.33115987186028
 20
30.976495423322248
 70
0
  0
SEQEND
  5
A0D4
  8
0
  0
POLYLINE
  5
9AB0
  8
0
 62
7
 66
1
 70
0
 10
0
 20
0
 30
0
  0
VERTEX
  5
A0D5
  8
0
 62
7
 10
35.33115987186028
 20
30.976495423322248
 70
0
  0
VERTEX
  5
A0D6
  8
0
 62
7
 10
36.009154663357442
 20
30.848337871270989
 70
0
  0
SEQEND
  5
A0D7
  8
0
  0
POLYLINE
  5
9AB4
  8
0
 62
7
 66
1
 70
0
 10
0
 20
0
 30
0
  0
VERTEX
  5
A0D8
  8
0
 62
7
 10
36.009154663357442
 20
30.848337871270989
 70
0
  0
VERTEX
  5
A0D9
  8
0
 62
7
 10
36.685771416660522
 20
30.76444979620516
 70
0
  0
SEQEND
  5
A0DA
  8
0
  0
POLYLINE
  5
9AB8
  8
0
 62
7
 66
1
 70
0
 10
0
 20
0
 30
0
  0
VERTEX
  5
A0DB
  8
0
 62
7
 10
36.685771416660522
 20
30.76444979620516
 70
0
  0
VERTEX
  5
A0DC
  8
0
 62
7
 10
37.362388169963573
 20
30.678666918622412
 70
0
  0
SEQEND
  5
A0DD
  8
0
  0
POLYLINE
  5
9ABC
  8
0
 62
7
 66
1
 70
0
 10
0
 20
0
 30
0
  0
VERTEX
  5
A0DE
  8
0
 62
7
 10
37.362388169963573
 20
30.678666918622412
 70
0
  0
VERTEX
  5
A0DF
  8
0
 62
7
 10
38.083102145477852
 20
30.594778843556579
 70
0
  0
SEQEND
  5
A0E0
  8
0
  0
POLYLINE
  5
9AC0
  8
0
 62
7
 66
1
 70
0
 10
0
 20
0
 30
0
  0
VERTEX
  5
A0E1
  8
0
 62
7
 10
38.083102145477852
 20
30.594778843556579
 70
0
  0
VERTEX
  5
A0E2
  8
0
 62
7
 10
38.802438082798
 20
30.552059659539509
 70
0
  0
SEQEND
  5
A0E3
  8
0
  0
POLYLINE
  5
9AC4
  8
0
 62
7
 66
1
 70
0
 10
0
 20
0
 30
0
  0
VERTEX
  5
A0E4
  8
0
 62
7
 10
38.802438082798
 20
30.552059659539509
 70
0
  0
VERTEX
  5
A0E5
  8
0
 62
7
 10
39.56449320413526
 20
30.552059659539509
 70
0
  0
SEQEND
  5
A0E6
  8
0
  0
POLYLINE
  5
9AC8
  8
0
 62
7
 66
1
 70
0
 10
0
 20
0
 30
0
  0
VERTEX
  5
A0E7
  8
0
 62
7
 10
39.56449320413526
 20
30.552059659539509
 70
0
  0
VERTEX
  5
A0E8
  8
0
 62
7
 10
40.283829141455428
 20
30.552059659539509
 70
0
  0
SEQEND
  5
A0E9
  8
0
  0
POLYLINE
  5
9ACC
  8
0
 62
7
 66
1
 70
0
 10
0
 20
0
 30
0
  0
VERTEX
  5
A0EA
  8
0
 62
7
 10
40.283829141455428
 20
30.552059659539509
 70
0
  0
VERTEX
  5
A0EB
  8
0
 62
7
 10
41.003165078775588
 20
30.594778843556579
 70
0
  0
SEQEND
  5
A0EC
  8
0
  0
POLYLINE
  5
9AD0
  8
0
 62
7
 66
1
 70
0
 10
0
 20
0
 30
0
  0
VERTEX
  5
A0ED
  8
0
 62
7
 10
41.003165078775588
 20
30.594778843556579
 70
0
  0
VERTEX
  5
A0EE
  8
0
 62
7
 10
41.722501016095762
 20
30.678666918622412
 70
0
  0
SEQEND
  5
A0EF
  8
0
  0
POLYLINE
  5
9AD4
  8
0
 62
7
 66
1
 70
0
 10
0
 20
0
 30
0
  0
VERTEX
  5
A0F0
  8
0
 62
7
 10
41.722501016095762
 20
30.678666918622412
 70
0
  0
VERTEX
  5
A0F1
  8
0
 62
7
 10
42.44321499161002
 20
30.76444979620516
 70
0
  0
SEQEND
  5
A0F2
  8
0
  0
POLYLINE
  5
9AD8
  8
0
 62
7
 66
1
 70
0
 10
0
 20
0
 30
0
  0
VERTEX
  5
A0F3
  8
0
 62
7
 10
42.44321499161002
 20
30.76444979620516
 70
0
  0
VERTEX
  5
A0F4
  8
0
 62
7
 10
43.119831744913107
 20
30.848337871270989
 70
0
  0
SEQEND
  5
A0F5
  8
0
  0
POLYLINE
  5
9ADC
  8
0
 62
7
 66
1
 70
0
 10
0
 20
0
 30
0
  0
VERTEX
  5
A0F6
  8
0
 62
7
 10
43.119831744913107
 20
30.848337871270989
 70
0
  0
VERTEX
  5
A0F7
  8
0
 62
7
 10
43.755107352393154
 20
30.976495423322248
 70
0
  0
SEQEND
  5
A0F8
  8
0
  0
POLYLINE
  5
9AE0
  8
0
 62
7
 66
1
 70
0
 10
0
 20
0
 30
0
  0
VERTEX
  5
A0F9
  8
0
 62
7
 10
43.755107352393154
 20
30.976495423322248
 70
0
  0
VERTEX
  5
A0FA
  8
0
 62
7
 10
44.39038295987325
 20
31.144616083002461
 70
0
  0
SEQEND
  5
A0FB
  8
0
  0
POLYLINE
  5
9AE4
  8
0
 62
7
 66
1
 70
0
 10
0
 20
0
 30
0
  0
VERTEX
  5
A0FC
  8
0
 62
7
 10
44.39038295987325
 20
31.144616083002461
 70
0
  0
VERTEX
  5
A0FD
  8
0
 62
7
 10
44.9829393833362
 20
31.2727736350538
 70
0
  0
SEQEND
  5
A0FE
  8
0
  0
POLYLINE
  5
9AE8
  8
0
 62
7
 66
1
 70
0
 10
0
 20
0
 30
0
  0
VERTEX
  5
A0FF
  8
0
 62
7
 10
44.9829393833362
 20
31.2727736350538
 70
0
  0
VERTEX
  5
A100
  8
0
 62
7
 10
45.575495806799182
 20
31.483785733525341
 70
0
  0
SEQEND
  5
A101
  8
0
  0
POLYLINE
  5
9AEC
  8
0
 62
7
 66
1
 70
0
 10
0
 20
0
 30
0
  0
VERTEX
  5
A102
  8
0
 62
7
 10
45.575495806799182
 20
31.483785733525341
 70
0
  0
VERTEX
  5
A103
  8
0
 62
7
 10
46.082613862227952
 20
31.69565910586817
 70
0
  0
SEQEND
  5
A104
  8
0
  0
POLYLINE
  5
9AF0
  8
0
 62
7
 66
1
 70
0
 10
0
 20
0
 30
0
  0
VERTEX
  5
A105
  8
0
 62
7
 10
46.082613862227952
 20
31.69565910586817
 70
0
  0
VERTEX
  5
A106
  8
0
 62
7
 10
46.548390771833738
 20
31.90667120433972
 70
0
  0
SEQEND
  5
A107
  8
0
  0
POLYLINE
  5
9AF4
  8
0
 62
7
 66
1
 70
0
 10
0
 20
0
 30
0
  0
VERTEX
  5
A108
  8
0
 62
7
 10
46.548390771833738
 20
31.90667120433972
 70
0
  0
VERTEX
  5
A109
  8
0
 62
7
 10
47.014167681439517
 20
32.161780525022493
 70
0
  0
SEQEND
  5
A10A
  8
0
  0
POLYLINE
  5
9AF8
  8
0
 62
7
 66
1
 70
0
 10
0
 20
0
 30
0
  0
VERTEX
  5
A10B
  8
0
 62
7
 10
47.014167681439517
 20
32.161780525022493
 70
0
  0
VERTEX
  5
A10C
  8
0
 62
7
 10
47.395884261205182
 20
32.3724481139455
 70
0
  0
SEQEND
  5
A10D
  8
0
  0
POLYLINE
  5
9AFC
  8
0
 62
7
 66
1
 70
0
 10
0
 20
0
 30
0
  0
VERTEX
  5
A10E
  8
0
 62
7
 10
47.395884261205182
 20
32.3724481139455
 70
0
  0
VERTEX
  5
A10F
  8
0
 62
7
 10
47.73350361875967
 20
32.668726325677042
 70
0
  0
SEQEND
  5
A110
  8
0
  0
POLYLINE
  5
9B00
  8
0
 62
7
 66
1
 70
0
 10
0
 20
0
 30
0
  0
VERTEX
  5
A111
  8
0
 62
7
 10
30.928327841710971
 20
32.161780525022493
 70
0
  0
VERTEX
  5
A112
  8
0
 62
7
 10
31.140545723602369
 20
31.865330058516751
 70
0
  0
SEQEND
  5
A113
  8
0
  0
POLYLINE
  5
9B04
  8
0
 62
7
 66
1
 70
0
 10
0
 20
0
 30
0
  0
VERTEX
  5
A114
  8
0
 62
7
 10
31.140545723602369
 20
31.865330058516751
 70
0
  0
VERTEX
  5
A115
  8
0
 62
7
 10
31.436823935333852
 20
31.61039299260824
 70
0
  0
SEQEND
  5
A116
  8
0
  0
POLYLINE
  5
9B08
  8
0
 62
7
 66
1
 70
0
 10
0
 20
0
 30
0
  0
VERTEX
  5
A117
  8
0
 62
7
 10
31.436823935333852
 20
31.61039299260824
 70
0
  0
VERTEX
  5
A118
  8
0
 62
7
 10
31.77582133108243
 20
31.356661710119621
 70
0
  0
SEQEND
  5
A119
  8
0
  0
POLYLINE
  5
9B0C
  8
0
 62
7
 66
1
 70
0
 10
0
 20
0
 30
0
  0
VERTEX
  5
A11A
  8
0
 62
7
 10
31.77582133108243
 20
31.356661710119621
 70
0
  0
VERTEX
  5
A11B
  8
0
 62
7
 10
32.15615987265403
 20
31.103447191953769
 70
0
  0
SEQEND
  5
A11C
  8
0
  0
POLYLINE
  5
9B10
  8
0
 62
7
 66
1
 70
0
 10
0
 20
0
 30
0
  0
VERTEX
  5
A11D
  8
0
 62
7
 10
32.15615987265403
 20
31.103447191953769
 70
0
  0
VERTEX
  5
A11E
  8
0
 62
7
 10
32.579217598242721
 20
30.891057055288119
 70
0
  0
SEQEND
  5
A11F
  8
0
  0
POLYLINE
  5
9B14
  8
0
 62
7
 66
1
 70
0
 10
0
 20
0
 30
0
  0
VERTEX
  5
A120
  8
0
 62
7
 10
32.579217598242721
 20
30.891057055288119
 70
0
  0
VERTEX
  5
A121
  8
0
 62
7
 10
33.0877136918656
 20
30.678666918622412
 70
0
  0
SEQEND
  5
A122
  8
0
  0
POLYLINE
  5
9B18
  8
0
 62
7
 66
1
 70
0
 10
0
 20
0
 30
0
  0
VERTEX
  5
A123
  8
0
 62
7
 10
33.0877136918656
 20
30.678666918622412
 70
0
  0
VERTEX
  5
A124
  8
0
 62
7
 10
33.596209785488441
 20
30.46799932969941
 70
0
  0
SEQEND
  5
A125
  8
0
  0
POLYLINE
  5
9B1C
  8
0
 62
7
 66
1
 70
0
 10
0
 20
0
 30
0
  0
VERTEX
  5
A126
  8
0
 62
7
 10
33.596209785488441
 20
30.46799932969941
 70
0
  0
VERTEX
  5
A127
  8
0
 62
7
 10
34.146047024934319
 20
30.29832837705084
 70
0
  0
SEQEND
  5
A128
  8
0
  0
POLYLINE
  5
9B20
  8
0
 62
7
 66
1
 70
0
 10
0
 20
0
 30
0
  0
VERTEX
  5
A129
  8
0
 62
7
 10
34.146047024934319
 20
30.29832837705084
 70
0
  0
VERTEX
  5
A12A
  8
0
 62
7
 10
34.7386034483973
 20
30.1290019339508
 70
0
  0
SEQEND
  5
A12B
  8
0
  0
POLYLINE
  5
9B24
  8
0
 62
7
 66
1
 70
0
 10
0
 20
0
 30
0
  0
VERTEX
  5
A12C
  8
0
 62
7
 10
34.7386034483973
 20
30.1290019339508
 70
0
  0
VERTEX
  5
A12D
  8
0
 62
7
 10
35.373879055877353
 20
29.959330981302291
 70
0
  0
SEQEND
  5
A12E
  8
0
  0
POLYLINE
  5
9B28
  8
0
 62
7
 66
1
 70
0
 10
0
 20
0
 30
0
  0
VERTEX
  5
A12F
  8
0
 62
7
 10
35.373879055877353
 20
29.959330981302291
 70
0
  0
VERTEX
  5
A130
  8
0
 62
7
 10
36.009154663357442
 20
29.832723722219331
 70
0
  0
SEQEND
  5
A131
  8
0
  0
POLYLINE
  5
9B2C
  8
0
 62
7
 66
1
 70
0
 10
0
 20
0
 30
0
  0
VERTEX
  5
A132
  8
0
 62
7
 10
36.009154663357442
 20
29.832723722219331
 70
0
  0
VERTEX
  5
A133
  8
0
 62
7
 10
36.685771416660522
 20
29.748663392379228
 70
0
  0
SEQEND
  5
A134
  8
0
  0
POLYLINE
  5
9B30
  8
0
 62
7
 66
1
 70
0
 10
0
 20
0
 30
0
  0
VERTEX
  5
A135
  8
0
 62
7
 10
36.685771416660522
 20
29.748663392379228
 70
0
  0
VERTEX
  5
A136
  8
0
 62
7
 10
37.405107353980668
 20
29.663397279119291
 70
0
  0
SEQEND
  5
A137
  8
0
  0
POLYLINE
  5
9B34
  8
0
 62
7
 66
1
 70
0
 10
0
 20
0
 30
0
  0
VERTEX
  5
A138
  8
0
 62
7
 10
37.405107353980668
 20
29.663397279119291
 70
0
  0
VERTEX
  5
A139
  8
0
 62
7
 10
38.12444329130085
 20
29.578992439730708
 70
0
  0
SEQEND
  5
A13A
  8
0
  0
POLYLINE
  5
9B38
  8
0
 62
7
 66
1
 70
0
 10
0
 20
0
 30
0
  0
VERTEX
  5
A13B
  8
0
 62
7
 10
38.12444329130085
 20
29.578992439730708
 70
0
  0
VERTEX
  5
A13C
  8
0
 62
7
 10
38.845157266815107
 20
29.578992439730708
 70
0
  0
SEQEND
  5
A13D
  8
0
  0
POLYLINE
  5
9B3C
  8
0
 62
7
 66
1
 70
0
 10
0
 20
0
 30
0
  0
VERTEX
  5
A13E
  8
0
 62
7
 10
38.845157266815107
 20
29.578992439730708
 70
0
  0
VERTEX
  5
A13F
  8
0
 62
7
 10
39.56449320413526
 20
29.578992439730708
 70
0
  0
SEQEND
  5
A140
  8
0
  0
POLYLINE
  5
9B40
  8
0
 62
7
 66
1
 70
0
 10
0
 20
0
 30
0
  0
VERTEX
  5
A141
  8
0
 62
7
 10
39.56449320413526
 20
29.578992439730708
 70
0
  0
VERTEX
  5
A142
  8
0
 62
7
 10
40.283829141455428
 20
29.578992439730708
 70
0
  0
SEQEND
  5
A143
  8
0
  0
POLYLINE
  5
9B44
  8
0
 62
7
 66
1
 70
0
 10
0
 20
0
 30
0
  0
VERTEX
  5
A144
  8
0
 62
7
 10
40.283829141455428
 20
29.578992439730708
 70
0
  0
VERTEX
  5
A145
  8
0
 62
7
 10
41.003165078775588
 20
29.578992439730708
 70
0
  0
SEQEND
  5
A146
  8
0
  0
POLYLINE
  5
9B48
  8
0
 62
7
 66
1
 70
0
 10
0
 20
0
 30
0
  0
VERTEX
  5
A147
  8
0
 62
7
 10
41.003165078775588
 20
29.578992439730708
 70
0
  0
VERTEX
  5
A148
  8
0
 62
7
 10
41.722501016095762
 20
29.663397279119291
 70
0
  0
SEQEND
  5
A149
  8
0
  0
POLYLINE
  5
9B4C
  8
0
 62
7
 66
1
 70
0
 10
0
 20
0
 30
0
  0
VERTEX
  5
A14A
  8
0
 62
7
 10
41.722501016095762
 20
29.663397279119291
 70
0
  0
VERTEX
  5
A14B
  8
0
 62
7
 10
42.400495807592932
 20
29.748663392379228
 70
0
  0
SEQEND
  5
A14C
  8
0
  0
POLYLINE
  5
9B50
  8
0
 62
7
 66
1
 70
0
 10
0
 20
0
 30
0
  0
VERTEX
  5
A14D
  8
0
 62
7
 10
42.400495807592932
 20
29.748663392379228
 70
0
  0
VERTEX
  5
A14E
  8
0
 62
7
 10
43.077112560896
 20
29.832723722219331
 70
0
  0
SEQEND
  5
A14F
  8
0
  0
POLYLINE
  5
9B54
  8
0
 62
7
 66
1
 70
0
 10
0
 20
0
 30
0
  0
VERTEX
  5
A150
  8
0
 62
7
 10
43.077112560896
 20
29.832723722219331
 70
0
  0
VERTEX
  5
A151
  8
0
 62
7
 10
43.712388168376052
 20
29.959330981302291
 70
0
  0
SEQEND
  5
A152
  8
0
  0
POLYLINE
  5
9B58
  8
0
 62
7
 66
1
 70
0
 10
0
 20
0
 30
0
  0
VERTEX
  5
A153
  8
0
 62
7
 10
43.712388168376052
 20
29.959330981302291
 70
0
  0
VERTEX
  5
A154
  8
0
 62
7
 10
44.347663775856141
 20
30.1290019339508
 70
0
  0
SEQEND
  5
A155
  8
0
  0
POLYLINE
  5
9B5C
  8
0
 62
7
 66
1
 70
0
 10
0
 20
0
 30
0
  0
VERTEX
  5
A156
  8
0
 62
7
 10
44.347663775856141
 20
30.1290019339508
 70
0
  0
VERTEX
  5
A157
  8
0
 62
7
 10
44.940220199319143
 20
30.29832837705084
 70
0
  0
SEQEND
  5
A158
  8
0
  0
POLYLINE
  5
9B60
  8
0
 62
7
 66
1
 70
0
 10
0
 20
0
 30
0
  0
VERTEX
  5
A159
  8
0
 62
7
 10
44.940220199319143
 20
30.29832837705084
 70
0
  0
VERTEX
  5
A15A
  8
0
 62
7
 10
45.490057438764971
 20
30.46799932969941
 70
0
  0
SEQEND
  5
A15B
  8
0
  0
POLYLINE
  5
9B64
  8
0
 62
7
 66
1
 70
0
 10
0
 20
0
 30
0
  0
VERTEX
  5
A15C
  8
0
 62
7
 10
45.490057438764971
 20
30.46799932969941
 70
0
  0
VERTEX
  5
A15D
  8
0
 62
7
 10
46.041272716404947
 20
30.678666918622412
 70
0
  0
SEQEND
  5
A15E
  8
0
  0
POLYLINE
  5
9B68
  8
0
 62
7
 66
1
 70
0
 10
0
 20
0
 30
0
  0
VERTEX
  5
A15F
  8
0
 62
7
 10
46.041272716404947
 20
30.678666918622412
 70
0
  0
VERTEX
  5
A160
  8
0
 62
7
 10
46.505671587816629
 20
30.891057055288119
 70
0
  0
SEQEND
  5
A161
  8
0
  0
POLYLINE
  5
9B6C
  8
0
 62
7
 66
1
 70
0
 10
0
 20
0
 30
0
  0
VERTEX
  5
A162
  8
0
 62
7
 10
46.505671587816629
 20
30.891057055288119
 70
0
  0
VERTEX
  5
A163
  8
0
 62
7
 10
46.93010735159941
 20
31.103447191953769
 70
0
  0
SEQEND
  5
A164
  8
0
  0
POLYLINE
  5
9B70
  8
0
 62
7
 66
1
 70
0
 10
0
 20
0
 30
0
  0
VERTEX
  5
A165
  8
0
 62
7
 10
46.93010735159941
 20
31.103447191953769
 70
0
  0
VERTEX
  5
A166
  8
0
 62
7
 10
47.310445893170993
 20
31.356661710119621
 70
0
  0
SEQEND
  5
A167
  8
0
  0
POLYLINE
  5
9B74
  8
0
 62
7
 66
1
 70
0
 10
0
 20
0
 30
0
  0
VERTEX
  5
A168
  8
0
 62
7
 10
47.310445893170993
 20
31.356661710119621
 70
0
  0
VERTEX
  5
A169
  8
0
 62
7
 10
47.649443288919592
 20
31.61039299260824
 70
0
  0
SEQEND
  5
A16A
  8
0
  0
POLYLINE
  5
9B78
  8
0
 62
7
 66
1
 70
0
 10
0
 20
0
 30
0
  0
VERTEX
  5
A16B
  8
0
 62
7
 10
47.649443288919592
 20
31.61039299260824
 70
0
  0
VERTEX
  5
A16C
  8
0
 62
7
 10
47.945721500651061
 20
31.865330058516751
 70
0
  0
SEQEND
  5
A16D
  8
0
  0
POLYLINE
  5
9B7C
  8
0
 62
7
 66
1
 70
0
 10
0
 20
0
 30
0
  0
VERTEX
  5
A16E
  8
0
 62
7
 10
47.945721500651061
 20
31.865330058516751
 70
0
  0
VERTEX
  5
A16F
  8
0
 62
7
 10
48.156561344348383
 20
32.161780525022493
 70
0
  0
SEQEND
  5
A170
  8
0
  0
POLYLINE
  5
9B80
  8
0
 62
7
 66
1
 70
0
 10
0
 20
0
 30
0
  0
VERTEX
  5
A171
  8
0
 62
7
 10
30.6747688139966
 20
31.65311217662537
 70
0
  0
VERTEX
  5
A172
  8
0
 62
7
 10
30.8015483278538
 20
31.356661710119621
 70
0
  0
SEQEND
  5
A173
  8
0
  0
POLYLINE
  5
9B84
  8
0
 62
7
 66
1
 70
0
 10
0
 20
0
 30
0
  0
VERTEX
  5
A174
  8
0
 62
7
 10
30.8015483278538
 20
31.356661710119621
 70
0
  0
VERTEX
  5
A175
  8
0
 62
7
 10
31.013766209745182
 20
31.060728007936628
 70
0
  0
SEQEND
  5
A176
  8
0
  0
POLYLINE
  5
9B88
  8
0
 62
7
 66
1
 70
0
 10
0
 20
0
 30
0
  0
VERTEX
  5
A177
  8
0
 62
7
 10
31.013766209745182
 20
31.060728007936628
 70
0
  0
VERTEX
  5
A178
  8
0
 62
7
 10
31.26732523745957
 20
30.76444979620516
 70
0
  0
SEQEND
  5
A179
  8
0
  0
POLYLINE
  5
9B8C
  8
0
 62
7
 66
1
 70
0
 10
0
 20
0
 30
0
  0
VERTEX
  5
A17A
  8
0
 62
7
 10
31.26732523745957
 20
30.76444979620516
 70
0
  0
VERTEX
  5
A17B
  8
0
 62
7
 10
31.563603449191049
 20
30.51071851371649
 70
0
  0
SEQEND
  5
A17C
  8
0
  0
POLYLINE
  5
9B90
  8
0
 62
7
 66
1
 70
0
 10
0
 20
0
 30
0
  0
VERTEX
  5
A17D
  8
0
 62
7
 10
31.563603449191049
 20
30.51071851371649
 70
0
  0
VERTEX
  5
A17E
  8
0
 62
7
 10
31.94532002895674
 20
30.25578144780804
 70
0
  0
SEQEND
  5
A17F
  8
0
  0
POLYLINE
  5
9B94
  8
0
 62
7
 66
1
 70
0
 10
0
 20
0
 30
0
  0
VERTEX
  5
A180
  8
0
 62
7
 10
31.94532002895674
 20
30.25578144780804
 70
0
  0
VERTEX
  5
A181
  8
0
 62
7
 10
32.368377754545413
 20
30.0023946748679
 70
0
  0
SEQEND
  5
A182
  8
0
  0
POLYLINE
  5
9B98
  8
0
 62
7
 66
1
 70
0
 10
0
 20
0
 30
0
  0
VERTEX
  5
A183
  8
0
 62
7
 10
32.368377754545413
 20
30.0023946748679
 70
0
  0
VERTEX
  5
A184
  8
0
 62
7
 10
32.8341546641512
 20
29.748663392379228
 70
0
  0
SEQEND
  5
A185
  8
0
  0
POLYLINE
  5
9B9C
  8
0
 62
7
 66
1
 70
0
 10
0
 20
0
 30
0
  0
VERTEX
  5
A186
  8
0
 62
7
 10
32.8341546641512
 20
29.748663392379228
 70
0
  0
VERTEX
  5
A187
  8
0
 62
7
 10
33.383991903597071
 20
29.536445510487852
 70
0
  0
SEQEND
  5
A188
  8
0
  0
POLYLINE
  5
9BA0
  8
0
 62
7
 66
1
 70
0
 10
0
 20
0
 30
0
  0
VERTEX
  5
A189
  8
0
 62
7
 10
33.383991903597071
 20
29.536445510487852
 70
0
  0
VERTEX
  5
A18A
  8
0
 62
7
 10
33.933829143042949
 20
29.32577792156485
 70
0
  0
SEQEND
  5
A18B
  8
0
  0
POLYLINE
  5
9BA4
  8
0
 62
7
 66
1
 70
0
 10
0
 20
0
 30
0
  0
VERTEX
  5
A18C
  8
0
 62
7
 10
33.933829143042949
 20
29.32577792156485
 70
0
  0
VERTEX
  5
A18D
  8
0
 62
7
 10
34.569104750523
 20
29.15610696891628
 70
0
  0
SEQEND
  5
A18E
  8
0
  0
POLYLINE
  5
9BA8
  8
0
 62
7
 66
1
 70
0
 10
0
 20
0
 30
0
  0
VERTEX
  5
A18F
  8
0
 62
7
 10
34.569104750523
 20
29.15610696891628
 70
0
  0
VERTEX
  5
A190
  8
0
 62
7
 10
35.204380358003078
 20
29.029499709833321
 70
0
  0
SEQEND
  5
A191
  8
0
  0
POLYLINE
  5
9BAC
  8
0
 62
7
 66
1
 70
0
 10
0
 20
0
 30
0
  0
VERTEX
  5
A192
  8
0
 62
7
 10
35.204380358003078
 20
29.029499709833321
 70
0
  0
VERTEX
  5
A193
  8
0
 62
7
 10
35.880997111306137
 20
28.8598287571848
 70
0
  0
SEQEND
  5
A194
  8
0
  0
POLYLINE
  5
9BB0
  8
0
 62
7
 66
1
 70
0
 10
0
 20
0
 30
0
  0
VERTEX
  5
A195
  8
0
 62
7
 10
35.880997111306137
 20
28.8598287571848
 70
0
  0
VERTEX
  5
A196
  8
0
 62
7
 10
36.601711086820409
 20
28.7743903891506
 70
0
  0
SEQEND
  5
A197
  8
0
  0
POLYLINE
  5
9BB4
  8
0
 62
7
 66
1
 70
0
 10
0
 20
0
 30
0
  0
VERTEX
  5
A198
  8
0
 62
7
 10
36.601711086820409
 20
28.7743903891506
 70
0
  0
VERTEX
  5
A199
  8
0
 62
7
 10
37.321047024140583
 20
28.647783130067641
 70
0
  0
SEQEND
  5
A19A
  8
0
  0
POLYLINE
  5
9BB8
  8
0
 62
7
 66
1
 70
0
 10
0
 20
0
 30
0
  0
VERTEX
  5
A19B
  8
0
 62
7
 10
37.321047024140583
 20
28.647783130067641
 70
0
  0
VERTEX
  5
A19C
  8
0
 62
7
 10
38.04038296146075
 20
28.605063946050571
 70
0
  0
SEQEND
  5
A19D
  8
0
  0
POLYLINE
  5
9BBC
  8
0
 62
7
 66
1
 70
0
 10
0
 20
0
 30
0
  0
VERTEX
  5
A19E
  8
0
 62
7
 10
38.04038296146075
 20
28.605063946050571
 70
0
  0
VERTEX
  5
A19F
  8
0
 62
7
 10
38.802438082798
 20
28.563378290679061
 70
0
  0
SEQEND
  5
A1A0
  8
0
  0
POLYLINE
  5
9BC0
  8
0
 62
7
 66
1
 70
0
 10
0
 20
0
 30
0
  0
VERTEX
  5
A1A1
  8
0
 62
7
 10
38.802438082798
 20
28.563378290679061
 70
0
  0
VERTEX
  5
A1A2
  8
0
 62
7
 10
39.56449320413526
 20
28.563378290679061
 70
0
  0
SEQEND
  5
A1A3
  8
0
  0
POLYLINE
  5
9BC4
  8
0
 62
7
 66
1
 70
0
 10
0
 20
0
 30
0
  0
VERTEX
  5
A1A4
  8
0
 62
7
 10
39.56449320413526
 20
28.563378290679061
 70
0
  0
VERTEX
  5
A1A5
  8
0
 62
7
 10
40.32654832547253
 20
28.563378290679061
 70
0
  0
SEQEND
  5
A1A6
  8
0
  0
POLYLINE
  5
9BC8
  8
0
 62
7
 66
1
 70
0
 10
0
 20
0
 30
0
  0
VERTEX
  5
A1A7
  8
0
 62
7
 10
40.32654832547253
 20
28.563378290679061
 70
0
  0
VERTEX
  5
A1A8
  8
0
 62
7
 10
41.0458842627927
 20
28.605063946050571
 70
0
  0
SEQEND
  5
A1A9
  8
0
  0
POLYLINE
  5
9BCC
  8
0
 62
7
 66
1
 70
0
 10
0
 20
0
 30
0
  0
VERTEX
  5
A1AA
  8
0
 62
7
 10
41.0458842627927
 20
28.605063946050571
 70
0
  0
VERTEX
  5
A1AB
  8
0
 62
7
 10
41.807939384129952
 20
28.647783130067641
 70
0
  0
SEQEND
  5
A1AC
  8
0
  0
POLYLINE
  5
9BD0
  8
0
 62
7
 66
1
 70
0
 10
0
 20
0
 30
0
  0
VERTEX
  5
A1AD
  8
0
 62
7
 10
41.807939384129952
 20
28.647783130067641
 70
0
  0
VERTEX
  5
A1AE
  8
0
 62
7
 10
42.527275321450126
 20
28.7743903891506
 70
0
  0
SEQEND
  5
A1AF
  8
0
  0
POLYLINE
  5
9BD4
  8
0
 62
7
 66
1
 70
0
 10
0
 20
0
 30
0
  0
VERTEX
  5
A1B0
  8
0
 62
7
 10
42.527275321450126
 20
28.7743903891506
 70
0
  0
VERTEX
  5
A1B1
  8
0
 62
7
 10
43.203892074753171
 20
28.8598287571848
 70
0
  0
SEQEND
  5
A1B2
  8
0
  0
POLYLINE
  5
9BD8
  8
0
 62
7
 66
1
 70
0
 10
0
 20
0
 30
0
  0
VERTEX
  5
A1B3
  8
0
 62
7
 10
43.203892074753171
 20
28.8598287571848
 70
0
  0
VERTEX
  5
A1B4
  8
0
 62
7
 10
43.881886866250369
 20
29.029499709833321
 70
0
  0
SEQEND
  5
A1B5
  8
0
  0
POLYLINE
  5
9BDC
  8
0
 62
7
 66
1
 70
0
 10
0
 20
0
 30
0
  0
VERTEX
  5
A1B6
  8
0
 62
7
 10
43.881886866250369
 20
29.029499709833321
 70
0
  0
VERTEX
  5
A1B7
  8
0
 62
7
 10
44.55850361955342
 20
29.15610696891628
 70
0
  0
SEQEND
  5
A1B8
  8
0
  0
POLYLINE
  5
9BE0
  8
0
 62
7
 66
1
 70
0
 10
0
 20
0
 30
0
  0
VERTEX
  5
A1B9
  8
0
 62
7
 10
44.55850361955342
 20
29.15610696891628
 70
0
  0
VERTEX
  5
A1BA
  8
0
 62
7
 10
45.151060043016393
 20
29.32577792156485
 70
0
  0
SEQEND
  5
A1BB
  8
0
  0
POLYLINE
  5
9BE4
  8
0
 62
7
 66
1
 70
0
 10
0
 20
0
 30
0
  0
VERTEX
  5
A1BC
  8
0
 62
7
 10
45.151060043016393
 20
29.32577792156485
 70
0
  0
VERTEX
  5
A1BD
  8
0
 62
7
 10
45.744994504673492
 20
29.536445510487852
 70
0
  0
SEQEND
  5
A1BE
  8
0
  0
POLYLINE
  5
9BE8
  8
0
 62
7
 66
1
 70
0
 10
0
 20
0
 30
0
  0
VERTEX
  5
A1BF
  8
0
 62
7
 10
45.744994504673492
 20
29.536445510487852
 70
0
  0
VERTEX
  5
A1C0
  8
0
 62
7
 10
46.252112560102262
 20
29.748663392379228
 70
0
  0
SEQEND
  5
A1C1
  8
0
  0
POLYLINE
  5
9BEC
  8
0
 62
7
 66
1
 70
0
 10
0
 20
0
 30
0
  0
VERTEX
  5
A1C2
  8
0
 62
7
 10
46.252112560102262
 20
29.748663392379228
 70
0
  0
VERTEX
  5
A1C3
  8
0
 62
7
 10
46.717889469708041
 20
30.0023946748679
 70
0
  0
SEQEND
  5
A1C4
  8
0
  0
POLYLINE
  5
9BF0
  8
0
 62
7
 66
1
 70
0
 10
0
 20
0
 30
0
  0
VERTEX
  5
A1C5
  8
0
 62
7
 10
46.717889469708041
 20
30.0023946748679
 70
0
  0
VERTEX
  5
A1C6
  8
0
 62
7
 10
47.1409471952967
 20
30.25578144780804
 70
0
  0
SEQEND
  5
A1C7
  8
0
  0
POLYLINE
  5
9BF4
  8
0
 62
7
 66
1
 70
0
 10
0
 20
0
 30
0
  0
VERTEX
  5
A1C8
  8
0
 62
7
 10
47.1409471952967
 20
30.25578144780804
 70
0
  0
VERTEX
  5
A1C9
  8
0
 62
7
 10
47.5226637750624
 20
30.51071851371649
 70
0
  0
SEQEND
  5
A1CA
  8
0
  0
POLYLINE
  5
9BF8
  8
0
 62
7
 66
1
 70
0
 10
0
 20
0
 30
0
  0
VERTEX
  5
A1CB
  8
0
 62
7
 10
47.5226637750624
 20
30.51071851371649
 70
0
  0
VERTEX
  5
A1CC
  8
0
 62
7
 10
47.860283132616857
 20
30.76444979620516
 70
0
  0
SEQEND
  5
A1CD
  8
0
  0
POLYLINE
  5
9BFC
  8
0
 62
7
 66
1
 70
0
 10
0
 20
0
 30
0
  0
VERTEX
  5
A1CE
  8
0
 62
7
 10
47.860283132616857
 20
30.76444979620516
 70
0
  0
VERTEX
  5
A1CF
  8
0
 62
7
 10
48.115220198525378
 20
31.060728007936628
 70
0
  0
SEQEND
  5
A1D0
  8
0
  0
POLYLINE
  5
9C00
  8
0
 62
7
 66
1
 70
0
 10
0
 20
0
 30
0
  0
VERTEX
  5
A1D1
  8
0
 62
7
 10
48.115220198525378
 20
31.060728007936628
 70
0
  0
VERTEX
  5
A1D2
  8
0
 62
7
 10
48.32606004222265
 20
31.356661710119621
 70
0
  0
SEQEND
  5
A1D3
  8
0
  0
POLYLINE
  5
9C04
  8
0
 62
7
 66
1
 70
0
 10
0
 20
0
 30
0
  0
VERTEX
  5
A1D4
  8
0
 62
7
 10
48.32606004222265
 20
31.356661710119621
 70
0
  0
VERTEX
  5
A1D5
  8
0
 62
7
 10
48.452839556079851
 20
31.65311217662537
 70
0
  0
SEQEND
  5
A1D6
  8
0
  0
POLYLINE
  5
9C08
  8
0
 62
7
 66
1
 70
0
 10
0
 20
0
 30
0
  0
VERTEX
  5
A1D7
  8
0
 62
7
 10
48.538277924114041
 20
31.144616083002461
 70
0
  0
VERTEX
  5
A1D8
  8
0
 62
7
 10
48.495558740096953
 20
31.441066549508211
 70
0
  0
SEQEND
  5
A1D9
  8
0
  0
POLYLINE
  5
9C0C
  8
0
 62
7
 66
1
 70
0
 10
0
 20
0
 30
0
  0
VERTEX
  5
A1DA
  8
0
 62
7
 10
48.495558740096953
 20
31.441066549508211
 70
0
  0
VERTEX
  5
A1DB
  8
0
 62
7
 10
48.411498410256861
 20
31.7370002516912
 70
0
  0
SEQEND
  5
A1DC
  8
0
  0
POLYLINE
  5
9C10
  8
0
 62
7
 66
1
 70
0
 10
0
 20
0
 30
0
  0
VERTEX
  5
A1DD
  8
0
 62
7
 10
48.411498410256861
 20
31.7370002516912
 70
0
  0
VERTEX
  5
A1DE
  8
0
 62
7
 10
48.284718896399653
 20
32.033278463422683
 70
0
  0
SEQEND
  5
A1DF
  8
0
  0
POLYLINE
  5
9C14
  8
0
 62
7
 66
1
 70
0
 10
0
 20
0
 30
0
  0
VERTEX
  5
A1E0
  8
0
 62
7
 10
48.284718896399653
 20
32.033278463422683
 70
0
  0
VERTEX
  5
A1E1
  8
0
 62
7
 10
48.072501014508262
 20
32.288387784105453
 70
0
  0
SEQEND
  5
A1E2
  8
0
  0
POLYLINE
  5
9C18
  8
0
 62
7
 66
1
 70
0
 10
0
 20
0
 30
0
  0
VERTEX
  5
A1E3
  8
0
 62
7
 10
48.072501014508262
 20
32.288387784105453
 70
0
  0
VERTEX
  5
A1E4
  8
0
 62
7
 10
47.81894198679386
 20
32.584665995836929
 70
0
  0
SEQEND
  5
A1E5
  8
0
  0
POLYLINE
  5
9C1C
  8
0
 62
7
 66
1
 70
0
 10
0
 20
0
 30
0
  0
VERTEX
  5
A1E6
  8
0
 62
7
 10
47.81894198679386
 20
32.584665995836929
 70
0
  0
VERTEX
  5
A1E7
  8
0
 62
7
 10
47.479944591045289
 20
32.838397278325552
 70
0
  0
SEQEND
  5
A1E8
  8
0
  0
POLYLINE
  5
9C20
  8
0
 62
7
 66
1
 70
0
 10
0
 20
0
 30
0
  0
VERTEX
  5
A1E9
  8
0
 62
7
 10
47.479944591045289
 20
32.838397278325552
 70
0
  0
VERTEX
  5
A1EA
  8
0
 62
7
 10
47.1409471952967
 20
33.091611796491406
 70
0
  0
SEQEND
  5
A1EB
  8
0
  0
POLYLINE
  5
9C24
  8
0
 62
7
 66
1
 70
0
 10
0
 20
0
 30
0
  0
VERTEX
  5
A1EC
  8
0
 62
7
 10
47.1409471952967
 20
33.091611796491406
 70
0
  0
VERTEX
  5
A1ED
  8
0
 62
7
 10
46.717889469708041
 20
33.30400193315706
 70
0
  0
SEQEND
  5
A1EE
  8
0
  0
POLYLINE
  5
9C28
  8
0
 62
7
 66
1
 70
0
 10
0
 20
0
 30
0
  0
VERTEX
  5
A1EF
  8
0
 62
7
 10
46.717889469708041
 20
33.30400193315706
 70
0
  0
VERTEX
  5
A1F0
  8
0
 62
7
 10
46.252112560102262
 20
33.557733215645733
 70
0
  0
SEQEND
  5
A1F1
  8
0
  0
POLYLINE
  5
9C2C
  8
0
 62
7
 66
1
 70
0
 10
0
 20
0
 30
0
  0
VERTEX
  5
A1F2
  8
0
 62
7
 10
46.252112560102262
 20
33.557733215645733
 70
0
  0
VERTEX
  5
A1F3
  8
0
 62
7
 10
45.786335650496468
 20
33.769778842762818
 70
0
  0
SEQEND
  5
A1F4
  8
0
  0
POLYLINE
  5
9C30
  8
0
 62
7
 66
1
 70
0
 10
0
 20
0
 30
0
  0
VERTEX
  5
A1F5
  8
0
 62
7
 10
45.786335650496468
 20
33.769778842762818
 70
0
  0
VERTEX
  5
A1F6
  8
0
 62
7
 10
45.2364984110506
 20
33.939449795411413
 70
0
  0
SEQEND
  5
A1F7
  8
0
  0
POLYLINE
  5
9C34
  8
0
 62
7
 66
1
 70
0
 10
0
 20
0
 30
0
  0
VERTEX
  5
A1F8
  8
0
 62
7
 10
45.2364984110506
 20
33.939449795411413
 70
0
  0
VERTEX
  5
A1F9
  8
0
 62
7
 10
44.64394198758761
 20
34.108776238511453
 70
0
  0
SEQEND
  5
A1FA
  8
0
  0
POLYLINE
  5
9C38
  8
0
 62
7
 66
1
 70
0
 10
0
 20
0
 30
0
  0
VERTEX
  5
A1FB
  8
0
 62
7
 10
44.64394198758761
 20
34.108776238511453
 70
0
  0
VERTEX
  5
A1FC
  8
0
 62
7
 10
44.051385564124637
 20
34.277069152965908
 70
0
  0
SEQEND
  5
A1FD
  8
0
  0
POLYLINE
  5
9C3C
  8
0
 62
7
 66
1
 70
0
 10
0
 20
0
 30
0
  0
VERTEX
  5
A1FE
  8
0
 62
7
 10
44.051385564124637
 20
34.277069152965908
 70
0
  0
VERTEX
  5
A1FF
  8
0
 62
7
 10
43.41610995664459
 20
34.405054450242922
 70
0
  0
SEQEND
  5
A200
  8
0
  0
POLYLINE
  5
9C40
  8
0
 62
7
 66
1
 70
0
 10
0
 20
0
 30
0
  0
VERTEX
  5
A201
  8
0
 62
7
 10
43.41610995664459
 20
34.405054450242922
 70
0
  0
VERTEX
  5
A202
  8
0
 62
7
 10
42.73949320334151
 20
34.531661709325881
 70
0
  0
SEQEND
  5
A203
  8
0
  0
POLYLINE
  5
9C44
  8
0
 62
7
 66
1
 70
0
 10
0
 20
0
 30
0
  0
VERTEX
  5
A204
  8
0
 62
7
 10
42.73949320334151
 20
34.531661709325881
 70
0
  0
VERTEX
  5
A205
  8
0
 62
7
 10
42.06149841184434
 20
34.61606654871445
 70
0
  0
SEQEND
  5
A206
  8
0
  0
POLYLINE
  5
9C48
  8
0
 62
7
 66
1
 70
0
 10
0
 20
0
 30
0
  0
VERTEX
  5
A207
  8
0
 62
7
 10
42.06149841184434
 20
34.61606654871445
 70
0
  0
VERTEX
  5
A208
  8
0
 62
7
 10
41.342162474524173
 20
34.701332661974391
 70
0
  0
SEQEND
  5
A209
  8
0
  0
POLYLINE
  5
9C4C
  8
0
 62
7
 66
1
 70
0
 10
0
 20
0
 30
0
  0
VERTEX
  5
A20A
  8
0
 62
7
 10
41.342162474524173
 20
34.701332661974391
 70
0
  0
VERTEX
  5
A20B
  8
0
 62
7
 10
40.622826537204013
 20
34.742673807797431
 70
0
  0
SEQEND
  5
A20C
  8
0
  0
POLYLINE
  5
9C50
  8
0
 62
7
 66
1
 70
0
 10
0
 20
0
 30
0
  0
VERTEX
  5
A20D
  8
0
 62
7
 10
40.622826537204013
 20
34.742673807797431
 70
0
  0
VERTEX
  5
A20E
  8
0
 62
7
 10
39.903490599883867
 20
34.742673807797431
 70
0
  0
SEQEND
  5
A20F
  8
0
  0
POLYLINE
  5
9C54
  8
0
 62
7
 66
1
 70
0
 10
0
 20
0
 30
0
  0
VERTEX
  5
A210
  8
0
 62
7
 10
39.903490599883867
 20
34.742673807797431
 70
0
  0
VERTEX
  5
A211
  8
0
 62
7
 10
39.182776624369588
 20
34.742673807797431
 70
0
  0
SEQEND
  5
A212
  8
0
  0
POLYLINE
  5
9C58
  8
0
 62
7
 66
1
 70
0
 10
0
 20
0
 30
0
  0
VERTEX
  5
A213
  8
0
 62
7
 10
39.182776624369588
 20
34.742673807797431
 70
0
  0
VERTEX
  5
A214
  8
0
 62
7
 10
38.463440687049442
 20
34.742673807797431
 70
0
  0
SEQEND
  5
A215
  8
0
  0
POLYLINE
  5
9C5C
  8
0
 62
7
 66
1
 70
0
 10
0
 20
0
 30
0
  0
VERTEX
  5
A216
  8
0
 62
7
 10
38.463440687049442
 20
34.742673807797431
 70
0
  0
VERTEX
  5
A217
  8
0
 62
7
 10
37.744104749729253
 20
34.701332661974391
 70
0
  0
SEQEND
  5
A218
  8
0
  0
POLYLINE
  5
9C60
  8
0
 62
7
 66
1
 70
0
 10
0
 20
0
 30
0
  0
VERTEX
  5
A219
  8
0
 62
7
 10
37.744104749729253
 20
34.701332661974391
 70
0
  0
VERTEX
  5
A21A
  8
0
 62
7
 10
37.06610995823209
 20
34.61606654871445
 70
0
  0
SEQEND
  5
A21B
  8
0
  0
POLYLINE
  5
9C64
  8
0
 62
7
 66
1
 70
0
 10
0
 20
0
 30
0
  0
VERTEX
  5
A21C
  8
0
 62
7
 10
37.06610995823209
 20
34.61606654871445
 70
0
  0
VERTEX
  5
A21D
  8
0
 62
7
 10
36.346774020911909
 20
34.531661709325881
 70
0
  0
SEQEND
  5
A21E
  8
0
  0
POLYLINE
  5
9C68
  8
0
 62
7
 66
1
 70
0
 10
0
 20
0
 30
0
  0
VERTEX
  5
A21F
  8
0
 62
7
 10
36.346774020911909
 20
34.531661709325881
 70
0
  0
VERTEX
  5
A220
  8
0
 62
7
 10
35.711498413431848
 20
34.405054450242922
 70
0
  0
SEQEND
  5
A221
  8
0
  0
POLYLINE
  5
9C6C
  8
0
 62
7
 66
1
 70
0
 10
0
 20
0
 30
0
  0
VERTEX
  5
A222
  8
0
 62
7
 10
35.711498413431848
 20
34.405054450242922
 70
0
  0
VERTEX
  5
A223
  8
0
 62
7
 10
35.077600844145877
 20
34.277069152965908
 70
0
  0
SEQEND
  5
A224
  8
0
  0
POLYLINE
  5
9C70
  8
0
 62
7
 66
1
 70
0
 10
0
 20
0
 30
0
  0
VERTEX
  5
A225
  8
0
 62
7
 10
35.077600844145877
 20
34.277069152965908
 70
0
  0
VERTEX
  5
A226
  8
0
 62
7
 10
34.442325236665823
 20
34.108776238511453
 70
0
  0
SEQEND
  5
A227
  8
0
  0
POLYLINE
  5
9C74
  8
0
 62
7
 66
1
 70
0
 10
0
 20
0
 30
0
  0
VERTEX
  5
A228
  8
0
 62
7
 10
34.442325236665823
 20
34.108776238511453
 70
0
  0
VERTEX
  5
A229
  8
0
 62
7
 10
33.849768813202843
 20
33.939449795411413
 70
0
  0
SEQEND
  5
A22A
  8
0
  0
POLYLINE
  5
9C78
  8
0
 62
7
 66
1
 70
0
 10
0
 20
0
 30
0
  0
VERTEX
  5
A22B
  8
0
 62
7
 10
33.849768813202843
 20
33.939449795411413
 70
0
  0
VERTEX
  5
A22C
  8
0
 62
7
 10
33.341272719579962
 20
33.769778842762818
 70
0
  0
SEQEND
  5
A22D
  8
0
  0
POLYLINE
  5
9C7C
  8
0
 62
7
 66
1
 70
0
 10
0
 20
0
 30
0
  0
VERTEX
  5
A22E
  8
0
 62
7
 10
33.341272719579962
 20
33.769778842762818
 70
0
  0
VERTEX
  5
A22F
  8
0
 62
7
 10
32.8341546641512
 20
33.557733215645733
 70
0
  0
SEQEND
  5
A230
  8
0
  0
POLYLINE
  5
9C80
  8
0
 62
7
 66
1
 70
0
 10
0
 20
0
 30
0
  0
VERTEX
  5
A231
  8
0
 62
7
 10
32.8341546641512
 20
33.557733215645733
 70
0
  0
VERTEX
  5
A232
  8
0
 62
7
 10
32.368377754545413
 20
33.30400193315706
 70
0
  0
SEQEND
  5
A233
  8
0
  0
POLYLINE
  5
9C84
  8
0
 62
7
 66
1
 70
0
 10
0
 20
0
 30
0
  0
VERTEX
  5
A234
  8
0
 62
7
 10
32.368377754545413
 20
33.30400193315706
 70
0
  0
VERTEX
  5
A235
  8
0
 62
7
 10
31.94532002895674
 20
33.091611796491406
 70
0
  0
SEQEND
  5
A236
  8
0
  0
POLYLINE
  5
9C88
  8
0
 62
7
 66
1
 70
0
 10
0
 20
0
 30
0
  0
VERTEX
  5
A237
  8
0
 62
7
 10
31.94532002895674
 20
33.091611796491406
 70
0
  0
VERTEX
  5
A238
  8
0
 62
7
 10
31.606322633208151
 20
32.838397278325552
 70
0
  0
SEQEND
  5
A239
  8
0
  0
POLYLINE
  5
9C8C
  8
0
 62
7
 66
1
 70
0
 10
0
 20
0
 30
0
  0
VERTEX
  5
A23A
  8
0
 62
7
 10
31.606322633208151
 20
32.838397278325552
 70
0
  0
VERTEX
  5
A23B
  8
0
 62
7
 10
31.31004442147665
 20
32.584665995836929
 70
0
  0
SEQEND
  5
A23C
  8
0
  0
POLYLINE
  5
9C90
  8
0
 62
7
 66
1
 70
0
 10
0
 20
0
 30
0
  0
VERTEX
  5
A23D
  8
0
 62
7
 10
31.31004442147665
 20
32.584665995836929
 70
0
  0
VERTEX
  5
A23E
  8
0
 62
7
 10
31.05648539376228
 20
32.288387784105453
 70
0
  0
SEQEND
  5
A23F
  8
0
  0
POLYLINE
  5
9C94
  8
0
 62
7
 66
1
 70
0
 10
0
 20
0
 30
0
  0
VERTEX
  5
A240
  8
0
 62
7
 10
31.05648539376228
 20
32.288387784105453
 70
0
  0
VERTEX
  5
A241
  8
0
 62
7
 10
30.844267511870871
 20
32.033278463422683
 70
0
  0
SEQEND
  5
A242
  8
0
  0
POLYLINE
  5
9C98
  8
0
 62
7
 66
1
 70
0
 10
0
 20
0
 30
0
  0
VERTEX
  5
A243
  8
0
 62
7
 10
30.844267511870871
 20
32.033278463422683
 70
0
  0
VERTEX
  5
A244
  8
0
 62
7
 10
30.6747688139966
 20
31.7370002516912
 70
0
  0
SEQEND
  5
A245
  8
0
  0
POLYLINE
  5
9C9C
  8
0
 62
7
 66
1
 70
0
 10
0
 20
0
 30
0
  0
VERTEX
  5
A246
  8
0
 62
7
 10
30.6747688139966
 20
31.7370002516912
 70
0
  0
VERTEX
  5
A247
  8
0
 62
7
 10
30.59070848415649
 20
31.441066549508211
 70
0
  0
SEQEND
  5
A248
  8
0
  0
POLYLINE
  5
9CA0
  8
0
 62
7
 66
1
 70
0
 10
0
 20
0
 30
0
  0
VERTEX
  5
A249
  8
0
 62
7
 10
30.59070848415649
 20
31.441066549508211
 70
0
  0
VERTEX
  5
A24A
  8
0
 62
7
 10
30.547989300139388
 20
31.144616083002461
 70
0
  0
SEQEND
  5
A24B
  8
0
  0
POLYLINE
  5
9CA4
  8
0
 62
7
 66
1
 70
0
 10
0
 20
0
 30
0
  0
VERTEX
  5
A24C
  8
0
 62
7
 10
30.547989300139388
 20
31.144616083002461
 70
0
  0
VERTEX
  5
A24D
  8
0
 62
7
 10
30.59070848415649
 20
30.891057055288119
 70
0
  0
SEQEND
  5
A24E
  8
0
  0
POLYLINE
  5
9CA8
  8
0
 62
7
 66
1
 70
0
 10
0
 20
0
 30
0
  0
VERTEX
  5
A24F
  8
0
 62
7
 10
30.59070848415649
 20
30.891057055288119
 70
0
  0
VERTEX
  5
A250
  8
0
 62
7
 10
30.6747688139966
 20
30.594778843556579
 70
0
  0
SEQEND
  5
A251
  8
0
  0
POLYLINE
  5
9CAC
  8
0
 62
7
 66
1
 70
0
 10
0
 20
0
 30
0
  0
VERTEX
  5
A252
  8
0
 62
7
 10
30.6747688139966
 20
30.594778843556579
 70
0
  0
VERTEX
  5
A253
  8
0
 62
7
 10
30.844267511870871
 20
30.29832837705084
 70
0
  0
SEQEND
  5
A254
  8
0
  0
POLYLINE
  5
9CB0
  8
0
 62
7
 66
1
 70
0
 10
0
 20
0
 30
0
  0
VERTEX
  5
A255
  8
0
 62
7
 10
30.844267511870871
 20
30.29832837705084
 70
0
  0
VERTEX
  5
A256
  8
0
 62
7
 10
31.05648539376228
 20
30.0023946748679
 70
0
  0
SEQEND
  5
A257
  8
0
  0
POLYLINE
  5
9CB4
  8
0
 62
7
 66
1
 70
0
 10
0
 20
0
 30
0
  0
VERTEX
  5
A258
  8
0
 62
7
 10
31.05648539376228
 20
30.0023946748679
 70
0
  0
VERTEX
  5
A259
  8
0
 62
7
 10
31.26732523745957
 20
29.748663392379228
 70
0
  0
SEQEND
  5
A25A
  8
0
  0
POLYLINE
  5
9CB8
  8
0
 62
7
 66
1
 70
0
 10
0
 20
0
 30
0
  0
VERTEX
  5
A25B
  8
0
 62
7
 10
31.26732523745957
 20
29.748663392379228
 70
0
  0
VERTEX
  5
A25C
  8
0
 62
7
 10
31.606322633208151
 20
29.493726326470789
 70
0
  0
SEQEND
  5
A25D
  8
0
  0
POLYLINE
  5
9CBC
  8
0
 62
7
 66
1
 70
0
 10
0
 20
0
 30
0
  0
VERTEX
  5
A25E
  8
0
 62
7
 10
31.606322633208151
 20
29.493726326470789
 70
0
  0
VERTEX
  5
A25F
  8
0
 62
7
 10
31.94532002895674
 20
29.2399950439821
 70
0
  0
SEQEND
  5
A260
  8
0
  0
POLYLINE
  5
9CC0
  8
0
 62
7
 66
1
 70
0
 10
0
 20
0
 30
0
  0
VERTEX
  5
A261
  8
0
 62
7
 10
31.94532002895674
 20
29.2399950439821
 70
0
  0
VERTEX
  5
A262
  8
0
 62
7
 10
32.368377754545413
 20
28.986780525816251
 70
0
  0
SEQEND
  5
A263
  8
0
  0
POLYLINE
  5
9CC4
  8
0
 62
7
 66
1
 70
0
 10
0
 20
0
 30
0
  0
VERTEX
  5
A264
  8
0
 62
7
 10
32.368377754545413
 20
28.986780525816251
 70
0
  0
VERTEX
  5
A265
  8
0
 62
7
 10
32.8341546641512
 20
28.7743903891506
 70
0
  0
SEQEND
  5
A266
  8
0
  0
POLYLINE
  5
9CC8
  8
0
 62
7
 66
1
 70
0
 10
0
 20
0
 30
0
  0
VERTEX
  5
A267
  8
0
 62
7
 10
32.8341546641512
 20
28.7743903891506
 70
0
  0
VERTEX
  5
A268
  8
0
 62
7
 10
33.341272719579962
 20
28.563378290679061
 70
0
  0
SEQEND
  5
A269
  8
0
  0
POLYLINE
  5
9CCC
  8
0
 62
7
 66
1
 70
0
 10
0
 20
0
 30
0
  0
VERTEX
  5
A26A
  8
0
 62
7
 10
33.341272719579962
 20
28.563378290679061
 70
0
  0
VERTEX
  5
A26B
  8
0
 62
7
 10
33.849768813202843
 20
28.351332663561891
 70
0
  0
SEQEND
  5
A26C
  8
0
  0
POLYLINE
  5
9CD0
  8
0
 62
7
 66
1
 70
0
 10
0
 20
0
 30
0
  0
VERTEX
  5
A26D
  8
0
 62
7
 10
33.849768813202843
 20
28.351332663561891
 70
0
  0
VERTEX
  5
A26E
  8
0
 62
7
 10
34.442325236665823
 20
28.181661710913389
 70
0
  0
SEQEND
  5
A26F
  8
0
  0
POLYLINE
  5
9CD4
  8
0
 62
7
 66
1
 70
0
 10
0
 20
0
 30
0
  0
VERTEX
  5
A270
  8
0
 62
7
 10
34.442325236665823
 20
28.181661710913389
 70
0
  0
VERTEX
  5
A271
  8
0
 62
7
 10
35.077600844145877
 20
28.055054451830419
 70
0
  0
SEQEND
  5
A272
  8
0
  0
POLYLINE
  5
9CD8
  8
0
 62
7
 66
1
 70
0
 10
0
 20
0
 30
0
  0
VERTEX
  5
A273
  8
0
 62
7
 10
35.077600844145877
 20
28.055054451830419
 70
0
  0
VERTEX
  5
A274
  8
0
 62
7
 10
35.711498413431848
 20
27.885728008730371
 70
0
  0
SEQEND
  5
A275
  8
0
  0
POLYLINE
  5
9CDC
  8
0
 62
7
 66
1
 70
0
 10
0
 20
0
 30
0
  0
VERTEX
  5
A276
  8
0
 62
7
 10
35.711498413431848
 20
27.885728008730371
 70
0
  0
VERTEX
  5
A277
  8
0
 62
7
 10
36.346774020911909
 20
27.80149542411602
 70
0
  0
SEQEND
  5
A278
  8
0
  0
POLYLINE
  5
9CE0
  8
0
 62
7
 66
1
 70
0
 10
0
 20
0
 30
0
  0
VERTEX
  5
A279
  8
0
 62
7
 10
36.346774020911909
 20
27.80149542411602
 70
0
  0
VERTEX
  5
A27A
  8
0
 62
7
 10
37.06610995823209
 20
27.716057056081869
 70
0
  0
SEQEND
  5
A27B
  8
0
  0
POLYLINE
  5
9CE4
  8
0
 62
7
 66
1
 70
0
 10
0
 20
0
 30
0
  0
VERTEX
  5
A27C
  8
0
 62
7
 10
37.06610995823209
 20
27.716057056081869
 70
0
  0
VERTEX
  5
A27D
  8
0
 62
7
 10
37.744104749729253
 20
27.63199672624177
 70
0
  0
SEQEND
  5
A27E
  8
0
  0
POLYLINE
  5
9CE8
  8
0
 62
7
 66
1
 70
0
 10
0
 20
0
 30
0
  0
VERTEX
  5
A27F
  8
0
 62
7
 10
37.744104749729253
 20
27.63199672624177
 70
0
  0
VERTEX
  5
A280
  8
0
 62
7
 10
38.463440687049442
 20
27.58944979699891
 70
0
  0
SEQEND
  5
A281
  8
0
  0
POLYLINE
  5
9CEC
  8
0
 62
7
 66
1
 70
0
 10
0
 20
0
 30
0
  0
VERTEX
  5
A282
  8
0
 62
7
 10
38.463440687049442
 20
27.58944979699891
 70
0
  0
VERTEX
  5
A283
  8
0
 62
7
 10
39.182776624369588
 20
27.546730612981829
 70
0
  0
SEQEND
  5
A284
  8
0
  0
POLYLINE
  5
9CF0
  8
0
 62
7
 66
1
 70
0
 10
0
 20
0
 30
0
  0
VERTEX
  5
A285
  8
0
 62
7
 10
39.182776624369588
 20
27.546730612981829
 70
0
  0
VERTEX
  5
A286
  8
0
 62
7
 10
39.903490599883867
 20
27.546730612981829
 70
0
  0
SEQEND
  5
A287
  8
0
  0
POLYLINE
  5
9CF4
  8
0
 62
7
 66
1
 70
0
 10
0
 20
0
 30
0
  0
VERTEX
  5
A288
  8
0
 62
7
 10
39.903490599883867
 20
27.546730612981829
 70
0
  0
VERTEX
  5
A289
  8
0
 62
7
 10
40.622826537204013
 20
27.58944979699891
 70
0
  0
SEQEND
  5
A28A
  8
0
  0
POLYLINE
  5
9CF8
  8
0
 62
7
 66
1
 70
0
 10
0
 20
0
 30
0
  0
VERTEX
  5
A28B
  8
0
 62
7
 10
40.622826537204013
 20
27.58944979699891
 70
0
  0
VERTEX
  5
A28C
  8
0
 62
7
 10
41.342162474524173
 20
27.63199672624177
 70
0
  0
SEQEND
  5
A28D
  8
0
  0
POLYLINE
  5
9CFC
  8
0
 62
7
 66
1
 70
0
 10
0
 20
0
 30
0
  0
VERTEX
  5
A28E
  8
0
 62
7
 10
41.342162474524173
 20
27.63199672624177
 70
0
  0
VERTEX
  5
A28F
  8
0
 62
7
 10
42.06149841184434
 20
27.716057056081869
 70
0
  0
SEQEND
  5
A290
  8
0
  0
POLYLINE
  5
9D00
  8
0
 62
7
 66
1
 70
0
 10
0
 20
0
 30
0
  0
VERTEX
  5
A291
  8
0
 62
7
 10
42.06149841184434
 20
27.716057056081869
 70
0
  0
VERTEX
  5
A292
  8
0
 62
7
 10
42.73949320334151
 20
27.80149542411602
 70
0
  0
SEQEND
  5
A293
  8
0
  0
POLYLINE
  5
9D04
  8
0
 62
7
 66
1
 70
0
 10
0
 20
0
 30
0
  0
VERTEX
  5
A294
  8
0
 62
7
 10
42.73949320334151
 20
27.80149542411602
 70
0
  0
VERTEX
  5
A295
  8
0
 62
7
 10
43.41610995664459
 20
27.885728008730371
 70
0
  0
SEQEND
  5
A296
  8
0
  0
POLYLINE
  5
9D08
  8
0
 62
7
 66
1
 70
0
 10
0
 20
0
 30
0
  0
VERTEX
  5
A297
  8
0
 62
7
 10
43.41610995664459
 20
27.885728008730371
 70
0
  0
VERTEX
  5
A298
  8
0
 62
7
 10
44.051385564124637
 20
28.055054451830419
 70
0
  0
SEQEND
  5
A299
  8
0
  0
POLYLINE
  5
9D0C
  8
0
 62
7
 66
1
 70
0
 10
0
 20
0
 30
0
  0
VERTEX
  5
A29A
  8
0
 62
7
 10
44.051385564124637
 20
28.055054451830419
 70
0
  0
VERTEX
  5
A29B
  8
0
 62
7
 10
44.64394198758761
 20
28.181661710913389
 70
0
  0
SEQEND
  5
A29C
  8
0
  0
POLYLINE
  5
9D10
  8
0
 62
7
 66
1
 70
0
 10
0
 20
0
 30
0
  0
VERTEX
  5
A29D
  8
0
 62
7
 10
44.64394198758761
 20
28.181661710913389
 70
0
  0
VERTEX
  5
A29E
  8
0
 62
7
 10
45.2364984110506
 20
28.351332663561891
 70
0
  0
SEQEND
  5
A29F
  8
0
  0
POLYLINE
  5
9D14
  8
0
 62
7
 66
1
 70
0
 10
0
 20
0
 30
0
  0
VERTEX
  5
A2A0
  8
0
 62
7
 10
45.2364984110506
 20
28.351332663561891
 70
0
  0
VERTEX
  5
A2A1
  8
0
 62
7
 10
45.786335650496468
 20
28.563378290679061
 70
0
  0
SEQEND
  5
A2A2
  8
0
  0
POLYLINE
  5
9D18
  8
0
 62
7
 66
1
 70
0
 10
0
 20
0
 30
0
  0
VERTEX
  5
A2A3
  8
0
 62
7
 10
45.786335650496468
 20
28.563378290679061
 70
0
  0
VERTEX
  5
A2A4
  8
0
 62
7
 10
46.252112560102262
 20
28.7743903891506
 70
0
  0
SEQEND
  5
A2A5
  8
0
  0
POLYLINE
  5
9D1C
  8
0
 62
7
 66
1
 70
0
 10
0
 20
0
 30
0
  0
VERTEX
  5
A2A6
  8
0
 62
7
 10
46.252112560102262
 20
28.7743903891506
 70
0
  0
VERTEX
  5
A2A7
  8
0
 62
7
 10
46.717889469708041
 20
28.986780525816251
 70
0
  0
SEQEND
  5
A2A8
  8
0
  0
POLYLINE
  5
9D20
  8
0
 62
7
 66
1
 70
0
 10
0
 20
0
 30
0
  0
VERTEX
  5
A2A9
  8
0
 62
7
 10
46.717889469708041
 20
28.986780525816251
 70
0
  0
VERTEX
  5
A2AA
  8
0
 62
7
 10
47.1409471952967
 20
29.2399950439821
 70
0
  0
SEQEND
  5
A2AB
  8
0
  0
POLYLINE
  5
9D24
  8
0
 62
7
 66
1
 70
0
 10
0
 20
0
 30
0
  0
VERTEX
  5
A2AC
  8
0
 62
7
 10
47.1409471952967
 20
29.2399950439821
 70
0
  0
VERTEX
  5
A2AD
  8
0
 62
7
 10
47.479944591045289
 20
29.493726326470789
 70
0
  0
SEQEND
  5
A2AE
  8
0
  0
POLYLINE
  5
9D28
  8
0
 62
7
 66
1
 70
0
 10
0
 20
0
 30
0
  0
VERTEX
  5
A2AF
  8
0
 62
7
 10
47.479944591045289
 20
29.493726326470789
 70
0
  0
VERTEX
  5
A2B0
  8
0
 62
7
 10
47.81894198679386
 20
29.748663392379228
 70
0
  0
SEQEND
  5
A2B1
  8
0
  0
POLYLINE
  5
9D2C
  8
0
 62
7
 66
1
 70
0
 10
0
 20
0
 30
0
  0
VERTEX
  5
A2B2
  8
0
 62
7
 10
47.81894198679386
 20
29.748663392379228
 70
0
  0
VERTEX
  5
A2B3
  8
0
 62
7
 10
48.072501014508262
 20
30.0023946748679
 70
0
  0
SEQEND
  5
A2B4
  8
0
  0
POLYLINE
  5
9D30
  8
0
 62
7
 66
1
 70
0
 10
0
 20
0
 30
0
  0
VERTEX
  5
A2B5
  8
0
 62
7
 10
48.072501014508262
 20
30.0023946748679
 70
0
  0
VERTEX
  5
A2B6
  8
0
 62
7
 10
48.284718896399653
 20
30.29832837705084
 70
0
  0
SEQEND
  5
A2B7
  8
0
  0
POLYLINE
  5
9D34
  8
0
 62
7
 66
1
 70
0
 10
0
 20
0
 30
0
  0
VERTEX
  5
A2B8
  8
0
 62
7
 10
48.284718896399653
 20
30.29832837705084
 70
0
  0
VERTEX
  5
A2B9
  8
0
 62
7
 10
48.411498410256861
 20
30.594778843556579
 70
0
  0
SEQEND
  5
A2BA
  8
0
  0
POLYLINE
  5
9D38
  8
0
 62
7
 66
1
 70
0
 10
0
 20
0
 30
0
  0
VERTEX
  5
A2BB
  8
0
 62
7
 10
48.411498410256861
 20
30.594778843556579
 70
0
  0
VERTEX
  5
A2BC
  8
0
 62
7
 10
48.495558740096953
 20
30.891057055288119
 70
0
  0
SEQEND
  5
A2BD
  8
0
  0
POLYLINE
  5
9D3C
  8
0
 62
7
 66
1
 70
0
 10
0
 20
0
 30
0
  0
VERTEX
  5
A2BE
  8
0
 62
7
 10
48.495558740096953
 20
30.891057055288119
 70
0
  0
VERTEX
  5
A2BF
  8
0
 62
7
 10
48.538277924114041
 20
31.144616083002461
 70
0
  0
SEQEND
  5
A2C0
  8
0
  0
POLYLINE
  5
9D40
  8
0
 62
7
 66
1
 70
0
 10
0
 20
0
 30
0
  0
VERTEX
  5
A2C1
  8
0
 62
7
 10
49.5111728891486
 20
31.144616083002461
 70
0
  0
VERTEX
  5
A2C2
  8
0
 62
7
 10
49.5111728891486
 20
41.176561881275752
 70
0
  0
SEQEND
  5
A2C3
  8
0
  0
POLYLINE
  5
9D44
  8
0
 62
7
 66
1
 70
0
 10
0
 20
0
 30
0
  0
VERTEX
  5
A2C4
  8
0
 62
7
 10
29.573716296910732
 20
31.144616083002461
 70
0
  0
VERTEX
  5
A2C5
  8
0
 62
7
 10
29.573716296910732
 20
41.176561881275752
 70
0
  0
SEQEND
  5
A2C6
  8
0
  0
POLYLINE
  5
9D48
  8
0
 62
7
 66
1
 70
0
 10
0
 20
0
 30
0
  0
VERTEX
  5
A2C7
  8
0
 62
7
 10
49.5111728891486
 20
41.176561881275752
 70
0
  0
VERTEX
  5
A2C8
  8
0
 62
7
 10
49.5111728891486
 20
41.473012347781491
 70
0
  0
SEQEND
  5
A2C9
  8
0
  0
POLYLINE
  5
9D4C
  8
0
 62
7
 66
1
 70
0
 10
0
 20
0
 30
0
  0
VERTEX
  5
A2CA
  8
0
 62
7
 10
49.5111728891486
 20
41.473012347781491
 70
0
  0
VERTEX
  5
A2CB
  8
0
 62
7
 10
49.427112559308512
 20
41.769290559512967
 70
0
  0
SEQEND
  5
A2CC
  8
0
  0
POLYLINE
  5
9D50
  8
0
 62
7
 66
1
 70
0
 10
0
 20
0
 30
0
  0
VERTEX
  5
A2CD
  8
0
 62
7
 10
49.427112559308512
 20
41.769290559512967
 70
0
  0
VERTEX
  5
A2CE
  8
0
 62
7
 10
49.2576138614342
 20
42.065568771244443
 70
0
  0
SEQEND
  5
A2CF
  8
0
  0
POLYLINE
  5
9D54
  8
0
 62
7
 66
1
 70
0
 10
0
 20
0
 30
0
  0
VERTEX
  5
A2D0
  8
0
 62
7
 10
49.2576138614342
 20
42.065568771244443
 70
0
  0
VERTEX
  5
A2D1
  8
0
 62
7
 10
49.088115163559927
 20
42.363397275944287
 70
0
  0
SEQEND
  5
A2D2
  8
0
  0
POLYLINE
  5
9D58
  8
0
 62
7
 66
1
 70
0
 10
0
 20
0
 30
0
  0
VERTEX
  5
A2D3
  8
0
 62
7
 10
49.088115163559927
 20
42.363397275944287
 70
0
  0
VERTEX
  5
A2D4
  8
0
 62
7
 10
48.834556135845517
 20
42.616611794110149
 70
0
  0
SEQEND
  5
A2D5
  8
0
  0
POLYLINE
  5
9D5C
  8
0
 62
7
 66
1
 70
0
 10
0
 20
0
 30
0
  0
VERTEX
  5
A2D6
  8
0
 62
7
 10
48.834556135845517
 20
42.616611794110149
 70
0
  0
VERTEX
  5
A2D7
  8
0
 62
7
 10
48.538277924114041
 20
42.913062260615909
 70
0
  0
SEQEND
  5
A2D8
  8
0
  0
POLYLINE
  5
9D60
  8
0
 62
7
 66
1
 70
0
 10
0
 20
0
 30
0
  0
VERTEX
  5
A2D9
  8
0
 62
7
 10
48.538277924114041
 20
42.913062260615909
 70
0
  0
VERTEX
  5
A2DA
  8
0
 62
7
 10
48.199280528365442
 20
43.16662128833029
 70
0
  0
SEQEND
  5
A2DB
  8
0
  0
POLYLINE
  5
9D64
  8
0
 62
7
 66
1
 70
0
 10
0
 20
0
 30
0
  0
VERTEX
  5
A2DC
  8
0
 62
7
 10
48.199280528365442
 20
43.16662128833029
 70
0
  0
VERTEX
  5
A2DD
  8
0
 62
7
 10
47.81894198679386
 20
43.420352570818977
 70
0
  0
SEQEND
  5
A2DE
  8
0
  0
POLYLINE
  5
9D68
  8
0
 62
7
 66
1
 70
0
 10
0
 20
0
 30
0
  0
VERTEX
  5
A2DF
  8
0
 62
7
 10
47.81894198679386
 20
43.420352570818977
 70
0
  0
VERTEX
  5
A2E0
  8
0
 62
7
 10
47.353165077188088
 20
43.67494512717893
 70
0
  0
SEQEND
  5
A2E1
  8
0
  0
POLYLINE
  5
9D6C
  8
0
 62
7
 66
1
 70
0
 10
0
 20
0
 30
0
  0
VERTEX
  5
A2E2
  8
0
 62
7
 10
47.353165077188088
 20
43.67494512717893
 70
0
  0
VERTEX
  5
A2E3
  8
0
 62
7
 10
46.8873881675823
 20
43.885957225650493
 70
0
  0
SEQEND
  5
A2E4
  8
0
  0
POLYLINE
  5
9D70
  8
0
 62
7
 66
1
 70
0
 10
0
 20
0
 30
0
  0
VERTEX
  5
A2E5
  8
0
 62
7
 10
46.8873881675823
 20
43.885957225650493
 70
0
  0
VERTEX
  5
A2E6
  8
0
 62
7
 10
46.337550928136423
 20
44.098347362316133
 70
0
  0
SEQEND
  5
A2E7
  8
0
  0
POLYLINE
  5
9D74
  8
0
 62
7
 66
1
 70
0
 10
0
 20
0
 30
0
  0
VERTEX
  5
A2E8
  8
0
 62
7
 10
46.337550928136423
 20
44.098347362316133
 70
0
  0
VERTEX
  5
A2E9
  8
0
 62
7
 10
45.786335650496468
 20
44.31039298943324
 70
0
  0
SEQEND
  5
A2EA
  8
0
  0
POLYLINE
  5
9D78
  8
0
 62
7
 66
1
 70
0
 10
0
 20
0
 30
0
  0
VERTEX
  5
A2EB
  8
0
 62
7
 10
45.786335650496468
 20
44.31039298943324
 70
0
  0
VERTEX
  5
A2EC
  8
0
 62
7
 10
45.1937792270335
 20
44.4786859038877
 70
0
  0
SEQEND
  5
A2ED
  8
0
  0
POLYLINE
  5
9D7C
  8
0
 62
7
 66
1
 70
0
 10
0
 20
0
 30
0
  0
VERTEX
  5
A2EE
  8
0
 62
7
 10
45.1937792270335
 20
44.4786859038877
 70
0
  0
VERTEX
  5
A2EF
  8
0
 62
7
 10
44.517162473730409
 20
44.648012346987741
 70
0
  0
SEQEND
  5
A2F0
  8
0
  0
POLYLINE
  5
9D80
  8
0
 62
7
 66
1
 70
0
 10
0
 20
0
 30
0
  0
VERTEX
  5
A2F1
  8
0
 62
7
 10
44.517162473730409
 20
44.648012346987741
 70
0
  0
VERTEX
  5
A2F2
  8
0
 62
7
 10
43.881886866250369
 20
44.77496411561917
 70
0
  0
SEQEND
  5
A2F3
  8
0
  0
POLYLINE
  5
9D84
  8
0
 62
7
 66
1
 70
0
 10
0
 20
0
 30
0
  0
VERTEX
  5
A2F4
  8
0
 62
7
 10
43.881886866250369
 20
44.77496411561917
 70
0
  0
VERTEX
  5
A2F5
  8
0
 62
7
 10
43.203892074753171
 20
44.902949412896248
 70
0
  0
SEQEND
  5
A2F6
  8
0
  0
POLYLINE
  5
9D88
  8
0
 62
7
 66
1
 70
0
 10
0
 20
0
 30
0
  0
VERTEX
  5
A2F7
  8
0
 62
7
 10
43.203892074753171
 20
44.902949412896248
 70
0
  0
VERTEX
  5
A2F8
  8
0
 62
7
 10
42.484556137433032
 20
44.98700974273634
 70
0
  0
SEQEND
  5
A2F9
  8
0
  0
POLYLINE
  5
9D8C
  8
0
 62
7
 66
1
 70
0
 10
0
 20
0
 30
0
  0
VERTEX
  5
A2FA
  8
0
 62
7
 10
42.484556137433032
 20
44.98700974273634
 70
0
  0
VERTEX
  5
A2FB
  8
0
 62
7
 10
41.765220200112878
 20
45.070897817802177
 70
0
  0
SEQEND
  5
A2FC
  8
0
  0
POLYLINE
  5
9D90
  8
0
 62
7
 66
1
 70
0
 10
0
 20
0
 30
0
  0
VERTEX
  5
A2FD
  8
0
 62
7
 10
41.765220200112878
 20
45.070897817802177
 70
0
  0
VERTEX
  5
A2FE
  8
0
 62
7
 10
41.0458842627927
 20
45.113617001819229
 70
0
  0
SEQEND
  5
A2FF
  8
0
  0
POLYLINE
  5
9D94
  8
0
 62
7
 66
1
 70
0
 10
0
 20
0
 30
0
  0
VERTEX
  5
A300
  8
0
 62
7
 10
41.0458842627927
 20
45.113617001819229
 70
0
  0
VERTEX
  5
A301
  8
0
 62
7
 10
40.283829141455428
 20
45.15668069538485
 70
0
  0
SEQEND
  5
A302
  8
0
  0
POLYLINE
  5
9D98
  8
0
 62
7
 66
1
 70
0
 10
0
 20
0
 30
0
  0
VERTEX
  5
A303
  8
0
 62
7
 10
40.283829141455428
 20
45.15668069538485
 70
0
  0
VERTEX
  5
A304
  8
0
 62
7
 10
39.56449320413526
 20
45.15668069538485
 70
0
  0
SEQEND
  5
A305
  8
0
  0
POLYLINE
  5
9D9C
  8
0
 62
7
 66
1
 70
0
 10
0
 20
0
 30
0
  0
VERTEX
  5
A306
  8
0
 62
7
 10
39.56449320413526
 20
45.15668069538485
 70
0
  0
VERTEX
  5
A307
  8
0
 62
7
 10
38.802438082798
 20
45.15668069538485
 70
0
  0
SEQEND
  5
A308
  8
0
  0
POLYLINE
  5
9DA0
  8
0
 62
7
 66
1
 70
0
 10
0
 20
0
 30
0
  0
VERTEX
  5
A309
  8
0
 62
7
 10
38.802438082798
 20
45.15668069538485
 70
0
  0
VERTEX
  5
A30A
  8
0
 62
7
 10
38.04038296146075
 20
45.113617001819229
 70
0
  0
SEQEND
  5
A30B
  8
0
  0
POLYLINE
  5
9DA4
  8
0
 62
7
 66
1
 70
0
 10
0
 20
0
 30
0
  0
VERTEX
  5
A30C
  8
0
 62
7
 10
38.04038296146075
 20
45.113617001819229
 70
0
  0
VERTEX
  5
A30D
  8
0
 62
7
 10
37.321047024140583
 20
45.070897817802177
 70
0
  0
SEQEND
  5
A30E
  8
0
  0
POLYLINE
  5
9DA8
  8
0
 62
7
 66
1
 70
0
 10
0
 20
0
 30
0
  0
VERTEX
  5
A30F
  8
0
 62
7
 10
37.321047024140583
 20
45.070897817802177
 70
0
  0
VERTEX
  5
A310
  8
0
 62
7
 10
36.601711086820409
 20
44.98700974273634
 70
0
  0
SEQEND
  5
A311
  8
0
  0
POLYLINE
  5
9DAC
  8
0
 62
7
 66
1
 70
0
 10
0
 20
0
 30
0
  0
VERTEX
  5
A312
  8
0
 62
7
 10
36.601711086820409
 20
44.98700974273634
 70
0
  0
VERTEX
  5
A313
  8
0
 62
7
 10
35.923716295323231
 20
44.902949412896248
 70
0
  0
SEQEND
  5
A314
  8
0
  0
POLYLINE
  5
9DB0
  8
0
 62
7
 66
1
 70
0
 10
0
 20
0
 30
0
  0
VERTEX
  5
A315
  8
0
 62
7
 10
35.923716295323231
 20
44.902949412896248
 70
0
  0
VERTEX
  5
A316
  8
0
 62
7
 10
35.24709954202018
 20
44.77496411561917
 70
0
  0
SEQEND
  5
A317
  8
0
  0
POLYLINE
  5
9DB4
  8
0
 62
7
 66
1
 70
0
 10
0
 20
0
 30
0
  0
VERTEX
  5
A318
  8
0
 62
7
 10
35.24709954202018
 20
44.77496411561917
 70
0
  0
VERTEX
  5
A319
  8
0
 62
7
 10
34.569104750523
 20
44.648012346987741
 70
0
  0
SEQEND
  5
A31A
  8
0
  0
POLYLINE
  5
9DB8
  8
0
 62
7
 66
1
 70
0
 10
0
 20
0
 30
0
  0
VERTEX
  5
A31B
  8
0
 62
7
 10
34.569104750523
 20
44.648012346987741
 70
0
  0
VERTEX
  5
A31C
  8
0
 62
7
 10
33.933829143042949
 20
44.4786859038877
 70
0
  0
SEQEND
  5
A31D
  8
0
  0
POLYLINE
  5
9DBC
  8
0
 62
7
 66
1
 70
0
 10
0
 20
0
 30
0
  0
VERTEX
  5
A31E
  8
0
 62
7
 10
33.933829143042949
 20
44.4786859038877
 70
0
  0
VERTEX
  5
A31F
  8
0
 62
7
 10
33.341272719579962
 20
44.31039298943324
 70
0
  0
SEQEND
  5
A320
  8
0
  0
POLYLINE
  5
9DC0
  8
0
 62
7
 66
1
 70
0
 10
0
 20
0
 30
0
  0
VERTEX
  5
A321
  8
0
 62
7
 10
33.341272719579962
 20
44.31039298943324
 70
0
  0
VERTEX
  5
A322
  8
0
 62
7
 10
32.748716296116989
 20
44.098347362316133
 70
0
  0
SEQEND
  5
A323
  8
0
  0
POLYLINE
  5
9DC4
  8
0
 62
7
 66
1
 70
0
 10
0
 20
0
 30
0
  0
VERTEX
  5
A324
  8
0
 62
7
 10
32.748716296116989
 20
44.098347362316133
 70
0
  0
VERTEX
  5
A325
  8
0
 62
7
 10
32.2415982406882
 20
43.885957225650493
 70
0
  0
SEQEND
  5
A326
  8
0
  0
POLYLINE
  5
9DC8
  8
0
 62
7
 66
1
 70
0
 10
0
 20
0
 30
0
  0
VERTEX
  5
A327
  8
0
 62
7
 10
32.2415982406882
 20
43.885957225650493
 70
0
  0
VERTEX
  5
A328
  8
0
 62
7
 10
31.77582133108243
 20
43.67494512717893
 70
0
  0
SEQEND
  5
A329
  8
0
  0
POLYLINE
  5
9DCC
  8
0
 62
7
 66
1
 70
0
 10
0
 20
0
 30
0
  0
VERTEX
  5
A32A
  8
0
 62
7
 10
31.77582133108243
 20
43.67494512717893
 70
0
  0
VERTEX
  5
A32B
  8
0
 62
7
 10
31.31004442147665
 20
43.420352570818977
 70
0
  0
SEQEND
  5
A32C
  8
0
  0
POLYLINE
  5
9DD0
  8
0
 62
7
 66
1
 70
0
 10
0
 20
0
 30
0
  0
VERTEX
  5
A32D
  8
0
 62
7
 10
31.31004442147665
 20
43.420352570818977
 70
0
  0
VERTEX
  5
A32E
  8
0
 62
7
 10
30.88698669588797
 20
43.16662128833029
 70
0
  0
SEQEND
  5
A32F
  8
0
  0
POLYLINE
  5
9DD4
  8
0
 62
7
 66
1
 70
0
 10
0
 20
0
 30
0
  0
VERTEX
  5
A330
  8
0
 62
7
 10
30.88698669588797
 20
43.16662128833029
 70
0
  0
VERTEX
  5
A331
  8
0
 62
7
 10
30.547989300139388
 20
42.913062260615909
 70
0
  0
SEQEND
  5
A332
  8
0
  0
POLYLINE
  5
9DD8
  8
0
 62
7
 66
1
 70
0
 10
0
 20
0
 30
0
  0
VERTEX
  5
A333
  8
0
 62
7
 10
30.547989300139388
 20
42.913062260615909
 70
0
  0
VERTEX
  5
A334
  8
0
 62
7
 10
30.25171108840793
 20
42.616611794110149
 70
0
  0
SEQEND
  5
A335
  8
0
  0
POLYLINE
  5
9DDC
  8
0
 62
7
 66
1
 70
0
 10
0
 20
0
 30
0
  0
VERTEX
  5
A336
  8
0
 62
7
 10
30.25171108840793
 20
42.616611794110149
 70
0
  0
VERTEX
  5
A337
  8
0
 62
7
 10
29.998152060693521
 20
42.363397275944287
 70
0
  0
SEQEND
  5
A338
  8
0
  0
POLYLINE
  5
9DE0
  8
0
 62
7
 66
1
 70
0
 10
0
 20
0
 30
0
  0
VERTEX
  5
A339
  8
0
 62
7
 10
29.998152060693521
 20
42.363397275944287
 70
0
  0
VERTEX
  5
A33A
  8
0
 62
7
 10
29.828653362819239
 20
42.065568771244443
 70
0
  0
SEQEND
  5
A33B
  8
0
  0
POLYLINE
  5
9DE4
  8
0
 62
7
 66
1
 70
0
 10
0
 20
0
 30
0
  0
VERTEX
  5
A33C
  8
0
 62
7
 10
29.828653362819239
 20
42.065568771244443
 70
0
  0
VERTEX
  5
A33D
  8
0
 62
7
 10
29.701873848962041
 20
41.769290559512967
 70
0
  0
SEQEND
  5
A33E
  8
0
  0
POLYLINE
  5
9DE8
  8
0
 62
7
 66
1
 70
0
 10
0
 20
0
 30
0
  0
VERTEX
  5
A33F
  8
0
 62
7
 10
29.701873848962041
 20
41.769290559512967
 70
0
  0
VERTEX
  5
A340
  8
0
 62
7
 10
29.616435480927841
 20
41.473012347781491
 70
0
  0
SEQEND
  5
A341
  8
0
  0
POLYLINE
  5
9DEC
  8
0
 62
7
 66
1
 70
0
 10
0
 20
0
 30
0
  0
VERTEX
  5
A342
  8
0
 62
7
 10
29.616435480927841
 20
41.473012347781491
 70
0
  0
VERTEX
  5
A343
  8
0
 62
7
 10
29.573716296910732
 20
41.176561881275752
 70
0
  0
SEQEND
  5
A344
  8
0
  0
POLYLINE
  5
9DF0
  8
0
 62
7
 66
1
 70
0
 10
0
 20
0
 30
0
  0
VERTEX
  5
A345
  8
0
 62
7
 10
49.5111728891486
 20
31.144616083002461
 70
0
  0
VERTEX
  5
A346
  8
0
 62
7
 10
49.5111728891486
 20
31.441066549508211
 70
0
  0
SEQEND
  5
A347
  8
0
  0
POLYLINE
  5
9DF4
  8
0
 62
7
 66
1
 70
0
 10
0
 20
0
 30
0
  0
VERTEX
  5
A348
  8
0
 62
7
 10
49.5111728891486
 20
31.441066549508211
 70
0
  0
VERTEX
  5
A349
  8
0
 62
7
 10
49.427112559308512
 20
31.7370002516912
 70
0
  0
SEQEND
  5
A34A
  8
0
  0
POLYLINE
  5
9DF8
  8
0
 62
7
 66
1
 70
0
 10
0
 20
0
 30
0
  0
VERTEX
  5
A34B
  8
0
 62
7
 10
49.427112559308512
 20
31.7370002516912
 70
0
  0
VERTEX
  5
A34C
  8
0
 62
7
 10
49.300333045451318
 20
32.033278463422683
 70
0
  0
SEQEND
  5
A34D
  8
0
  0
POLYLINE
  5
9DFC
  8
0
 62
7
 66
1
 70
0
 10
0
 20
0
 30
0
  0
VERTEX
  5
A34E
  8
0
 62
7
 10
49.300333045451318
 20
32.033278463422683
 70
0
  0
VERTEX
  5
A34F
  8
0
 62
7
 10
49.088115163559927
 20
32.329728929928429
 70
0
  0
SEQEND
  5
A350
  8
0
  0
POLYLINE
  5
9E00
  8
0
 62
7
 66
1
 70
0
 10
0
 20
0
 30
0
  0
VERTEX
  5
A351
  8
0
 62
7
 10
49.088115163559927
 20
32.329728929928429
 70
0
  0
VERTEX
  5
A352
  8
0
 62
7
 10
48.877275319862633
 20
32.584665995836929
 70
0
  0
SEQEND
  5
A353
  8
0
  0
POLYLINE
  5
9E04
  8
0
 62
7
 66
1
 70
0
 10
0
 20
0
 30
0
  0
VERTEX
  5
A354
  8
0
 62
7
 10
48.877275319862633
 20
32.584665995836929
 70
0
  0
VERTEX
  5
A355
  8
0
 62
7
 10
48.580997108131157
 20
32.838397278325552
 70
0
  0
SEQEND
  5
A356
  8
0
  0
POLYLINE
  5
9E08
  8
0
 62
7
 66
1
 70
0
 10
0
 20
0
 30
0
  0
VERTEX
  5
A357
  8
0
 62
7
 10
48.580997108131157
 20
32.838397278325552
 70
0
  0
VERTEX
  5
A358
  8
0
 62
7
 10
48.241999712382537
 20
33.091611796491406
 70
0
  0
SEQEND
  5
A359
  8
0
  0
POLYLINE
  5
9E0C
  8
0
 62
7
 66
1
 70
0
 10
0
 20
0
 30
0
  0
VERTEX
  5
A35A
  8
0
 62
7
 10
48.241999712382537
 20
33.091611796491406
 70
0
  0
VERTEX
  5
A35B
  8
0
 62
7
 10
47.860283132616857
 20
33.346721117174191
 70
0
  0
SEQEND
  5
A35C
  8
0
  0
POLYLINE
  5
9E10
  8
0
 62
7
 66
1
 70
0
 10
0
 20
0
 30
0
  0
VERTEX
  5
A35D
  8
0
 62
7
 10
47.860283132616857
 20
33.346721117174191
 70
0
  0
VERTEX
  5
A35E
  8
0
 62
7
 10
47.43722540702818
 20
33.6004523996628
 70
0
  0
SEQEND
  5
A35F
  8
0
  0
POLYLINE
  5
9E14
  8
0
 62
7
 66
1
 70
0
 10
0
 20
0
 30
0
  0
VERTEX
  5
A360
  8
0
 62
7
 10
47.43722540702818
 20
33.6004523996628
 70
0
  0
VERTEX
  5
A361
  8
0
 62
7
 10
46.9714484974224
 20
33.853666917828662
 70
0
  0
SEQEND
  5
A362
  8
0
  0
POLYLINE
  5
9E18
  8
0
 62
7
 66
1
 70
0
 10
0
 20
0
 30
0
  0
VERTEX
  5
A363
  8
0
 62
7
 10
46.9714484974224
 20
33.853666917828662
 70
0
  0
VERTEX
  5
A364
  8
0
 62
7
 10
46.464330441993638
 20
34.023337870477228
 70
0
  0
SEQEND
  5
A365
  8
0
  0
POLYLINE
  5
9E1C
  8
0
 62
7
 66
1
 70
0
 10
0
 20
0
 30
0
  0
VERTEX
  5
A366
  8
0
 62
7
 10
46.464330441993638
 20
34.023337870477228
 70
0
  0
VERTEX
  5
A367
  8
0
 62
7
 10
45.91311516435367
 20
34.235728007142882
 70
0
  0
SEQEND
  5
A368
  8
0
  0
POLYLINE
  5
9E20
  8
0
 62
7
 66
1
 70
0
 10
0
 20
0
 30
0
  0
VERTEX
  5
A369
  8
0
 62
7
 10
45.91311516435367
 20
34.235728007142882
 70
0
  0
VERTEX
  5
A36A
  8
0
 62
7
 10
45.363277924907791
 20
34.405054450242922
 70
0
  0
SEQEND
  5
A36B
  8
0
  0
POLYLINE
  5
9E24
  8
0
 62
7
 66
1
 70
0
 10
0
 20
0
 30
0
  0
VERTEX
  5
A36C
  8
0
 62
7
 10
45.363277924907791
 20
34.405054450242922
 70
0
  0
VERTEX
  5
A36D
  8
0
 62
7
 10
44.728002317427723
 20
34.573347364697383
 70
0
  0
SEQEND
  5
A36E
  8
0
  0
POLYLINE
  5
9E28
  8
0
 62
7
 66
1
 70
0
 10
0
 20
0
 30
0
  0
VERTEX
  5
A36F
  8
0
 62
7
 10
44.728002317427723
 20
34.573347364697383
 70
0
  0
VERTEX
  5
A370
  8
0
 62
7
 10
44.135445893964729
 20
34.701332661974391
 70
0
  0
SEQEND
  5
A371
  8
0
  0
POLYLINE
  5
9E2C
  8
0
 62
7
 66
1
 70
0
 10
0
 20
0
 30
0
  0
VERTEX
  5
A372
  8
0
 62
7
 10
44.135445893964729
 20
34.701332661974391
 70
0
  0
VERTEX
  5
A373
  8
0
 62
7
 10
43.458829140661692
 20
34.82811217583162
 70
0
  0
SEQEND
  5
A374
  8
0
  0
POLYLINE
  5
9E30
  8
0
 62
7
 66
1
 70
0
 10
0
 20
0
 30
0
  0
VERTEX
  5
A375
  8
0
 62
7
 10
43.458829140661692
 20
34.82811217583162
 70
0
  0
VERTEX
  5
A376
  8
0
 62
7
 10
42.7808343491645
 20
34.95506394446307
 70
0
  0
SEQEND
  5
A377
  8
0
  0
POLYLINE
  5
9E34
  8
0
 62
7
 66
1
 70
0
 10
0
 20
0
 30
0
  0
VERTEX
  5
A378
  8
0
 62
7
 10
42.7808343491645
 20
34.95506394446307
 70
0
  0
VERTEX
  5
A379
  8
0
 62
7
 10
42.06149841184434
 20
35.038952019528892
 70
0
  0
SEQEND
  5
A37A
  8
0
  0
POLYLINE
  5
9E38
  8
0
 62
7
 66
1
 70
0
 10
0
 20
0
 30
0
  0
VERTEX
  5
A37B
  8
0
 62
7
 10
42.06149841184434
 20
35.038952019528892
 70
0
  0
VERTEX
  5
A37C
  8
0
 62
7
 10
41.342162474524173
 20
35.08167120354598
 70
0
  0
SEQEND
  5
A37D
  8
0
  0
POLYLINE
  5
9E3C
  8
0
 62
7
 66
1
 70
0
 10
0
 20
0
 30
0
  0
VERTEX
  5
A37E
  8
0
 62
7
 10
41.342162474524173
 20
35.08167120354598
 70
0
  0
VERTEX
  5
A37F
  8
0
 62
7
 10
40.664167683027
 20
35.12439038756311
 70
0
  0
SEQEND
  5
A380
  8
0
  0
POLYLINE
  5
9E40
  8
0
 62
7
 66
1
 70
0
 10
0
 20
0
 30
0
  0
VERTEX
  5
A381
  8
0
 62
7
 10
40.664167683027
 20
35.12439038756311
 70
0
  0
VERTEX
  5
A382
  8
0
 62
7
 10
39.903490599883867
 20
35.16710957158017
 70
0
  0
SEQEND
  5
A383
  8
0
  0
POLYLINE
  5
9E44
  8
0
 62
7
 66
1
 70
0
 10
0
 20
0
 30
0
  0
VERTEX
  5
A384
  8
0
 62
7
 10
39.903490599883867
 20
35.16710957158017
 70
0
  0
VERTEX
  5
A385
  8
0
 62
7
 10
39.182776624369588
 20
35.16710957158017
 70
0
  0
SEQEND
  5
A386
  8
0
  0
POLYLINE
  5
9E48
  8
0
 62
7
 66
1
 70
0
 10
0
 20
0
 30
0
  0
VERTEX
  5
A387
  8
0
 62
7
 10
39.182776624369588
 20
35.16710957158017
 70
0
  0
VERTEX
  5
A388
  8
0
 62
7
 10
38.463440687049442
 20
35.12439038756311
 70
0
  0
SEQEND
  5
A389
  8
0
  0
POLYLINE
  5
9E4C
  8
0
 62
7
 66
1
 70
0
 10
0
 20
0
 30
0
  0
VERTEX
  5
A38A
  8
0
 62
7
 10
38.463440687049442
 20
35.12439038756311
 70
0
  0
VERTEX
  5
A38B
  8
0
 62
7
 10
37.744104749729253
 20
35.08167120354598
 70
0
  0
SEQEND
  5
A38C
  8
0
  0
POLYLINE
  5
9E50
  8
0
 62
7
 66
1
 70
0
 10
0
 20
0
 30
0
  0
VERTEX
  5
A38D
  8
0
 62
7
 10
37.744104749729253
 20
35.08167120354598
 70
0
  0
VERTEX
  5
A38E
  8
0
 62
7
 10
37.024768812409093
 20
35.038952019528892
 70
0
  0
SEQEND
  5
A38F
  8
0
  0
POLYLINE
  5
9E54
  8
0
 62
7
 66
1
 70
0
 10
0
 20
0
 30
0
  0
VERTEX
  5
A390
  8
0
 62
7
 10
37.024768812409093
 20
35.038952019528892
 70
0
  0
VERTEX
  5
A391
  8
0
 62
7
 10
36.346774020911909
 20
34.95506394446307
 70
0
  0
SEQEND
  5
A392
  8
0
  0
POLYLINE
  5
9E58
  8
0
 62
7
 66
1
 70
0
 10
0
 20
0
 30
0
  0
VERTEX
  5
A393
  8
0
 62
7
 10
36.346774020911909
 20
34.95506394446307
 70
0
  0
VERTEX
  5
A394
  8
0
 62
7
 10
35.62743808359177
 20
34.82811217583162
 70
0
  0
SEQEND
  5
A395
  8
0
  0
POLYLINE
  5
9E5C
  8
0
 62
7
 66
1
 70
0
 10
0
 20
0
 30
0
  0
VERTEX
  5
A396
  8
0
 62
7
 10
35.62743808359177
 20
34.82811217583162
 70
0
  0
VERTEX
  5
A397
  8
0
 62
7
 10
34.99216247611168
 20
34.701332661974391
 70
0
  0
SEQEND
  5
A398
  8
0
  0
POLYLINE
  5
9E60
  8
0
 62
7
 66
1
 70
0
 10
0
 20
0
 30
0
  0
VERTEX
  5
A399
  8
0
 62
7
 10
34.99216247611168
 20
34.701332661974391
 70
0
  0
VERTEX
  5
A39A
  8
0
 62
7
 10
34.358264906825717
 20
34.573347364697383
 70
0
  0
SEQEND
  5
A39B
  8
0
  0
POLYLINE
  5
9E64
  8
0
 62
7
 66
1
 70
0
 10
0
 20
0
 30
0
  0
VERTEX
  5
A39C
  8
0
 62
7
 10
34.358264906825717
 20
34.573347364697383
 70
0
  0
VERTEX
  5
A39D
  8
0
 62
7
 10
33.764330445168653
 20
34.405054450242922
 70
0
  0
SEQEND
  5
A39E
  8
0
  0
POLYLINE
  5
9E68
  8
0
 62
7
 66
1
 70
0
 10
0
 20
0
 30
0
  0
VERTEX
  5
A39F
  8
0
 62
7
 10
33.764330445168653
 20
34.405054450242922
 70
0
  0
VERTEX
  5
A3A0
  8
0
 62
7
 10
33.171774021705659
 20
34.235728007142882
 70
0
  0
SEQEND
  5
A3A1
  8
0
  0
POLYLINE
  5
9E6C
  8
0
 62
7
 66
1
 70
0
 10
0
 20
0
 30
0
  0
VERTEX
  5
A3A2
  8
0
 62
7
 10
33.171774021705659
 20
34.235728007142882
 70
0
  0
VERTEX
  5
A3A3
  8
0
 62
7
 10
32.621936782259809
 20
34.023337870477228
 70
0
  0
SEQEND
  5
A3A4
  8
0
  0
POLYLINE
  5
9E70
  8
0
 62
7
 66
1
 70
0
 10
0
 20
0
 30
0
  0
VERTEX
  5
A3A5
  8
0
 62
7
 10
32.621936782259809
 20
34.023337870477228
 70
0
  0
VERTEX
  5
A3A6
  8
0
 62
7
 10
32.114818726831039
 20
33.853666917828662
 70
0
  0
SEQEND
  5
A3A7
  8
0
  0
POLYLINE
  5
9E74
  8
0
 62
7
 66
1
 70
0
 10
0
 20
0
 30
0
  0
VERTEX
  5
A3A8
  8
0
 62
7
 10
32.114818726831039
 20
33.853666917828662
 70
0
  0
VERTEX
  5
A3A9
  8
0
 62
7
 10
31.64904181722525
 20
33.6004523996628
 70
0
  0
SEQEND
  5
A3AA
  8
0
  0
POLYLINE
  5
9E78
  8
0
 62
7
 66
1
 70
0
 10
0
 20
0
 30
0
  0
VERTEX
  5
A3AB
  8
0
 62
7
 10
31.64904181722525
 20
33.6004523996628
 70
0
  0
VERTEX
  5
A3AC
  8
0
 62
7
 10
31.224606053442471
 20
33.346721117174191
 70
0
  0
SEQEND
  5
A3AD
  8
0
  0
POLYLINE
  5
9E7C
  8
0
 62
7
 66
1
 70
0
 10
0
 20
0
 30
0
  0
VERTEX
  5
A3AE
  8
0
 62
7
 10
31.224606053442471
 20
33.346721117174191
 70
0
  0
VERTEX
  5
A3AF
  8
0
 62
7
 10
30.844267511870871
 20
33.091611796491406
 70
0
  0
SEQEND
  5
A3B0
  8
0
  0
POLYLINE
  5
9E80
  8
0
 62
7
 66
1
 70
0
 10
0
 20
0
 30
0
  0
VERTEX
  5
A3B1
  8
0
 62
7
 10
30.844267511870871
 20
33.091611796491406
 70
0
  0
VERTEX
  5
A3B2
  8
0
 62
7
 10
30.50527011612229
 20
32.838397278325552
 70
0
  0
SEQEND
  5
A3B3
  8
0
  0
POLYLINE
  5
9E84
  8
0
 62
7
 66
1
 70
0
 10
0
 20
0
 30
0
  0
VERTEX
  5
A3B4
  8
0
 62
7
 10
30.50527011612229
 20
32.838397278325552
 70
0
  0
VERTEX
  5
A3B5
  8
0
 62
7
 10
30.20899190439081
 20
32.584665995836929
 70
0
  0
SEQEND
  5
A3B6
  8
0
  0
POLYLINE
  5
9E88
  8
0
 62
7
 66
1
 70
0
 10
0
 20
0
 30
0
  0
VERTEX
  5
A3B7
  8
0
 62
7
 10
30.20899190439081
 20
32.584665995836929
 70
0
  0
VERTEX
  5
A3B8
  8
0
 62
7
 10
29.998152060693521
 20
32.329728929928429
 70
0
  0
SEQEND
  5
A3B9
  8
0
  0
POLYLINE
  5
9E8C
  8
0
 62
7
 66
1
 70
0
 10
0
 20
0
 30
0
  0
VERTEX
  5
A3BA
  8
0
 62
7
 10
29.998152060693521
 20
32.329728929928429
 70
0
  0
VERTEX
  5
A3BB
  8
0
 62
7
 10
29.828653362819239
 20
32.033278463422683
 70
0
  0
SEQEND
  5
A3BC
  8
0
  0
POLYLINE
  5
9E90
  8
0
 62
7
 66
1
 70
0
 10
0
 20
0
 30
0
  0
VERTEX
  5
A3BD
  8
0
 62
7
 10
29.828653362819239
 20
32.033278463422683
 70
0
  0
VERTEX
  5
A3BE
  8
0
 62
7
 10
29.659154664944928
 20
31.7370002516912
 70
0
  0
SEQEND
  5
A3BF
  8
0
  0
POLYLINE
  5
9E94
  8
0
 62
7
 66
1
 70
0
 10
0
 20
0
 30
0
  0
VERTEX
  5
A3C0
  8
0
 62
7
 10
29.659154664944928
 20
31.7370002516912
 70
0
  0
VERTEX
  5
A3C1
  8
0
 62
7
 10
29.616435480927841
 20
31.441066549508211
 70
0
  0
SEQEND
  5
A3C2
  8
0
  0
POLYLINE
  5
9E98
  8
0
 62
7
 66
1
 70
0
 10
0
 20
0
 30
0
  0
VERTEX
  5
A3C3
  8
0
 62
7
 10
29.616435480927841
 20
31.441066549508211
 70
0
  0
VERTEX
  5
A3C4
  8
0
 62
7
 10
29.573716296910732
 20
31.144616083002461
 70
0
  0
SEQEND
  5
A3C5
  8
0
  0
POLYLINE
  5
9E9C
  8
0
 62
7
 66
1
 70
0
 10
0
 20
0
 30
0
  0
VERTEX
  5
A3C6
  8
0
 62
7
 10
29.573716296910732
 20
31.144616083002461
 70
0
  0
VERTEX
  5
A3C7
  8
0
 62
7
 10
29.616435480927841
 20
30.848337871270989
 70
0
  0
SEQEND
  5
A3C8
  8
0
  0
POLYLINE
  5
9EA0
  8
0
 62
7
 66
1
 70
0
 10
0
 20
0
 30
0
  0
VERTEX
  5
A3C9
  8
0
 62
7
 10
29.616435480927841
 20
30.848337871270989
 70
0
  0
VERTEX
  5
A3CA
  8
0
 62
7
 10
29.659154664944928
 20
30.552059659539509
 70
0
  0
SEQEND
  5
A3CB
  8
0
  0
POLYLINE
  5
9EA4
  8
0
 62
7
 66
1
 70
0
 10
0
 20
0
 30
0
  0
VERTEX
  5
A3CC
  8
0
 62
7
 10
29.659154664944928
 20
30.552059659539509
 70
0
  0
VERTEX
  5
A3CD
  8
0
 62
7
 10
29.828653362819239
 20
30.29832837705084
 70
0
  0
SEQEND
  5
A3CE
  8
0
  0
POLYLINE
  5
9EA8
  8
0
 62
7
 66
1
 70
0
 10
0
 20
0
 30
0
  0
VERTEX
  5
A3CF
  8
0
 62
7
 10
29.828653362819239
 20
30.29832837705084
 70
0
  0
VERTEX
  5
A3D0
  8
0
 62
7
 10
29.998152060693521
 20
30.0023946748679
 70
0
  0
SEQEND
  5
A3D1
  8
0
  0
POLYLINE
  5
9EAC
  8
0
 62
7
 66
1
 70
0
 10
0
 20
0
 30
0
  0
VERTEX
  5
A3D2
  8
0
 62
7
 10
29.998152060693521
 20
30.0023946748679
 70
0
  0
VERTEX
  5
A3D3
  8
0
 62
7
 10
30.20899190439081
 20
29.748663392379228
 70
0
  0
SEQEND
  5
A3D4
  8
0
  0
POLYLINE
  5
9EB0
  8
0
 62
7
 66
1
 70
0
 10
0
 20
0
 30
0
  0
VERTEX
  5
A3D5
  8
0
 62
7
 10
30.20899190439081
 20
29.748663392379228
 70
0
  0
VERTEX
  5
A3D6
  8
0
 62
7
 10
30.50527011612229
 20
29.452385180647749
 70
0
  0
SEQEND
  5
A3D7
  8
0
  0
POLYLINE
  5
9EB4
  8
0
 62
7
 66
1
 70
0
 10
0
 20
0
 30
0
  0
VERTEX
  5
A3D8
  8
0
 62
7
 10
30.50527011612229
 20
29.452385180647749
 70
0
  0
VERTEX
  5
A3D9
  8
0
 62
7
 10
30.844267511870871
 20
29.197448114739249
 70
0
  0
SEQEND
  5
A3DA
  8
0
  0
POLYLINE
  5
9EB8
  8
0
 62
7
 66
1
 70
0
 10
0
 20
0
 30
0
  0
VERTEX
  5
A3DB
  8
0
 62
7
 10
30.844267511870871
 20
29.197448114739249
 70
0
  0
VERTEX
  5
A3DC
  8
0
 62
7
 10
31.224606053442471
 20
28.94406134179917
 70
0
  0
SEQEND
  5
A3DD
  8
0
  0
POLYLINE
  5
9EBC
  8
0
 62
7
 66
1
 70
0
 10
0
 20
0
 30
0
  0
VERTEX
  5
A3DE
  8
0
 62
7
 10
31.224606053442471
 20
28.94406134179917
 70
0
  0
VERTEX
  5
A3DF
  8
0
 62
7
 10
31.64904181722525
 20
28.6903300593105
 70
0
  0
SEQEND
  5
A3E0
  8
0
  0
POLYLINE
  5
9EC0
  8
0
 62
7
 66
1
 70
0
 10
0
 20
0
 30
0
  0
VERTEX
  5
A3E1
  8
0
 62
7
 10
31.64904181722525
 20
28.6903300593105
 70
0
  0
VERTEX
  5
A3E2
  8
0
 62
7
 10
32.114818726831039
 20
28.478112177419121
 70
0
  0
SEQEND
  5
A3E3
  8
0
  0
POLYLINE
  5
9EC4
  8
0
 62
7
 66
1
 70
0
 10
0
 20
0
 30
0
  0
VERTEX
  5
A3E4
  8
0
 62
7
 10
32.114818726831039
 20
28.478112177419121
 70
0
  0
VERTEX
  5
A3E5
  8
0
 62
7
 10
32.621936782259809
 20
28.267444588496058
 70
0
  0
SEQEND
  5
A3E6
  8
0
  0
POLYLINE
  5
9EC8
  8
0
 62
7
 66
1
 70
0
 10
0
 20
0
 30
0
  0
VERTEX
  5
A3E7
  8
0
 62
7
 10
32.621936782259809
 20
28.267444588496058
 70
0
  0
VERTEX
  5
A3E8
  8
0
 62
7
 10
33.171774021705659
 20
28.097773635847549
 70
0
  0
SEQEND
  5
A3E9
  8
0
  0
POLYLINE
  5
9ECC
  8
0
 62
7
 66
1
 70
0
 10
0
 20
0
 30
0
  0
VERTEX
  5
A3EA
  8
0
 62
7
 10
33.171774021705659
 20
28.097773635847549
 70
0
  0
VERTEX
  5
A3EB
  8
0
 62
7
 10
33.764330445168653
 20
27.885728008730371
 70
0
  0
SEQEND
  5
A3EC
  8
0
  0
POLYLINE
  5
9ED0
  8
0
 62
7
 66
1
 70
0
 10
0
 20
0
 30
0
  0
VERTEX
  5
A3ED
  8
0
 62
7
 10
33.764330445168653
 20
27.885728008730371
 70
0
  0
VERTEX
  5
A3EE
  8
0
 62
7
 10
34.358264906825717
 20
27.716057056081869
 70
0
  0
SEQEND
  5
A3EF
  8
0
  0
POLYLINE
  5
9ED4
  8
0
 62
7
 66
1
 70
0
 10
0
 20
0
 30
0
  0
VERTEX
  5
A3F0
  8
0
 62
7
 10
34.358264906825717
 20
27.716057056081869
 70
0
  0
VERTEX
  5
A3F1
  8
0
 62
7
 10
34.99216247611168
 20
27.58944979699891
 70
0
  0
SEQEND
  5
A3F2
  8
0
  0
POLYLINE
  5
9ED8
  8
0
 62
7
 66
1
 70
0
 10
0
 20
0
 30
0
  0
VERTEX
  5
A3F3
  8
0
 62
7
 10
34.99216247611168
 20
27.58944979699891
 70
0
  0
VERTEX
  5
A3F4
  8
0
 62
7
 10
35.62743808359177
 20
27.462325773593189
 70
0
  0
SEQEND
  5
A3F5
  8
0
  0
POLYLINE
  5
9EDC
  8
0
 62
7
 66
1
 70
0
 10
0
 20
0
 30
0
  0
VERTEX
  5
A3F6
  8
0
 62
7
 10
35.62743808359177
 20
27.462325773593189
 70
0
  0
VERTEX
  5
A3F7
  8
0
 62
7
 10
36.346774020911909
 20
27.37843769852736
 70
0
  0
SEQEND
  5
A3F8
  8
0
  0
POLYLINE
  5
9EE0
  8
0
 62
7
 66
1
 70
0
 10
0
 20
0
 30
0
  0
VERTEX
  5
A3F9
  8
0
 62
7
 10
36.346774020911909
 20
27.37843769852736
 70
0
  0
VERTEX
  5
A3FA
  8
0
 62
7
 10
37.024768812409093
 20
27.29299933049316
 70
0
  0
SEQEND
  5
A3FB
  8
0
  0
POLYLINE
  5
9EE4
  8
0
 62
7
 66
1
 70
0
 10
0
 20
0
 30
0
  0
VERTEX
  5
A3FC
  8
0
 62
7
 10
37.024768812409093
 20
27.29299933049316
 70
0
  0
VERTEX
  5
A3FD
  8
0
 62
7
 10
37.744104749729253
 20
27.209111255427331
 70
0
  0
SEQEND
  5
A3FE
  8
0
  0
POLYLINE
  5
9EE8
  8
0
 62
7
 66
1
 70
0
 10
0
 20
0
 30
0
  0
VERTEX
  5
A3FF
  8
0
 62
7
 10
37.744104749729253
 20
27.209111255427331
 70
0
  0
VERTEX
  5
A400
  8
0
 62
7
 10
38.463440687049442
 20
27.166047561861721
 70
0
  0
SEQEND
  5
A401
  8
0
  0
POLYLINE
  5
9EEC
  8
0
 62
7
 66
1
 70
0
 10
0
 20
0
 30
0
  0
VERTEX
  5
A402
  8
0
 62
7
 10
38.463440687049442
 20
27.166047561861721
 70
0
  0
VERTEX
  5
A403
  8
0
 62
7
 10
39.182776624369588
 20
27.166047561861721
 70
0
  0
SEQEND
  5
A404
  8
0
  0
POLYLINE
  5
9EF0
  8
0
 62
7
 66
1
 70
0
 10
0
 20
0
 30
0
  0
VERTEX
  5
A405
  8
0
 62
7
 10
39.182776624369588
 20
27.166047561861721
 70
0
  0
VERTEX
  5
A406
  8
0
 62
7
 10
39.903490599883867
 20
27.166047561861721
 70
0
  0
SEQEND
  5
A407
  8
0
  0
POLYLINE
  5
9EF4
  8
0
 62
7
 66
1
 70
0
 10
0
 20
0
 30
0
  0
VERTEX
  5
A408
  8
0
 62
7
 10
39.903490599883867
 20
27.166047561861721
 70
0
  0
VERTEX
  5
A409
  8
0
 62
7
 10
40.664167683027
 20
27.166047561861721
 70
0
  0
SEQEND
  5
A40A
  8
0
  0
POLYLINE
  5
9EF8
  8
0
 62
7
 66
1
 70
0
 10
0
 20
0
 30
0
  0
VERTEX
  5
A40B
  8
0
 62
7
 10
40.664167683027
 20
27.166047561861721
 70
0
  0
VERTEX
  5
A40C
  8
0
 62
7
 10
41.342162474524173
 20
27.209111255427331
 70
0
  0
SEQEND
  5
A40D
  8
0
  0
POLYLINE
  5
9EFC
  8
0
 62
7
 66
1
 70
0
 10
0
 20
0
 30
0
  0
VERTEX
  5
A40E
  8
0
 62
7
 10
41.342162474524173
 20
27.209111255427331
 70
0
  0
VERTEX
  5
A40F
  8
0
 62
7
 10
42.06149841184434
 20
27.29299933049316
 70
0
  0
SEQEND
  5
A410
  8
0
  0
POLYLINE
  5
9F00
  8
0
 62
7
 66
1
 70
0
 10
0
 20
0
 30
0
  0
VERTEX
  5
A411
  8
0
 62
7
 10
42.06149841184434
 20
27.29299933049316
 70
0
  0
VERTEX
  5
A412
  8
0
 62
7
 10
42.7808343491645
 20
27.37843769852736
 70
0
  0
SEQEND
  5
A413
  8
0
  0
POLYLINE
  5
9F04
  8
0
 62
7
 66
1
 70
0
 10
0
 20
0
 30
0
  0
VERTEX
  5
A414
  8
0
 62
7
 10
42.7808343491645
 20
27.37843769852736
 70
0
  0
VERTEX
  5
A415
  8
0
 62
7
 10
43.458829140661692
 20
27.462325773593189
 70
0
  0
SEQEND
  5
A416
  8
0
  0
POLYLINE
  5
9F08
  8
0
 62
7
 66
1
 70
0
 10
0
 20
0
 30
0
  0
VERTEX
  5
A417
  8
0
 62
7
 10
43.458829140661692
 20
27.462325773593189
 70
0
  0
VERTEX
  5
A418
  8
0
 62
7
 10
44.135445893964729
 20
27.58944979699891
 70
0
  0
SEQEND
  5
A419
  8
0
  0
POLYLINE
  5
9F0C
  8
0
 62
7
 66
1
 70
0
 10
0
 20
0
 30
0
  0
VERTEX
  5
A41A
  8
0
 62
7
 10
44.135445893964729
 20
27.58944979699891
 70
0
  0
VERTEX
  5
A41B
  8
0
 62
7
 10
44.728002317427723
 20
27.716057056081869
 70
0
  0
SEQEND
  5
A41C
  8
0
  0
POLYLINE
  5
9F10
  8
0
 62
7
 66
1
 70
0
 10
0
 20
0
 30
0
  0
VERTEX
  5
A41D
  8
0
 62
7
 10
44.728002317427723
 20
27.716057056081869
 70
0
  0
VERTEX
  5
A41E
  8
0
 62
7
 10
45.363277924907791
 20
27.885728008730371
 70
0
  0
SEQEND
  5
A41F
  8
0
  0
POLYLINE
  5
9F14
  8
0
 62
7
 66
1
 70
0
 10
0
 20
0
 30
0
  0
VERTEX
  5
A420
  8
0
 62
7
 10
45.363277924907791
 20
27.885728008730371
 70
0
  0
VERTEX
  5
A421
  8
0
 62
7
 10
45.91311516435367
 20
28.097773635847549
 70
0
  0
SEQEND
  5
A422
  8
0
  0
POLYLINE
  5
9F18
  8
0
 62
7
 66
1
 70
0
 10
0
 20
0
 30
0
  0
VERTEX
  5
A423
  8
0
 62
7
 10
45.91311516435367
 20
28.097773635847549
 70
0
  0
VERTEX
  5
A424
  8
0
 62
7
 10
46.464330441993638
 20
28.267444588496058
 70
0
  0
SEQEND
  5
A425
  8
0
  0
POLYLINE
  5
9F1C
  8
0
 62
7
 66
1
 70
0
 10
0
 20
0
 30
0
  0
VERTEX
  5
A426
  8
0
 62
7
 10
46.464330441993638
 20
28.267444588496058
 70
0
  0
VERTEX
  5
A427
  8
0
 62
7
 10
46.9714484974224
 20
28.478112177419121
 70
0
  0
SEQEND
  5
A428
  8
0
  0
POLYLINE
  5
9F20
  8
0
 62
7
 66
1
 70
0
 10
0
 20
0
 30
0
  0
VERTEX
  5
A429
  8
0
 62
7
 10
46.9714484974224
 20
28.478112177419121
 70
0
  0
VERTEX
  5
A42A
  8
0
 62
7
 10
47.43722540702818
 20
28.6903300593105
 70
0
  0
SEQEND
  5
A42B
  8
0
  0
POLYLINE
  5
9F24
  8
0
 62
7
 66
1
 70
0
 10
0
 20
0
 30
0
  0
VERTEX
  5
A42C
  8
0
 62
7
 10
47.43722540702818
 20
28.6903300593105
 70
0
  0
VERTEX
  5
A42D
  8
0
 62
7
 10
47.860283132616857
 20
28.94406134179917
 70
0
  0
SEQEND
  5
A42E
  8
0
  0
POLYLINE
  5
9F28
  8
0
 62
7
 66
1
 70
0
 10
0
 20
0
 30
0
  0
VERTEX
  5
A42F
  8
0
 62
7
 10
47.860283132616857
 20
28.94406134179917
 70
0
  0
VERTEX
  5
A430
  8
0
 62
7
 10
48.241999712382537
 20
29.197448114739249
 70
0
  0
SEQEND
  5
A431
  8
0
  0
POLYLINE
  5
9F2C
  8
0
 62
7
 66
1
 70
0
 10
0
 20
0
 30
0
  0
VERTEX
  5
A432
  8
0
 62
7
 10
48.241999712382537
 20
29.197448114739249
 70
0
  0
VERTEX
  5
A433
  8
0
 62
7
 10
48.580997108131157
 20
29.452385180647749
 70
0
  0
SEQEND
  5
A434
  8
0
  0
POLYLINE
  5
9F30
  8
0
 62
7
 66
1
 70
0
 10
0
 20
0
 30
0
  0
VERTEX
  5
A435
  8
0
 62
7
 10
48.580997108131157
 20
29.452385180647749
 70
0
  0
VERTEX
  5
A436
  8
0
 62
7
 10
48.877275319862633
 20
29.748663392379228
 70
0
  0
SEQEND
  5
A437
  8
0
  0
POLYLINE
  5
9F34
  8
0
 62
7
 66
1
 70
0
 10
0
 20
0
 30
0
  0
VERTEX
  5
A438
  8
0
 62
7
 10
48.877275319862633
 20
29.748663392379228
 70
0
  0
VERTEX
  5
A439
  8
0
 62
7
 10
49.088115163559927
 20
30.0023946748679
 70
0
  0
SEQEND
  5
A43A
  8
0
  0
POLYLINE
  5
9F38
  8
0
 62
7
 66
1
 70
0
 10
0
 20
0
 30
0
  0
VERTEX
  5
A43B
  8
0
 62
7
 10
49.088115163559927
 20
30.0023946748679
 70
0
  0
VERTEX
  5
A43C
  8
0
 62
7
 10
49.300333045451318
 20
30.29832837705084
 70
0
  0
SEQEND
  5
A43D
  8
0
  0
POLYLINE
  5
9F3C
  8
0
 62
7
 66
1
 70
0
 10
0
 20
0
 30
0
  0
VERTEX
  5
A43E
  8
0
 62
7
 10
49.300333045451318
 20
30.29832837705084
 70
0
  0
VERTEX
  5
A43F
  8
0
 62
7
 10
49.427112559308512
 20
30.552059659539509
 70
0
  0
SEQEND
  5
A440
  8
0
  0
POLYLINE
  5
9F40
  8
0
 62
7
 66
1
 70
0
 10
0
 20
0
 30
0
  0
VERTEX
  5
A441
  8
0
 62
7
 10
49.427112559308512
 20
30.552059659539509
 70
0
  0
VERTEX
  5
A442
  8
0
 62
7
 10
49.5111728891486
 20
30.848337871270989
 70
0
  0
SEQEND
  5
A443
  8
0
  0
POLYLINE
  5
9F44
  8
0
 62
7
 66
1
 70
0
 10
0
 20
0
 30
0
  0
VERTEX
  5
A444
  8
0
 62
7
 10
49.5111728891486
 20
30.848337871270989
 70
0
  0
VERTEX
  5
A445
  8
0
 62
7
 10
49.5111728891486
 20
31.144616083002461
 70
0
  0
SEQEND
  5
A446
  8
0
  0
INSERT
  5
A455
  8
0
  2
SPEC_BLOCK
 10
67.275103931054886
 20
1.6249999999999858
 30
0
 41
1
 42
1
 43
1
 50
0
  0
ENDSEC
999
Created By CadLib version 4.0.36.7
999
CadLib website: www.woutware.com
  0
EOF
