  0
SECTION
  2
HEADER
  9
$ACADVER
  1
AC1009
  9
$DWGCODEPAGE
  3
dos932
  9
$INSBASE
 10
0
 20
0
 30
0
  9
$EXTMIN
 10
8.486777722970448
 20
-8.1943344916693821
 30
0
  9
$EXTMAX
 10
131.50036077390681
 20
82.2075705589972
 30
0
  9
$LIMMIN
 10
0
 20
0
  9
$LIMMAX
 10
168.2
 20
118.8
  9
$SNAPMODE
 70
0
  9
$SNAPUNIT
 10
1
 20
1
  9
$SNAPBASE
 10
0
 20
0
  9
$SNAPANG
 50
0
  9
$SNAPSTYLE
 70
0
  9
$SNAPISOPAIR
 70
0
  9
$ORTHOMODE
 70
1
  9
$REGENMODE
 70
1
  9
$FILLMODE
 70
1
  9
$QTEXTMODE
 70
0
  9
$MIRRTEXT
 70
0
  9
$LTSCALE
 40
0.2
  9
$OSMODE
 70
37
  9
$ATTMODE
 70
1
  9
$TEXTSIZE
 40
0.2
  9
$TRACEWID
 40
0.05
  9
$TEXTSTYLE
  7
STANDARD
  9
$CLAYER
  8
0
  9
$CELTYPE
  6
CONTINUOUS
  9
$CECOLOR
 62
256
  9
$DIMSCALE
 40
1
  9
$DIMASZ
 40
0.18
  9
$DIMEXO
 40
0.0625
  9
$DIMDLI
 40
0.38
  9
$DIMRND
 40
0
  9
$DIMDLE
 40
0
  9
$DIMEXE
 40
0.18
  9
$DIMTP
 40
0
  9
$DIMTM
 40
0
  9
$DIMTXT
 40
0.18
  9
$DIMCEN
 40
0.09
  9
$DIMTSZ
 40
0
  9
$DIMTOL
 70
0
  9
$DIMLIM
 70
0
  9
$DIMTIH
 70
1
  9
$DIMTOH
 70
1
  9
$DIMSE1
 70
0
  9
$DIMSE2
 70
0
  9
$DIMTAD
 70
0
  9
$DIMZIN
 70
0
  9
$DIMBLK
  1

  9
$DIMASO
 70
1
  9
$DIMSHO
 70
1
  9
$DIMPOST
  1

  9
$DIMAPOST
  1

  9
$DIMALT
 70
0
  9
$DIMALTD
 70
2
  9
$DIMALTF
 40
25.4
  9
$DIMLFAC
 40
1
  9
$DIMTOFL
 70
0
  9
$DIMTVP
 40
0
  9
$DIMTIX
 70
0
  9
$DIMSOXD
 70
0
  9
$DIMSAH
 70
0
  9
$DIMBLK1
  1

  9
$DIMBLK2
  1

  9
$DIMSTYLE
  2
STANDARD
  9
$DIMCLRD
 70
0
  9
$DIMCLRE
 70
0
  9
$DIMCLRT
 70
0
  9
$DIMTFAC
 40
1
  9
$DIMGAP
 40
0.09
  9
$LUNITS
 70
2
  9
$LUPREC
 70
4
  9
$SKETCHINC
 40
0.1
  9
$FILLETRAD
 40
0
  9
$AUNITS
 70
0
  9
$AUPREC
 70
0
  9
$MENU
  1
.
  9
$ELEVATION
 40
0
  9
$PELEVATION
 40
0
  9
$THICKNESS
 40
0
  9
$LIMCHECK
 70
0
  9
$CHAMFERA
 40
0
  9
$CHAMFERB
 40
0
  9
$SKPOLY
 70
0
  9
$TDCREATE
 40
2456861.5539370487
  9
$TDUPDATE
 40
2458102.4493247336
  9
$TDINDWG
 40
0.1711116550925926
  9
$TDUSRTIMER
 40
0.17110979166666668
  9
$USRTIMER
 70
1
  9
$ANGBASE
 50
0
  9
$ANGDIR
 70
0
  9
$PDMODE
 70
0
  9
$PDSIZE
 40
0
  9
$PLINEWID
 40
0
  9
$SPLFRAME
 70
0
  9
$SPLINETYPE
 70
6
  9
$SPLINESEGS
 70
8
  9
$HANDLING
 70
1
  9
$HANDSEED
  5
553
  9
$SURFTAB1
 70
6
  9
$SURFTAB2
 70
6
  9
$SURFTYPE
 70
6
  9
$SURFU
 70
6
  9
$SURFV
 70
6
  9
$UCSORG
 10
0
 20
0
 30
0
  9
$UCSXDIR
 10
1
 20
0
 30
0
  9
$UCSYDIR
 10
0
 20
1
 30
0
  9
$PUCSORG
 10
0
 20
0
 30
0
  9
$PUCSXDIR
 10
1
 20
0
 30
0
  9
$PUCSYDIR
 10
0
 20
1
 30
0
  9
$USERI1
 70
0
  9
$USERI2
 70
0
  9
$USERI3
 70
0
  9
$USERI4
 70
0
  9
$USERI5
 70
0
  9
$USERR1
 40
0
  9
$USERR2
 40
0
  9
$USERR3
 40
0
  9
$USERR4
 40
0
  9
$USERR5
 40
0
  9
$WORLDVIEW
 70
1
  9
$SHADEDGE
 70
3
  9
$SHADEDIF
 70
70
  9
$TILEMODE
 70
1
  9
$MAXACTVP
 70
64
  9
$PINSBASE
 10
0
 20
0
 30
0
  9
$PLIMCHECK
 70
0
  9
$PEXTMIN
 10
1E+20
 20
1E+20
 30
1E+20
  9
$PEXTMAX
 10
-1E+20
 20
-1E+20
 30
-1E+20
  9
$PLIMMAX
 10
12
 20
9
  9
$PLIMMIN
 10
0
 20
0
  9
$UNITMODE
 70
0
  9
$VISRETAIN
 70
1
  9
$PLINEGEN
 70
0
  9
$PSLTSCALE
 70
1
  9
$TREEDEPTH
 70
3020
  9
$DRAGMODE
 70
     2
  9
$BLIPMODE
 70
     0
  9
$COORDS
 70
     1
  9
$ATTDIA
 70
     0
  9
$ATTREQ
 70
     1
  0
ENDSEC
  0
SECTION
  2
TABLES
  0
TABLE
  2
VPORT
  5
8
 70
1
  0
VPORT
  5
52D
  2
*ACTIVE
 70
0
 10
0
 20
0
 11
1
 21
1
 12
87.51896507864916
 22
13.28620146990477
 13
0
 23
0
 14
1
 24
1
 15
0
 25
0
 16
0
 26
0
 36
1
 17
0
 27
0
 37
0
 40
242.81781475806039
 41
1.730717185385656
 42
50
 43
0
 44
0
 50
0
 51
0
 71
0
 72
100
 73
1
 74
1
 75
0
 76
0
 77
0
 78
0
  0
ENDTAB
  0
TABLE
  2
LTYPE
  5
5
 70
37
  0
LTYPE
  5
16
  2
CONTINUOUS
  3
実線
 70
0
 72
65
 73
0
 40
0
  0
LTYPE
  5
509
  2
DASHED1
  3
--  --  --  --  --  --  --  --  
 70
0
 72
65
 73
2
 40
2.5
 49
1.25
 49
-1.25
  0
LTYPE
  5
50A
  2
DASHED2
  3
----    ----    ----    ----    
 70
0
 72
65
 73
2
 40
5
 49
2.5
 49
-2.5
  0
LTYPE
  5
50B
  2
DASHED3
  3
------  ------  ------  ------  
 70
0
 72
65
 73
2
 40
5
 49
3.75
 49
-1.25
  0
LTYPE
  5
50C
  2
CENTER1
  3
----- - ----- - ----- - ----- - 
 70
0
 72
65
 73
4
 40
10
 49
6.25
 49
-1.25
 49
1.25
 49
-1.25
  0
LTYPE
  5
50D
  2
CENTER2
  3
----------  --  ----------  --  
 70
0
 72
65
 73
4
 40
20
 49
12.5
 49
-2.5
 49
2.5
 49
-2.5
  0
LTYPE
  5
50E
  2
PHANTOM1
  3
--- - - --- - - --- - - --- - - 
 70
0
 72
65
 73
6
 40
9.5
 49
3.25
 49
-1.25
 49
1.25
 49
-1.25
 49
1.25
 49
-1.25
  0
LTYPE
  5
50F
  2
PHANTOM2
  3
--------  -  -  --------  -  -  
 70
0
 72
65
 73
6
 40
20
 49
10
 49
-2.5
 49
1.25
 49
-2.5
 49
1.25
 49
-2.5
  0
LTYPE
  5
510
  2
DOT
  3
-   -   -   -   -   -   -   -   
 70
0
 72
65
 73
2
 40
2.5
 49
0.625
 49
-1.875
  0
LTYPE
  5
511
  2
DUMMY
  3
ダミー
 70
0
 72
65
 73
0
 40
0
  0
LTYPE
  5
512
  2
RAND1
  3
ランダム線1
 70
0
 72
65
 73
4
 40
10
 49
1
 49
-2
 49
3
 49
-4
  0
LTYPE
  5
513
  2
RAND2
  3
ランダム線2
 70
0
 72
65
 73
4
 40
14
 49
2
 49
-3
 49
4
 49
-5
  0
LTYPE
  5
514
  2
RAND3
  3
ランダム線3
 70
0
 72
65
 73
4
 40
18
 49
3
 49
-4
 49
5
 49
-6
  0
LTYPE
  5
515
  2
RAND4
  3
ランダム線4
 70
0
 72
65
 73
4
 40
22
 49
4
 49
-5
 49
6
 49
-7
  0
LTYPE
  5
516
  2
RAND5
  3
ランダム線5
 70
0
 72
65
 73
4
 40
26
 49
5
 49
-6
 49
7
 49
-8
  0
LTYPE
  5
517
  2
LONG1
  3
----------  --  ----------  --  
 70
0
 72
65
 73
4
 40
40
 49
32.5
 49
-2.5
 49
2.5
 49
-2.5
  0
LTYPE
  5
518
  2
LONG2
  3
--------  -  -  --------  -  -  
 70
0
 72
65
 73
6
 40
40
 49
30
 49
-2.5
 49
1.25
 49
-2.5
 49
1.25
 49
-2.5
  0
LTYPE
  5
519
  2
LONG3
  3
+++++++++++++++..+++++++++++++++
 70
0
 72
65
 73
2
 40
40
 49
37.5
 49
-2.5
  0
LTYPE
  5
51A
  2
LONG4
  3
+++++++++++++++..+++++++++++++++
 70
0
 72
65
 73
2
 40
80
 49
75
 49
-5
  0
LTYPE
  5
51B
  2
LONG5
  3
----------  --  ----------  --  
 70
0
 72
65
 73
4
 40
60
 49
37.5
 49
-7.5
 49
7.5
 49
-7.5
  0
LTYPE
  5
51C
  2
DASHED
  3
-------   -------------   ------
 70
0
 72
65
 73
2
 40
7.5
 49
6
 49
-1.5
  0
LTYPE
  5
51D
  2
DASHED_SPACED
  3
----        --------        ----
 70
0
 72
65
 73
2
 40
12
 49
6
 49
-6
  0
LTYPE
  5
51E
  2
LONG_DASHED_DOTTED
  3
------------- --- --------------
 70
0
 72
65
 73
4
 40
15.25
 49
12
 49
-1.5
 49
0.25
 49
-1.5
  0
LTYPE
  5
51F
  2
LONG_DASHED_DOUBLE-DOTTED
  3
----------- --- --- ------------
 70
0
 72
65
 73
6
 40
17
 49
12
 49
-1.5
 49
0.25
 49
-1.5
 49
0.25
 49
-1.5
  0
LTYPE
  5
520
  2
LONG_DASHED_TRIPLICATE-DOT
  3
--------- --- --- --- ----------
 70
0
 72
65
 73
8
 40
18.75
 49
12
 49
-1.5
 49
0.25
 49
-1.5
 49
0.25
 49
-1.5
 49
0.25
 49
-1.5
  0
LTYPE
  5
521
  2
DOTTED
  3
   -       -       -       -    
 70
0
 72
65
 73
2
 40
1.75
 49
0.25
 49
-1.5
  0
LTYPE
  5
522
  2
CHAIN
  3
-------------- -- --------------
 70
0
 72
65
 73
4
 40
18.5
 49
12
 49
-1.5
 49
3.5
 49
-1.5
  0
LTYPE
  5
523
  2
CHAIN_DOUBLE_DASH
  3
------------ -- -- -------------
 70
0
 72
65
 73
6
 40
23.5
 49
12
 49
-1.5
 49
3.5
 49
-1.5
 49
3.5
 49
-1.5
  0
LTYPE
  5
524
  2
DASHED_DOTTED
  3
-----------     -     ----------
 70
0
 72
65
 73
4
 40
9.25
 49
6
 49
-1.5
 49
0.25
 49
-1.5
  0
LTYPE
  5
525
  2
DOUBLE-DASHED_DOTTED
  3
------   -----------   -   -----
 70
0
 72
65
 73
6
 40
16.75
 49
6
 49
-1.5
 49
6
 49
-1.5
 49
0.25
 49
-1.5
  0
LTYPE
  5
526
  2
DASHED_DOUBLE-DOTTED
  3
---------    -    -    ---------
 70
0
 72
65
 73
6
 40
11
 49
6
 49
-1.5
 49
0.25
 49
-1.5
 49
0.25
 49
-1.5
  0
LTYPE
  5
527
  2
DOUBLE-DASHED_DOUBLE-DOTTE
  3
-----   ---------   -   -   ----
 70
0
 72
65
 73
8
 40
18.5
 49
6
 49
-1.5
 49
6
 49
-1.5
 49
0.25
 49
-1.5
 49
0.25
 49
-1.5
  0
LTYPE
  5
528
  2
DASHED_TRIPLICATE-DOTTED
  3
-------    -    -    -    ------
 70
0
 72
65
 73
8
 40
12.75
 49
6
 49
-1.5
 49
0.25
 49
-1.5
 49
0.25
 49
-1.5
 49
0.25
 49
-1.5
  0
LTYPE
  5
529
  2
DOUBLE-DASHED_TRIPLICATE-D
  3
-----  ---------  -  -  -  -----
 70
0
 72
65
 73
10
 40
20.25
 49
6
 49
-1.5
 49
6
 49
-1.5
 49
0.25
 49
-1.5
 49
0.25
 49
-1.5
 49
0.25
 49
-1.5
  0
LTYPE
  5
52A
  2
UNDEFINED
  3
--------------------------------
 70
0
 72
65
 73
0
 40
0
  0
LTYPE
  5
14
  2
ByBlock
  3

 70
64
 72
65
 73
0
 40
0
  0
LTYPE
  5
15
  2
ByLayer
  3

 70
64
 72
65
 73
0
 40
0
  0
ENDTAB
  0
TABLE
  2
LAYER
  5
2
 70
2
  0
LAYER
  5
10
 70
0
  2
0
 62
7
  6
CONTINUOUS
  0
LAYER
  5
27
 70
0
  2
SPEC
 62
7
  6
CONTINUOUS
  0
ENDTAB
  0
TABLE
  2
STYLE
  5
3
 70
3
  0
STYLE
  5
11
  2
STANDARD
 70
0
 40
0
 41
1
 50
0
 71
0
 42
0.2
  3
txt.shx
  4
extfont2.shx
  0
STYLE
  5
507
  2
ANNOTATIVE
 70
0
 40
0
 41
1
 50
0
 71
0
 42
0.2
  3
txt
  0
STYLE
  5
508
  2
TATEGAKI
 70
4
 40
0
 41
1
 50
0
 71
0
 42
1
  3
txt
  4
bigfont.shx
  0
ENDTAB
  0
TABLE
  2
APPID
  5
9
 70
4
  0
APPID
  5
12
  2
ACAD
 70
0
  0
APPID
  5
54F
  2
ACADANNOTATIVE
 70
0
  0
APPID
  5
550
  2
ACAD_MLEADERVER
 70
0
  0
APPID
  5
551
  2
ACAD_EXEMPT_FROM_CAD_STANDARDS
 70
0
  0
ENDTAB
  0
TABLE
  2
DIMSTYLE
  5
A
 70
2
  0
DIMSTYLE
105
52B
  2
STANDARD
 70
0
  3

  4

  5

  6

  7

 40
1
 41
0.18
 42
0.0625
 43
0.38
 44
0.18
 45
0
 46
0
 47
0
 48
0
140
0.18
141
0.09
142
0
143
25.4
144
1
145
0
146
1
147
0.09
 71
0
 72
0
 73
1
 74
1
 75
0
 76
0
 77
0
 78
0
170
0
171
2
172
0
173
0
174
0
175
0
176
0
177
0
178
0
  0
DIMSTYLE
105
52C
  2
ANNOTATIVE
 70
0
  3

  4

  5

  6

  7

 40
1
 41
0.18
 42
0.0625
 43
0.38
 44
0.18
 45
0
 46
0
 47
0
 48
0
140
0.18
141
0.09
142
0
143
25.4
144
1
145
0
146
1
147
0.09
 71
0
 72
0
 73
1
 74
1
 75
0
 76
0
 77
0
 78
0
170
0
171
2
172
0
173
0
174
0
175
0
176
0
177
0
178
0
  0
ENDTAB
  0
ENDSEC
  0
SECTION
  2
BLOCKS
  0
BLOCK
  5
29
  8
0
  2
$MODEL_SPACE
 70
0
 10
0
 20
0
 30
0
  3
$MODEL_SPACE
  0
ENDBLK
  5
2A
  8
0
  0
BLOCK
  5
2C
  8
0
 67
1
  2
$PAPER_SPACE
 70
0
 10
0
 20
0
 30
0
  3
$PAPER_SPACE
  0
ENDBLK
  5
2D
  8
0
  0
BLOCK
  5
2F
  8
0
  2
SPECEL-CP3814M
 70
64
 10
0
 20
0
 30
0
  3
SPECEL-CP3814M
  0
TEXT
  5
30
  8
SPEC
 10
0
 20
0
 30
0
 40
1.5
  1
居室用ｼｰﾘﾝｸﾞ 電球色2700K~昼光色6500K Ra85
  7
STANDARD
  0
TEXT
  5
31
  8
SPEC
 10
0
 20
-3
 30
0
 40
1.5
  1
調光 約5~100
  7
STANDARD
  0
TEXT
  5
32
  8
SPEC
 10
0
 20
-6
 30
0
 40
1.5
  1
本体:鋼板 亜鉛ﾒｯｷ仕上
  7
STANDARD
  0
TEXT
  5
33
  8
SPEC
 10
0
 20
-9
 30
0
 40
1.5
  1
光源寿命:40,000時間
  7
STANDARD
  0
TEXT
  5
34
  8
SPEC
 10
0
 20
-12
 30
0
 40
1.5
  1
光束:3650lm 消費電力:30W 消費効率:121.6lm/W
  7
STANDARD
  0
ENDBLK
  5
35
  8
0
  0
BLOCK
  5
37
  8
0
  2
*MODEL_SPACE
 70
64
 10
0
 20
0
 30
0
  3
*MODEL_SPACE
  0
ENDBLK
  5
506
  8
0
  0
BLOCK
  5
1C
  8
0
 67
1
  2
*PAPER_SPACE
 70
64
 10
0
 20
0
 30
0
  3
*PAPER_SPACE
  0
ENDBLK
  5
1D
  8
0
  0
ENDSEC
  0
SECTION
  2
ENTITIES
  0
TEXT
  5
38
  8
0
 62
7
 10
8.0402341895461635
 20
76.4539554125528
 30
0
 40
4.5
  1
LED ｼｰﾘﾝｸﾞﾗｲﾄ
 41
0.96982639999999987
  7
STANDARD
  0
TEXT
  5
39
  8
0
 62
7
 10
8.0402341895461635
 20
-7.5460395874471153
 30
0
 40
4.5
  1
三菱　 EL-CP3814M
 41
0.9893333
  7
STANDARD
  0
POLYLINE
  5
3A
  8
0
 62
7
 66
1
 70
0
 10
0
 20
0
 30
0
  0
VERTEX
  5
3C
  8
0
 62
7
 10
49.903024117256713
 20
41.9918410255899
 70
0
  0
VERTEX
  5
3D
  8
0
 62
7
 10
50.199302328988182
 20
42.076245864978517
 70
0
  0
SEQEND
  5
3B
  8
0
  0
POLYLINE
  5
3E
  8
0
 62
7
 66
1
 70
0
 10
0
 20
0
 30
0
  0
VERTEX
  5
40
  8
0
 62
7
 10
49.9443652630797
 20
41.906574912329972
 70
0
  0
VERTEX
  5
41
  8
0
 62
7
 10
50.283362658828281
 20
41.9918410255899
 70
0
  0
SEQEND
  5
3F
  8
0
  0
POLYLINE
  5
42
  8
0
 62
7
 66
1
 70
0
 10
0
 20
0
 30
0
  0
VERTEX
  5
44
  8
0
 62
7
 10
50.199302328988182
 20
42.076245864978517
 70
0
  0
VERTEX
  5
45
  8
0
 62
7
 10
50.536921686542648
 20
42.161511978238472
 70
0
  0
SEQEND
  5
43
  8
0
  0
POLYLINE
  5
46
  8
0
 62
7
 66
1
 70
0
 10
0
 20
0
 30
0
  0
VERTEX
  5
48
  8
0
 62
7
 10
50.283362658828281
 20
41.9918410255899
 70
0
  0
VERTEX
  5
49
  8
0
 62
7
 10
50.579640870559743
 20
42.118965048995619
 70
0
  0
SEQEND
  5
47
  8
0
  0
POLYLINE
  5
4A
  8
0
 62
7
 66
1
 70
0
 10
0
 20
0
 30
0
  0
VERTEX
  5
4C
  8
0
 62
7
 10
50.536921686542648
 20
42.161511978238472
 70
0
  0
VERTEX
  5
4D
  8
0
 62
7
 10
50.833199898274152
 20
42.288291492095638
 70
0
  0
SEQEND
  5
4B
  8
0
  0
POLYLINE
  5
4E
  8
0
 62
7
 66
1
 70
0
 10
0
 20
0
 30
0
  0
VERTEX
  5
50
  8
0
 62
7
 10
50.579640870559743
 20
42.118965048995619
 70
0
  0
VERTEX
  5
51
  8
0
 62
7
 10
50.918638266308342
 20
42.202853124061491
 70
0
  0
SEQEND
  5
4F
  8
0
  0
POLYLINE
  5
52
  8
0
 62
7
 66
1
 70
0
 10
0
 20
0
 30
0
  0
VERTEX
  5
54
  8
0
 62
7
 10
48.505693388439369
 20
41.440798002724172
 70
0
  0
VERTEX
  5
55
  8
0
 62
7
 10
48.759252416153743
 20
41.5262363707584
 70
0
  0
SEQEND
  5
53
  8
0
  0
POLYLINE
  5
56
  8
0
 62
7
 66
1
 70
0
 10
0
 20
0
 30
0
  0
VERTEX
  5
58
  8
0
 62
7
 10
48.548412572456421
 20
41.356909927658357
 70
0
  0
VERTEX
  5
59
  8
0
 62
7
 10
48.844690784187939
 20
41.48351718674131
 70
0
  0
SEQEND
  5
57
  8
0
  0
POLYLINE
  5
5A
  8
0
 62
7
 66
1
 70
0
 10
0
 20
0
 30
0
  0
VERTEX
  5
5C
  8
0
 62
7
 10
48.759252416153743
 20
41.5262363707584
 70
0
  0
VERTEX
  5
5D
  8
0
 62
7
 10
49.0141894820622
 20
41.652843629841342
 70
0
  0
SEQEND
  5
5B
  8
0
  0
POLYLINE
  5
5E
  8
0
 62
7
 66
1
 70
0
 10
0
 20
0
 30
0
  0
VERTEX
  5
60
  8
0
 62
7
 10
48.844690784187939
 20
41.48351718674131
 70
0
  0
VERTEX
  5
61
  8
0
 62
7
 10
49.098249811902321
 20
41.568955554775528
 70
0
  0
SEQEND
  5
5F
  8
0
  0
POLYLINE
  5
62
  8
0
 62
7
 66
1
 70
0
 10
0
 20
0
 30
0
  0
VERTEX
  5
64
  8
0
 62
7
 10
49.0141894820622
 20
41.652843629841342
 70
0
  0
VERTEX
  5
65
  8
0
 62
7
 10
49.310467693793719
 20
41.779795398472793
 70
0
  0
SEQEND
  5
63
  8
0
  0
POLYLINE
  5
66
  8
0
 62
7
 66
1
 70
0
 10
0
 20
0
 30
0
  0
VERTEX
  5
68
  8
0
 62
7
 10
49.098249811902321
 20
41.568955554775528
 70
0
  0
VERTEX
  5
69
  8
0
 62
7
 10
49.3518088396167
 20
41.69556281385843
 70
0
  0
SEQEND
  5
67
  8
0
  0
POLYLINE
  5
6A
  8
0
 62
7
 66
1
 70
0
 10
0
 20
0
 30
0
  0
VERTEX
  5
6C
  8
0
 62
7
 10
49.310467693793719
 20
41.779795398472793
 70
0
  0
VERTEX
  5
6D
  8
0
 62
7
 10
49.606745905525209
 20
41.865233766507
 70
0
  0
SEQEND
  5
6B
  8
0
  0
POLYLINE
  5
6E
  8
0
 62
7
 66
1
 70
0
 10
0
 20
0
 30
0
  0
VERTEX
  5
70
  8
0
 62
7
 10
49.3518088396167
 20
41.69556281385843
 70
0
  0
VERTEX
  5
71
  8
0
 62
7
 10
49.6480870513482
 20
41.779795398472793
 70
0
  0
SEQEND
  5
6F
  8
0
  0
POLYLINE
  5
72
  8
0
 62
7
 66
1
 70
0
 10
0
 20
0
 30
0
  0
VERTEX
  5
74
  8
0
 62
7
 10
49.606745905525209
 20
41.865233766507
 70
0
  0
VERTEX
  5
75
  8
0
 62
7
 10
49.903024117256713
 20
41.9918410255899
 70
0
  0
SEQEND
  5
73
  8
0
  0
POLYLINE
  5
76
  8
0
 62
7
 66
1
 70
0
 10
0
 20
0
 30
0
  0
VERTEX
  5
78
  8
0
 62
7
 10
49.6480870513482
 20
41.779795398472793
 70
0
  0
VERTEX
  5
79
  8
0
 62
7
 10
49.9443652630797
 20
41.906574912329972
 70
0
  0
SEQEND
  5
77
  8
0
  0
POLYLINE
  5
7A
  8
0
 62
7
 66
1
 70
0
 10
0
 20
0
 30
0
  0
VERTEX
  5
7C
  8
0
 62
7
 10
47.827698596942177
 20
41.103178645169741
 70
0
  0
VERTEX
  5
7D
  8
0
 62
7
 10
48.03991647883359
 20
41.187238975009834
 70
0
  0
SEQEND
  5
7B
  8
0
  0
POLYLINE
  5
7E
  8
0
 62
7
 66
1
 70
0
 10
0
 20
0
 30
0
  0
VERTEX
  5
80
  8
0
 62
7
 10
47.870417780959279
 20
41.017912531909808
 70
0
  0
VERTEX
  5
81
  8
0
 62
7
 10
48.08263566285067
 20
41.1445197909927
 70
0
  0
SEQEND
  5
7F
  8
0
  0
POLYLINE
  5
82
  8
0
 62
7
 66
1
 70
0
 10
0
 20
0
 30
0
  0
VERTEX
  5
84
  8
0
 62
7
 10
48.03991647883359
 20
41.187238975009834
 70
0
  0
VERTEX
  5
85
  8
0
 62
7
 10
48.252134360724959
 20
41.31384623409275
 70
0
  0
SEQEND
  5
83
  8
0
  0
POLYLINE
  5
86
  8
0
 62
7
 66
1
 70
0
 10
0
 20
0
 30
0
  0
VERTEX
  5
88
  8
0
 62
7
 10
48.08263566285067
 20
41.1445197909927
 70
0
  0
VERTEX
  5
89
  8
0
 62
7
 10
48.336194690565073
 20
41.229958159026921
 70
0
  0
SEQEND
  5
87
  8
0
  0
POLYLINE
  5
8A
  8
0
 62
7
 66
1
 70
0
 10
0
 20
0
 30
0
  0
VERTEX
  5
8C
  8
0
 62
7
 10
48.252134360724959
 20
41.31384623409275
 70
0
  0
VERTEX
  5
8D
  8
0
 62
7
 10
48.505693388439369
 20
41.440798002724172
 70
0
  0
SEQEND
  5
8B
  8
0
  0
POLYLINE
  5
8E
  8
0
 62
7
 66
1
 70
0
 10
0
 20
0
 30
0
  0
VERTEX
  5
90
  8
0
 62
7
 10
48.336194690565073
 20
41.229958159026921
 70
0
  0
VERTEX
  5
91
  8
0
 62
7
 10
48.548412572456421
 20
41.356909927658357
 70
0
  0
SEQEND
  5
8F
  8
0
  0
POLYLINE
  5
92
  8
0
 62
7
 66
1
 70
0
 10
0
 20
0
 30
0
  0
VERTEX
  5
94
  8
0
 62
7
 10
47.193801027656207
 20
40.721462065404069
 70
0
  0
VERTEX
  5
95
  8
0
 62
7
 10
47.404640871353493
 20
40.848241579261227
 70
0
  0
SEQEND
  5
93
  8
0
  0
POLYLINE
  5
96
  8
0
 62
7
 66
1
 70
0
 10
0
 20
0
 30
0
  0
VERTEX
  5
98
  8
0
 62
7
 10
47.277861357496313
 20
40.637229480789671
 70
0
  0
VERTEX
  5
99
  8
0
 62
7
 10
47.490079239387711
 20
40.764181249421128
 70
0
  0
SEQEND
  5
97
  8
0
  0
POLYLINE
  5
9A
  8
0
 62
7
 66
1
 70
0
 10
0
 20
0
 30
0
  0
VERTEX
  5
9C
  8
0
 62
7
 10
47.404640871353493
 20
40.848241579261227
 70
0
  0
VERTEX
  5
9D
  8
0
 62
7
 10
47.616858753244912
 20
40.976226876538227
 70
0
  0
SEQEND
  5
9B
  8
0
  0
POLYLINE
  5
9E
  8
0
 62
7
 66
1
 70
0
 10
0
 20
0
 30
0
  0
VERTEX
  5
A0
  8
0
 62
7
 10
47.490079239387711
 20
40.764181249421128
 70
0
  0
VERTEX
  5
A1
  8
0
 62
7
 10
47.659577937261957
 20
40.890960763278308
 70
0
  0
SEQEND
  5
9F
  8
0
  0
POLYLINE
  5
A2
  8
0
 62
7
 66
1
 70
0
 10
0
 20
0
 30
0
  0
VERTEX
  5
A4
  8
0
 62
7
 10
47.616858753244912
 20
40.976226876538227
 70
0
  0
VERTEX
  5
A5
  8
0
 62
7
 10
47.827698596942177
 20
41.103178645169741
 70
0
  0
SEQEND
  5
A3
  8
0
  0
POLYLINE
  5
A6
  8
0
 62
7
 66
1
 70
0
 10
0
 20
0
 30
0
  0
VERTEX
  5
A8
  8
0
 62
7
 10
47.659577937261957
 20
40.890960763278308
 70
0
  0
VERTEX
  5
A9
  8
0
 62
7
 10
47.870417780959279
 20
41.017912531909808
 70
0
  0
SEQEND
  5
A7
  8
0
  0
POLYLINE
  5
AA
  8
0
 62
7
 66
1
 70
0
 10
0
 20
0
 30
0
  0
VERTEX
  5
AC
  8
0
 62
7
 10
46.728024118050449
 20
40.38401496262383
 70
0
  0
VERTEX
  5
AD
  8
0
 62
7
 10
46.897522815924731
 20
40.467903037689659
 70
0
  0
SEQEND
  5
AB
  8
0
  0
POLYLINE
  5
AE
  8
0
 62
7
 66
1
 70
0
 10
0
 20
0
 30
0
  0
VERTEX
  5
B0
  8
0
 62
7
 10
46.81208444789052
 20
40.298576594589633
 70
0
  0
VERTEX
  5
B1
  8
0
 62
7
 10
46.938863961747721
 20
40.425183853672529
 70
0
  0
SEQEND
  5
AF
  8
0
  0
POLYLINE
  5
B2
  8
0
 62
7
 66
1
 70
0
 10
0
 20
0
 30
0
  0
VERTEX
  5
B4
  8
0
 62
7
 10
46.897522815924731
 20
40.467903037689659
 70
0
  0
VERTEX
  5
B5
  8
0
 62
7
 10
47.024302329781932
 20
40.594510296772569
 70
0
  0
SEQEND
  5
B3
  8
0
  0
POLYLINE
  5
B6
  8
0
 62
7
 66
1
 70
0
 10
0
 20
0
 30
0
  0
VERTEX
  5
B8
  8
0
 62
7
 10
46.938863961747721
 20
40.425183853672529
 70
0
  0
VERTEX
  5
B9
  8
0
 62
7
 10
47.108362659622017
 20
40.551791112755488
 70
0
  0
SEQEND
  5
B7
  8
0
  0
POLYLINE
  5
BA
  8
0
 62
7
 66
1
 70
0
 10
0
 20
0
 30
0
  0
VERTEX
  5
BC
  8
0
 62
7
 10
47.024302329781932
 20
40.594510296772569
 70
0
  0
VERTEX
  5
BD
  8
0
 62
7
 10
47.193801027656207
 20
40.721462065404069
 70
0
  0
SEQEND
  5
BB
  8
0
  0
POLYLINE
  5
BE
  8
0
 62
7
 66
1
 70
0
 10
0
 20
0
 30
0
  0
VERTEX
  5
C0
  8
0
 62
7
 10
47.108362659622017
 20
40.551791112755488
 70
0
  0
VERTEX
  5
C1
  8
0
 62
7
 10
47.277861357496313
 20
40.637229480789671
 70
0
  0
SEQEND
  5
BF
  8
0
  0
POLYLINE
  5
C2
  8
0
 62
7
 66
1
 70
0
 10
0
 20
0
 30
0
  0
VERTEX
  5
C4
  8
0
 62
7
 10
46.601244604193241
 20
40.255512901023991
 70
0
  0
VERTEX
  5
C5
  8
0
 62
7
 10
46.728024118050449
 20
40.38401496262383
 70
0
  0
SEQEND
  5
C3
  8
0
  0
POLYLINE
  5
C6
  8
0
 62
7
 66
1
 70
0
 10
0
 20
0
 30
0
  0
VERTEX
  5
C8
  8
0
 62
7
 10
46.642585750016252
 20
40.171624825958169
 70
0
  0
VERTEX
  5
C9
  8
0
 62
7
 10
46.81208444789052
 20
40.298576594589633
 70
0
  0
SEQEND
  5
C7
  8
0
  0
POLYLINE
  5
CA
  8
0
 62
7
 66
1
 70
0
 10
0
 20
0
 30
0
  0
VERTEX
  5
CC
  8
0
 62
7
 10
82.665882181982667
 20
36.99662482675194
 70
0
  0
VERTEX
  5
CD
  8
0
 62
7
 10
82.566603794684184
 20
36.922367821618117
 70
0
  0
SEQEND
  5
CB
  8
0
  0
POLYLINE
  5
CE
  8
0
 62
7
 66
1
 70
0
 10
0
 20
0
 30
0
  0
VERTEX
  5
D0
  8
0
 62
7
 10
46.346307538284726
 20
40.00229838285815
 70
0
  0
VERTEX
  5
D1
  8
0
 62
7
 10
46.474465090336047
 20
40.12890564194106
 70
0
  0
SEQEND
  5
CF
  8
0
  0
POLYLINE
  5
D2
  8
0
 62
7
 66
1
 70
0
 10
0
 20
0
 30
0
  0
VERTEX
  5
D4
  8
0
 62
7
 10
46.431745906318952
 20
39.917893543469518
 70
0
  0
VERTEX
  5
D5
  8
0
 62
7
 10
46.558525420176153
 20
40.044845312100961
 70
0
  0
SEQEND
  5
D3
  8
0
  0
POLYLINE
  5
D6
  8
0
 62
7
 66
1
 70
0
 10
0
 20
0
 30
0
  0
VERTEX
  5
D8
  8
0
 62
7
 10
46.474465090336047
 20
40.12890564194106
 70
0
  0
VERTEX
  5
D9
  8
0
 62
7
 10
46.601244604193241
 20
40.255512901023991
 70
0
  0
SEQEND
  5
D7
  8
0
  0
POLYLINE
  5
DA
  8
0
 62
7
 66
1
 70
0
 10
0
 20
0
 30
0
  0
VERTEX
  5
DC
  8
0
 62
7
 10
46.558525420176153
 20
40.044845312100961
 70
0
  0
VERTEX
  5
DD
  8
0
 62
7
 10
46.642585750016252
 20
40.171624825958169
 70
0
  0
SEQEND
  5
DB
  8
0
  0
POLYLINE
  5
DE
  8
0
 62
7
 66
1
 70
0
 10
0
 20
0
 30
0
  0
VERTEX
  5
E0
  8
0
 62
7
 10
83.046220723554228
 20
37.2501838544663
 70
0
  0
VERTEX
  5
E1
  8
0
 62
7
 10
82.878100063874015
 20
37.123576595383383
 70
0
  0
SEQEND
  5
DF
  8
0
  0
POLYLINE
  5
E2
  8
0
 62
7
 66
1
 70
0
 10
0
 20
0
 30
0
  0
VERTEX
  5
E4
  8
0
 62
7
 10
82.878100063874015
 20
37.123576595383383
 70
0
  0
VERTEX
  5
E5
  8
0
 62
7
 10
82.665882181982667
 20
36.99662482675194
 70
0
  0
SEQEND
  5
E3
  8
0
  0
POLYLINE
  5
E6
  8
0
 62
7
 66
1
 70
0
 10
0
 20
0
 30
0
  0
VERTEX
  5
E8
  8
0
 62
7
 10
46.262247208444677
 20
39.875174359452451
 70
0
  0
VERTEX
  5
E9
  8
0
 62
7
 10
46.346307538284726
 20
40.00229838285815
 70
0
  0
SEQEND
  5
E7
  8
0
  0
POLYLINE
  5
EA
  8
0
 62
7
 66
1
 70
0
 10
0
 20
0
 30
0
  0
VERTEX
  5
EC
  8
0
 62
7
 10
46.346307538284726
 20
39.791286284386622
 70
0
  0
VERTEX
  5
ED
  8
0
 62
7
 10
46.431745906318952
 20
39.917893543469518
 70
0
  0
SEQEND
  5
EB
  8
0
  0
POLYLINE
  5
EE
  8
0
 62
7
 66
1
 70
0
 10
0
 20
0
 30
0
  0
VERTEX
  5
F0
  8
0
 62
7
 10
83.3424989352857
 20
37.462229481583449
 70
0
  0
VERTEX
  5
F1
  8
0
 62
7
 10
83.174378275605548
 20
37.33562222250049
 70
0
  0
SEQEND
  5
EF
  8
0
  0
POLYLINE
  5
F2
  8
0
 62
7
 66
1
 70
0
 10
0
 20
0
 30
0
  0
VERTEX
  5
F4
  8
0
 62
7
 10
83.174378275605548
 20
37.33562222250049
 70
0
  0
VERTEX
  5
F5
  8
0
 62
7
 10
83.046220723554228
 20
37.2501838544663
 70
0
  0
SEQEND
  5
F3
  8
0
  0
POLYLINE
  5
F6
  8
0
 62
7
 66
1
 70
0
 10
0
 20
0
 30
0
  0
VERTEX
  5
F8
  8
0
 62
7
 10
46.09274851057036
 20
39.578896147720911
 70
0
  0
VERTEX
  5
F9
  8
0
 62
7
 10
46.178186878604578
 20
39.705847916352411
 70
0
  0
SEQEND
  5
F7
  8
0
  0
POLYLINE
  5
FA
  8
0
 62
7
 66
1
 70
0
 10
0
 20
0
 30
0
  0
VERTEX
  5
FC
  8
0
 62
7
 10
46.178186878604578
 20
39.536176963703852
 70
0
  0
VERTEX
  5
FD
  8
0
 62
7
 10
46.262247208444677
 20
39.663128732335281
 70
0
  0
SEQEND
  5
FB
  8
0
  0
POLYLINE
  5
FE
  8
0
 62
7
 66
1
 70
0
 10
0
 20
0
 30
0
  0
VERTEX
  5
100
  8
0
 62
7
 10
46.178186878604578
 20
39.705847916352411
 70
0
  0
VERTEX
  5
101
  8
0
 62
7
 10
46.262247208444677
 20
39.875174359452451
 70
0
  0
SEQEND
  5
FF
  8
0
  0
POLYLINE
  5
102
  8
0
 62
7
 66
1
 70
0
 10
0
 20
0
 30
0
  0
VERTEX
  5
104
  8
0
 62
7
 10
46.262247208444677
 20
39.663128732335281
 70
0
  0
VERTEX
  5
105
  8
0
 62
7
 10
46.346307538284726
 20
39.791286284386622
 70
0
  0
SEQEND
  5
103
  8
0
  0
POLYLINE
  5
106
  8
0
 62
7
 66
1
 70
0
 10
0
 20
0
 30
0
  0
VERTEX
  5
108
  8
0
 62
7
 10
83.554716817177123
 20
37.6746196182491
 70
0
  0
VERTEX
  5
109
  8
0
 62
7
 10
83.511997633159979
 20
37.631900434231973
 70
0
  0
SEQEND
  5
107
  8
0
  0
POLYLINE
  5
10A
  8
0
 62
7
 66
1
 70
0
 10
0
 20
0
 30
0
  0
VERTEX
  5
10C
  8
0
 62
7
 10
83.4279373033199
 20
37.546462066197812
 70
0
  0
VERTEX
  5
10D
  8
0
 62
7
 10
83.511997633159979
 20
37.631900434231973
 70
0
  0
SEQEND
  5
10B
  8
0
  0
POLYLINE
  5
10E
  8
0
 62
7
 66
1
 70
0
 10
0
 20
0
 30
0
  0
VERTEX
  5
110
  8
0
 62
7
 10
83.470656487337024
 20
37.5891812502149
 70
0
  0
VERTEX
  5
111
  8
0
 62
7
 10
83.3424989352857
 20
37.462229481583449
 70
0
  0
SEQEND
  5
10F
  8
0
  0
POLYLINE
  5
112
  8
0
 62
7
 66
1
 70
0
 10
0
 20
0
 30
0
  0
VERTEX
  5
114
  8
0
 62
7
 10
46.050029326553272
 20
39.493457779686779
 70
0
  0
VERTEX
  5
115
  8
0
 62
7
 10
46.09274851057036
 20
39.578896147720911
 70
0
  0
SEQEND
  5
113
  8
0
  0
POLYLINE
  5
116
  8
0
 62
7
 66
1
 70
0
 10
0
 20
0
 30
0
  0
VERTEX
  5
118
  8
0
 62
7
 10
46.135467694587447
 20
39.409569704620942
 70
0
  0
VERTEX
  5
119
  8
0
 62
7
 10
46.178186878604578
 20
39.536176963703852
 70
0
  0
SEQEND
  5
117
  8
0
  0
POLYLINE
  5
11A
  8
0
 62
7
 66
1
 70
0
 10
0
 20
0
 30
0
  0
VERTEX
  5
11C
  8
0
 62
7
 10
83.72421551505137
 20
37.84429057089767
 70
0
  0
VERTEX
  5
11D
  8
0
 62
7
 10
83.5974360011942
 20
37.715960764072058
 70
0
  0
SEQEND
  5
11B
  8
0
  0
POLYLINE
  5
11E
  8
0
 62
7
 66
1
 70
0
 10
0
 20
0
 30
0
  0
VERTEX
  5
120
  8
0
 62
7
 10
83.766934699068486
 20
37.928178645963492
 70
0
  0
VERTEX
  5
121
  8
0
 62
7
 10
83.68149633103431
 20
37.801226877332
 70
0
  0
SEQEND
  5
11F
  8
0
  0
POLYLINE
  5
122
  8
0
 62
7
 66
1
 70
0
 10
0
 20
0
 30
0
  0
VERTEX
  5
124
  8
0
 62
7
 10
83.5974360011942
 20
37.715960764072058
 70
0
  0
VERTEX
  5
125
  8
0
 62
7
 10
83.470656487337024
 20
37.5891812502149
 70
0
  0
SEQEND
  5
123
  8
0
  0
POLYLINE
  5
126
  8
0
 62
7
 66
1
 70
0
 10
0
 20
0
 30
0
  0
VERTEX
  5
128
  8
0
 62
7
 10
83.68149633103431
 20
37.801226877332
 70
0
  0
VERTEX
  5
129
  8
0
 62
7
 10
83.554716817177123
 20
37.6746196182491
 70
0
  0
SEQEND
  5
127
  8
0
  0
POLYLINE
  5
12A
  8
0
 62
7
 66
1
 70
0
 10
0
 20
0
 30
0
  0
VERTEX
  5
12C
  8
0
 62
7
 10
50.918638266308342
 20
42.202853124061491
 70
0
  0
VERTEX
  5
12D
  8
0
 62
7
 10
51.257635662056941
 20
42.288291492095638
 70
0
  0
SEQEND
  5
12B
  8
0
  0
POLYLINE
  5
12E
  8
0
 62
7
 66
1
 70
0
 10
0
 20
0
 30
0
  0
VERTEX
  5
130
  8
0
 62
7
 10
50.833199898274152
 20
42.288291492095638
 70
0
  0
VERTEX
  5
131
  8
0
 62
7
 10
51.214916478039846
 20
42.37217956716146
 70
0
  0
SEQEND
  5
12F
  8
0
  0
POLYLINE
  5
132
  8
0
 62
7
 66
1
 70
0
 10
0
 20
0
 30
0
  0
VERTEX
  5
134
  8
0
 62
7
 10
51.257635662056941
 20
42.288291492095638
 70
0
  0
VERTEX
  5
135
  8
0
 62
7
 10
51.595255019611407
 20
42.37217956716146
 70
0
  0
SEQEND
  5
133
  8
0
  0
POLYLINE
  5
136
  8
0
 62
7
 66
1
 70
0
 10
0
 20
0
 30
0
  0
VERTEX
  5
138
  8
0
 62
7
 10
51.214916478039846
 20
42.37217956716146
 70
0
  0
VERTEX
  5
139
  8
0
 62
7
 10
51.553913873788389
 20
42.457962444744219
 70
0
  0
SEQEND
  5
137
  8
0
  0
POLYLINE
  5
13A
  8
0
 62
7
 66
1
 70
0
 10
0
 20
0
 30
0
  0
VERTEX
  5
13C
  8
0
 62
7
 10
51.595255019611407
 20
42.37217956716146
 70
0
  0
VERTEX
  5
13D
  8
0
 62
7
 10
51.934252415359992
 20
42.457962444744219
 70
0
  0
SEQEND
  5
13B
  8
0
  0
POLYLINE
  5
13E
  8
0
 62
7
 66
1
 70
0
 10
0
 20
0
 30
0
  0
VERTEX
  5
140
  8
0
 62
7
 10
51.553913873788389
 20
42.457962444744219
 70
0
  0
VERTEX
  5
141
  8
0
 62
7
 10
51.891533231342891
 20
42.541850519810041
 70
0
  0
SEQEND
  5
13F
  8
0
  0
POLYLINE
  5
142
  8
0
 62
7
 66
1
 70
0
 10
0
 20
0
 30
0
  0
VERTEX
  5
144
  8
0
 62
7
 10
51.934252415359992
 20
42.457962444744219
 70
0
  0
VERTEX
  5
145
  8
0
 62
7
 10
52.315968995125672
 20
42.541850519810041
 70
0
  0
SEQEND
  5
143
  8
0
  0
POLYLINE
  5
146
  8
0
 62
7
 66
1
 70
0
 10
0
 20
0
 30
0
  0
VERTEX
  5
148
  8
0
 62
7
 10
51.891533231342891
 20
42.541850519810041
 70
0
  0
VERTEX
  5
149
  8
0
 62
7
 10
52.27324981110857
 20
42.627288887844237
 70
0
  0
SEQEND
  5
147
  8
0
  0
POLYLINE
  5
14A
  8
0
 62
7
 66
1
 70
0
 10
0
 20
0
 30
0
  0
VERTEX
  5
14C
  8
0
 62
7
 10
52.315968995125672
 20
42.541850519810041
 70
0
  0
VERTEX
  5
14D
  8
0
 62
7
 10
52.696307536697248
 20
42.668457778893
 70
0
  0
SEQEND
  5
14B
  8
0
  0
POLYLINE
  5
14E
  8
0
 62
7
 66
1
 70
0
 10
0
 20
0
 30
0
  0
VERTEX
  5
150
  8
0
 62
7
 10
52.27324981110857
 20
42.627288887844237
 70
0
  0
VERTEX
  5
151
  8
0
 62
7
 10
52.653588352680167
 20
42.7111769629101
 70
0
  0
SEQEND
  5
14F
  8
0
  0
POLYLINE
  5
152
  8
0
 62
7
 66
1
 70
0
 10
0
 20
0
 30
0
  0
VERTEX
  5
154
  8
0
 62
7
 10
52.696307536697248
 20
42.668457778893
 70
0
  0
VERTEX
  5
155
  8
0
 62
7
 10
53.076646078268851
 20
42.7111769629101
 70
0
  0
SEQEND
  5
153
  8
0
  0
POLYLINE
  5
156
  8
0
 62
7
 66
1
 70
0
 10
0
 20
0
 30
0
  0
VERTEX
  5
158
  8
0
 62
7
 10
52.653588352680167
 20
42.7111769629101
 70
0
  0
VERTEX
  5
159
  8
0
 62
7
 10
53.035304932445847
 20
42.79558180229872
 70
0
  0
SEQEND
  5
157
  8
0
  0
POLYLINE
  5
15A
  8
0
 62
7
 66
1
 70
0
 10
0
 20
0
 30
0
  0
VERTEX
  5
15C
  8
0
 62
7
 10
53.076646078268851
 20
42.7111769629101
 70
0
  0
VERTEX
  5
15D
  8
0
 62
7
 10
53.458362658034531
 20
42.79558180229872
 70
0
  0
SEQEND
  5
15B
  8
0
  0
POLYLINE
  5
15E
  8
0
 62
7
 66
1
 70
0
 10
0
 20
0
 30
0
  0
VERTEX
  5
160
  8
0
 62
7
 10
53.035304932445847
 20
42.79558180229872
 70
0
  0
VERTEX
  5
161
  8
0
 62
7
 10
53.415643474017422
 20
42.880847915558661
 70
0
  0
SEQEND
  5
15F
  8
0
  0
POLYLINE
  5
162
  8
0
 62
7
 66
1
 70
0
 10
0
 20
0
 30
0
  0
VERTEX
  5
164
  8
0
 62
7
 10
46.00868818073026
 20
39.325681629555049
 70
0
  0
VERTEX
  5
165
  8
0
 62
7
 10
46.050029326553272
 20
39.493457779686779
 70
0
  0
SEQEND
  5
163
  8
0
  0
POLYLINE
  5
166
  8
0
 62
7
 66
1
 70
0
 10
0
 20
0
 30
0
  0
VERTEX
  5
168
  8
0
 62
7
 10
46.09274851057036
 20
39.28296244553799
 70
0
  0
VERTEX
  5
169
  8
0
 62
7
 10
46.135467694587447
 20
39.409569704620942
 70
0
  0
SEQEND
  5
167
  8
0
  0
POLYLINE
  5
16A
  8
0
 62
7
 66
1
 70
0
 10
0
 20
0
 30
0
  0
VERTEX
  5
16C
  8
0
 62
7
 10
83.808275844891483
 20
37.970897829980572
 70
0
  0
VERTEX
  5
16D
  8
0
 62
7
 10
83.72421551505137
 20
37.84429057089767
 70
0
  0
SEQEND
  5
16B
  8
0
  0
POLYLINE
  5
16E
  8
0
 62
7
 66
1
 70
0
 10
0
 20
0
 30
0
  0
VERTEX
  5
170
  8
0
 62
7
 10
83.893714212925687
 20
38.054958159820671
 70
0
  0
VERTEX
  5
171
  8
0
 62
7
 10
83.766934699068486
 20
37.928178645963492
 70
0
  0
SEQEND
  5
16F
  8
0
  0
POLYLINE
  5
172
  8
0
 62
7
 66
1
 70
0
 10
0
 20
0
 30
0
  0
VERTEX
  5
174
  8
0
 62
7
 10
53.458362658034531
 20
42.79558180229872
 70
0
  0
VERTEX
  5
175
  8
0
 62
7
 10
53.881420383623208
 20
42.880847915558661
 70
0
  0
SEQEND
  5
173
  8
0
  0
POLYLINE
  5
176
  8
0
 62
7
 66
1
 70
0
 10
0
 20
0
 30
0
  0
VERTEX
  5
178
  8
0
 62
7
 10
53.415643474017422
 20
42.880847915558661
 70
0
  0
VERTEX
  5
179
  8
0
 62
7
 10
53.83870119960612
 20
42.964908245398753
 70
0
  0
SEQEND
  5
177
  8
0
  0
POLYLINE
  5
17A
  8
0
 62
7
 66
1
 70
0
 10
0
 20
0
 30
0
  0
VERTEX
  5
17C
  8
0
 62
7
 10
53.881420383623208
 20
42.880847915558661
 70
0
  0
VERTEX
  5
17D
  8
0
 62
7
 10
54.263136963388888
 20
42.964908245398753
 70
0
  0
SEQEND
  5
17B
  8
0
  0
POLYLINE
  5
17E
  8
0
 62
7
 66
1
 70
0
 10
0
 20
0
 30
0
  0
VERTEX
  5
180
  8
0
 62
7
 10
53.83870119960612
 20
42.964908245398753
 70
0
  0
VERTEX
  5
181
  8
0
 62
7
 10
54.220417779371772
 20
43.050174358658687
 70
0
  0
SEQEND
  5
17F
  8
0
  0
POLYLINE
  5
182
  8
0
 62
7
 66
1
 70
0
 10
0
 20
0
 30
0
  0
VERTEX
  5
184
  8
0
 62
7
 10
54.263136963388888
 20
42.964908245398753
 70
0
  0
VERTEX
  5
185
  8
0
 62
7
 10
54.686194688977558
 20
43.007627429415813
 70
0
  0
SEQEND
  5
183
  8
0
  0
POLYLINE
  5
186
  8
0
 62
7
 66
1
 70
0
 10
0
 20
0
 30
0
  0
VERTEX
  5
188
  8
0
 62
7
 10
54.220417779371772
 20
43.050174358658687
 70
0
  0
VERTEX
  5
189
  8
0
 62
7
 10
54.64347550496047
 20
43.134579198047277
 70
0
  0
SEQEND
  5
187
  8
0
  0
POLYLINE
  5
18A
  8
0
 62
7
 66
1
 70
0
 10
0
 20
0
 30
0
  0
VERTEX
  5
18C
  8
0
 62
7
 10
54.686194688977558
 20
43.007627429415813
 70
0
  0
VERTEX
  5
18D
  8
0
 62
7
 10
55.109252414566242
 20
43.091860014030189
 70
0
  0
SEQEND
  5
18B
  8
0
  0
POLYLINE
  5
18E
  8
0
 62
7
 66
1
 70
0
 10
0
 20
0
 30
0
  0
VERTEX
  5
190
  8
0
 62
7
 10
54.64347550496047
 20
43.134579198047277
 70
0
  0
VERTEX
  5
191
  8
0
 62
7
 10
55.066533230549148
 20
43.177298382064407
 70
0
  0
SEQEND
  5
18F
  8
0
  0
POLYLINE
  5
192
  8
0
 62
7
 66
1
 70
0
 10
0
 20
0
 30
0
  0
VERTEX
  5
194
  8
0
 62
7
 10
55.109252414566242
 20
43.091860014030189
 70
0
  0
VERTEX
  5
195
  8
0
 62
7
 10
55.532310140154927
 20
43.177298382064407
 70
0
  0
SEQEND
  5
193
  8
0
  0
POLYLINE
  5
196
  8
0
 62
7
 66
1
 70
0
 10
0
 20
0
 30
0
  0
VERTEX
  5
198
  8
0
 62
7
 10
55.066533230549148
 20
43.177298382064407
 70
0
  0
VERTEX
  5
199
  8
0
 62
7
 10
55.532310140154927
 20
43.261186457130222
 70
0
  0
SEQEND
  5
197
  8
0
  0
POLYLINE
  5
19A
  8
0
 62
7
 66
1
 70
0
 10
0
 20
0
 30
0
  0
VERTEX
  5
19C
  8
0
 62
7
 10
55.532310140154927
 20
43.177298382064407
 70
0
  0
VERTEX
  5
19D
  8
0
 62
7
 10
55.998087049760677
 20
43.219845311307211
 70
0
  0
SEQEND
  5
19B
  8
0
  0
POLYLINE
  5
19E
  8
0
 62
7
 66
1
 70
0
 10
0
 20
0
 30
0
  0
VERTEX
  5
1A0
  8
0
 62
7
 10
55.532310140154927
 20
43.261186457130222
 70
0
  0
VERTEX
  5
1A1
  8
0
 62
7
 10
55.9553678657436
 20
43.30390564114731
 70
0
  0
SEQEND
  5
19F
  8
0
  0
POLYLINE
  5
1A2
  8
0
 62
7
 66
1
 70
0
 10
0
 20
0
 30
0
  0
VERTEX
  5
1A4
  8
0
 62
7
 10
55.998087049760677
 20
43.219845311307211
 70
0
  0
VERTEX
  5
1A5
  8
0
 62
7
 10
56.421144775349383
 20
43.30390564114731
 70
0
  0
SEQEND
  5
1A3
  8
0
  0
POLYLINE
  5
1A6
  8
0
 62
7
 66
1
 70
0
 10
0
 20
0
 30
0
  0
VERTEX
  5
1A8
  8
0
 62
7
 10
55.9553678657436
 20
43.30390564114731
 70
0
  0
VERTEX
  5
1A9
  8
0
 62
7
 10
56.378425591332253
 20
43.387793716213118
 70
0
  0
SEQEND
  5
1A7
  8
0
  0
POLYLINE
  5
1AA
  8
0
 62
7
 66
1
 70
0
 10
0
 20
0
 30
0
  0
VERTEX
  5
1AC
  8
0
 62
7
 10
56.421144775349383
 20
43.30390564114731
 70
0
  0
VERTEX
  5
1AD
  8
0
 62
7
 10
56.886921684955141
 20
43.34662482516444
 70
0
  0
SEQEND
  5
1AB
  8
0
  0
POLYLINE
  5
1AE
  8
0
 62
7
 66
1
 70
0
 10
0
 20
0
 30
0
  0
VERTEX
  5
1B0
  8
0
 62
7
 10
56.378425591332253
 20
43.387793716213118
 70
0
  0
VERTEX
  5
1B1
  8
0
 62
7
 10
56.844202500938039
 20
43.430512900230262
 70
0
  0
SEQEND
  5
1AF
  8
0
  0
POLYLINE
  5
1B2
  8
0
 62
7
 66
1
 70
0
 10
0
 20
0
 30
0
  0
VERTEX
  5
1B4
  8
0
 62
7
 10
56.886921684955141
 20
43.34662482516444
 70
0
  0
VERTEX
  5
1B5
  8
0
 62
7
 10
57.309979410543832
 20
43.387793716213118
 70
0
  0
SEQEND
  5
1B3
  8
0
  0
POLYLINE
  5
1B6
  8
0
 62
7
 66
1
 70
0
 10
0
 20
0
 30
0
  0
VERTEX
  5
1B8
  8
0
 62
7
 10
56.844202500938039
 20
43.430512900230262
 70
0
  0
VERTEX
  5
1B9
  8
0
 62
7
 10
57.267260226526759
 20
43.473576593795883
 70
0
  0
SEQEND
  5
1B7
  8
0
  0
POLYLINE
  5
1BA
  8
0
 62
7
 66
1
 70
0
 10
0
 20
0
 30
0
  0
VERTEX
  5
1BC
  8
0
 62
7
 10
57.309979410543832
 20
43.387793716213118
 70
0
  0
VERTEX
  5
1BD
  8
0
 62
7
 10
57.775756320149611
 20
43.430512900230262
 70
0
  0
SEQEND
  5
1BB
  8
0
  0
POLYLINE
  5
1BE
  8
0
 62
7
 66
1
 70
0
 10
0
 20
0
 30
0
  0
VERTEX
  5
1C0
  8
0
 62
7
 10
57.267260226526759
 20
43.473576593795883
 70
0
  0
VERTEX
  5
1C1
  8
0
 62
7
 10
57.733037136132481
 20
43.557464668861712
 70
0
  0
SEQEND
  5
1BF
  8
0
  0
POLYLINE
  5
1C2
  8
0
 62
7
 66
1
 70
0
 10
0
 20
0
 30
0
  0
VERTEX
  5
1C4
  8
0
 62
7
 10
57.775756320149611
 20
43.430512900230262
 70
0
  0
VERTEX
  5
1C5
  8
0
 62
7
 10
58.24153322975539
 20
43.51629577781295
 70
0
  0
SEQEND
  5
1C3
  8
0
  0
POLYLINE
  5
1C6
  8
0
 62
7
 66
1
 70
0
 10
0
 20
0
 30
0
  0
VERTEX
  5
1C8
  8
0
 62
7
 10
57.733037136132481
 20
43.557464668861712
 70
0
  0
VERTEX
  5
1C9
  8
0
 62
7
 10
58.198814045738288
 20
43.600183852878793
 70
0
  0
SEQEND
  5
1C7
  8
0
  0
POLYLINE
  5
1CA
  8
0
 62
7
 66
1
 70
0
 10
0
 20
0
 30
0
  0
VERTEX
  5
1CC
  8
0
 62
7
 10
45.965968996713173
 20
39.070572308872329
 70
0
  0
VERTEX
  5
1CD
  8
0
 62
7
 10
45.965968996713173
 20
39.197179567955232
 70
0
  0
SEQEND
  5
1CB
  8
0
  0
POLYLINE
  5
1CE
  8
0
 62
7
 66
1
 70
0
 10
0
 20
0
 30
0
  0
VERTEX
  5
1D0
  8
0
 62
7
 10
46.00868818073026
 20
39.02923116304931
 70
0
  0
VERTEX
  5
1D1
  8
0
 62
7
 10
46.050029326553272
 20
39.156010676906533
 70
0
  0
SEQEND
  5
1CF
  8
0
  0
POLYLINE
  5
1D2
  8
0
 62
7
 66
1
 70
0
 10
0
 20
0
 30
0
  0
VERTEX
  5
1D4
  8
0
 62
7
 10
45.965968996713173
 20
39.197179567955232
 70
0
  0
VERTEX
  5
1D5
  8
0
 62
7
 10
46.00868818073026
 20
39.325681629555049
 70
0
  0
SEQEND
  5
1D3
  8
0
  0
POLYLINE
  5
1D6
  8
0
 62
7
 66
1
 70
0
 10
0
 20
0
 30
0
  0
VERTEX
  5
1D8
  8
0
 62
7
 10
46.050029326553272
 20
39.156010676906533
 70
0
  0
VERTEX
  5
1D9
  8
0
 62
7
 10
46.09274851057036
 20
39.28296244553799
 70
0
  0
SEQEND
  5
1D7
  8
0
  0
POLYLINE
  5
1DA
  8
0
 62
7
 66
1
 70
0
 10
0
 20
0
 30
0
  0
VERTEX
  5
1DC
  8
0
 62
7
 10
83.893714212925687
 20
38.097677343837752
 70
0
  0
VERTEX
  5
1DD
  8
0
 62
7
 10
83.808275844891483
 20
37.970897829980572
 70
0
  0
SEQEND
  5
1DB
  8
0
  0
POLYLINE
  5
1DE
  8
0
 62
7
 66
1
 70
0
 10
0
 20
0
 30
0
  0
VERTEX
  5
1E0
  8
0
 62
7
 10
83.977774542765786
 20
38.181909928452122
 70
0
  0
VERTEX
  5
1E1
  8
0
 62
7
 10
83.893714212925687
 20
38.054958159820671
 70
0
  0
SEQEND
  5
1DF
  8
0
  0
POLYLINE
  5
1E2
  8
0
 62
7
 66
1
 70
0
 10
0
 20
0
 30
0
  0
VERTEX
  5
1E4
  8
0
 62
7
 10
58.24153322975539
 20
43.51629577781295
 70
0
  0
VERTEX
  5
1E5
  8
0
 62
7
 10
58.707310139361169
 20
43.557464668861712
 70
0
  0
SEQEND
  5
1E3
  8
0
  0
POLYLINE
  5
1E6
  8
0
 62
7
 66
1
 70
0
 10
0
 20
0
 30
0
  0
VERTEX
  5
1E8
  8
0
 62
7
 10
58.198814045738288
 20
43.600183852878793
 70
0
  0
VERTEX
  5
1E9
  8
0
 62
7
 10
58.66459095534406
 20
43.642903036895923
 70
0
  0
SEQEND
  5
1E7
  8
0
  0
POLYLINE
  5
1EA
  8
0
 62
7
 66
1
 70
0
 10
0
 20
0
 30
0
  0
VERTEX
  5
1EC
  8
0
 62
7
 10
58.707310139361169
 20
43.557464668861712
 70
0
  0
VERTEX
  5
1ED
  8
0
 62
7
 10
59.173087048966948
 20
43.600183852878793
 70
0
  0
SEQEND
  5
1EB
  8
0
  0
POLYLINE
  5
1EE
  8
0
 62
7
 66
1
 70
0
 10
0
 20
0
 30
0
  0
VERTEX
  5
1F0
  8
0
 62
7
 10
58.66459095534406
 20
43.642903036895923
 70
0
  0
VERTEX
  5
1F1
  8
0
 62
7
 10
59.173087048966948
 20
43.685622220912983
 70
0
  0
SEQEND
  5
1EF
  8
0
  0
POLYLINE
  5
1F2
  8
0
 62
7
 66
1
 70
0
 10
0
 20
0
 30
0
  0
VERTEX
  5
1F4
  8
0
 62
7
 10
59.173087048966948
 20
43.600183852878793
 70
0
  0
VERTEX
  5
1F5
  8
0
 62
7
 10
59.680205104395718
 20
43.642903036895923
 70
0
  0
SEQEND
  5
1F3
  8
0
  0
POLYLINE
  5
1F6
  8
0
 62
7
 66
1
 70
0
 10
0
 20
0
 30
0
  0
VERTEX
  5
1F8
  8
0
 62
7
 10
59.173087048966948
 20
43.685622220912983
 70
0
  0
VERTEX
  5
1F9
  8
0
 62
7
 10
59.63886395857272
 20
43.726791111961717
 70
0
  0
SEQEND
  5
1F7
  8
0
  0
POLYLINE
  5
1FA
  8
0
 62
7
 66
1
 70
0
 10
0
 20
0
 30
0
  0
VERTEX
  5
1FC
  8
0
 62
7
 10
59.680205104395718
 20
43.642903036895923
 70
0
  0
VERTEX
  5
1FD
  8
0
 62
7
 10
60.145982014001511
 20
43.642903036895923
 70
0
  0
SEQEND
  5
1FB
  8
0
  0
POLYLINE
  5
1FE
  8
0
 62
7
 66
1
 70
0
 10
0
 20
0
 30
0
  0
VERTEX
  5
200
  8
0
 62
7
 10
59.63886395857272
 20
43.726791111961717
 70
0
  0
VERTEX
  5
201
  8
0
 62
7
 10
60.1046408681785
 20
43.769510295978812
 70
0
  0
SEQEND
  5
1FF
  8
0
  0
POLYLINE
  5
202
  8
0
 62
7
 66
1
 70
0
 10
0
 20
0
 30
0
  0
VERTEX
  5
204
  8
0
 62
7
 10
60.145982014001511
 20
43.642903036895923
 70
0
  0
VERTEX
  5
205
  8
0
 62
7
 10
60.611758923607283
 20
43.685622220912983
 70
0
  0
SEQEND
  5
203
  8
0
  0
POLYLINE
  5
206
  8
0
 62
7
 66
1
 70
0
 10
0
 20
0
 30
0
  0
VERTEX
  5
208
  8
0
 62
7
 10
60.1046408681785
 20
43.769510295978812
 70
0
  0
VERTEX
  5
209
  8
0
 62
7
 10
60.611758923607283
 20
43.769510295978812
 70
0
  0
SEQEND
  5
207
  8
0
  0
POLYLINE
  5
20A
  8
0
 62
7
 66
1
 70
0
 10
0
 20
0
 30
0
  0
VERTEX
  5
20C
  8
0
 62
7
 10
60.611758923607283
 20
43.685622220912983
 70
0
  0
VERTEX
  5
20D
  8
0
 62
7
 10
61.120255017230157
 20
43.726791111961717
 70
0
  0
SEQEND
  5
20B
  8
0
  0
POLYLINE
  5
20E
  8
0
 62
7
 66
1
 70
0
 10
0
 20
0
 30
0
  0
VERTEX
  5
210
  8
0
 62
7
 10
60.611758923607283
 20
43.769510295978812
 70
0
  0
VERTEX
  5
211
  8
0
 62
7
 10
61.077535833213062
 20
43.812229479995949
 70
0
  0
SEQEND
  5
20F
  8
0
  0
POLYLINE
  5
212
  8
0
 62
7
 66
1
 70
0
 10
0
 20
0
 30
0
  0
VERTEX
  5
214
  8
0
 62
7
 10
61.120255017230157
 20
43.726791111961717
 70
0
  0
VERTEX
  5
215
  8
0
 62
7
 10
61.586031926835922
 20
43.769510295978812
 70
0
  0
SEQEND
  5
213
  8
0
  0
POLYLINE
  5
216
  8
0
 62
7
 66
1
 70
0
 10
0
 20
0
 30
0
  0
VERTEX
  5
218
  8
0
 62
7
 10
61.077535833213062
 20
43.812229479995949
 70
0
  0
VERTEX
  5
219
  8
0
 62
7
 10
61.586031926835922
 20
43.853915135367437
 70
0
  0
SEQEND
  5
217
  8
0
  0
POLYLINE
  5
21A
  8
0
 62
7
 66
1
 70
0
 10
0
 20
0
 30
0
  0
VERTEX
  5
21C
  8
0
 62
7
 10
61.586031926835922
 20
43.769510295978812
 70
0
  0
VERTEX
  5
21D
  8
0
 62
7
 10
62.09314998226472
 20
43.769510295978812
 70
0
  0
SEQEND
  5
21B
  8
0
  0
POLYLINE
  5
21E
  8
0
 62
7
 66
1
 70
0
 10
0
 20
0
 30
0
  0
VERTEX
  5
220
  8
0
 62
7
 10
61.586031926835922
 20
43.853915135367437
 70
0
  0
VERTEX
  5
221
  8
0
 62
7
 10
62.09314998226472
 20
43.853915135367437
 70
0
  0
SEQEND
  5
21F
  8
0
  0
POLYLINE
  5
222
  8
0
 62
7
 66
1
 70
0
 10
0
 20
0
 30
0
  0
VERTEX
  5
224
  8
0
 62
7
 10
62.09314998226472
 20
43.769510295978812
 70
0
  0
VERTEX
  5
225
  8
0
 62
7
 10
62.6016460758876
 20
43.769510295978812
 70
0
  0
SEQEND
  5
223
  8
0
  0
POLYLINE
  5
226
  8
0
 62
7
 66
1
 70
0
 10
0
 20
0
 30
0
  0
VERTEX
  5
228
  8
0
 62
7
 10
62.09314998226472
 20
43.853915135367437
 70
0
  0
VERTEX
  5
229
  8
0
 62
7
 10
62.558926891870492
 20
43.896462064610319
 70
0
  0
SEQEND
  5
227
  8
0
  0
POLYLINE
  5
22A
  8
0
 62
7
 66
1
 70
0
 10
0
 20
0
 30
0
  0
VERTEX
  5
22C
  8
0
 62
7
 10
62.6016460758876
 20
43.769510295978812
 70
0
  0
VERTEX
  5
22D
  8
0
 62
7
 10
63.067422985493373
 20
43.812229479995949
 70
0
  0
SEQEND
  5
22B
  8
0
  0
POLYLINE
  5
22E
  8
0
 62
7
 66
1
 70
0
 10
0
 20
0
 30
0
  0
VERTEX
  5
230
  8
0
 62
7
 10
62.558926891870492
 20
43.896462064610319
 70
0
  0
VERTEX
  5
231
  8
0
 62
7
 10
63.067422985493373
 20
43.896462064610319
 70
0
  0
SEQEND
  5
22F
  8
0
  0
POLYLINE
  5
232
  8
0
 62
7
 66
1
 70
0
 10
0
 20
0
 30
0
  0
VERTEX
  5
234
  8
0
 62
7
 10
63.067422985493373
 20
43.812229479995949
 70
0
  0
VERTEX
  5
235
  8
0
 62
7
 10
63.574541040922163
 20
43.812229479995949
 70
0
  0
SEQEND
  5
233
  8
0
  0
POLYLINE
  5
236
  8
0
 62
7
 66
1
 70
0
 10
0
 20
0
 30
0
  0
VERTEX
  5
238
  8
0
 62
7
 10
63.067422985493373
 20
43.896462064610319
 70
0
  0
VERTEX
  5
239
  8
0
 62
7
 10
63.574541040922163
 20
43.896462064610319
 70
0
  0
SEQEND
  5
237
  8
0
  0
POLYLINE
  5
23A
  8
0
 62
7
 66
1
 70
0
 10
0
 20
0
 30
0
  0
VERTEX
  5
23C
  8
0
 62
7
 10
63.574541040922163
 20
43.812229479995949
 70
0
  0
VERTEX
  5
23D
  8
0
 62
7
 10
64.083037134545
 20
43.812229479995949
 70
0
  0
SEQEND
  5
23B
  8
0
  0
POLYLINE
  5
23E
  8
0
 62
7
 66
1
 70
0
 10
0
 20
0
 30
0
  0
VERTEX
  5
240
  8
0
 62
7
 10
63.574541040922163
 20
43.896462064610319
 70
0
  0
VERTEX
  5
241
  8
0
 62
7
 10
64.083037134545
 20
43.896462064610319
 70
0
  0
SEQEND
  5
23F
  8
0
  0
POLYLINE
  5
242
  8
0
 62
7
 66
1
 70
0
 10
0
 20
0
 30
0
  0
VERTEX
  5
244
  8
0
 62
7
 10
64.083037134545
 20
43.812229479995949
 70
0
  0
VERTEX
  5
245
  8
0
 62
7
 10
64.59153322816789
 20
43.812229479995949
 70
0
  0
SEQEND
  5
243
  8
0
  0
POLYLINE
  5
246
  8
0
 62
7
 66
1
 70
0
 10
0
 20
0
 30
0
  0
VERTEX
  5
248
  8
0
 62
7
 10
64.083037134545
 20
43.896462064610319
 70
0
  0
VERTEX
  5
249
  8
0
 62
7
 10
64.59153322816789
 20
43.939181248627392
 70
0
  0
SEQEND
  5
247
  8
0
  0
POLYLINE
  5
24A
  8
0
 62
7
 66
1
 70
0
 10
0
 20
0
 30
0
  0
VERTEX
  5
24C
  8
0
 62
7
 10
64.59153322816789
 20
43.812229479995949
 70
0
  0
VERTEX
  5
24D
  8
0
 62
7
 10
65.055932099579564
 20
43.812229479995949
 70
0
  0
SEQEND
  5
24B
  8
0
  0
POLYLINE
  5
24E
  8
0
 62
7
 66
1
 70
0
 10
0
 20
0
 30
0
  0
VERTEX
  5
250
  8
0
 62
7
 10
64.59153322816789
 20
43.939181248627392
 70
0
  0
VERTEX
  5
251
  8
0
 62
7
 10
65.055932099579564
 20
43.939181248627392
 70
0
  0
SEQEND
  5
24F
  8
0
  0
POLYLINE
  5
252
  8
0
 62
7
 66
1
 70
0
 10
0
 20
0
 30
0
  0
VERTEX
  5
254
  8
0
 62
7
 10
45.923249812696064
 20
38.943965049789369
 70
0
  0
VERTEX
  5
255
  8
0
 62
7
 10
45.965968996713173
 20
39.070572308872329
 70
0
  0
SEQEND
  5
253
  8
0
  0
POLYLINE
  5
256
  8
0
 62
7
 66
1
 70
0
 10
0
 20
0
 30
0
  0
VERTEX
  5
258
  8
0
 62
7
 10
46.00868818073026
 20
38.901245865772289
 70
0
  0
VERTEX
  5
259
  8
0
 62
7
 10
46.00868818073026
 20
39.02923116304931
 70
0
  0
SEQEND
  5
257
  8
0
  0
POLYLINE
  5
25A
  8
0
 62
7
 66
1
 70
0
 10
0
 20
0
 30
0
  0
VERTEX
  5
25C
  8
0
 62
7
 10
83.977774542765786
 20
38.224629112469252
 70
0
  0
VERTEX
  5
25D
  8
0
 62
7
 10
83.893714212925687
 20
38.097677343837752
 70
0
  0
SEQEND
  5
25B
  8
0
  0
POLYLINE
  5
25E
  8
0
 62
7
 66
1
 70
0
 10
0
 20
0
 30
0
  0
VERTEX
  5
260
  8
0
 62
7
 10
84.02049372678286
 20
38.30851718753506
 70
0
  0
VERTEX
  5
261
  8
0
 62
7
 10
83.977774542765786
 20
38.181909928452122
 70
0
  0
SEQEND
  5
25F
  8
0
  0
POLYLINE
  5
262
  8
0
 62
7
 66
1
 70
0
 10
0
 20
0
 30
0
  0
VERTEX
  5
264
  8
0
 62
7
 10
65.055932099579564
 20
43.812229479995949
 70
0
  0
VERTEX
  5
265
  8
0
 62
7
 10
65.564428193202446
 20
43.812229479995949
 70
0
  0
SEQEND
  5
263
  8
0
  0
POLYLINE
  5
266
  8
0
 62
7
 66
1
 70
0
 10
0
 20
0
 30
0
  0
VERTEX
  5
268
  8
0
 62
7
 10
65.055932099579564
 20
43.939181248627392
 70
0
  0
VERTEX
  5
269
  8
0
 62
7
 10
65.564428193202446
 20
43.939181248627392
 70
0
  0
SEQEND
  5
267
  8
0
  0
POLYLINE
  5
26A
  8
0
 62
7
 66
1
 70
0
 10
0
 20
0
 30
0
  0
VERTEX
  5
26C
  8
0
 62
7
 10
65.564428193202446
 20
43.812229479995949
 70
0
  0
VERTEX
  5
26D
  8
0
 62
7
 10
66.072924286825327
 20
43.812229479995949
 70
0
  0
SEQEND
  5
26B
  8
0
  0
POLYLINE
  5
26E
  8
0
 62
7
 66
1
 70
0
 10
0
 20
0
 30
0
  0
VERTEX
  5
270
  8
0
 62
7
 10
65.564428193202446
 20
43.939181248627392
 70
0
  0
VERTEX
  5
271
  8
0
 62
7
 10
66.072924286825327
 20
43.896462064610319
 70
0
  0
SEQEND
  5
26F
  8
0
  0
POLYLINE
  5
272
  8
0
 62
7
 66
1
 70
0
 10
0
 20
0
 30
0
  0
VERTEX
  5
274
  8
0
 62
7
 10
66.072924286825327
 20
43.812229479995949
 70
0
  0
VERTEX
  5
275
  8
0
 62
7
 10
66.5800423422541
 20
43.812229479995949
 70
0
  0
SEQEND
  5
273
  8
0
  0
POLYLINE
  5
276
  8
0
 62
7
 66
1
 70
0
 10
0
 20
0
 30
0
  0
VERTEX
  5
278
  8
0
 62
7
 10
66.072924286825327
 20
43.896462064610319
 70
0
  0
VERTEX
  5
279
  8
0
 62
7
 10
66.5800423422541
 20
43.896462064610319
 70
0
  0
SEQEND
  5
277
  8
0
  0
POLYLINE
  5
27A
  8
0
 62
7
 66
1
 70
0
 10
0
 20
0
 30
0
  0
VERTEX
  5
27C
  8
0
 62
7
 10
66.5800423422541
 20
43.812229479995949
 70
0
  0
VERTEX
  5
27D
  8
0
 62
7
 10
67.045819251859882
 20
43.812229479995949
 70
0
  0
SEQEND
  5
27B
  8
0
  0
POLYLINE
  5
27E
  8
0
 62
7
 66
1
 70
0
 10
0
 20
0
 30
0
  0
VERTEX
  5
280
  8
0
 62
7
 10
66.5800423422541
 20
43.896462064610319
 70
0
  0
VERTEX
  5
281
  8
0
 62
7
 10
67.045819251859882
 20
43.896462064610319
 70
0
  0
SEQEND
  5
27F
  8
0
  0
POLYLINE
  5
282
  8
0
 62
7
 66
1
 70
0
 10
0
 20
0
 30
0
  0
VERTEX
  5
284
  8
0
 62
7
 10
67.045819251859882
 20
43.812229479995949
 70
0
  0
VERTEX
  5
285
  8
0
 62
7
 10
67.554315345482763
 20
43.769510295978812
 70
0
  0
SEQEND
  5
283
  8
0
  0
POLYLINE
  5
286
  8
0
 62
7
 66
1
 70
0
 10
0
 20
0
 30
0
  0
VERTEX
  5
288
  8
0
 62
7
 10
67.045819251859882
 20
43.896462064610319
 70
0
  0
VERTEX
  5
289
  8
0
 62
7
 10
67.554315345482763
 20
43.896462064610319
 70
0
  0
SEQEND
  5
287
  8
0
  0
POLYLINE
  5
28A
  8
0
 62
7
 66
1
 70
0
 10
0
 20
0
 30
0
  0
VERTEX
  5
28C
  8
0
 62
7
 10
67.554315345482763
 20
43.769510295978812
 70
0
  0
VERTEX
  5
28D
  8
0
 62
7
 10
68.061433400911525
 20
43.769510295978812
 70
0
  0
SEQEND
  5
28B
  8
0
  0
POLYLINE
  5
28E
  8
0
 62
7
 66
1
 70
0
 10
0
 20
0
 30
0
  0
VERTEX
  5
290
  8
0
 62
7
 10
67.554315345482763
 20
43.896462064610319
 70
0
  0
VERTEX
  5
291
  8
0
 62
7
 10
68.061433400911525
 20
43.853915135367437
 70
0
  0
SEQEND
  5
28F
  8
0
  0
POLYLINE
  5
292
  8
0
 62
7
 66
1
 70
0
 10
0
 20
0
 30
0
  0
VERTEX
  5
294
  8
0
 62
7
 10
68.061433400911525
 20
43.769510295978812
 70
0
  0
VERTEX
  5
295
  8
0
 62
7
 10
68.527210310517319
 20
43.769510295978812
 70
0
  0
SEQEND
  5
293
  8
0
  0
POLYLINE
  5
296
  8
0
 62
7
 66
1
 70
0
 10
0
 20
0
 30
0
  0
VERTEX
  5
298
  8
0
 62
7
 10
68.061433400911525
 20
43.853915135367437
 70
0
  0
VERTEX
  5
299
  8
0
 62
7
 10
68.569929494534421
 20
43.853915135367437
 70
0
  0
SEQEND
  5
297
  8
0
  0
POLYLINE
  5
29A
  8
0
 62
7
 66
1
 70
0
 10
0
 20
0
 30
0
  0
VERTEX
  5
29C
  8
0
 62
7
 10
68.527210310517319
 20
43.769510295978812
 70
0
  0
VERTEX
  5
29D
  8
0
 62
7
 10
69.0357064041402
 20
43.726791111961717
 70
0
  0
SEQEND
  5
29B
  8
0
  0
POLYLINE
  5
29E
  8
0
 62
7
 66
1
 70
0
 10
0
 20
0
 30
0
  0
VERTEX
  5
2A0
  8
0
 62
7
 10
68.569929494534421
 20
43.853915135367437
 70
0
  0
VERTEX
  5
2A1
  8
0
 62
7
 10
69.0357064041402
 20
43.812229479995949
 70
0
  0
SEQEND
  5
29F
  8
0
  0
POLYLINE
  5
2A2
  8
0
 62
7
 66
1
 70
0
 10
0
 20
0
 30
0
  0
VERTEX
  5
2A4
  8
0
 62
7
 10
69.0357064041402
 20
43.726791111961717
 70
0
  0
VERTEX
  5
2A5
  8
0
 62
7
 10
69.501483313745979
 20
43.685622220912983
 70
0
  0
SEQEND
  5
2A3
  8
0
  0
POLYLINE
  5
2A6
  8
0
 62
7
 66
1
 70
0
 10
0
 20
0
 30
0
  0
VERTEX
  5
2A8
  8
0
 62
7
 10
69.0357064041402
 20
43.812229479995949
 70
0
  0
VERTEX
  5
2A9
  8
0
 62
7
 10
69.544202497763038
 20
43.769510295978812
 70
0
  0
SEQEND
  5
2A7
  8
0
  0
POLYLINE
  5
2AA
  8
0
 62
7
 66
1
 70
0
 10
0
 20
0
 30
0
  0
VERTEX
  5
2AC
  8
0
 62
7
 10
69.501483313745979
 20
43.685622220912983
 70
0
  0
VERTEX
  5
2AD
  8
0
 62
7
 10
70.008601369174755
 20
43.642903036895923
 70
0
  0
SEQEND
  5
2AB
  8
0
  0
POLYLINE
  5
2AE
  8
0
 62
7
 66
1
 70
0
 10
0
 20
0
 30
0
  0
VERTEX
  5
2B0
  8
0
 62
7
 10
69.544202497763038
 20
43.769510295978812
 70
0
  0
VERTEX
  5
2B1
  8
0
 62
7
 10
70.008601369174755
 20
43.769510295978812
 70
0
  0
SEQEND
  5
2AF
  8
0
  0
POLYLINE
  5
2B2
  8
0
 62
7
 66
1
 70
0
 10
0
 20
0
 30
0
  0
VERTEX
  5
2B4
  8
0
 62
7
 10
70.008601369174755
 20
43.642903036895923
 70
0
  0
VERTEX
  5
2B5
  8
0
 62
7
 10
70.47437827878052
 20
43.642903036895923
 70
0
  0
SEQEND
  5
2B3
  8
0
  0
POLYLINE
  5
2B6
  8
0
 62
7
 66
1
 70
0
 10
0
 20
0
 30
0
  0
VERTEX
  5
2B8
  8
0
 62
7
 10
70.008601369174755
 20
43.769510295978812
 70
0
  0
VERTEX
  5
2B9
  8
0
 62
7
 10
70.517097462797608
 20
43.726791111961717
 70
0
  0
SEQEND
  5
2B7
  8
0
  0
POLYLINE
  5
2BA
  8
0
 62
7
 66
1
 70
0
 10
0
 20
0
 30
0
  0
VERTEX
  5
2BC
  8
0
 62
7
 10
70.47437827878052
 20
43.642903036895923
 70
0
  0
VERTEX
  5
2BD
  8
0
 62
7
 10
70.940155188386314
 20
43.600183852878793
 70
0
  0
SEQEND
  5
2BB
  8
0
  0
POLYLINE
  5
2BE
  8
0
 62
7
 66
1
 70
0
 10
0
 20
0
 30
0
  0
VERTEX
  5
2C0
  8
0
 62
7
 10
70.517097462797608
 20
43.726791111961717
 70
0
  0
VERTEX
  5
2C1
  8
0
 62
7
 10
70.982874372403373
 20
43.685622220912983
 70
0
  0
SEQEND
  5
2BF
  8
0
  0
POLYLINE
  5
2C2
  8
0
 62
7
 66
1
 70
0
 10
0
 20
0
 30
0
  0
VERTEX
  5
2C4
  8
0
 62
7
 10
70.940155188386314
 20
43.600183852878793
 70
0
  0
VERTEX
  5
2C5
  8
0
 62
7
 10
71.448651282009166
 20
43.557464668861712
 70
0
  0
SEQEND
  5
2C3
  8
0
  0
POLYLINE
  5
2C6
  8
0
 62
7
 66
1
 70
0
 10
0
 20
0
 30
0
  0
VERTEX
  5
2C8
  8
0
 62
7
 10
70.982874372403373
 20
43.685622220912983
 70
0
  0
VERTEX
  5
2C9
  8
0
 62
7
 10
71.448651282009166
 20
43.642903036895923
 70
0
  0
SEQEND
  5
2C7
  8
0
  0
POLYLINE
  5
2CA
  8
0
 62
7
 66
1
 70
0
 10
0
 20
0
 30
0
  0
VERTEX
  5
2CC
  8
0
 62
7
 10
71.448651282009166
 20
43.557464668861712
 70
0
  0
VERTEX
  5
2CD
  8
0
 62
7
 10
71.914428191614945
 20
43.51629577781295
 70
0
  0
SEQEND
  5
2CB
  8
0
  0
POLYLINE
  5
2CE
  8
0
 62
7
 66
1
 70
0
 10
0
 20
0
 30
0
  0
VERTEX
  5
2D0
  8
0
 62
7
 10
71.448651282009166
 20
43.642903036895923
 70
0
  0
VERTEX
  5
2D1
  8
0
 62
7
 10
71.914428191614945
 20
43.600183852878793
 70
0
  0
SEQEND
  5
2CF
  8
0
  0
POLYLINE
  5
2D2
  8
0
 62
7
 66
1
 70
0
 10
0
 20
0
 30
0
  0
VERTEX
  5
2D4
  8
0
 62
7
 10
45.965968996713173
 20
38.816841026383671
 70
0
  0
VERTEX
  5
2D5
  8
0
 62
7
 10
45.923249812696064
 20
38.943965049789369
 70
0
  0
SEQEND
  5
2D3
  8
0
  0
POLYLINE
  5
2D6
  8
0
 62
7
 66
1
 70
0
 10
0
 20
0
 30
0
  0
VERTEX
  5
2D8
  8
0
 62
7
 10
46.00868818073026
 20
38.77429409714086
 70
0
  0
VERTEX
  5
2D9
  8
0
 62
7
 10
46.00868818073026
 20
38.901245865772289
 70
0
  0
SEQEND
  5
2D7
  8
0
  0
POLYLINE
  5
2DA
  8
0
 62
7
 66
1
 70
0
 10
0
 20
0
 30
0
  0
VERTEX
  5
2DC
  8
0
 62
7
 10
84.02049372678286
 20
38.351236371552147
 70
0
  0
VERTEX
  5
2DD
  8
0
 62
7
 10
83.977774542765786
 20
38.224629112469252
 70
0
  0
SEQEND
  5
2DB
  8
0
  0
POLYLINE
  5
2DE
  8
0
 62
7
 66
1
 70
0
 10
0
 20
0
 30
0
  0
VERTEX
  5
2E0
  8
0
 62
7
 10
84.104554056622987
 20
38.436674739586351
 70
0
  0
VERTEX
  5
2E1
  8
0
 62
7
 10
84.02049372678286
 20
38.30851718753506
 70
0
  0
SEQEND
  5
2DF
  8
0
  0
POLYLINE
  5
2E2
  8
0
 62
7
 66
1
 70
0
 10
0
 20
0
 30
0
  0
VERTEX
  5
2E4
  8
0
 62
7
 10
71.914428191614945
 20
43.51629577781295
 70
0
  0
VERTEX
  5
2E5
  8
0
 62
7
 10
72.380205101220724
 20
43.430512900230262
 70
0
  0
SEQEND
  5
2E3
  8
0
  0
POLYLINE
  5
2E6
  8
0
 62
7
 66
1
 70
0
 10
0
 20
0
 30
0
  0
VERTEX
  5
2E8
  8
0
 62
7
 10
71.914428191614945
 20
43.600183852878793
 70
0
  0
VERTEX
  5
2E9
  8
0
 62
7
 10
72.380205101220724
 20
43.557464668861712
 70
0
  0
SEQEND
  5
2E7
  8
0
  0
POLYLINE
  5
2EA
  8
0
 62
7
 66
1
 70
0
 10
0
 20
0
 30
0
  0
VERTEX
  5
2EC
  8
0
 62
7
 10
72.380205101220724
 20
43.430512900230262
 70
0
  0
VERTEX
  5
2ED
  8
0
 62
7
 10
72.8032628268094
 20
43.387793716213118
 70
0
  0
SEQEND
  5
2EB
  8
0
  0
POLYLINE
  5
2EE
  8
0
 62
7
 66
1
 70
0
 10
0
 20
0
 30
0
  0
VERTEX
  5
2F0
  8
0
 62
7
 10
72.380205101220724
 20
43.557464668861712
 70
0
  0
VERTEX
  5
2F1
  8
0
 62
7
 10
72.844603972632413
 20
43.473576593795883
 70
0
  0
SEQEND
  5
2EF
  8
0
  0
POLYLINE
  5
2F2
  8
0
 62
7
 66
1
 70
0
 10
0
 20
0
 30
0
  0
VERTEX
  5
2F4
  8
0
 62
7
 10
72.8032628268094
 20
43.387793716213118
 70
0
  0
VERTEX
  5
2F5
  8
0
 62
7
 10
73.269039736415181
 20
43.34662482516444
 70
0
  0
SEQEND
  5
2F3
  8
0
  0
POLYLINE
  5
2F6
  8
0
 62
7
 66
1
 70
0
 10
0
 20
0
 30
0
  0
VERTEX
  5
2F8
  8
0
 62
7
 10
72.844603972632413
 20
43.473576593795883
 70
0
  0
VERTEX
  5
2F9
  8
0
 62
7
 10
73.310380882238164
 20
43.430512900230262
 70
0
  0
SEQEND
  5
2F7
  8
0
  0
POLYLINE
  5
2FA
  8
0
 62
7
 66
1
 70
0
 10
0
 20
0
 30
0
  0
VERTEX
  5
2FC
  8
0
 62
7
 10
73.269039736415181
 20
43.34662482516444
 70
0
  0
VERTEX
  5
2FD
  8
0
 62
7
 10
73.734816646020931
 20
43.30390564114731
 70
0
  0
SEQEND
  5
2FB
  8
0
  0
POLYLINE
  5
2FE
  8
0
 62
7
 66
1
 70
0
 10
0
 20
0
 30
0
  0
VERTEX
  5
300
  8
0
 62
7
 10
73.310380882238164
 20
43.430512900230262
 70
0
  0
VERTEX
  5
301
  8
0
 62
7
 10
73.734816646020931
 20
43.387793716213118
 70
0
  0
SEQEND
  5
2FF
  8
0
  0
POLYLINE
  5
302
  8
0
 62
7
 66
1
 70
0
 10
0
 20
0
 30
0
  0
VERTEX
  5
304
  8
0
 62
7
 10
73.734816646020931
 20
43.30390564114731
 70
0
  0
VERTEX
  5
305
  8
0
 62
7
 10
74.157874371609623
 20
43.219845311307211
 70
0
  0
SEQEND
  5
303
  8
0
  0
POLYLINE
  5
306
  8
0
 62
7
 66
1
 70
0
 10
0
 20
0
 30
0
  0
VERTEX
  5
308
  8
0
 62
7
 10
73.734816646020931
 20
43.387793716213118
 70
0
  0
VERTEX
  5
309
  8
0
 62
7
 10
74.19921551743262
 20
43.30390564114731
 70
0
  0
SEQEND
  5
307
  8
0
  0
POLYLINE
  5
30A
  8
0
 62
7
 66
1
 70
0
 10
0
 20
0
 30
0
  0
VERTEX
  5
30C
  8
0
 62
7
 10
74.157874371609623
 20
43.219845311307211
 70
0
  0
VERTEX
  5
30D
  8
0
 62
7
 10
74.5809320971983
 20
43.177298382064407
 70
0
  0
SEQEND
  5
30B
  8
0
  0
POLYLINE
  5
30E
  8
0
 62
7
 66
1
 70
0
 10
0
 20
0
 30
0
  0
VERTEX
  5
310
  8
0
 62
7
 10
74.19921551743262
 20
43.30390564114731
 70
0
  0
VERTEX
  5
311
  8
0
 62
7
 10
74.623651281215416
 20
43.261186457130222
 70
0
  0
SEQEND
  5
30F
  8
0
  0
POLYLINE
  5
312
  8
0
 62
7
 66
1
 70
0
 10
0
 20
0
 30
0
  0
VERTEX
  5
314
  8
0
 62
7
 10
74.5809320971983
 20
43.177298382064407
 70
0
  0
VERTEX
  5
315
  8
0
 62
7
 10
75.0467090068041
 20
43.091860014030189
 70
0
  0
SEQEND
  5
313
  8
0
  0
POLYLINE
  5
316
  8
0
 62
7
 66
1
 70
0
 10
0
 20
0
 30
0
  0
VERTEX
  5
318
  8
0
 62
7
 10
74.623651281215416
 20
43.261186457130222
 70
0
  0
VERTEX
  5
319
  8
0
 62
7
 10
75.0894281908212
 20
43.177298382064407
 70
0
  0
SEQEND
  5
317
  8
0
  0
POLYLINE
  5
31A
  8
0
 62
7
 66
1
 70
0
 10
0
 20
0
 30
0
  0
VERTEX
  5
31C
  8
0
 62
7
 10
75.0467090068041
 20
43.091860014030189
 70
0
  0
VERTEX
  5
31D
  8
0
 62
7
 10
75.4270475483757
 20
43.007627429415813
 70
0
  0
SEQEND
  5
31B
  8
0
  0
POLYLINE
  5
31E
  8
0
 62
7
 66
1
 70
0
 10
0
 20
0
 30
0
  0
VERTEX
  5
320
  8
0
 62
7
 10
75.0894281908212
 20
43.177298382064407
 70
0
  0
VERTEX
  5
321
  8
0
 62
7
 10
75.4697667323928
 20
43.134579198047277
 70
0
  0
SEQEND
  5
31F
  8
0
  0
POLYLINE
  5
322
  8
0
 62
7
 66
1
 70
0
 10
0
 20
0
 30
0
  0
VERTEX
  5
324
  8
0
 62
7
 10
75.4270475483757
 20
43.007627429415813
 70
0
  0
VERTEX
  5
325
  8
0
 62
7
 10
75.850105273964374
 20
42.964908245398753
 70
0
  0
SEQEND
  5
323
  8
0
  0
POLYLINE
  5
326
  8
0
 62
7
 66
1
 70
0
 10
0
 20
0
 30
0
  0
VERTEX
  5
328
  8
0
 62
7
 10
75.4697667323928
 20
43.134579198047277
 70
0
  0
VERTEX
  5
329
  8
0
 62
7
 10
75.892824457981476
 20
43.050174358658687
 70
0
  0
SEQEND
  5
327
  8
0
  0
POLYLINE
  5
32A
  8
0
 62
7
 66
1
 70
0
 10
0
 20
0
 30
0
  0
VERTEX
  5
32C
  8
0
 62
7
 10
75.850105273964374
 20
42.964908245398753
 70
0
  0
VERTEX
  5
32D
  8
0
 62
7
 10
76.274541037747156
 20
42.880847915558661
 70
0
  0
SEQEND
  5
32B
  8
0
  0
POLYLINE
  5
32E
  8
0
 62
7
 66
1
 70
0
 10
0
 20
0
 30
0
  0
VERTEX
  5
330
  8
0
 62
7
 10
75.892824457981476
 20
43.050174358658687
 70
0
  0
VERTEX
  5
331
  8
0
 62
7
 10
76.315882183570139
 20
42.964908245398753
 70
0
  0
SEQEND
  5
32F
  8
0
  0
POLYLINE
  5
332
  8
0
 62
7
 66
1
 70
0
 10
0
 20
0
 30
0
  0
VERTEX
  5
334
  8
0
 62
7
 10
76.274541037747156
 20
42.880847915558661
 70
0
  0
VERTEX
  5
335
  8
0
 62
7
 10
76.654879579318731
 20
42.79558180229872
 70
0
  0
SEQEND
  5
333
  8
0
  0
POLYLINE
  5
336
  8
0
 62
7
 66
1
 70
0
 10
0
 20
0
 30
0
  0
VERTEX
  5
338
  8
0
 62
7
 10
76.315882183570139
 20
42.964908245398753
 70
0
  0
VERTEX
  5
339
  8
0
 62
7
 10
76.6975987633358
 20
42.880847915558661
 70
0
  0
SEQEND
  5
337
  8
0
  0
POLYLINE
  5
33A
  8
0
 62
7
 66
1
 70
0
 10
0
 20
0
 30
0
  0
VERTEX
  5
33C
  8
0
 62
7
 10
45.965968996713173
 20
38.690233767300747
 70
0
  0
VERTEX
  5
33D
  8
0
 62
7
 10
45.965968996713173
 20
38.816841026383671
 70
0
  0
SEQEND
  5
33B
  8
0
  0
POLYLINE
  5
33E
  8
0
 62
7
 66
1
 70
0
 10
0
 20
0
 30
0
  0
VERTEX
  5
340
  8
0
 62
7
 10
46.050029326553272
 20
38.60479539926655
 70
0
  0
VERTEX
  5
341
  8
0
 62
7
 10
46.00868818073026
 20
38.77429409714086
 70
0
  0
SEQEND
  5
33F
  8
0
  0
POLYLINE
  5
342
  8
0
 62
7
 66
1
 70
0
 10
0
 20
0
 30
0
  0
VERTEX
  5
344
  8
0
 62
7
 10
84.063212910799976
 20
38.477843630635107
 70
0
  0
VERTEX
  5
345
  8
0
 62
7
 10
84.02049372678286
 20
38.351236371552147
 70
0
  0
SEQEND
  5
343
  8
0
  0
POLYLINE
  5
346
  8
0
 62
7
 66
1
 70
0
 10
0
 20
0
 30
0
  0
VERTEX
  5
348
  8
0
 62
7
 10
84.147273240640061
 20
38.56362650821778
 70
0
  0
VERTEX
  5
349
  8
0
 62
7
 10
84.104554056622987
 20
38.436674739586351
 70
0
  0
SEQEND
  5
347
  8
0
  0
POLYLINE
  5
34A
  8
0
 62
7
 66
1
 70
0
 10
0
 20
0
 30
0
  0
VERTEX
  5
34C
  8
0
 62
7
 10
76.654879579318731
 20
42.79558180229872
 70
0
  0
VERTEX
  5
34D
  8
0
 62
7
 10
77.0779373049074
 20
42.7111769629101
 70
0
  0
SEQEND
  5
34B
  8
0
  0
POLYLINE
  5
34E
  8
0
 62
7
 66
1
 70
0
 10
0
 20
0
 30
0
  0
VERTEX
  5
350
  8
0
 62
7
 10
76.6975987633358
 20
42.880847915558661
 70
0
  0
VERTEX
  5
351
  8
0
 62
7
 10
77.12065648892451
 20
42.79558180229872
 70
0
  0
SEQEND
  5
34F
  8
0
  0
POLYLINE
  5
352
  8
0
 62
7
 66
1
 70
0
 10
0
 20
0
 30
0
  0
VERTEX
  5
354
  8
0
 62
7
 10
77.0779373049074
 20
42.7111769629101
 70
0
  0
VERTEX
  5
355
  8
0
 62
7
 10
77.45965388467306
 20
42.668457778893
 70
0
  0
SEQEND
  5
353
  8
0
  0
POLYLINE
  5
356
  8
0
 62
7
 66
1
 70
0
 10
0
 20
0
 30
0
  0
VERTEX
  5
358
  8
0
 62
7
 10
77.12065648892451
 20
42.79558180229872
 70
0
  0
VERTEX
  5
359
  8
0
 62
7
 10
77.500995030496085
 20
42.7111769629101
 70
0
  0
SEQEND
  5
357
  8
0
  0
POLYLINE
  5
35A
  8
0
 62
7
 66
1
 70
0
 10
0
 20
0
 30
0
  0
VERTEX
  5
35C
  8
0
 62
7
 10
77.45965388467306
 20
42.668457778893
 70
0
  0
VERTEX
  5
35D
  8
0
 62
7
 10
77.839992426244663
 20
42.541850519810041
 70
0
  0
SEQEND
  5
35B
  8
0
  0
POLYLINE
  5
35E
  8
0
 62
7
 66
1
 70
0
 10
0
 20
0
 30
0
  0
VERTEX
  5
360
  8
0
 62
7
 10
77.500995030496085
 20
42.7111769629101
 70
0
  0
VERTEX
  5
361
  8
0
 62
7
 10
77.882711610261765
 20
42.627288887844237
 70
0
  0
SEQEND
  5
35F
  8
0
  0
POLYLINE
  5
362
  8
0
 62
7
 66
1
 70
0
 10
0
 20
0
 30
0
  0
VERTEX
  5
364
  8
0
 62
7
 10
77.839992426244663
 20
42.541850519810041
 70
0
  0
VERTEX
  5
365
  8
0
 62
7
 10
78.17898982199327
 20
42.457962444744219
 70
0
  0
SEQEND
  5
363
  8
0
  0
POLYLINE
  5
366
  8
0
 62
7
 66
1
 70
0
 10
0
 20
0
 30
0
  0
VERTEX
  5
368
  8
0
 62
7
 10
77.882711610261765
 20
42.627288887844237
 70
0
  0
VERTEX
  5
369
  8
0
 62
7
 10
78.221709006010343
 20
42.541850519810041
 70
0
  0
SEQEND
  5
367
  8
0
  0
POLYLINE
  5
36A
  8
0
 62
7
 66
1
 70
0
 10
0
 20
0
 30
0
  0
VERTEX
  5
36C
  8
0
 62
7
 10
78.17898982199327
 20
42.457962444744219
 70
0
  0
VERTEX
  5
36D
  8
0
 62
7
 10
78.559328363564831
 20
42.37217956716146
 70
0
  0
SEQEND
  5
36B
  8
0
  0
POLYLINE
  5
36E
  8
0
 62
7
 66
1
 70
0
 10
0
 20
0
 30
0
  0
VERTEX
  5
370
  8
0
 62
7
 10
78.221709006010343
 20
42.541850519810041
 70
0
  0
VERTEX
  5
371
  8
0
 62
7
 10
78.602047547581947
 20
42.457962444744219
 70
0
  0
SEQEND
  5
36F
  8
0
  0
POLYLINE
  5
372
  8
0
 62
7
 66
1
 70
0
 10
0
 20
0
 30
0
  0
VERTEX
  5
374
  8
0
 62
7
 10
78.559328363564831
 20
42.37217956716146
 70
0
  0
VERTEX
  5
375
  8
0
 62
7
 10
78.898325759313423
 20
42.288291492095638
 70
0
  0
SEQEND
  5
373
  8
0
  0
POLYLINE
  5
376
  8
0
 62
7
 66
1
 70
0
 10
0
 20
0
 30
0
  0
VERTEX
  5
378
  8
0
 62
7
 10
78.602047547581947
 20
42.457962444744219
 70
0
  0
VERTEX
  5
379
  8
0
 62
7
 10
78.941044943330539
 20
42.37217956716146
 70
0
  0
SEQEND
  5
377
  8
0
  0
POLYLINE
  5
37A
  8
0
 62
7
 66
1
 70
0
 10
0
 20
0
 30
0
  0
VERTEX
  5
37C
  8
0
 62
7
 10
78.898325759313423
 20
42.288291492095638
 70
0
  0
VERTEX
  5
37D
  8
0
 62
7
 10
79.237323155062
 20
42.202853124061491
 70
0
  0
SEQEND
  5
37B
  8
0
  0
POLYLINE
  5
37E
  8
0
 62
7
 66
1
 70
0
 10
0
 20
0
 30
0
  0
VERTEX
  5
380
  8
0
 62
7
 10
78.941044943330539
 20
42.37217956716146
 70
0
  0
VERTEX
  5
381
  8
0
 62
7
 10
79.280042339079046
 20
42.288291492095638
 70
0
  0
SEQEND
  5
37F
  8
0
  0
POLYLINE
  5
382
  8
0
 62
7
 66
1
 70
0
 10
0
 20
0
 30
0
  0
VERTEX
  5
384
  8
0
 62
7
 10
79.237323155062
 20
42.202853124061491
 70
0
  0
VERTEX
  5
385
  8
0
 62
7
 10
79.576320550810593
 20
42.118965048995619
 70
0
  0
SEQEND
  5
383
  8
0
  0
POLYLINE
  5
386
  8
0
 62
7
 66
1
 70
0
 10
0
 20
0
 30
0
  0
VERTEX
  5
388
  8
0
 62
7
 10
79.280042339079046
 20
42.288291492095638
 70
0
  0
VERTEX
  5
389
  8
0
 62
7
 10
79.617661696633562
 20
42.161511978238472
 70
0
  0
SEQEND
  5
387
  8
0
  0
POLYLINE
  5
38A
  8
0
 62
7
 66
1
 70
0
 10
0
 20
0
 30
0
  0
VERTEX
  5
38C
  8
0
 62
7
 10
79.576320550810593
 20
42.118965048995619
 70
0
  0
VERTEX
  5
38D
  8
0
 62
7
 10
79.872598762542083
 20
41.9918410255899
 70
0
  0
SEQEND
  5
38B
  8
0
  0
POLYLINE
  5
38E
  8
0
 62
7
 66
1
 70
0
 10
0
 20
0
 30
0
  0
VERTEX
  5
390
  8
0
 62
7
 10
79.617661696633562
 20
42.161511978238472
 70
0
  0
VERTEX
  5
391
  8
0
 62
7
 10
79.956659092382182
 20
42.076245864978517
 70
0
  0
SEQEND
  5
38F
  8
0
  0
POLYLINE
  5
392
  8
0
 62
7
 66
1
 70
0
 10
0
 20
0
 30
0
  0
VERTEX
  5
394
  8
0
 62
7
 10
47.659577937261957
 20
36.869845312894711
 70
0
  0
VERTEX
  5
395
  8
0
 62
7
 10
47.490079239387711
 20
36.99662482675194
 70
0
  0
SEQEND
  5
393
  8
0
  0
POLYLINE
  5
396
  8
0
 62
7
 66
1
 70
0
 10
0
 20
0
 30
0
  0
VERTEX
  5
398
  8
0
 62
7
 10
47.490079239387711
 20
36.99662482675194
 70
0
  0
VERTEX
  5
399
  8
0
 62
7
 10
47.277861357496313
 20
37.123576595383383
 70
0
  0
SEQEND
  5
397
  8
0
  0
POLYLINE
  5
39A
  8
0
 62
7
 66
1
 70
0
 10
0
 20
0
 30
0
  0
VERTEX
  5
39C
  8
0
 62
7
 10
47.277861357496313
 20
37.123576595383383
 70
0
  0
VERTEX
  5
39D
  8
0
 62
7
 10
47.108362659622017
 20
37.2501838544663
 70
0
  0
SEQEND
  5
39B
  8
0
  0
POLYLINE
  5
39E
  8
0
 62
7
 66
1
 70
0
 10
0
 20
0
 30
0
  0
VERTEX
  5
3A0
  8
0
 62
7
 10
47.108362659622017
 20
37.2501838544663
 70
0
  0
VERTEX
  5
3A1
  8
0
 62
7
 10
46.938863961747721
 20
37.33562222250049
 70
0
  0
SEQEND
  5
39F
  8
0
  0
POLYLINE
  5
3A2
  8
0
 62
7
 66
1
 70
0
 10
0
 20
0
 30
0
  0
VERTEX
  5
3A4
  8
0
 62
7
 10
46.050029326553272
 20
38.436674739586351
 70
0
  0
VERTEX
  5
3A5
  8
0
 62
7
 10
46.00868818073026
 20
38.56362650821778
 70
0
  0
SEQEND
  5
3A3
  8
0
  0
POLYLINE
  5
3A6
  8
0
 62
7
 66
1
 70
0
 10
0
 20
0
 30
0
  0
VERTEX
  5
3A8
  8
0
 62
7
 10
46.135467694587447
 20
38.351236371552147
 70
0
  0
VERTEX
  5
3A9
  8
0
 62
7
 10
46.09274851057036
 20
38.477843630635107
 70
0
  0
SEQEND
  5
3A7
  8
0
  0
POLYLINE
  5
3AA
  8
0
 62
7
 66
1
 70
0
 10
0
 20
0
 30
0
  0
VERTEX
  5
3AC
  8
0
 62
7
 10
46.00868818073026
 20
38.56362650821778
 70
0
  0
VERTEX
  5
3AD
  8
0
 62
7
 10
45.965968996713173
 20
38.690233767300747
 70
0
  0
SEQEND
  5
3AB
  8
0
  0
POLYLINE
  5
3AE
  8
0
 62
7
 66
1
 70
0
 10
0
 20
0
 30
0
  0
VERTEX
  5
3B0
  8
0
 62
7
 10
46.09274851057036
 20
38.477843630635107
 70
0
  0
VERTEX
  5
3B1
  8
0
 62
7
 10
46.050029326553272
 20
38.60479539926655
 70
0
  0
SEQEND
  5
3AF
  8
0
  0
POLYLINE
  5
3B2
  8
0
 62
7
 66
1
 70
0
 10
0
 20
0
 30
0
  0
VERTEX
  5
3B4
  8
0
 62
7
 10
84.104554056622987
 20
38.77429409714086
 70
0
  0
VERTEX
  5
3B5
  8
0
 62
7
 10
84.104554056622987
 20
38.60479539926655
 70
0
  0
SEQEND
  5
3B3
  8
0
  0
POLYLINE
  5
3B6
  8
0
 62
7
 66
1
 70
0
 10
0
 20
0
 30
0
  0
VERTEX
  5
3B8
  8
0
 62
7
 10
84.104554056622987
 20
38.60479539926655
 70
0
  0
VERTEX
  5
3B9
  8
0
 62
7
 10
84.063212910799976
 20
38.477843630635107
 70
0
  0
SEQEND
  5
3B7
  8
0
  0
POLYLINE
  5
3BA
  8
0
 62
7
 66
1
 70
0
 10
0
 20
0
 30
0
  0
VERTEX
  5
3BC
  8
0
 62
7
 10
84.189992424657135
 20
38.690233767300747
 70
0
  0
VERTEX
  5
3BD
  8
0
 62
7
 10
84.147273240640061
 20
38.56362650821778
 70
0
  0
SEQEND
  5
3BB
  8
0
  0
POLYLINE
  5
3BE
  8
0
 62
7
 66
1
 70
0
 10
0
 20
0
 30
0
  0
VERTEX
  5
3C0
  8
0
 62
7
 10
79.872598762542083
 20
41.9918410255899
 70
0
  0
VERTEX
  5
3C1
  8
0
 62
7
 10
80.168876974273545
 20
41.906574912329972
 70
0
  0
SEQEND
  5
3BF
  8
0
  0
POLYLINE
  5
3C2
  8
0
 62
7
 66
1
 70
0
 10
0
 20
0
 30
0
  0
VERTEX
  5
3C4
  8
0
 62
7
 10
79.956659092382182
 20
42.076245864978517
 70
0
  0
VERTEX
  5
3C5
  8
0
 62
7
 10
80.252937304113658
 20
41.9918410255899
 70
0
  0
SEQEND
  5
3C3
  8
0
  0
POLYLINE
  5
3C6
  8
0
 62
7
 66
1
 70
0
 10
0
 20
0
 30
0
  0
VERTEX
  5
3C8
  8
0
 62
7
 10
80.168876974273545
 20
41.906574912329972
 70
0
  0
VERTEX
  5
3C9
  8
0
 62
7
 10
80.506496331828032
 20
41.779795398472793
 70
0
  0
SEQEND
  5
3C7
  8
0
  0
POLYLINE
  5
3CA
  8
0
 62
7
 66
1
 70
0
 10
0
 20
0
 30
0
  0
VERTEX
  5
3CC
  8
0
 62
7
 10
80.252937304113658
 20
41.9918410255899
 70
0
  0
VERTEX
  5
3CD
  8
0
 62
7
 10
80.549215515845134
 20
41.865233766507
 70
0
  0
SEQEND
  5
3CB
  8
0
  0
POLYLINE
  5
3CE
  8
0
 62
7
 66
1
 70
0
 10
0
 20
0
 30
0
  0
VERTEX
  5
3D0
  8
0
 62
7
 10
80.506496331828032
 20
41.779795398472793
 70
0
  0
VERTEX
  5
3D1
  8
0
 62
7
 10
80.761433397736553
 20
41.69556281385843
 70
0
  0
SEQEND
  5
3CF
  8
0
  0
POLYLINE
  5
3D2
  8
0
 62
7
 66
1
 70
0
 10
0
 20
0
 30
0
  0
VERTEX
  5
3D4
  8
0
 62
7
 10
80.549215515845134
 20
41.865233766507
 70
0
  0
VERTEX
  5
3D5
  8
0
 62
7
 10
80.845493727576624
 20
41.779795398472793
 70
0
  0
SEQEND
  5
3D3
  8
0
  0
POLYLINE
  5
3D6
  8
0
 62
7
 66
1
 70
0
 10
0
 20
0
 30
0
  0
VERTEX
  5
3D8
  8
0
 62
7
 10
80.761433397736553
 20
41.69556281385843
 70
0
  0
VERTEX
  5
3D9
  8
0
 62
7
 10
81.057711609468015
 20
41.568955554775528
 70
0
  0
SEQEND
  5
3D7
  8
0
  0
POLYLINE
  5
3DA
  8
0
 62
7
 66
1
 70
0
 10
0
 20
0
 30
0
  0
VERTEX
  5
3DC
  8
0
 62
7
 10
80.845493727576624
 20
41.779795398472793
 70
0
  0
VERTEX
  5
3DD
  8
0
 62
7
 10
81.099052755291012
 20
41.652843629841342
 70
0
  0
SEQEND
  5
3DB
  8
0
  0
POLYLINE
  5
3DE
  8
0
 62
7
 66
1
 70
0
 10
0
 20
0
 30
0
  0
VERTEX
  5
3E0
  8
0
 62
7
 10
81.057711609468015
 20
41.568955554775528
 70
0
  0
VERTEX
  5
3E1
  8
0
 62
7
 10
81.311270637182446
 20
41.48351718674131
 70
0
  0
SEQEND
  5
3DF
  8
0
  0
POLYLINE
  5
3E2
  8
0
 62
7
 66
1
 70
0
 10
0
 20
0
 30
0
  0
VERTEX
  5
3E4
  8
0
 62
7
 10
81.099052755291012
 20
41.652843629841342
 70
0
  0
VERTEX
  5
3E5
  8
0
 62
7
 10
81.395330967022517
 20
41.5262363707584
 70
0
  0
SEQEND
  5
3E3
  8
0
  0
POLYLINE
  5
3E6
  8
0
 62
7
 66
1
 70
0
 10
0
 20
0
 30
0
  0
VERTEX
  5
3E8
  8
0
 62
7
 10
81.311270637182446
 20
41.48351718674131
 70
0
  0
VERTEX
  5
3E9
  8
0
 62
7
 10
81.564829664896763
 20
41.356909927658357
 70
0
  0
SEQEND
  5
3E7
  8
0
  0
POLYLINE
  5
3EA
  8
0
 62
7
 66
1
 70
0
 10
0
 20
0
 30
0
  0
VERTEX
  5
3EC
  8
0
 62
7
 10
81.395330967022517
 20
41.5262363707584
 70
0
  0
VERTEX
  5
3ED
  8
0
 62
7
 10
81.650268032930981
 20
41.440798002724172
 70
0
  0
SEQEND
  5
3EB
  8
0
  0
POLYLINE
  5
3EE
  8
0
 62
7
 66
1
 70
0
 10
0
 20
0
 30
0
  0
VERTEX
  5
3F0
  8
0
 62
7
 10
46.938863961747721
 20
37.33562222250049
 70
0
  0
VERTEX
  5
3F1
  8
0
 62
7
 10
46.81208444789052
 20
37.462229481583449
 70
0
  0
SEQEND
  5
3EF
  8
0
  0
POLYLINE
  5
3F2
  8
0
 62
7
 66
1
 70
0
 10
0
 20
0
 30
0
  0
VERTEX
  5
3F4
  8
0
 62
7
 10
46.81208444789052
 20
37.462229481583449
 70
0
  0
VERTEX
  5
3F5
  8
0
 62
7
 10
46.642585750016252
 20
37.5891812502149
 70
0
  0
SEQEND
  5
3F3
  8
0
  0
POLYLINE
  5
3F6
  8
0
 62
7
 66
1
 70
0
 10
0
 20
0
 30
0
  0
VERTEX
  5
3F8
  8
0
 62
7
 10
46.642585750016252
 20
37.631900434231973
 70
0
  0
VERTEX
  5
3F9
  8
0
 62
7
 10
46.728024118050449
 20
37.546462066197812
 70
0
  0
SEQEND
  5
3F7
  8
0
  0
POLYLINE
  5
3FA
  8
0
 62
7
 66
1
 70
0
 10
0
 20
0
 30
0
  0
VERTEX
  5
3FC
  8
0
 62
7
 10
46.642585750016252
 20
37.631900434231973
 70
0
  0
VERTEX
  5
3FD
  8
0
 62
7
 10
46.601244604193241
 20
37.6746196182491
 70
0
  0
SEQEND
  5
3FB
  8
0
  0
POLYLINE
  5
3FE
  8
0
 62
7
 66
1
 70
0
 10
0
 20
0
 30
0
  0
VERTEX
  5
400
  8
0
 62
7
 10
46.601244604193241
 20
37.6746196182491
 70
0
  0
VERTEX
  5
401
  8
0
 62
7
 10
46.474465090336047
 20
37.801226877332
 70
0
  0
SEQEND
  5
3FF
  8
0
  0
POLYLINE
  5
402
  8
0
 62
7
 66
1
 70
0
 10
0
 20
0
 30
0
  0
VERTEX
  5
404
  8
0
 62
7
 10
46.642585750016252
 20
37.5891812502149
 70
0
  0
VERTEX
  5
405
  8
0
 62
7
 10
46.558525420176153
 20
37.715960764072058
 70
0
  0
SEQEND
  5
403
  8
0
  0
POLYLINE
  5
406
  8
0
 62
7
 66
1
 70
0
 10
0
 20
0
 30
0
  0
VERTEX
  5
408
  8
0
 62
7
 10
46.474465090336047
 20
37.801226877332
 70
0
  0
VERTEX
  5
409
  8
0
 62
7
 10
46.346307538284726
 20
37.928178645963492
 70
0
  0
SEQEND
  5
407
  8
0
  0
POLYLINE
  5
40A
  8
0
 62
7
 66
1
 70
0
 10
0
 20
0
 30
0
  0
VERTEX
  5
40C
  8
0
 62
7
 10
46.558525420176153
 20
37.715960764072058
 70
0
  0
VERTEX
  5
40D
  8
0
 62
7
 10
46.431745906318952
 20
37.84429057089767
 70
0
  0
SEQEND
  5
40B
  8
0
  0
POLYLINE
  5
40E
  8
0
 62
7
 66
1
 70
0
 10
0
 20
0
 30
0
  0
VERTEX
  5
410
  8
0
 62
7
 10
46.346307538284726
 20
37.928178645963492
 70
0
  0
VERTEX
  5
411
  8
0
 62
7
 10
46.262247208444677
 20
38.054958159820671
 70
0
  0
SEQEND
  5
40F
  8
0
  0
POLYLINE
  5
412
  8
0
 62
7
 66
1
 70
0
 10
0
 20
0
 30
0
  0
VERTEX
  5
414
  8
0
 62
7
 10
46.431745906318952
 20
37.84429057089767
 70
0
  0
VERTEX
  5
415
  8
0
 62
7
 10
46.346307538284726
 20
37.970897829980572
 70
0
  0
SEQEND
  5
413
  8
0
  0
POLYLINE
  5
416
  8
0
 62
7
 66
1
 70
0
 10
0
 20
0
 30
0
  0
VERTEX
  5
418
  8
0
 62
7
 10
46.262247208444677
 20
38.054958159820671
 70
0
  0
VERTEX
  5
419
  8
0
 62
7
 10
46.178186878604578
 20
38.181909928452122
 70
0
  0
SEQEND
  5
417
  8
0
  0
POLYLINE
  5
41A
  8
0
 62
7
 66
1
 70
0
 10
0
 20
0
 30
0
  0
VERTEX
  5
41C
  8
0
 62
7
 10
46.346307538284726
 20
37.970897829980572
 70
0
  0
VERTEX
  5
41D
  8
0
 62
7
 10
46.262247208444677
 20
38.097677343837752
 70
0
  0
SEQEND
  5
41B
  8
0
  0
POLYLINE
  5
41E
  8
0
 62
7
 66
1
 70
0
 10
0
 20
0
 30
0
  0
VERTEX
  5
420
  8
0
 62
7
 10
46.178186878604578
 20
38.181909928452122
 70
0
  0
VERTEX
  5
421
  8
0
 62
7
 10
46.09274851057036
 20
38.30851718753506
 70
0
  0
SEQEND
  5
41F
  8
0
  0
POLYLINE
  5
422
  8
0
 62
7
 66
1
 70
0
 10
0
 20
0
 30
0
  0
VERTEX
  5
424
  8
0
 62
7
 10
46.262247208444677
 20
38.097677343837752
 70
0
  0
VERTEX
  5
425
  8
0
 62
7
 10
46.178186878604578
 20
38.224629112469252
 70
0
  0
SEQEND
  5
423
  8
0
  0
POLYLINE
  5
426
  8
0
 62
7
 66
1
 70
0
 10
0
 20
0
 30
0
  0
VERTEX
  5
428
  8
0
 62
7
 10
46.09274851057036
 20
38.30851718753506
 70
0
  0
VERTEX
  5
429
  8
0
 62
7
 10
46.050029326553272
 20
38.436674739586351
 70
0
  0
SEQEND
  5
427
  8
0
  0
POLYLINE
  5
42A
  8
0
 62
7
 66
1
 70
0
 10
0
 20
0
 30
0
  0
VERTEX
  5
42C
  8
0
 62
7
 10
46.178186878604578
 20
38.224629112469252
 70
0
  0
VERTEX
  5
42D
  8
0
 62
7
 10
46.135467694587447
 20
38.351236371552147
 70
0
  0
SEQEND
  5
42B
  8
0
  0
POLYLINE
  5
42E
  8
0
 62
7
 66
1
 70
0
 10
0
 20
0
 30
0
  0
VERTEX
  5
430
  8
0
 62
7
 10
84.147273240640061
 20
38.901245865772289
 70
0
  0
VERTEX
  5
431
  8
0
 62
7
 10
84.104554056622987
 20
38.77429409714086
 70
0
  0
SEQEND
  5
42F
  8
0
  0
POLYLINE
  5
432
  8
0
 62
7
 66
1
 70
0
 10
0
 20
0
 30
0
  0
VERTEX
  5
434
  8
0
 62
7
 10
84.189992424657135
 20
38.943965049789369
 70
0
  0
VERTEX
  5
435
  8
0
 62
7
 10
84.189992424657135
 20
38.816841026383671
 70
0
  0
SEQEND
  5
433
  8
0
  0
POLYLINE
  5
436
  8
0
 62
7
 66
1
 70
0
 10
0
 20
0
 30
0
  0
VERTEX
  5
438
  8
0
 62
7
 10
84.189992424657135
 20
38.816841026383671
 70
0
  0
VERTEX
  5
439
  8
0
 62
7
 10
84.189992424657135
 20
38.690233767300747
 70
0
  0
SEQEND
  5
437
  8
0
  0
POLYLINE
  5
43A
  8
0
 62
7
 66
1
 70
0
 10
0
 20
0
 30
0
  0
VERTEX
  5
43C
  8
0
 62
7
 10
81.564829664896763
 20
41.356909927658357
 70
0
  0
VERTEX
  5
43D
  8
0
 62
7
 10
81.819766730805327
 20
41.229958159026921
 70
0
  0
SEQEND
  5
43B
  8
0
  0
POLYLINE
  5
43E
  8
0
 62
7
 66
1
 70
0
 10
0
 20
0
 30
0
  0
VERTEX
  5
440
  8
0
 62
7
 10
81.650268032930981
 20
41.440798002724172
 70
0
  0
VERTEX
  5
441
  8
0
 62
7
 10
81.903827060645369
 20
41.31384623409275
 70
0
  0
SEQEND
  5
43F
  8
0
  0
POLYLINE
  5
442
  8
0
 62
7
 66
1
 70
0
 10
0
 20
0
 30
0
  0
VERTEX
  5
444
  8
0
 62
7
 10
81.819766730805327
 20
41.229958159026921
 70
0
  0
VERTEX
  5
445
  8
0
 62
7
 10
82.073325758519658
 20
41.1445197909927
 70
0
  0
SEQEND
  5
443
  8
0
  0
POLYLINE
  5
446
  8
0
 62
7
 66
1
 70
0
 10
0
 20
0
 30
0
  0
VERTEX
  5
448
  8
0
 62
7
 10
81.903827060645369
 20
41.31384623409275
 70
0
  0
VERTEX
  5
449
  8
0
 62
7
 10
82.116044942536732
 20
41.187238975009834
 70
0
  0
SEQEND
  5
447
  8
0
  0
POLYLINE
  5
44A
  8
0
 62
7
 66
1
 70
0
 10
0
 20
0
 30
0
  0
VERTEX
  5
44C
  8
0
 62
7
 10
82.073325758519658
 20
41.1445197909927
 70
0
  0
VERTEX
  5
44D
  8
0
 62
7
 10
82.284165602216987
 20
41.017912531909808
 70
0
  0
SEQEND
  5
44B
  8
0
  0
POLYLINE
  5
44E
  8
0
 62
7
 66
1
 70
0
 10
0
 20
0
 30
0
  0
VERTEX
  5
450
  8
0
 62
7
 10
82.116044942536732
 20
41.187238975009834
 70
0
  0
VERTEX
  5
451
  8
0
 62
7
 10
82.326884786234075
 20
41.103178645169741
 70
0
  0
SEQEND
  5
44F
  8
0
  0
POLYLINE
  5
452
  8
0
 62
7
 66
1
 70
0
 10
0
 20
0
 30
0
  0
VERTEX
  5
454
  8
0
 62
7
 10
82.284165602216987
 20
41.017912531909808
 70
0
  0
VERTEX
  5
455
  8
0
 62
7
 10
82.49638348410835
 20
40.890960763278308
 70
0
  0
SEQEND
  5
453
  8
0
  0
POLYLINE
  5
456
  8
0
 62
7
 66
1
 70
0
 10
0
 20
0
 30
0
  0
VERTEX
  5
458
  8
0
 62
7
 10
82.326884786234075
 20
41.103178645169741
 70
0
  0
VERTEX
  5
459
  8
0
 62
7
 10
82.539102668125423
 20
40.976226876538227
 70
0
  0
SEQEND
  5
457
  8
0
  0
POLYLINE
  5
45A
  8
0
 62
7
 66
1
 70
0
 10
0
 20
0
 30
0
  0
VERTEX
  5
45C
  8
0
 62
7
 10
82.49638348410835
 20
40.890960763278308
 70
0
  0
VERTEX
  5
45D
  8
0
 62
7
 10
82.665882181982667
 20
40.764181249421128
 70
0
  0
SEQEND
  5
45B
  8
0
  0
POLYLINE
  5
45E
  8
0
 62
7
 66
1
 70
0
 10
0
 20
0
 30
0
  0
VERTEX
  5
460
  8
0
 62
7
 10
82.539102668125423
 20
40.976226876538227
 70
0
  0
VERTEX
  5
461
  8
0
 62
7
 10
82.749942511822766
 20
40.848241579261227
 70
0
  0
SEQEND
  5
45F
  8
0
  0
POLYLINE
  5
462
  8
0
 62
7
 66
1
 70
0
 10
0
 20
0
 30
0
  0
VERTEX
  5
464
  8
0
 62
7
 10
84.104554056622987
 20
39.02923116304931
 70
0
  0
VERTEX
  5
465
  8
0
 62
7
 10
84.147273240640061
 20
38.901245865772289
 70
0
  0
SEQEND
  5
463
  8
0
  0
POLYLINE
  5
466
  8
0
 62
7
 66
1
 70
0
 10
0
 20
0
 30
0
  0
VERTEX
  5
468
  8
0
 62
7
 10
84.189992424657135
 20
39.070572308872329
 70
0
  0
VERTEX
  5
469
  8
0
 62
7
 10
84.189992424657135
 20
38.943965049789369
 70
0
  0
SEQEND
  5
467
  8
0
  0
POLYLINE
  5
46A
  8
0
 62
7
 66
1
 70
0
 10
0
 20
0
 30
0
  0
VERTEX
  5
46C
  8
0
 62
7
 10
84.189992424657135
 20
38.943965049789369
 70
0
  0
VERTEX
  5
46D
  8
0
 62
7
 10
84.189992424657135
 20
39.197179567955232
 70
0
  0
SEQEND
  5
46B
  8
0
  0
POLYLINE
  5
46E
  8
0
 62
7
 66
1
 70
0
 10
0
 20
0
 30
0
  0
VERTEX
  5
470
  8
0
 62
7
 10
82.665882181982667
 20
40.764181249421128
 70
0
  0
VERTEX
  5
471
  8
0
 62
7
 10
82.878100063874015
 20
40.637229480789671
 70
0
  0
SEQEND
  5
46F
  8
0
  0
POLYLINE
  5
472
  8
0
 62
7
 66
1
 70
0
 10
0
 20
0
 30
0
  0
VERTEX
  5
474
  8
0
 62
7
 10
82.749942511822766
 20
40.848241579261227
 70
0
  0
VERTEX
  5
475
  8
0
 62
7
 10
82.919441209696984
 20
40.721462065404069
 70
0
  0
SEQEND
  5
473
  8
0
  0
POLYLINE
  5
476
  8
0
 62
7
 66
1
 70
0
 10
0
 20
0
 30
0
  0
VERTEX
  5
478
  8
0
 62
7
 10
82.878100063874015
 20
40.637229480789671
 70
0
  0
VERTEX
  5
479
  8
0
 62
7
 10
83.046220723554228
 20
40.551791112755488
 70
0
  0
SEQEND
  5
477
  8
0
  0
POLYLINE
  5
47A
  8
0
 62
7
 66
1
 70
0
 10
0
 20
0
 30
0
  0
VERTEX
  5
47C
  8
0
 62
7
 10
82.919441209696984
 20
40.721462065404069
 70
0
  0
VERTEX
  5
47D
  8
0
 62
7
 10
83.088939907571316
 20
40.594510296772569
 70
0
  0
SEQEND
  5
47B
  8
0
  0
POLYLINE
  5
47E
  8
0
 62
7
 66
1
 70
0
 10
0
 20
0
 30
0
  0
VERTEX
  5
480
  8
0
 62
7
 10
83.046220723554228
 20
40.551791112755488
 70
0
  0
VERTEX
  5
481
  8
0
 62
7
 10
83.174378275605548
 20
40.425183853672529
 70
0
  0
SEQEND
  5
47F
  8
0
  0
POLYLINE
  5
482
  8
0
 62
7
 66
1
 70
0
 10
0
 20
0
 30
0
  0
VERTEX
  5
484
  8
0
 62
7
 10
83.088939907571316
 20
40.594510296772569
 70
0
  0
VERTEX
  5
485
  8
0
 62
7
 10
83.25843860544559
 20
40.467903037689659
 70
0
  0
SEQEND
  5
483
  8
0
  0
POLYLINE
  5
486
  8
0
 62
7
 66
1
 70
0
 10
0
 20
0
 30
0
  0
VERTEX
  5
488
  8
0
 62
7
 10
83.174378275605548
 20
40.425183853672529
 70
0
  0
VERTEX
  5
489
  8
0
 62
7
 10
83.3424989352857
 20
40.298576594589633
 70
0
  0
SEQEND
  5
487
  8
0
  0
POLYLINE
  5
48A
  8
0
 62
7
 66
1
 70
0
 10
0
 20
0
 30
0
  0
VERTEX
  5
48C
  8
0
 62
7
 10
83.25843860544559
 20
40.467903037689659
 70
0
  0
VERTEX
  5
48D
  8
0
 62
7
 10
83.4279373033199
 20
40.38401496262383
 70
0
  0
SEQEND
  5
48B
  8
0
  0
POLYLINE
  5
48E
  8
0
 62
7
 66
1
 70
0
 10
0
 20
0
 30
0
  0
VERTEX
  5
490
  8
0
 62
7
 10
84.104554056622987
 20
39.156010676906533
 70
0
  0
VERTEX
  5
491
  8
0
 62
7
 10
84.104554056622987
 20
39.02923116304931
 70
0
  0
SEQEND
  5
48F
  8
0
  0
POLYLINE
  5
492
  8
0
 62
7
 66
1
 70
0
 10
0
 20
0
 30
0
  0
VERTEX
  5
494
  8
0
 62
7
 10
84.189992424657135
 20
39.197179567955232
 70
0
  0
VERTEX
  5
495
  8
0
 62
7
 10
84.189992424657135
 20
39.070572308872329
 70
0
  0
SEQEND
  5
493
  8
0
  0
POLYLINE
  5
496
  8
0
 62
7
 66
1
 70
0
 10
0
 20
0
 30
0
  0
VERTEX
  5
498
  8
0
 62
7
 10
83.3424989352857
 20
40.298576594589633
 70
0
  0
VERTEX
  5
499
  8
0
 62
7
 10
83.470656487337024
 20
40.171624825958169
 70
0
  0
SEQEND
  5
497
  8
0
  0
POLYLINE
  5
49A
  8
0
 62
7
 66
1
 70
0
 10
0
 20
0
 30
0
  0
VERTEX
  5
49C
  8
0
 62
7
 10
83.4279373033199
 20
40.38401496262383
 70
0
  0
VERTEX
  5
49D
  8
0
 62
7
 10
83.554716817177123
 20
40.255512901023991
 70
0
  0
SEQEND
  5
49B
  8
0
  0
POLYLINE
  5
49E
  8
0
 62
7
 66
1
 70
0
 10
0
 20
0
 30
0
  0
VERTEX
  5
4A0
  8
0
 62
7
 10
83.470656487337024
 20
40.171624825958169
 70
0
  0
VERTEX
  5
4A1
  8
0
 62
7
 10
83.5974360011942
 20
40.044845312100961
 70
0
  0
SEQEND
  5
49F
  8
0
  0
POLYLINE
  5
4A2
  8
0
 62
7
 66
1
 70
0
 10
0
 20
0
 30
0
  0
VERTEX
  5
4A4
  8
0
 62
7
 10
83.554716817177123
 20
40.255512901023991
 70
0
  0
VERTEX
  5
4A5
  8
0
 62
7
 10
83.68149633103431
 20
40.12890564194106
 70
0
  0
SEQEND
  5
4A3
  8
0
  0
POLYLINE
  5
4A6
  8
0
 62
7
 66
1
 70
0
 10
0
 20
0
 30
0
  0
VERTEX
  5
4A8
  8
0
 62
7
 10
83.5974360011942
 20
40.044845312100961
 70
0
  0
VERTEX
  5
4A9
  8
0
 62
7
 10
83.72421551505137
 20
39.917893543469518
 70
0
  0
SEQEND
  5
4A7
  8
0
  0
POLYLINE
  5
4AA
  8
0
 62
7
 66
1
 70
0
 10
0
 20
0
 30
0
  0
VERTEX
  5
4AC
  8
0
 62
7
 10
83.68149633103431
 20
40.12890564194106
 70
0
  0
VERTEX
  5
4AD
  8
0
 62
7
 10
83.766934699068486
 20
40.00229838285815
 70
0
  0
SEQEND
  5
4AB
  8
0
  0
POLYLINE
  5
4AE
  8
0
 62
7
 66
1
 70
0
 10
0
 20
0
 30
0
  0
VERTEX
  5
4B0
  8
0
 62
7
 10
83.72421551505137
 20
39.917893543469518
 70
0
  0
VERTEX
  5
4B1
  8
0
 62
7
 10
83.808275844891483
 20
39.791286284386622
 70
0
  0
SEQEND
  5
4AF
  8
0
  0
POLYLINE
  5
4B2
  8
0
 62
7
 66
1
 70
0
 10
0
 20
0
 30
0
  0
VERTEX
  5
4B4
  8
0
 62
7
 10
83.766934699068486
 20
40.00229838285815
 70
0
  0
VERTEX
  5
4B5
  8
0
 62
7
 10
83.893714212925687
 20
39.875174359452451
 70
0
  0
SEQEND
  5
4B3
  8
0
  0
POLYLINE
  5
4B6
  8
0
 62
7
 66
1
 70
0
 10
0
 20
0
 30
0
  0
VERTEX
  5
4B8
  8
0
 62
7
 10
83.808275844891483
 20
39.791286284386622
 70
0
  0
VERTEX
  5
4B9
  8
0
 62
7
 10
83.893714212925687
 20
39.663128732335281
 70
0
  0
SEQEND
  5
4B7
  8
0
  0
POLYLINE
  5
4BA
  8
0
 62
7
 66
1
 70
0
 10
0
 20
0
 30
0
  0
VERTEX
  5
4BC
  8
0
 62
7
 10
83.893714212925687
 20
39.875174359452451
 70
0
  0
VERTEX
  5
4BD
  8
0
 62
7
 10
83.977774542765786
 20
39.705847916352411
 70
0
  0
SEQEND
  5
4BB
  8
0
  0
POLYLINE
  5
4BE
  8
0
 62
7
 66
1
 70
0
 10
0
 20
0
 30
0
  0
VERTEX
  5
4C0
  8
0
 62
7
 10
83.893714212925687
 20
39.663128732335281
 70
0
  0
VERTEX
  5
4C1
  8
0
 62
7
 10
83.977774542765786
 20
39.536176963703852
 70
0
  0
SEQEND
  5
4BF
  8
0
  0
POLYLINE
  5
4C2
  8
0
 62
7
 66
1
 70
0
 10
0
 20
0
 30
0
  0
VERTEX
  5
4C4
  8
0
 62
7
 10
83.977774542765786
 20
39.705847916352411
 70
0
  0
VERTEX
  5
4C5
  8
0
 62
7
 10
84.02049372678286
 20
39.578896147720911
 70
0
  0
SEQEND
  5
4C3
  8
0
  0
POLYLINE
  5
4C6
  8
0
 62
7
 66
1
 70
0
 10
0
 20
0
 30
0
  0
VERTEX
  5
4C8
  8
0
 62
7
 10
83.977774542765786
 20
39.536176963703852
 70
0
  0
VERTEX
  5
4C9
  8
0
 62
7
 10
84.02049372678286
 20
39.409569704620942
 70
0
  0
SEQEND
  5
4C7
  8
0
  0
POLYLINE
  5
4CA
  8
0
 62
7
 66
1
 70
0
 10
0
 20
0
 30
0
  0
VERTEX
  5
4CC
  8
0
 62
7
 10
84.02049372678286
 20
39.578896147720911
 70
0
  0
VERTEX
  5
4CD
  8
0
 62
7
 10
84.104554056622987
 20
39.493457779686779
 70
0
  0
SEQEND
  5
4CB
  8
0
  0
POLYLINE
  5
4CE
  8
0
 62
7
 66
1
 70
0
 10
0
 20
0
 30
0
  0
VERTEX
  5
4D0
  8
0
 62
7
 10
84.02049372678286
 20
39.409569704620942
 70
0
  0
VERTEX
  5
4D1
  8
0
 62
7
 10
84.063212910799976
 20
39.28296244553799
 70
0
  0
SEQEND
  5
4CF
  8
0
  0
POLYLINE
  5
4D2
  8
0
 62
7
 66
1
 70
0
 10
0
 20
0
 30
0
  0
VERTEX
  5
4D4
  8
0
 62
7
 10
84.104554056622987
 20
39.493457779686779
 70
0
  0
VERTEX
  5
4D5
  8
0
 62
7
 10
84.147273240640061
 20
39.325681629555049
 70
0
  0
SEQEND
  5
4D3
  8
0
  0
POLYLINE
  5
4D6
  8
0
 62
7
 66
1
 70
0
 10
0
 20
0
 30
0
  0
VERTEX
  5
4D8
  8
0
 62
7
 10
84.063212910799976
 20
39.28296244553799
 70
0
  0
VERTEX
  5
4D9
  8
0
 62
7
 10
84.104554056622987
 20
39.156010676906533
 70
0
  0
SEQEND
  5
4D7
  8
0
  0
POLYLINE
  5
4DA
  8
0
 62
7
 66
1
 70
0
 10
0
 20
0
 30
0
  0
VERTEX
  5
4DC
  8
0
 62
7
 10
84.147273240640061
 20
39.325681629555049
 70
0
  0
VERTEX
  5
4DD
  8
0
 62
7
 10
84.189992424657135
 20
39.197179567955232
 70
0
  0
SEQEND
  5
4DB
  8
0
  0
ARC
  5
4DE
  8
0
  6
CONTINUOUS
 10
66.2475538725405
 20
65.2038646347189
 30
0
 40
34.025480072816677
 50
237.31012128694863
 51
246.84758889531406
  0
ARC
  5
4DF
  8
0
  6
CONTINUOUS
 10
64.302696129374567
 20
67.0388947879693
 30
0
 40
35.03804405431147
 50
250.95510864929349
 51
271.20472409393369
  0
ARC
  5
4E0
  8
0
  6
CONTINUOUS
 10
60.439699472833027
 20
72.1654429043164
 30
0
 40
41.777571481885339
 50
293.690601759067
 51
301.56189593867992
  0
ARC
  5
4E1
  8
0
  6
CONTINUOUS
 10
65.792601815506629
 20
67.028703230438254
 30
0
 40
35.03804405431147
 50
268.79527590606688
 51
289.044891350706
  0
ARC
  5
4E2
  8
0
  6
CONTINUOUS
 10
52.528018771957292
 20
33.805081836743462
 30
0
 40
5.8864855719144611
 50
109.97388300794431
 51
137.80850957944941
  0
ARC
  5
4E3
  8
0
  6
CONTINUOUS
 10
60.448905532259957
 20
12.4015120017951
 30
0
 40
28.7086154805542
 50
97.372843947118511
 51
110.2396199593082
  0
ARC
  5
4E4
  8
0
  6
CONTINUOUS
 10
64.523362083633685
 20
-15.68368211203409
 30
0
 40
57.086131360827849
 50
89.430479679605412
 51
97.811172944707693
  0
ARC
  5
4E5
  8
0
  6
CONTINUOUS
 10
49.267245751556132
 20
36.857454019977482
 30
0
 40
1.422359832803769
 50
140.69176644329781
 51
191.7496954727564
  0
ARC
  5
4E6
  8
0
  6
CONTINUOUS
 10
49.306789827366757
 20
37.040415747668511
 30
0
 40
1.4873442541694211
 50
144.72558124332139
 51
191.53905668024359
  0
ARC
  5
4E7
  8
0
  6
CONTINUOUS
 10
50.849111816686559
 20
35.815152560062039
 30
0
 40
3.4554701920144351
 50
113.01852560815939
 51
143.1881757476919
  0
ARC
  5
4E8
  8
0
  6
CONTINUOUS
 10
57.565284926528633
 20
23.040953752278732
 30
0
 40
17.878188886851159
 50
97.300584328543934
 51
116.8232951605624
  0
ARC
  5
4E9
  8
0
  6
CONTINUOUS
 10
65.080299555664922
 20
-19.088292448567518
 30
0
 40
60.657248910338708
 50
89.990091706110491
 51
99.285104314630246
  0
ARC
  5
4EA
  8
0
  6
CONTINUOUS
 10
49.7312640832122
 20
37.003739443253252
 30
0
 40
1.9074689791485751
 50
131.65922460599231
 51
166.62041033053581
  0
ARC
  5
4EB
  8
0
  6
CONTINUOUS
 10
52.233285774153622
 20
34.471758575644891
 30
0
 40
5.465407277616916
 50
119.55644547342651
 51
133.61248592320081
  0
ARC
  5
4EC
  8
0
  6
CONTINUOUS
 10
58.968757341068951
 20
18.749469983020731
 30
0
 40
22.544148934785049
 50
98.404741719344656
 51
114.7307595680502
  0
ARC
  5
4ED
  8
0
  6
CONTINUOUS
 10
64.752545903607171
 20
-15.33667481833284
 30
0
 40
57.114390868208808
 50
89.6606805426862
 51
99.146585083440243
  0
ARC
  5
4EE
  8
0
  6
CONTINUOUS
 10
48.120718207027551
 20
37.1813172272959
 30
0
 40
0.45955395064083082
 50
182.1352845378259
 51
230.38561400146992
  0
ARC
  5
4EF
  8
0
  6
CONTINUOUS
 10
49.47405275004958
 20
37.361028033284093
 30
0
 40
1.8232254930288181
 50
165.84246466195961
 51
186.1976672525962
  0
ARC
  5
4F0
  8
0
  6
CONTINUOUS
 10
50.724646911852737
 20
36.20205174004321
 30
0
 40
3.418589480936379
 50
121.78331304948461
 51
152.0002598319829
  0
ARC
  5
4F1
  8
0
  6
CONTINUOUS
 10
58.108079457210522
 20
21.625304848609321
 30
0
 40
19.748200860165522
 50
97.163870498408571
 51
117.71388737754729
  0
ARC
  5
4F2
  8
0
  6
CONTINUOUS
 10
64.262604719781564
 20
-11.96443105108062
 30
0
 40
53.877371622701951
 50
89.1192342844163
 51
99.203552839217153
  0
ARC
  5
4F3
  8
0
  6
CONTINUOUS
 10
77.65355954066257
 20
33.805081836743462
 30
0
 40
5.8864855719144611
 50
42.1914904205511
 51
70.026116992055364
  0
ARC
  5
4F4
  8
0
  6
CONTINUOUS
 10
69.73267278035992
 20
12.4015120017951
 30
0
 40
28.7086154805542
 50
69.760380040691359
 51
82.627156052881617
  0
ARC
  5
4F5
  8
0
  6
CONTINUOUS
 10
65.658216228986177
 20
-15.68368211203409
 30
0
 40
57.086131360827849
 50
82.18882705529299
 51
90.5695203203945
  0
ARC
  5
4F6
  8
0
  6
CONTINUOUS
 10
80.914332561063745
 20
36.857454019977482
 30
0
 40
1.422359832803769
 50
348.25030452724337
 51
39.308233556701772
  0
ARC
  5
4F7
  8
0
  6
CONTINUOUS
 10
80.874788485253134
 20
37.040415747668511
 30
0
 40
1.4873442541694211
 50
348.46094331975621
 51
35.274418756678422
  0
ARC
  5
4F8
  8
0
  6
CONTINUOUS
 10
79.332466495933318
 20
35.815152560062039
 30
0
 40
3.4554701920144351
 50
36.811824252308348
 51
66.981474391840891
  0
ARC
  5
4F9
  8
0
  6
CONTINUOUS
 10
72.616293386091229
 20
23.040953752278732
 30
0
 40
17.878188886851159
 50
63.176704839437456
 51
82.699415671456066
  0
ARC
  5
4FA
  8
0
  6
CONTINUOUS
 10
65.101278756954969
 20
-19.088292448567518
 30
0
 40
60.657248910338708
 50
80.7148956853699
 51
90.0099082938903
  0
ARC
  5
4FB
  8
0
  6
CONTINUOUS
 10
80.450314229407638
 20
37.003739443253252
 30
0
 40
1.9074689791485751
 50
13.37958966946389
 51
48.340775394007117
  0
ARC
  5
4FC
  8
0
  6
CONTINUOUS
 10
77.9482925384662
 20
34.471758575644891
 30
0
 40
5.465407277616916
 50
46.387514076798851
 51
60.443554526572854
  0
ARC
  5
4FD
  8
0
  6
CONTINUOUS
 10
71.21282097155094
 20
18.749469983020731
 30
0
 40
22.544148934785049
 50
65.269240431949314
 51
81.595258280655841
  0
ARC
  5
4FE
  8
0
  6
CONTINUOUS
 10
65.4290324090127
 20
-15.33667481833284
 30
0
 40
57.114390868208808
 50
80.853414916560226
 51
90.339319457314488
  0
ARC
  5
4FF
  8
0
  6
CONTINUOUS
 10
82.06086010559234
 20
37.1813172272959
 30
0
 40
0.45955395064083082
 50
309.61438599853068
 51
357.86471546217422
  0
ARC
  5
500
  8
0
  6
CONTINUOUS
 10
80.7075255625703
 20
37.361028033284093
 30
0
 40
1.8232254930288181
 50
353.8023327474038
 51
14.15753533804036
  0
ARC
  5
501
  8
0
  6
CONTINUOUS
 10
79.456931400767147
 20
36.20205174004321
 30
0
 40
3.418589480936379
 50
27.9997401680167
 51
58.216686950515147
  0
ARC
  5
502
  8
0
  6
CONTINUOUS
 10
72.073498855409341
 20
21.625304848609321
 30
0
 40
19.748200860165522
 50
62.286112622452784
 51
82.8361295015919
  0
ARC
  5
503
  8
0
  6
CONTINUOUS
 10
65.918973592838313
 20
-11.96443105108062
 30
0
 40
53.877371622701951
 50
80.796447160782591
 51
90.880765715582925
  0
INSERT
  5
504
  8
0
  2
SPECEL-CP3814M
 10
84.189992424657135
 20
7.4539604125528873
 30
0
 41
1
 42
1
 43
1
 50
0
  0
ENDSEC
999
Created By CadLib version 4.0.36.7
999
CadLib website: www.woutware.com
  0
EOF
