  0
SECTION
  2
HEADER
  9
$ACADVER
  1
AC1009
  9
$DWGCODEPAGE
  3
dos932
  9
$INSBASE
 10
0
 20
0
 30
0
  9
$EXTMIN
 10
8.574717035952558
 20
-8.1943344916693821
 30
0
  9
$EXTMAX
 10
137.10806152069225
 20
82.2075705589972
 30
0
  9
$LIMMIN
 10
0
 20
0
  9
$LIMMAX
 10
168.2
 20
118.8
  9
$SNAPMODE
 70
0
  9
$SNAPUNIT
 10
1
 20
1
  9
$SNAPBASE
 10
0
 20
0
  9
$SNAPANG
 50
0
  9
$SNAPSTYLE
 70
0
  9
$SNAPISOPAIR
 70
0
  9
$ORTHOMODE
 70
0
  9
$REGENMODE
 70
1
  9
$FILLMODE
 70
1
  9
$QTEXTMODE
 70
0
  9
$MIRRTEXT
 70
0
  9
$LTSCALE
 40
0.2
  9
$OSMODE
 70
37
  9
$ATTMODE
 70
1
  9
$TEXTSIZE
 40
0.2
  9
$TRACEWID
 40
0.05
  9
$TEXTSTYLE
  7
STANDARD
  9
$CLAYER
  8
0
  9
$CELTYPE
  6
CONTINUOUS
  9
$CECOLOR
 62
256
  9
$DIMSCALE
 40
1
  9
$DIMASZ
 40
0.18
  9
$DIMEXO
 40
0.0625
  9
$DIMDLI
 40
0.38
  9
$DIMRND
 40
0
  9
$DIMDLE
 40
0
  9
$DIMEXE
 40
0.18
  9
$DIMTP
 40
0
  9
$DIMTM
 40
0
  9
$DIMTXT
 40
0.18
  9
$DIMCEN
 40
0.09
  9
$DIMTSZ
 40
0
  9
$DIMTOL
 70
0
  9
$DIMLIM
 70
0
  9
$DIMTIH
 70
1
  9
$DIMTOH
 70
1
  9
$DIMSE1
 70
0
  9
$DIMSE2
 70
0
  9
$DIMTAD
 70
0
  9
$DIMZIN
 70
0
  9
$DIMBLK
  1

  9
$DIMASO
 70
1
  9
$DIMSHO
 70
1
  9
$DIMPOST
  1

  9
$DIMAPOST
  1

  9
$DIMALT
 70
0
  9
$DIMALTD
 70
2
  9
$DIMALTF
 40
25.4
  9
$DIMLFAC
 40
1
  9
$DIMTOFL
 70
0
  9
$DIMTVP
 40
0
  9
$DIMTIX
 70
0
  9
$DIMSOXD
 70
0
  9
$DIMSAH
 70
0
  9
$DIMBLK1
  1

  9
$DIMBLK2
  1

  9
$DIMSTYLE
  2
STANDARD
  9
$DIMCLRD
 70
0
  9
$DIMCLRE
 70
0
  9
$DIMCLRT
 70
0
  9
$DIMTFAC
 40
1
  9
$DIMGAP
 40
0.09
  9
$LUNITS
 70
2
  9
$LUPREC
 70
4
  9
$SKETCHINC
 40
0.1
  9
$FILLETRAD
 40
0
  9
$AUNITS
 70
0
  9
$AUPREC
 70
0
  9
$MENU
  1
.
  9
$ELEVATION
 40
0
  9
$PELEVATION
 40
0
  9
$THICKNESS
 40
0
  9
$LIMCHECK
 70
0
  9
$CHAMFERA
 40
0
  9
$CHAMFERB
 40
0
  9
$SKPOLY
 70
0
  9
$TDCREATE
 40
2456861.5539370487
  9
$TDUPDATE
 40
2456932.6851974074
  9
$TDINDWG
 40
0.32791466435185185
  9
$TDUSRTIMER
 40
0.32791010416666666
  9
$USRTIMER
 70
1
  9
$ANGBASE
 50
0
  9
$ANGDIR
 70
0
  9
$PDMODE
 70
0
  9
$PDSIZE
 40
0
  9
$PLINEWID
 40
0
  9
$SPLFRAME
 70
0
  9
$SPLINETYPE
 70
6
  9
$SPLINESEGS
 70
8
  9
$HANDLING
 70
1
  9
$HANDSEED
  5
50BE6
  9
$SURFTAB1
 70
6
  9
$SURFTAB2
 70
6
  9
$SURFTYPE
 70
6
  9
$SURFU
 70
6
  9
$SURFV
 70
6
  9
$UCSORG
 10
0
 20
0
 30
0
  9
$UCSXDIR
 10
1
 20
0
 30
0
  9
$UCSYDIR
 10
0
 20
1
 30
0
  9
$PUCSORG
 10
0
 20
0
 30
0
  9
$PUCSXDIR
 10
1
 20
0
 30
0
  9
$PUCSYDIR
 10
0
 20
1
 30
0
  9
$USERI1
 70
0
  9
$USERI2
 70
0
  9
$USERI3
 70
0
  9
$USERI4
 70
0
  9
$USERI5
 70
0
  9
$USERR1
 40
0
  9
$USERR2
 40
0
  9
$USERR3
 40
0
  9
$USERR4
 40
0
  9
$USERR5
 40
0
  9
$WORLDVIEW
 70
1
  9
$SHADEDGE
 70
3
  9
$SHADEDIF
 70
70
  9
$TILEMODE
 70
1
  9
$MAXACTVP
 70
64
  9
$PINSBASE
 10
0
 20
0
 30
0
  9
$PLIMCHECK
 70
0
  9
$PEXTMIN
 10
1E+20
 20
1E+20
 30
1E+20
  9
$PEXTMAX
 10
-1E+20
 20
-1E+20
 30
-1E+20
  9
$PLIMMAX
 10
12
 20
9
  9
$PLIMMIN
 10
0
 20
0
  9
$UNITMODE
 70
0
  9
$VISRETAIN
 70
1
  9
$PLINEGEN
 70
0
  9
$PSLTSCALE
 70
1
  9
$TREEDEPTH
 70
3020
  9
$DRAGMODE
 70
     2
  9
$BLIPMODE
 70
     0
  9
$COORDS
 70
     1
  9
$ATTDIA
 70
     0
  9
$ATTREQ
 70
     1
  0
ENDSEC
  0
SECTION
  2
TABLES
  0
TABLE
  2
VPORT
  5
50BD8
 70
1
  0
VPORT
  5
50BAC
  2
*ACTIVE
 70
0
 10
0
 20
0
 11
1
 21
1
 12
3.316377474332171
 22
64.182881396939308
 13
0
 23
0
 14
1
 24
1
 15
0
 25
0
 16
0
 26
0
 36
1
 17
0
 27
0
 37
0
 40
175.604396447937
 41
2.0926395939086291
 42
50
 43
0
 44
0
 50
0
 51
0
 71
0
 72
100
 73
1
 74
1
 75
0
 76
0
 77
0
 78
0
  0
ENDTAB
  0
TABLE
  2
LTYPE
  5
50BD9
 70
37
  0
LTYPE
  5
50B85
  2
CONTINUOUS
  3
実線
 70
0
 72
65
 73
0
 40
0
  0
LTYPE
  5
50B86
  2
DASHED1
  3
--  --  --  --  --  --  --  --  
 70
0
 72
65
 73
2
 40
2.5
 49
1.25
 49
-1.25
  0
LTYPE
  5
50B87
  2
DASHED2
  3
----    ----    ----    ----    
 70
0
 72
65
 73
2
 40
5
 49
2.5
 49
-2.5
  0
LTYPE
  5
50B88
  2
DASHED3
  3
------  ------  ------  ------  
 70
0
 72
65
 73
2
 40
5
 49
3.75
 49
-1.25
  0
LTYPE
  5
50B89
  2
CENTER1
  3
----- - ----- - ----- - ----- - 
 70
0
 72
65
 73
4
 40
10
 49
6.25
 49
-1.25
 49
1.25
 49
-1.25
  0
LTYPE
  5
50B8A
  2
CENTER2
  3
----------  --  ----------  --  
 70
0
 72
65
 73
4
 40
20
 49
12.5
 49
-2.5
 49
2.5
 49
-2.5
  0
LTYPE
  5
50B8B
  2
PHANTOM1
  3
--- - - --- - - --- - - --- - - 
 70
0
 72
65
 73
6
 40
9.5
 49
3.25
 49
-1.25
 49
1.25
 49
-1.25
 49
1.25
 49
-1.25
  0
LTYPE
  5
50B8C
  2
PHANTOM2
  3
--------  -  -  --------  -  -  
 70
0
 72
65
 73
6
 40
20
 49
10
 49
-2.5
 49
1.25
 49
-2.5
 49
1.25
 49
-2.5
  0
LTYPE
  5
50B8D
  2
DOT
  3
-   -   -   -   -   -   -   -   
 70
0
 72
65
 73
2
 40
2.5
 49
0.625
 49
-1.875
  0
LTYPE
  5
50B8E
  2
DUMMY
  3
ダミー
 70
0
 72
65
 73
0
 40
0
  0
LTYPE
  5
50B8F
  2
RAND1
  3
ランダム線1
 70
0
 72
65
 73
4
 40
10
 49
1
 49
-2
 49
3
 49
-4
  0
LTYPE
  5
50B90
  2
RAND2
  3
ランダム線2
 70
0
 72
65
 73
4
 40
14
 49
2
 49
-3
 49
4
 49
-5
  0
LTYPE
  5
50B91
  2
RAND3
  3
ランダム線3
 70
0
 72
65
 73
4
 40
18
 49
3
 49
-4
 49
5
 49
-6
  0
LTYPE
  5
50B92
  2
RAND4
  3
ランダム線4
 70
0
 72
65
 73
4
 40
22
 49
4
 49
-5
 49
6
 49
-7
  0
LTYPE
  5
50B93
  2
RAND5
  3
ランダム線5
 70
0
 72
65
 73
4
 40
26
 49
5
 49
-6
 49
7
 49
-8
  0
LTYPE
  5
50B94
  2
LONG1
  3
----------  --  ----------  --  
 70
0
 72
65
 73
4
 40
40
 49
32.5
 49
-2.5
 49
2.5
 49
-2.5
  0
LTYPE
  5
50B95
  2
LONG2
  3
--------  -  -  --------  -  -  
 70
0
 72
65
 73
6
 40
40
 49
30
 49
-2.5
 49
1.25
 49
-2.5
 49
1.25
 49
-2.5
  0
LTYPE
  5
50B96
  2
LONG3
  3
+++++++++++++++..+++++++++++++++
 70
0
 72
65
 73
2
 40
40
 49
37.5
 49
-2.5
  0
LTYPE
  5
50B97
  2
LONG4
  3
+++++++++++++++..+++++++++++++++
 70
0
 72
65
 73
2
 40
80
 49
75
 49
-5
  0
LTYPE
  5
50B98
  2
LONG5
  3
----------  --  ----------  --  
 70
0
 72
65
 73
4
 40
60
 49
37.5
 49
-7.5
 49
7.5
 49
-7.5
  0
LTYPE
  5
50B99
  2
DASHED
  3
-------   -------------   ------
 70
0
 72
65
 73
2
 40
7.5
 49
6
 49
-1.5
  0
LTYPE
  5
50B9A
  2
DASHED_SPACED
  3
----        --------        ----
 70
0
 72
65
 73
2
 40
12
 49
6
 49
-6
  0
LTYPE
  5
50B9B
  2
LONG_DASHED_DOTTED
  3
------------- --- --------------
 70
0
 72
65
 73
4
 40
15.25
 49
12
 49
-1.5
 49
0.25
 49
-1.5
  0
LTYPE
  5
50B9C
  2
LONG_DASHED_DOUBLE-DOTTED
  3
----------- --- --- ------------
 70
0
 72
65
 73
6
 40
17
 49
12
 49
-1.5
 49
0.25
 49
-1.5
 49
0.25
 49
-1.5
  0
LTYPE
  5
50B9D
  2
LONG_DASHED_TRIPLICATE-DOT
  3
--------- --- --- --- ----------
 70
0
 72
65
 73
8
 40
18.75
 49
12
 49
-1.5
 49
0.25
 49
-1.5
 49
0.25
 49
-1.5
 49
0.25
 49
-1.5
  0
LTYPE
  5
50B9E
  2
DOTTED
  3
   -       -       -       -    
 70
0
 72
65
 73
2
 40
1.75
 49
0.25
 49
-1.5
  0
LTYPE
  5
50B9F
  2
CHAIN
  3
-------------- -- --------------
 70
0
 72
65
 73
4
 40
18.5
 49
12
 49
-1.5
 49
3.5
 49
-1.5
  0
LTYPE
  5
50BA0
  2
CHAIN_DOUBLE_DASH
  3
------------ -- -- -------------
 70
0
 72
65
 73
6
 40
23.5
 49
12
 49
-1.5
 49
3.5
 49
-1.5
 49
3.5
 49
-1.5
  0
LTYPE
  5
50BA1
  2
DASHED_DOTTED
  3
-----------     -     ----------
 70
0
 72
65
 73
4
 40
9.25
 49
6
 49
-1.5
 49
0.25
 49
-1.5
  0
LTYPE
  5
50BA2
  2
DOUBLE-DASHED_DOTTED
  3
------   -----------   -   -----
 70
0
 72
65
 73
6
 40
16.75
 49
6
 49
-1.5
 49
6
 49
-1.5
 49
0.25
 49
-1.5
  0
LTYPE
  5
50BA3
  2
DASHED_DOUBLE-DOTTED
  3
---------    -    -    ---------
 70
0
 72
65
 73
6
 40
11
 49
6
 49
-1.5
 49
0.25
 49
-1.5
 49
0.25
 49
-1.5
  0
LTYPE
  5
50BA4
  2
DOUBLE-DASHED_DOUBLE-DOTTE
  3
-----   ---------   -   -   ----
 70
0
 72
65
 73
8
 40
18.5
 49
6
 49
-1.5
 49
6
 49
-1.5
 49
0.25
 49
-1.5
 49
0.25
 49
-1.5
  0
LTYPE
  5
50BA5
  2
DASHED_TRIPLICATE-DOTTED
  3
-------    -    -    -    ------
 70
0
 72
65
 73
8
 40
12.75
 49
6
 49
-1.5
 49
0.25
 49
-1.5
 49
0.25
 49
-1.5
 49
0.25
 49
-1.5
  0
LTYPE
  5
50BA6
  2
DOUBLE-DASHED_TRIPLICATE-D
  3
-----  ---------  -  -  -  -----
 70
0
 72
65
 73
10
 40
20.25
 49
6
 49
-1.5
 49
6
 49
-1.5
 49
0.25
 49
-1.5
 49
0.25
 49
-1.5
 49
0.25
 49
-1.5
  0
LTYPE
  5
50BA7
  2
UNDEFINED
  3
--------------------------------
 70
0
 72
65
 73
0
 40
0
  0
LTYPE
  5
50BA8
  2
ByBlock
  3

 70
64
 72
65
 73
0
 40
0
  0
LTYPE
  5
50BA9
  2
ByLayer
  3

 70
64
 72
65
 73
0
 40
0
  0
ENDTAB
  0
TABLE
  2
LAYER
  5
50BDA
 70
2
  0
LAYER
  5
50B6D
 70
0
  2
0
 62
7
  6
CONTINUOUS
  0
LAYER
  5
50B6E
 70
0
  2
SPEC
 62
7
  6
CONTINUOUS
  0
ENDTAB
  0
TABLE
  2
STYLE
  5
50BDB
 70
3
  0
STYLE
  5
50B82
  2
STANDARD
 70
0
 40
0
 41
1
 50
0
 71
0
 42
0.2
  3
txt.shx
  4
extfont2.shx
  0
STYLE
  5
50B83
  2
ANNOTATIVE
 70
0
 40
0
 41
1
 50
0
 71
0
 42
0.2
  3
txt
  0
STYLE
  5
50B84
  2
TATEGAKI
 70
4
 40
0
 41
1
 50
0
 71
0
 42
1
  3
txt
  4
bigfont.shx
  0
ENDTAB
  0
TABLE
  2
APPID
  5
50BDE
 70
4
  0
APPID
  5
50BDF
  2
ACAD
 70
0
  0
APPID
  5
50BE2
  2
ACADANNOTATIVE
 70
0
  0
APPID
  5
50BE3
  2
ACAD_MLEADERVER
 70
0
  0
APPID
  5
50BE4
  2
ACAD_EXEMPT_FROM_CAD_STANDARDS
 70
0
  0
ENDTAB
  0
TABLE
  2
DIMSTYLE
  5
50BE0
 70
2
  0
DIMSTYLE
105
50BAA
  2
STANDARD
 70
0
  3

  4

  5

  6

  7

 40
1
 41
0.18
 42
0.0625
 43
0.38
 44
0.18
 45
0
 46
0
 47
0
 48
0
140
0.18
141
0.09
142
0
143
25.4
144
1
145
0
146
1
147
0.09
 71
0
 72
0
 73
1
 74
1
 75
0
 76
0
 77
0
 78
0
170
0
171
2
172
0
173
0
174
0
175
0
176
0
177
0
178
0
  0
DIMSTYLE
105
50BAB
  2
ANNOTATIVE
 70
0
  3

  4

  5

  6

  7

 40
1
 41
0.18
 42
0.0625
 43
0.38
 44
0.18
 45
0
 46
0
 47
0
 48
0
140
0.18
141
0.09
142
0
143
25.4
144
1
145
0
146
1
147
0.09
 71
0
 72
0
 73
1
 74
1
 75
0
 76
0
 77
0
 78
0
170
0
171
2
172
0
173
0
174
0
175
0
176
0
177
0
178
0
  0
ENDTAB
  0
ENDSEC
  0
SECTION
  2
BLOCKS
  0
BLOCK
  5
50B70
  8
0
  2
$MODEL_SPACE
 70
0
 10
0
 20
0
 30
0
  3
$MODEL_SPACE
  0
ENDBLK
  5
4FEA3
  8
0
  0
BLOCK
  5
50B72
  8
0
 67
1
  2
$PAPER_SPACE
 70
0
 10
0
 20
0
 30
0
  3
$PAPER_SPACE
  0
ENDBLK
  5
4FE9F
  8
0
  0
BLOCK
  5
50B74
  8
0
  2
SPECEL-CP5009M
 70
64
 10
0
 20
0
 30
0
  3
SPECEL-CP5009M
  0
TEXT
  5
50B75
  8
SPEC
 10
0
 20
0
 30
0
 40
1.5
  1
居室用ｼｰﾘﾝｸﾞ 電球色3000K~昼光色6100K Ra85
  7
STANDARD
  0
TEXT
  5
50B76
  8
SPEC
 10
0
 20
-3
 30
0
 40
1.5
  1
本体:鋼板 白色塗装仕上
  7
STANDARD
  0
TEXT
  5
50B77
  8
SPEC
 10
0
 20
-6
 30
0
 40
1.5
  1
光源寿命:40,000時間
  7
STANDARD
  0
TEXT
  5
50B78
  8
SPEC
 10
0
 20
-9
 30
0
 40
1.5
  1
光束:5000lm 消費電力:52W 消費効率:96.1lm/W
  7
STANDARD
  0
ENDBLK
  5
50B79
  8
0
  0
BLOCK
  5
50B7B
  8
0
  2
*MODEL_SPACE
 70
64
 10
0
 20
0
 30
0
  3
*MODEL_SPACE
  0
ENDBLK
  5
50B7E
  8
0
  0
BLOCK
  5
50B80
  8
0
 67
1
  2
*PAPER_SPACE
 70
64
 10
0
 20
0
 30
0
  3
*PAPER_SPACE
  0
ENDBLK
  5
50B81
  8
0
  0
ENDSEC
  0
SECTION
  2
ENTITIES
  0
TEXT
  5
A0
  8
0
 62
7
 10
8.0402341895461635
 20
76.4539554125528
 30
0
 40
4.5
  1
ＬＥＤ５２×１　シーリングライト
 41
0.96982639999999987
  7
STANDARD
  0
TEXT
  5
A1
  8
0
 62
7
 10
8.0402341895461635
 20
-7.5460395874471153
 30
0
 40
4.5
  1
三菱　ＥＬ－ＣＰ５００９Ｍ
 41
0.9893333
  7
STANDARD
  0
ARC
  5
4FB75
  8
0
  6
CONTINUOUS
 10
58.258880206915748
 20
38.750132528296362
 30
0
 40
3.359797043212827
 50
159.08171385034291
 51
218.38767262929861
  0
ARC
  5
4FB76
  8
0
  6
CONTINUOUS
 10
60.600996187625562
 20
36.947297016795289
 30
0
 40
6.2489992744788641
 50
119.19482267719241
 51
151.28444294878921
  0
ARC
  5
4FB77
  8
0
  6
CONTINUOUS
 10
60.24373653090634
 20
40.055228253892437
 30
0
 40
5.729852774151512
 50
216.2914553115327
 51
249.37607086100061
  0
ARC
  5
4FB78
  8
0
  6
CONTINUOUS
 10
58.3761763777025
 20
38.7320983533275
 30
0
 40
3.359797043212827
 50
159.08171385034291
 51
218.38767262929861
  0
ARC
  5
4FB79
  8
0
  6
CONTINUOUS
 10
60.361032701693077
 20
40.037194078923569
 30
0
 40
5.729852774151512
 50
216.2914553115327
 51
249.37607086100061
  0
ARC
  5
4FB7A
  8
0
  6
CONTINUOUS
 10
58.1436452295377
 20
38.560772680376189
 30
0
 40
3.00636646494152
 50
155.16792928778381
 51
222.30145719185751
  0
ARC
  5
4FB7B
  8
0
  6
CONTINUOUS
 10
60.538450802163581
 20
39.928853521027023
 30
0
 40
5.729852774151512
 50
216.2914553115327
 51
249.37607086100061
  0
ARC
  5
4FB7D
  8
0
  6
CONTINUOUS
 10
61.047383878729519
 20
36.319221828751331
 30
0
 40
6.8411092526842721
 50
119.6361744436786
 51
148.12622669574381
  0
ARC
  5
4FB7E
  8
0
  6
CONTINUOUS
 10
60.329303793046513
 20
37.09585320694773
 30
0
 40
5.62024354399803
 50
121.40275434396989
 51
150.9682279063444
  0
POLYLINE
  5
4FED1
  8
0
  6
CONTINUOUS
 66
1
 70
8
  0
VERTEX
  5
4FED5
  8
0
  6
CONTINUOUS
 10
66.180868231491786
 20
33.001831823543142
 30
0
 70
32
  0
VERTEX
  5
4FED6
  8
0
  6
CONTINUOUS
 10
64.5418
 20
33.0345
 30
0
 70
32
  0
VERTEX
  5
4FED7
  8
0
  6
CONTINUOUS
 10
64.0139
 20
33.08120000000001
 30
0
 70
32
  0
VERTEX
  5
4FED8
  8
0
  6
CONTINUOUS
 10
63.4911
 20
33.141
 30
0
 70
32
  0
VERTEX
  5
4FED9
  8
0
  6
CONTINUOUS
 10
62.9748
 20
33.21350000000001
 30
0
 70
32
  0
VERTEX
  5
4FEDA
  8
0
  6
CONTINUOUS
 10
62.46629999999999
 20
33.2986
 30
0
 70
32
  0
VERTEX
  5
4FEDB
  8
0
  6
CONTINUOUS
 10
61.9666
 20
33.3962
 30
0
 70
32
  0
VERTEX
  5
4FEDC
  8
0
  6
CONTINUOUS
 10
61.4771
 20
33.5059
 30
0
 70
32
  0
VERTEX
  5
4FEDD
  8
0
  6
CONTINUOUS
 10
60.9989
 20
33.6276
 30
0
 70
32
  0
VERTEX
  5
4FEDE
  8
0
  6
CONTINUOUS
 10
60.5332
 20
33.7609
 30
0
 70
32
  0
VERTEX
  5
4FEDF
  8
0
  6
CONTINUOUS
 10
60.081
 20
33.905500000000011
 30
0
 70
32
  0
VERTEX
  5
4FEE0
  8
0
  6
CONTINUOUS
 10
59.6436
 20
34.0611
 30
0
 70
32
  0
VERTEX
  5
4FEE1
  8
0
  6
CONTINUOUS
 10
59.2218
 20
34.2273
 30
0
 70
32
  0
VERTEX
  5
4FEE2
  8
0
  6
CONTINUOUS
 10
58.8168
 20
34.4036
 30
0
 70
32
  0
VERTEX
  5
4FEE3
  8
0
  6
CONTINUOUS
 10
58.4295
 20
34.5897
 30
0
 70
32
  0
VERTEX
  5
4FEE4
  8
0
  6
CONTINUOUS
 10
58.0609
 20
34.7851
 30
0
 70
32
  0
VERTEX
  5
4FEE5
  8
0
  6
CONTINUOUS
 10
57.7117
 20
34.98940000000001
 30
0
 70
32
  0
VERTEX
  5
4FEE6
  8
0
  6
CONTINUOUS
 10
57.383
 20
35.202
 30
0
 70
32
  0
VERTEX
  5
4FEE7
  8
0
  6
CONTINUOUS
 10
57.0754
 20
35.4225
 30
0
 70
32
  0
VERTEX
  5
4FEE8
  8
0
  6
CONTINUOUS
 10
56.7898
 20
35.6502
 30
0
 70
32
  0
VERTEX
  5
4FEE9
  8
0
  6
CONTINUOUS
 10
56.5267
 20
35.8848
 30
0
 70
32
  0
VERTEX
  5
4FEEA
  8
0
  6
CONTINUOUS
 10
56.2869
 20
36.125500000000009
 30
0
 70
32
  0
VERTEX
  5
4FEEB
  8
0
  6
CONTINUOUS
 10
56.0709
 20
36.3718
 30
0
 70
32
  0
VERTEX
  5
4FEEC
  8
0
  6
CONTINUOUS
 10
55.8792
 20
36.6232
 30
0
 70
32
  0
VERTEX
  5
4FEED
  8
0
  6
CONTINUOUS
 10
55.712299999999992
 20
36.879
 30
0
 70
32
  0
VERTEX
  5
4FEEE
  8
0
  6
CONTINUOUS
 10
55.5705
 20
37.1385
 30
0
 70
32
  0
VERTEX
  5
4FEEF
  8
0
  6
CONTINUOUS
 10
55.4543
 20
37.4013
 30
0
 70
32
  0
VERTEX
  5
4FEF0
  8
0
  6
CONTINUOUS
 10
55.364
 20
37.6666
 30
0
 70
32
  0
VERTEX
  5
4FEF1
  8
0
  6
CONTINUOUS
 10
55.299599999999991
 20
37.9338
 30
0
 70
32
  0
VERTEX
  5
4FEF2
  8
0
  6
CONTINUOUS
 10
55.2614
 20
38.2023
 30
0
 70
32
  0
VERTEX
  5
4FEF3
  8
0
  6
CONTINUOUS
 10
55.2495
 20
38.4714
 30
0
 70
32
  0
VERTEX
  5
4FEF4
  8
0
  6
CONTINUOUS
 10
55.2639
 20
38.7404
 30
0
 70
32
  0
VERTEX
  5
4FEF5
  8
0
  6
CONTINUOUS
 10
55.3046
 20
39.0088
 30
0
 70
32
  0
VERTEX
  5
4FEF6
  8
0
  6
CONTINUOUS
 10
55.3715
 20
39.2759
 30
0
 70
32
  0
VERTEX
  5
4FEF7
  8
0
  6
CONTINUOUS
 10
55.4643
 20
39.5409
 30
0
 70
32
  0
VERTEX
  5
4FEF8
  8
0
  6
CONTINUOUS
 10
55.583
 20
39.8034
 30
0
 70
32
  0
VERTEX
  5
4FEF9
  8
0
  6
CONTINUOUS
 10
55.7271
 20
40.062699999999992
 30
0
 70
32
  0
VERTEX
  5
4FEFA
  8
0
  6
CONTINUOUS
 10
55.8964
 20
40.3181
 30
0
 70
32
  0
VERTEX
  5
4FEFB
  8
0
  6
CONTINUOUS
 10
56.090499999999992
 20
40.569
 30
0
 70
32
  0
VERTEX
  5
4FEFC
  8
0
  6
CONTINUOUS
 10
56.3088
 20
40.814799999999991
 30
0
 70
32
  0
VERTEX
  5
4FEFD
  8
0
  6
CONTINUOUS
 10
56.5509
 20
41.0549
 30
0
 70
32
  0
VERTEX
  5
4FEFE
  8
0
  6
CONTINUOUS
 10
56.8161
 20
41.2888
 30
0
 70
32
  0
VERTEX
  5
4FEFF
  8
0
  6
CONTINUOUS
 10
57.1039
 20
41.5159
 30
0
 70
32
  0
VERTEX
  5
4FF00
  8
0
  6
CONTINUOUS
 10
57.4135
 20
41.7357
 30
0
 70
32
  0
VERTEX
  5
4FF01
  8
0
  6
CONTINUOUS
 10
57.7442
 20
41.947499999999991
 30
0
 70
32
  0
VERTEX
  5
4FF02
  8
0
  6
CONTINUOUS
 10
58.0953
 20
42.1509
 30
0
 70
32
  0
VERTEX
  5
4FF03
  8
0
  6
CONTINUOUS
 10
58.465699999999991
 20
42.3455
 30
0
 70
32
  0
VERTEX
  5
4FF04
  8
0
  6
CONTINUOUS
 10
58.8548
 20
42.5307
 30
0
 70
32
  0
VERTEX
  5
4FF05
  8
0
  6
CONTINUOUS
 10
59.2614
 20
42.7061
 30
0
 70
32
  0
VERTEX
  5
4FF06
  8
0
  6
CONTINUOUS
 10
59.684699999999992
 20
42.8712
 30
0
 70
32
  0
VERTEX
  5
4FF07
  8
0
  6
CONTINUOUS
 10
60.12360000000001
 20
43.02579999999999
 30
0
 70
32
  0
VERTEX
  5
4FF08
  8
0
  6
CONTINUOUS
 10
60.5771
 20
43.1693
 30
0
 70
32
  0
VERTEX
  5
4FF09
  8
0
  6
CONTINUOUS
 10
61.0441
 20
43.30149999999999
 30
0
 70
32
  0
VERTEX
  5
4FF0A
  8
0
  6
CONTINUOUS
 10
61.5234
 20
43.4221
 30
0
 70
32
  0
VERTEX
  5
4FF0B
  8
0
  6
CONTINUOUS
 10
62.014
 20
43.5307
 30
0
 70
32
  0
VERTEX
  5
4FF0C
  8
0
  6
CONTINUOUS
 10
62.5145
 20
43.627099999999992
 30
0
 70
32
  0
VERTEX
  5
4FF0D
  8
0
  6
CONTINUOUS
 10
63.02389999999999
 20
43.711
 30
0
 70
32
  0
VERTEX
  5
4FF0E
  8
0
  6
CONTINUOUS
 10
63.54079999999999
 20
43.7823
 30
0
 70
32
  0
VERTEX
  5
4FF0F
  8
0
  6
CONTINUOUS
 10
64.0641
 20
43.840799999999987
 30
0
 70
32
  0
VERTEX
  5
4FF10
  8
0
  6
CONTINUOUS
 10
64.5925
 20
43.8863
 30
0
 70
32
  0
VERTEX
  5
4FF11
  8
0
  6
CONTINUOUS
 10
65.1247
 20
43.91879999999999
 30
0
 70
32
  0
VERTEX
  5
4FF12
  8
0
  6
CONTINUOUS
 10
65.6594
 20
43.9381
 30
0
 70
32
  0
VERTEX
  5
4FF13
  8
0
  6
CONTINUOUS
 10
66.175971461762686
 20
43.94397889163573
 30
0
 70
32
  0
SEQEND
  5
4FED2
  8
0
  0
POLYLINE
  5
4FF14
  8
0
  6
CONTINUOUS
 66
1
 70
8
  0
VERTEX
  5
4FF16
  8
0
  6
CONTINUOUS
 10
57.4009
 20
41.89289999999999
 30
0
 70
32
  0
VERTEX
  5
4FF17
  8
0
  6
CONTINUOUS
 10
57.53009999999999
 20
41.97829999999999
 30
0
 70
32
  0
VERTEX
  5
4FF18
  8
0
  6
CONTINUOUS
 10
57.662599999999991
 20
42.0624
 30
0
 70
32
  0
VERTEX
  5
4FF19
  8
0
  6
CONTINUOUS
 10
57.7984
 20
42.1452
 30
0
 70
32
  0
VERTEX
  5
4FF1A
  8
0
  6
CONTINUOUS
 10
57.9373
 20
42.2266
 30
0
 70
32
  0
VERTEX
  5
4FF1B
  8
0
  6
CONTINUOUS
 10
58.0795
 20
42.3066
 30
0
 70
32
  0
VERTEX
  5
4FF1C
  8
0
  6
CONTINUOUS
 10
58.2248
 20
42.3852
 30
0
 70
32
  0
VERTEX
  5
4FF1D
  8
0
  6
CONTINUOUS
 10
58.3731
 20
42.4624
 30
0
 70
32
  0
VERTEX
  5
4FF1E
  8
0
  6
CONTINUOUS
 10
58.5244
 20
42.538
 30
0
 70
32
  0
VERTEX
  5
4FF1F
  8
0
  6
CONTINUOUS
 10
58.6786
 20
42.6121
 30
0
 70
32
  0
VERTEX
  5
4FF20
  8
0
  6
CONTINUOUS
 10
58.8358
 20
42.684699999999992
 30
0
 70
32
  0
VERTEX
  5
4FF21
  8
0
  6
CONTINUOUS
 10
58.9957
 20
42.7557
 30
0
 70
32
  0
VERTEX
  5
4FF22
  8
0
  6
CONTINUOUS
 10
59.1584
 20
42.8251
 30
0
 70
32
  0
VERTEX
  5
4FF23
  8
0
  6
CONTINUOUS
 10
59.3238
 20
42.8929
 30
0
 70
32
  0
VERTEX
  5
4FF24
  8
0
  6
CONTINUOUS
 10
59.4918
 20
42.959
 30
0
 70
32
  0
VERTEX
  5
4FF25
  8
0
  6
CONTINUOUS
 10
59.662399999999991
 20
43.023499999999991
 30
0
 70
32
  0
VERTEX
  5
4FF26
  8
0
  6
CONTINUOUS
 10
59.8354
 20
43.0862
 30
0
 70
32
  0
VERTEX
  5
4FF27
  8
0
  6
CONTINUOUS
 10
60.011
 20
43.1472
 30
0
 70
32
  0
VERTEX
  5
4FF28
  8
0
  6
CONTINUOUS
 10
60.1888
 20
43.206499999999991
 30
0
 70
32
  0
VERTEX
  5
4FF29
  8
0
  6
CONTINUOUS
 10
60.369
 20
43.264
 30
0
 70
32
  0
VERTEX
  5
4FF2A
  8
0
  6
CONTINUOUS
 10
60.5514
 20
43.3197
 30
0
 70
32
  0
VERTEX
  5
4FF2B
  8
0
  6
CONTINUOUS
 10
60.73599999999999
 20
43.373499999999993
 30
0
 70
32
  0
VERTEX
  5
4FF2C
  8
0
  6
CONTINUOUS
 10
60.9226
 20
43.4256
 30
0
 70
32
  0
VERTEX
  5
4FF2D
  8
0
  6
CONTINUOUS
 10
61.1113
 20
43.475799999999992
 30
0
 70
32
  0
VERTEX
  5
4FF2E
  8
0
  6
CONTINUOUS
 10
61.3019
 20
43.52409999999999
 30
0
 70
32
  0
VERTEX
  5
4FF2F
  8
0
  6
CONTINUOUS
 10
61.4944
 20
43.5705
 30
0
 70
32
  0
VERTEX
  5
4FF30
  8
0
  6
CONTINUOUS
 10
61.6887
 20
43.615
 30
0
 70
32
  0
VERTEX
  5
4FF31
  8
0
  6
CONTINUOUS
 10
61.8847
 20
43.6575
 30
0
 70
32
  0
VERTEX
  5
4FF32
  8
0
  6
CONTINUOUS
 10
62.0823
 20
43.698199999999993
 30
0
 70
32
  0
VERTEX
  5
4FF33
  8
0
  6
CONTINUOUS
 10
62.2815
 20
43.7368
 30
0
 70
32
  0
VERTEX
  5
4FF34
  8
0
  6
CONTINUOUS
 10
62.4823
 20
43.773499999999991
 30
0
 70
32
  0
VERTEX
  5
4FF35
  8
0
  6
CONTINUOUS
 10
62.6844
 20
43.808199999999992
 30
0
 70
32
  0
VERTEX
  5
4FF36
  8
0
  6
CONTINUOUS
 10
62.8879
 20
43.840899999999991
 30
0
 70
32
  0
VERTEX
  5
4FF37
  8
0
  6
CONTINUOUS
 10
63.0926
 20
43.8715
 30
0
 70
32
  0
VERTEX
  5
4FF38
  8
0
  6
CONTINUOUS
 10
63.2985
 20
43.900199999999991
 30
0
 70
32
  0
VERTEX
  5
4FF39
  8
0
  6
CONTINUOUS
 10
63.5055
 20
43.9268
 30
0
 70
32
  0
VERTEX
  5
4FF3A
  8
0
  6
CONTINUOUS
 10
63.7136
 20
43.9513
 30
0
 70
32
  0
VERTEX
  5
4FF3B
  8
0
  6
CONTINUOUS
 10
63.9226
 20
43.9738
 30
0
 70
32
  0
VERTEX
  5
4FF3C
  8
0
  6
CONTINUOUS
 10
64.1324
 20
43.9942
 30
0
 70
32
  0
VERTEX
  5
4FF3D
  8
0
  6
CONTINUOUS
 10
64.343
 20
44.0125
 30
0
 70
32
  0
VERTEX
  5
4FF3E
  8
0
  6
CONTINUOUS
 10
64.5544
 20
44.02879999999999
 30
0
 70
32
  0
VERTEX
  5
4FF3F
  8
0
  6
CONTINUOUS
 10
64.7664
 20
44.043
 30
0
 70
32
  0
VERTEX
  5
4FF40
  8
0
  6
CONTINUOUS
 10
64.9789
 20
44.054999999999993
 30
0
 70
32
  0
VERTEX
  5
4FF41
  8
0
  6
CONTINUOUS
 10
65.1918
 20
44.065
 30
0
 70
32
  0
VERTEX
  5
4FF42
  8
0
  6
CONTINUOUS
 10
65.4052
 20
44.07289999999999
 30
0
 70
32
  0
VERTEX
  5
4FF43
  8
0
  6
CONTINUOUS
 10
65.6188
 20
44.0786
 30
0
 70
32
  0
VERTEX
  5
4FF44
  8
0
  6
CONTINUOUS
 10
65.8327
 20
44.082299999999989
 30
0
 70
32
  0
VERTEX
  5
4FF45
  8
0
  6
CONTINUOUS
 10
66.046599999999984
 20
44.083899999999993
 30
0
 70
32
  0
VERTEX
  5
4FF46
  8
0
  6
CONTINUOUS
 10
66.175971461762686
 20
44.083537445693338
 30
0
 70
32
  0
SEQEND
  5
4FF15
  8
0
  0
POLYLINE
  5
4FF47
  8
0
  6
CONTINUOUS
 66
1
 70
8
  0
VERTEX
  5
4FF49
  8
0
  6
CONTINUOUS
 10
57.66449999999999
 20
42.265399999999993
 30
0
 70
32
  0
VERTEX
  5
4FF4A
  8
0
  6
CONTINUOUS
 10
57.88669999999999
 20
42.397
 30
0
 70
32
  0
VERTEX
  5
4FF4B
  8
0
  6
CONTINUOUS
 10
58.1171
 20
42.525
 30
0
 70
32
  0
VERTEX
  5
4FF4C
  8
0
  6
CONTINUOUS
 10
58.3555
 20
42.64929999999999
 30
0
 70
32
  0
VERTEX
  5
4FF4D
  8
0
  6
CONTINUOUS
 10
58.6017
 20
42.7697
 30
0
 70
32
  0
VERTEX
  5
4FF4E
  8
0
  6
CONTINUOUS
 10
58.8554
 20
42.8862
 30
0
 70
32
  0
VERTEX
  5
4FF4F
  8
0
  6
CONTINUOUS
 10
59.1164
 20
42.9986
 30
0
 70
32
  0
VERTEX
  5
4FF50
  8
0
  6
CONTINUOUS
 10
59.384399999999992
 20
43.1067
 30
0
 70
32
  0
VERTEX
  5
4FF51
  8
0
  6
CONTINUOUS
 10
59.6591
 20
43.2106
 30
0
 70
32
  0
VERTEX
  5
4FF52
  8
0
  6
CONTINUOUS
 10
59.9403
 20
43.3101
 30
0
 70
32
  0
VERTEX
  5
4FF53
  8
0
  6
CONTINUOUS
 10
60.2277
 20
43.405
 30
0
 70
32
  0
VERTEX
  5
4FF54
  8
0
  6
CONTINUOUS
 10
60.52109999999999
 20
43.4954
 30
0
 70
32
  0
VERTEX
  5
4FF55
  8
0
  6
CONTINUOUS
 10
60.82
 20
43.581
 30
0
 70
32
  0
VERTEX
  5
4FF56
  8
0
  6
CONTINUOUS
 10
61.124299999999991
 20
43.6619
 30
0
 70
32
  0
VERTEX
  5
4FF57
  8
0
  6
CONTINUOUS
 10
61.4336
 20
43.7379
 30
0
 70
32
  0
VERTEX
  5
4FF58
  8
0
  6
CONTINUOUS
 10
61.7476
 20
43.80899999999999
 30
0
 70
32
  0
VERTEX
  5
4FF59
  8
0
  6
CONTINUOUS
 10
62.066
 20
43.8751
 30
0
 70
32
  0
VERTEX
  5
4FF5A
  8
0
  6
CONTINUOUS
 10
62.38839999999999
 20
43.9361
 30
0
 70
32
  0
VERTEX
  5
4FF5B
  8
0
  6
CONTINUOUS
 10
62.7147
 20
43.99199999999999
 30
0
 70
32
  0
VERTEX
  5
4FF5C
  8
0
  6
CONTINUOUS
 10
63.0444
 20
44.0427
 30
0
 70
32
  0
VERTEX
  5
4FF5D
  8
0
  6
CONTINUOUS
 10
63.3772
 20
44.08809999999999
 30
0
 70
32
  0
VERTEX
  5
4FF5E
  8
0
  6
CONTINUOUS
 10
63.712699999999991
 20
44.1283
 30
0
 70
32
  0
VERTEX
  5
4FF5F
  8
0
  6
CONTINUOUS
 10
64.0508
 20
44.1632
 30
0
 70
32
  0
VERTEX
  5
4FF60
  8
0
  6
CONTINUOUS
 10
64.3909
 20
44.1927
 30
0
 70
32
  0
VERTEX
  5
4FF61
  8
0
  6
CONTINUOUS
 10
64.732799999999983
 20
44.2168
 30
0
 70
32
  0
VERTEX
  5
4FF62
  8
0
  6
CONTINUOUS
 10
65.0762
 20
44.2355
 30
0
 70
32
  0
VERTEX
  5
4FF63
  8
0
  6
CONTINUOUS
 10
65.4206
 20
44.2487
 30
0
 70
32
  0
VERTEX
  5
4FF64
  8
0
  6
CONTINUOUS
 10
65.765799999999984
 20
44.256599999999992
 30
0
 70
32
  0
VERTEX
  5
4FF65
  8
0
  6
CONTINUOUS
 10
66.1114
 20
44.259
 30
0
 70
32
  0
VERTEX
  5
4FF66
  8
0
  6
CONTINUOUS
 10
66.175971461762686
 20
44.258420967510958
 30
0
 70
32
  0
SEQEND
  5
4FF48
  8
0
  0
POLYLINE
  5
4FF67
  8
0
  6
CONTINUOUS
 66
1
 70
8
  0
VERTEX
  5
4FF69
  8
0
  6
CONTINUOUS
 10
57.5529
 20
42.4025
 30
0
 70
32
  0
VERTEX
  5
4FF6A
  8
0
  6
CONTINUOUS
 10
57.685
 20
42.484999999999992
 30
0
 70
32
  0
VERTEX
  5
4FF6B
  8
0
  6
CONTINUOUS
 10
57.8204
 20
42.5662
 30
0
 70
32
  0
VERTEX
  5
4FF6C
  8
0
  6
CONTINUOUS
 10
57.958899999999993
 20
42.646
 30
0
 70
32
  0
VERTEX
  5
4FF6D
  8
0
  6
CONTINUOUS
 10
58.1006
 20
42.724299999999992
 30
0
 70
32
  0
VERTEX
  5
4FF6E
  8
0
  6
CONTINUOUS
 10
58.2453
 20
42.801299999999991
 30
0
 70
32
  0
VERTEX
  5
4FF6F
  8
0
  6
CONTINUOUS
 10
58.393
 20
42.8767
 30
0
 70
32
  0
VERTEX
  5
4FF70
  8
0
  6
CONTINUOUS
 10
58.5437
 20
42.9506
 30
0
 70
32
  0
VERTEX
  5
4FF71
  8
0
  6
CONTINUOUS
 10
58.6973
 20
43.023
 30
0
 70
32
  0
VERTEX
  5
4FF72
  8
0
  6
CONTINUOUS
 10
58.8538
 20
43.093799999999987
 30
0
 70
32
  0
VERTEX
  5
4FF73
  8
0
  6
CONTINUOUS
 10
59.012999999999991
 20
43.163
 30
0
 70
32
  0
VERTEX
  5
4FF74
  8
0
  6
CONTINUOUS
 10
59.1749
 20
43.2306
 30
0
 70
32
  0
VERTEX
  5
4FF75
  8
0
  6
CONTINUOUS
 10
59.3395
 20
43.296599999999991
 30
0
 70
32
  0
VERTEX
  5
4FF76
  8
0
  6
CONTINUOUS
 10
59.5067
 20
43.3609
 30
0
 70
32
  0
VERTEX
  5
4FF77
  8
0
  6
CONTINUOUS
 10
59.6764
 20
43.42349999999999
 30
0
 70
32
  0
VERTEX
  5
4FF78
  8
0
  6
CONTINUOUS
 10
59.8486
 20
43.4844
 30
0
 70
32
  0
VERTEX
  5
4FF79
  8
0
  6
CONTINUOUS
 10
60.0232
 20
43.5435
 30
0
 70
32
  0
VERTEX
  5
4FF7A
  8
0
  6
CONTINUOUS
 10
60.2001
 20
43.6009
 30
0
 70
32
  0
VERTEX
  5
4FF7B
  8
0
  6
CONTINUOUS
 10
60.3793
 20
43.656399999999991
 30
0
 70
32
  0
VERTEX
  5
4FF7C
  8
0
  6
CONTINUOUS
 10
60.5607
 20
43.7102
 30
0
 70
32
  0
VERTEX
  5
4FF7D
  8
0
  6
CONTINUOUS
 10
60.744199999999992
 20
43.762199999999993
 30
0
 70
32
  0
VERTEX
  5
4FF7E
  8
0
  6
CONTINUOUS
 10
60.9298
 20
43.8123
 30
0
 70
32
  0
VERTEX
  5
4FF7F
  8
0
  6
CONTINUOUS
 10
61.117400000000011
 20
43.8605
 30
0
 70
32
  0
VERTEX
  5
4FF80
  8
0
  6
CONTINUOUS
 10
61.3069
 20
43.9069
 30
0
 70
32
  0
VERTEX
  5
4FF81
  8
0
  6
CONTINUOUS
 10
61.4983
 20
43.9513
 30
0
 70
32
  0
VERTEX
  5
4FF82
  8
0
  6
CONTINUOUS
 10
61.6914
 20
43.993899999999989
 30
0
 70
32
  0
VERTEX
  5
4FF83
  8
0
  6
CONTINUOUS
 10
61.8862
 20
44.0345
 30
0
 70
32
  0
VERTEX
  5
4FF84
  8
0
  6
CONTINUOUS
 10
62.0827
 20
44.07309999999999
 30
0
 70
32
  0
VERTEX
  5
4FF85
  8
0
  6
CONTINUOUS
 10
62.2807
 20
44.1098
 30
0
 70
32
  0
VERTEX
  5
4FF86
  8
0
  6
CONTINUOUS
 10
62.4802
 20
44.1445
 30
0
 70
32
  0
VERTEX
  5
4FF87
  8
0
  6
CONTINUOUS
 10
62.6811
 20
44.1772
 30
0
 70
32
  0
VERTEX
  5
4FF88
  8
0
  6
CONTINUOUS
 10
62.8833
 20
44.2079
 30
0
 70
32
  0
VERTEX
  5
4FF89
  8
0
  6
CONTINUOUS
 10
63.08679999999999
 20
44.2366
 30
0
 70
32
  0
VERTEX
  5
4FF8A
  8
0
  6
CONTINUOUS
 10
63.2914
 20
44.2633
 30
0
 70
32
  0
VERTEX
  5
4FF8B
  8
0
  6
CONTINUOUS
 10
63.4972
 20
44.2879
 30
0
 70
32
  0
VERTEX
  5
4FF8C
  8
0
  6
CONTINUOUS
 10
63.7039
 20
44.31049999999999
 30
0
 70
32
  0
VERTEX
  5
4FF8D
  8
0
  6
CONTINUOUS
 10
63.9116
 20
44.331
 30
0
 70
32
  0
VERTEX
  5
4FF8E
  8
0
  6
CONTINUOUS
 10
64.1202
 20
44.349499999999992
 30
0
 70
32
  0
VERTEX
  5
4FF8F
  8
0
  6
CONTINUOUS
 10
64.3295
 20
44.3659
 30
0
 70
32
  0
VERTEX
  5
4FF90
  8
0
  6
CONTINUOUS
 10
64.5396
 20
44.3802
 30
0
 70
32
  0
VERTEX
  5
4FF91
  8
0
  6
CONTINUOUS
 10
64.7502
 20
44.3925
 30
0
 70
32
  0
VERTEX
  5
4FF92
  8
0
  6
CONTINUOUS
 10
64.9614
 20
44.4026
 30
0
 70
32
  0
VERTEX
  5
4FF93
  8
0
  6
CONTINUOUS
 10
65.1731
 20
44.410699999999991
 30
0
 70
32
  0
VERTEX
  5
4FF94
  8
0
  6
CONTINUOUS
 10
65.3852
 20
44.4166
 30
0
 70
32
  0
VERTEX
  5
4FF95
  8
0
  6
CONTINUOUS
 10
65.5975
 20
44.4205
 30
0
 70
32
  0
VERTEX
  5
4FF96
  8
0
  6
CONTINUOUS
 10
65.8101
 20
44.4223
 30
0
 70
32
  0
VERTEX
  5
4FF97
  8
0
  6
CONTINUOUS
 10
66.0228
 20
44.42199999999999
 30
0
 70
32
  0
VERTEX
  5
4FF98
  8
0
  6
CONTINUOUS
 10
66.175971461762686
 20
44.420199677224232
 30
0
 70
32
  0
SEQEND
  5
4FF68
  8
0
  0
POLYLINE
  5
50068
  8
0
  6
CONTINUOUS
 66
1
 70
8
  0
VERTEX
  5
50069
  8
0
  6
CONTINUOUS
 10
66.180868231491786
 20
33.001831823543142
 30
0
 70
32
  0
VERTEX
  5
5006A
  8
0
  6
CONTINUOUS
 10
67.810142923525376
 20
33.0345
 30
0
 70
32
  0
VERTEX
  5
5006B
  8
0
  6
CONTINUOUS
 10
68.338042923525364
 20
33.08120000000001
 30
0
 70
32
  0
VERTEX
  5
5006C
  8
0
  6
CONTINUOUS
 10
68.860842923525368
 20
33.141
 30
0
 70
32
  0
VERTEX
  5
5006D
  8
0
  6
CONTINUOUS
 10
69.377142923525369
 20
33.21350000000001
 30
0
 70
32
  0
VERTEX
  5
5006E
  8
0
  6
CONTINUOUS
 10
69.885642923525381
 20
33.2986
 30
0
 70
32
  0
VERTEX
  5
5006F
  8
0
  6
CONTINUOUS
 10
70.385342923525371
 20
33.3962
 30
0
 70
32
  0
VERTEX
  5
50070
  8
0
  6
CONTINUOUS
 10
70.874842923525364
 20
33.5059
 30
0
 70
32
  0
VERTEX
  5
50071
  8
0
  6
CONTINUOUS
 10
71.353042923525379
 20
33.6276
 30
0
 70
32
  0
VERTEX
  5
50072
  8
0
  6
CONTINUOUS
 10
71.818742923525377
 20
33.7609
 30
0
 70
32
  0
VERTEX
  5
50073
  8
0
  6
CONTINUOUS
 10
72.270942923525354
 20
33.905500000000011
 30
0
 70
32
  0
VERTEX
  5
50074
  8
0
  6
CONTINUOUS
 10
72.708342923525379
 20
34.0611
 30
0
 70
32
  0
VERTEX
  5
50075
  8
0
  6
CONTINUOUS
 10
73.130142923525369
 20
34.2273
 30
0
 70
32
  0
VERTEX
  5
50076
  8
0
  6
CONTINUOUS
 10
73.53514292352537
 20
34.4036
 30
0
 70
32
  0
VERTEX
  5
50077
  8
0
  6
CONTINUOUS
 10
73.922442923525381
 20
34.5897
 30
0
 70
32
  0
VERTEX
  5
50078
  8
0
  6
CONTINUOUS
 10
74.291042923525367
 20
34.7851
 30
0
 70
32
  0
VERTEX
  5
50079
  8
0
  6
CONTINUOUS
 10
74.640242923525363
 20
34.98940000000001
 30
0
 70
32
  0
VERTEX
  5
5007A
  8
0
  6
CONTINUOUS
 10
74.968942923525361
 20
35.202
 30
0
 70
32
  0
VERTEX
  5
5007B
  8
0
  6
CONTINUOUS
 10
75.276542923525355
 20
35.4225
 30
0
 70
32
  0
VERTEX
  5
5007C
  8
0
  6
CONTINUOUS
 10
75.562142923525371
 20
35.6502
 30
0
 70
32
  0
VERTEX
  5
5007D
  8
0
  6
CONTINUOUS
 10
75.825242923525366
 20
35.8848
 30
0
 70
32
  0
VERTEX
  5
5007E
  8
0
  6
CONTINUOUS
 10
76.065042923525354
 20
36.125500000000009
 30
0
 70
32
  0
VERTEX
  5
5007F
  8
0
  6
CONTINUOUS
 10
76.281042923525376
 20
36.3718
 30
0
 70
32
  0
VERTEX
  5
50080
  8
0
  6
CONTINUOUS
 10
76.472742923525374
 20
36.6232
 30
0
 70
32
  0
VERTEX
  5
50081
  8
0
  6
CONTINUOUS
 10
76.639642923525372
 20
36.879
 30
0
 70
32
  0
VERTEX
  5
50082
  8
0
  6
CONTINUOUS
 10
76.781442923525361
 20
37.1385
 30
0
 70
32
  0
VERTEX
  5
50083
  8
0
  6
CONTINUOUS
 10
76.897642923525368
 20
37.4013
 30
0
 70
32
  0
VERTEX
  5
50084
  8
0
  6
CONTINUOUS
 10
76.987942923525367
 20
37.6666
 30
0
 70
32
  0
VERTEX
  5
50085
  8
0
  6
CONTINUOUS
 10
77.052342923525373
 20
37.9338
 30
0
 70
32
  0
VERTEX
  5
50086
  8
0
  6
CONTINUOUS
 10
77.090542923525362
 20
38.2023
 30
0
 70
32
  0
VERTEX
  5
50087
  8
0
  6
CONTINUOUS
 10
77.102442923525373
 20
38.4714
 30
0
 70
32
  0
VERTEX
  5
50088
  8
0
  6
CONTINUOUS
 10
77.088042923525364
 20
38.7404
 30
0
 70
32
  0
VERTEX
  5
50089
  8
0
  6
CONTINUOUS
 10
77.047342923525363
 20
39.0088
 30
0
 70
32
  0
VERTEX
  5
5008A
  8
0
  6
CONTINUOUS
 10
76.980442923525374
 20
39.2759
 30
0
 70
32
  0
VERTEX
  5
5008B
  8
0
  6
CONTINUOUS
 10
76.887642923525362
 20
39.5409
 30
0
 70
32
  0
VERTEX
  5
5008C
  8
0
  6
CONTINUOUS
 10
76.768942923525373
 20
39.8034
 30
0
 70
32
  0
VERTEX
  5
5008D
  8
0
  6
CONTINUOUS
 10
76.624842923525364
 20
40.062699999999992
 30
0
 70
32
  0
VERTEX
  5
5008E
  8
0
  6
CONTINUOUS
 10
76.455542923525371
 20
40.3181
 30
0
 70
32
  0
VERTEX
  5
5008F
  8
0
  6
CONTINUOUS
 10
76.261442923525379
 20
40.569
 30
0
 70
32
  0
VERTEX
  5
50090
  8
0
  6
CONTINUOUS
 10
76.04314292352538
 20
40.814799999999991
 30
0
 70
32
  0
VERTEX
  5
50091
  8
0
  6
CONTINUOUS
 10
75.801042923525372
 20
41.0549
 30
0
 70
32
  0
VERTEX
  5
50092
  8
0
  6
CONTINUOUS
 10
75.535842923525365
 20
41.2888
 30
0
 70
32
  0
VERTEX
  5
50093
  8
0
  6
CONTINUOUS
 10
75.248042923525361
 20
41.5159
 30
0
 70
32
  0
VERTEX
  5
50094
  8
0
  6
CONTINUOUS
 10
74.938442923525372
 20
41.7357
 30
0
 70
32
  0
VERTEX
  5
50095
  8
0
  6
CONTINUOUS
 10
74.607742923525365
 20
41.947499999999991
 30
0
 70
32
  0
VERTEX
  5
50096
  8
0
  6
CONTINUOUS
 10
74.256642923525362
 20
42.1509
 30
0
 70
32
  0
VERTEX
  5
50097
  8
0
  6
CONTINUOUS
 10
73.886242923525373
 20
42.3455
 30
0
 70
32
  0
VERTEX
  5
50098
  8
0
  6
CONTINUOUS
 10
73.497142923525374
 20
42.5307
 30
0
 70
32
  0
VERTEX
  5
50099
  8
0
  6
CONTINUOUS
 10
73.090542923525362
 20
42.7061
 30
0
 70
32
  0
VERTEX
  5
5009A
  8
0
  6
CONTINUOUS
 10
72.667242923525379
 20
42.8712
 30
0
 70
32
  0
VERTEX
  5
5009B
  8
0
  6
CONTINUOUS
 10
72.228342923525361
 20
43.02579999999999
 30
0
 70
32
  0
VERTEX
  5
5009C
  8
0
  6
CONTINUOUS
 10
71.77484292352537
 20
43.1693
 30
0
 70
32
  0
VERTEX
  5
5009D
  8
0
  6
CONTINUOUS
 10
71.307842923525371
 20
43.30149999999999
 30
0
 70
32
  0
VERTEX
  5
5009E
  8
0
  6
CONTINUOUS
 10
70.828542923525362
 20
43.4221
 30
0
 70
32
  0
VERTEX
  5
5009F
  8
0
  6
CONTINUOUS
 10
70.337942923525361
 20
43.5307
 30
0
 70
32
  0
VERTEX
  5
500A0
  8
0
  6
CONTINUOUS
 10
69.837442923525373
 20
43.627099999999992
 30
0
 70
32
  0
VERTEX
  5
500A1
  8
0
  6
CONTINUOUS
 10
69.328042923525373
 20
43.711
 30
0
 70
32
  0
VERTEX
  5
500A2
  8
0
  6
CONTINUOUS
 10
68.811142923525381
 20
43.7823
 30
0
 70
32
  0
VERTEX
  5
500A3
  8
0
  6
CONTINUOUS
 10
68.287842923525375
 20
43.840799999999987
 30
0
 70
32
  0
VERTEX
  5
500A4
  8
0
  6
CONTINUOUS
 10
67.75944292352537
 20
43.8863
 30
0
 70
32
  0
VERTEX
  5
500A5
  8
0
  6
CONTINUOUS
 10
67.227242923525367
 20
43.91879999999999
 30
0
 70
32
  0
VERTEX
  5
500A6
  8
0
  6
CONTINUOUS
 10
66.692542923525366
 20
43.9381
 30
0
 70
32
  0
VERTEX
  5
500A7
  8
0
  6
CONTINUOUS
 10
66.175971461762686
 20
43.94397889163573
 30
0
 70
32
  0
SEQEND
  5
500A8
  8
0
  0
ARC
  5
5012E
  8
0
  6
CONTINUOUS
 10
74.093062716609623
 20
38.750132528296362
 30
0
 40
3.359797043212827
 50
321.61232737070128
 51
20.9182861496571
  0
ARC
  5
50130
  8
0
  6
CONTINUOUS
 10
72.108206392619024
 20
40.055228253892437
 30
0
 40
5.729852774151512
 50
290.623929138999
 51
323.70854468846687
  0
ARC
  5
50131
  8
0
  6
CONTINUOUS
 10
73.975766545822864
 20
38.7320983533275
 30
0
 40
3.359797043212827
 50
321.61232737070128
 51
20.9182861496571
  0
ARC
  5
50132
  8
0
  6
CONTINUOUS
 10
71.9909102218323
 20
40.037194078923569
 30
0
 40
5.729852774151512
 50
290.623929138999
 51
323.70854468846687
  0
ARC
  5
50133
  8
0
  6
CONTINUOUS
 10
74.208297693987674
 20
38.560772680376189
 30
0
 40
3.00636646494152
 50
317.69854280814218
 51
24.83207071221619
  0
ARC
  5
50134
  8
0
  6
CONTINUOUS
 10
71.81349212136179
 20
39.928853521027023
 30
0
 40
5.729852774151512
 50
290.623929138999
 51
323.70854468846687
  0
POLYLINE
  5
5013E
  8
0
  6
CONTINUOUS
 66
1
 70
8
  0
VERTEX
  5
50A69
  8
0
 10
54.6892
 20
36.8052
 30
0
 70
32
  0
VERTEX
  5
50A6A
  8
0
 10
54.7857
 20
36.6864
 30
0
 70
32
  0
VERTEX
  5
50A6B
  8
0
 10
54.8867
 20
36.5687
 30
0
 70
32
  0
VERTEX
  5
50A6C
  8
0
 10
54.9922
 20
36.452
 30
0
 70
32
  0
VERTEX
  5
50A6D
  8
0
 10
55.1021
 20
36.3365
 30
0
 70
32
  0
VERTEX
  5
50A6E
  8
0
 10
55.2164
 20
36.2222
 30
0
 70
32
  0
VERTEX
  5
50A6F
  8
0
 10
55.3351
 20
36.109
 30
0
 70
32
  0
VERTEX
  5
50A70
  8
0
 10
55.458
 20
35.9971
 30
0
 70
32
  0
VERTEX
  5
50A71
  8
0
 10
55.5851
 20
35.8866
 30
0
 70
32
  0
VERTEX
  5
50A72
  8
0
 10
55.7164
 20
35.7773
 30
0
 70
32
  0
VERTEX
  5
50A73
  8
0
 10
55.8519
 20
35.6695
 30
0
 70
32
  0
VERTEX
  5
50A74
  8
0
 10
55.9915
 20
35.5631
 30
0
 70
32
  0
VERTEX
  5
50A75
  8
0
 10
56.135
 20
35.4582
 30
0
 70
32
  0
VERTEX
  5
50A76
  8
0
 10
56.2826
 20
35.3548
 30
0
 70
32
  0
VERTEX
  5
50A77
  8
0
 10
56.434
 20
35.253
 30
0
 70
32
  0
VERTEX
  5
50A78
  8
0
 10
56.5893
 20
35.1528
 30
0
 70
32
  0
VERTEX
  5
50A79
  8
0
 10
56.7484
 20
35.0542
 30
0
 70
32
  0
VERTEX
  5
50A7A
  8
0
 10
56.9112
 20
34.9573
 30
0
 70
32
  0
VERTEX
  5
50A7B
  8
0
 10
57.0776
 20
34.8621
 30
0
 70
32
  0
VERTEX
  5
50A7C
  8
0
 10
57.2476
 20
34.7687
 30
0
 70
32
  0
VERTEX
  5
50A7D
  8
0
 10
57.4212
 20
34.6771
 30
0
 70
32
  0
VERTEX
  5
50A7E
  8
0
 10
57.5982
 20
34.5873
 30
0
 70
32
  0
VERTEX
  5
50A7F
  8
0
 10
57.7786
 20
34.4994
 30
0
 70
32
  0
VERTEX
  5
50A80
  8
0
 10
57.9624
 20
34.4134
 30
0
 70
32
  0
VERTEX
  5
50A81
  8
0
 10
58.1493
 20
34.3293
 30
0
 70
32
  0
VERTEX
  5
50A82
  8
0
 10
58.3394
 20
34.2472
 30
0
 70
32
  0
VERTEX
  5
50A83
  8
0
 10
58.5326
 20
34.1671
 30
0
 70
32
  0
VERTEX
  5
50A84
  8
0
 10
58.7288
 20
34.089
 30
0
 70
32
  0
VERTEX
  5
50A85
  8
0
 10
58.928
 20
34.013
 30
0
 70
32
  0
VERTEX
  5
50A86
  8
0
 10
59.13
 20
33.9391
 30
0
 70
32
  0
VERTEX
  5
50A87
  8
0
 10
59.3348
 20
33.8674
 30
0
 70
32
  0
VERTEX
  5
50A88
  8
0
 10
59.5422
 20
33.7977
 30
0
 70
32
  0
VERTEX
  5
50A89
  8
0
 10
59.7523
 20
33.7303
 30
0
 70
32
  0
VERTEX
  5
50A8A
  8
0
 10
59.9649
 20
33.6651
 30
0
 70
32
  0
VERTEX
  5
50A8B
  8
0
 10
60.1799
 20
33.6021
 30
0
 70
32
  0
VERTEX
  5
50A8C
  8
0
 10
60.3973
 20
33.5414
 30
0
 70
32
  0
VERTEX
  5
50A8D
  8
0
 10
60.617
 20
33.4829
 30
0
 70
32
  0
VERTEX
  5
50A8E
  8
0
 10
60.8388
 20
33.4268
 30
0
 70
32
  0
VERTEX
  5
50A8F
  8
0
 10
61.0628
 20
33.373
 30
0
 70
32
  0
VERTEX
  5
50A90
  8
0
 10
61.2887
 20
33.3215
 30
0
 70
32
  0
VERTEX
  5
50A91
  8
0
 10
61.5165
 20
33.2724
 30
0
 70
32
  0
VERTEX
  5
50A92
  8
0
 10
61.7462
 20
33.2258
 30
0
 70
32
  0
VERTEX
  5
50A93
  8
0
 10
61.9776
 20
33.1815
 30
0
 70
32
  0
VERTEX
  5
50A94
  8
0
 10
62.2107
 20
33.1396
 30
0
 70
32
  0
VERTEX
  5
50A95
  8
0
 10
62.4452
 20
33.1002
 30
0
 70
32
  0
VERTEX
  5
50A96
  8
0
 10
62.6813
 20
33.0633
 30
0
 70
32
  0
VERTEX
  5
50A97
  8
0
 10
62.9187
 20
33.0288
 30
0
 70
32
  0
VERTEX
  5
50A98
  8
0
 10
63.1573
 20
32.9969
 30
0
 70
32
  0
VERTEX
  5
50A99
  8
0
 10
63.3971
 20
32.9674
 30
0
 70
32
  0
VERTEX
  5
50A9A
  8
0
 10
63.638
 20
32.9404
 30
0
 70
32
  0
VERTEX
  5
50A9B
  8
0
 10
63.8799
 20
32.916
 30
0
 70
32
  0
VERTEX
  5
50A9C
  8
0
 10
64.1227
 20
32.8941
 30
0
 70
32
  0
VERTEX
  5
50A9D
  8
0
 10
64.3662
 20
32.8747
 30
0
 70
32
  0
VERTEX
  5
50A9E
  8
0
 10
64.6104
 20
32.8579
 30
0
 70
32
  0
VERTEX
  5
50A9F
  8
0
 10
64.8552
 20
32.8437
 30
0
 70
32
  0
VERTEX
  5
50AA0
  8
0
 10
65.1005
 20
32.832
 30
0
 70
32
  0
VERTEX
  5
50AA1
  8
0
 10
65.3462
 20
32.8229
 30
0
 70
32
  0
VERTEX
  5
50AA2
  8
0
 10
65.5922
 20
32.8163
 30
0
 70
32
  0
VERTEX
  5
50AA3
  8
0
 10
65.8384
 20
32.8124
 30
0
 70
32
  0
VERTEX
  5
50AA4
  8
0
 10
66.0847
 20
32.811
 30
0
 70
32
  0
VERTEX
  5
50AA5
  8
0
 10
66.331
 20
32.8122
 30
0
 70
32
  0
VERTEX
  5
50AA6
  8
0
 10
66.5771
 20
32.8159
 30
0
 70
32
  0
VERTEX
  5
50AA7
  8
0
 10
66.8231
 20
32.8222
 30
0
 70
32
  0
VERTEX
  5
50AA8
  8
0
 10
67.0688
 20
32.8311
 30
0
 70
32
  0
VERTEX
  5
50AA9
  8
0
 10
67.3141
 20
32.8426
 30
0
 70
32
  0
VERTEX
  5
50AAA
  8
0
 10
67.559
 20
32.8567
 30
0
 70
32
  0
VERTEX
  5
50AAB
  8
0
 10
67.8032
 20
32.8733
 30
0
 70
32
  0
VERTEX
  5
50AAC
  8
0
 10
68.0468
 20
32.8924
 30
0
 70
32
  0
VERTEX
  5
50AAD
  8
0
 10
68.2895
 20
32.9141
 30
0
 70
32
  0
VERTEX
  5
50AAE
  8
0
 10
68.5314
 20
32.9383
 30
0
 70
32
  0
VERTEX
  5
50AAF
  8
0
 10
68.7723
 20
32.9651
 30
0
 70
32
  0
VERTEX
  5
50AB0
  8
0
 10
69.0122
 20
32.9943
 30
0
 70
32
  0
VERTEX
  5
50AB1
  8
0
 10
69.2509
 20
33.0261
 30
0
 70
32
  0
VERTEX
  5
50AB2
  8
0
 10
69.4883
 20
33.0604
 30
0
 70
32
  0
VERTEX
  5
50AB3
  8
0
 10
69.7244
 20
33.0971
 30
0
 70
32
  0
VERTEX
  5
50AB4
  8
0
 10
69.959
 20
33.1363
 30
0
 70
32
  0
VERTEX
  5
50AB5
  8
0
 10
70.192
 20
33.1779
 30
0
 70
32
  0
VERTEX
  5
50AB6
  8
0
 10
70.4235
 20
33.222
 30
0
 70
32
  0
VERTEX
  5
50AB7
  8
0
 10
70.6532
 20
33.2685
 30
0
 70
32
  0
VERTEX
  5
50AB8
  8
0
 10
70.8811
 20
33.3174
 30
0
 70
32
  0
VERTEX
  5
50AB9
  8
0
 10
71.1071
 20
33.3687
 30
0
 70
32
  0
VERTEX
  5
50ABA
  8
0
 10
71.331
 20
33.4223
 30
0
 70
32
  0
VERTEX
  5
50ABB
  8
0
 10
71.5529
 20
33.4782
 30
0
 70
32
  0
VERTEX
  5
50ABC
  8
0
 10
71.7727
 20
33.5365
 30
0
 70
32
  0
VERTEX
  5
50ABD
  8
0
 10
71.9901
 20
33.597
 30
0
 70
32
  0
VERTEX
  5
50ABE
  8
0
 10
72.2052
 20
33.6598
 30
0
 70
32
  0
VERTEX
  5
50ABF
  8
0
 10
72.4179
 20
33.7249
 30
0
 70
32
  0
VERTEX
  5
50AC0
  8
0
 10
72.628
 20
33.7921
 30
0
 70
32
  0
VERTEX
  5
50AC1
  8
0
 10
72.8355
 20
33.8616
 30
0
 70
32
  0
VERTEX
  5
50AC2
  8
0
 10
73.0404
 20
33.9332
 30
0
 70
32
  0
VERTEX
  5
50AC3
  8
0
 10
73.2424
 20
34.0069
 30
0
 70
32
  0
VERTEX
  5
50AC4
  8
0
 10
73.4416
 20
34.0827
 30
0
 70
32
  0
VERTEX
  5
50AC5
  8
0
 10
73.6379
 20
34.1606
 30
0
 70
32
  0
VERTEX
  5
50AC6
  8
0
 10
73.8312
 20
34.2405
 30
0
 70
32
  0
VERTEX
  5
50AC7
  8
0
 10
74.0214
 20
34.3225
 30
0
 70
32
  0
VERTEX
  5
50AC8
  8
0
 10
74.2084
 20
34.4064
 30
0
 70
32
  0
VERTEX
  5
50AC9
  8
0
 10
74.3922
 20
34.4923
 30
0
 70
32
  0
VERTEX
  5
50ACA
  8
0
 10
74.5727
 20
34.58
 30
0
 70
32
  0
VERTEX
  5
50ACB
  8
0
 10
74.7498
 20
34.6697
 30
0
 70
32
  0
VERTEX
  5
50ACC
  8
0
 10
74.9234
 20
34.7611
 30
0
 70
32
  0
VERTEX
  5
50ACD
  8
0
 10
75.0936
 20
34.8544
 30
0
 70
32
  0
VERTEX
  5
50ACE
  8
0
 10
75.2601
 20
34.9494
 30
0
 70
32
  0
VERTEX
  5
50ACF
  8
0
 10
75.423
 20
35.0462
 30
0
 70
32
  0
VERTEX
  5
50AD0
  8
0
 10
75.5821
 20
35.1446
 30
0
 70
32
  0
VERTEX
  5
50AD1
  8
0
 10
75.7375
 20
35.2447
 30
0
 70
32
  0
VERTEX
  5
50AD2
  8
0
 10
75.8891
 20
35.3464
 30
0
 70
32
  0
VERTEX
  5
50AD3
  8
0
 10
76.0367
 20
35.4497
 30
0
 70
32
  0
VERTEX
  5
50AD4
  8
0
 10
76.1803
 20
35.5545
 30
0
 70
32
  0
VERTEX
  5
50AD5
  8
0
 10
76.32
 20
35.6607
 30
0
 70
32
  0
VERTEX
  5
50AD6
  8
0
 10
76.4555
 20
35.7684
 30
0
 70
32
  0
VERTEX
  5
50AD7
  8
0
 10
76.587
 20
35.8775
 30
0
 70
32
  0
VERTEX
  5
50AD8
  8
0
 10
76.7142
 20
35.988
 30
0
 70
32
  0
VERTEX
  5
50AD9
  8
0
 10
76.8372
 20
36.0998
 30
0
 70
32
  0
VERTEX
  5
50ADA
  8
0
 10
76.956
 20
36.2128
 30
0
 70
32
  0
VERTEX
  5
50ADB
  8
0
 10
77.0703
 20
36.3271
 30
0
 70
32
  0
VERTEX
  5
50ADC
  8
0
 10
77.1804
 20
36.4425
 30
0
 70
32
  0
VERTEX
  5
50ADD
  8
0
 10
77.286
 20
36.5591
 30
0
 70
32
  0
VERTEX
  5
50ADE
  8
0
 10
77.3871
 20
36.6767
 30
0
 70
32
  0
VERTEX
  5
50ADF
  8
0
 10
77.4837
 20
36.7954
 30
0
 70
32
  0
VERTEX
  5
50AE0
  8
0
 10
77.5758
 20
36.9151
 30
0
 70
32
  0
VERTEX
  5
50AE1
  8
0
 10
77.6633
 20
37.0357
 30
0
 70
32
  0
VERTEX
  5
50AE2
  8
0
 10
77.7462
 20
37.1572
 30
0
 70
32
  0
VERTEX
  5
50AE3
  8
0
 10
77.8245
 20
37.2795
 30
0
 70
32
  0
VERTEX
  5
50AE4
  8
0
 10
77.898
 20
37.4027
 30
0
 70
32
  0
VERTEX
  5
50AE5
  8
0
 10
77.9669
 20
37.5265
 30
0
 70
32
  0
VERTEX
  5
50AE6
  8
0
 10
78.031
 20
37.6511
 30
0
 70
32
  0
VERTEX
  5
50AE7
  8
0
 10
78.0904
 20
37.7764
 30
0
 70
32
  0
VERTEX
  5
50AE8
  8
0
 10
78.145
 20
37.9022
 30
0
 70
32
  0
VERTEX
  5
50AE9
  8
0
 10
78.1948
 20
38.0286
 30
0
 70
32
  0
SEQEND
  5
50AEA
  8
0
  0
ARC
  5
5013F
  8
0
  6
CONTINUOUS
 10
57.630976638880611
 20
38.81189355439507
 30
0
 40
3.5610434392703718
 50
144.3367841664253
 51
214.29938850589329
  0
POLYLINE
  5
50216
  8
0
  6
CONTINUOUS
 66
1
 70
8
  0
VERTEX
  5
50218
  8
0
  6
CONTINUOUS
 10
61.176667350169957
 20
44.381250776403
 30
0
 70
32
  0
VERTEX
  5
50219
  8
0
  6
CONTINUOUS
 10
61.5234
 20
44.46849458522734
 30
0
 70
32
  0
VERTEX
  5
5021A
  8
0
  6
CONTINUOUS
 10
62.014
 20
44.577094585227343
 30
0
 70
32
  0
VERTEX
  5
5021B
  8
0
  6
CONTINUOUS
 10
62.5145
 20
44.673494585227338
 30
0
 70
32
  0
VERTEX
  5
5021C
  8
0
  6
CONTINUOUS
 10
63.02389999999999
 20
44.757394585227338
 30
0
 70
32
  0
VERTEX
  5
5021D
  8
0
  6
CONTINUOUS
 10
63.54079999999999
 20
44.828694585227339
 30
0
 70
32
  0
VERTEX
  5
5021E
  8
0
  6
CONTINUOUS
 10
64.0641
 20
44.887194585227348
 30
0
 70
32
  0
VERTEX
  5
5021F
  8
0
  6
CONTINUOUS
 10
64.5925
 20
44.932694585227352
 30
0
 70
32
  0
VERTEX
  5
50220
  8
0
  6
CONTINUOUS
 10
65.1247
 20
44.965194585227337
 30
0
 70
32
  0
VERTEX
  5
50221
  8
0
  6
CONTINUOUS
 10
65.6594
 20
44.984494585227338
 30
0
 70
32
  0
VERTEX
  5
50222
  8
0
  6
CONTINUOUS
 10
66.175971461762686
 20
44.99037347686307
 30
0
 70
32
  0
SEQEND
  5
50217
  8
0
  0
POLYLINE
  5
50223
  8
0
  6
CONTINUOUS
 66
1
 70
8
  0
VERTEX
  5
50225
  8
0
  6
CONTINUOUS
 10
61.176667350169957
 20
44.538759343953522
 30
0
 70
32
  0
VERTEX
  5
50226
  8
0
  6
CONTINUOUS
 10
61.3019
 20
44.570494585227337
 30
0
 70
32
  0
VERTEX
  5
50227
  8
0
  6
CONTINUOUS
 10
61.4944
 20
44.61689458522735
 30
0
 70
32
  0
VERTEX
  5
50228
  8
0
  6
CONTINUOUS
 10
61.6887
 20
44.661394585227349
 30
0
 70
32
  0
VERTEX
  5
50229
  8
0
  6
CONTINUOUS
 10
61.8847
 20
44.703894585227339
 30
0
 70
32
  0
VERTEX
  5
5022A
  8
0
  6
CONTINUOUS
 10
62.0823
 20
44.74459458522734
 30
0
 70
32
  0
VERTEX
  5
5022B
  8
0
  6
CONTINUOUS
 10
62.2815
 20
44.783194585227349
 30
0
 70
32
  0
VERTEX
  5
5022C
  8
0
  6
CONTINUOUS
 10
62.4823
 20
44.819894585227338
 30
0
 70
32
  0
VERTEX
  5
5022D
  8
0
  6
CONTINUOUS
 10
62.6844
 20
44.854594585227339
 30
0
 70
32
  0
VERTEX
  5
5022E
  8
0
  6
CONTINUOUS
 10
62.8879
 20
44.887294585227338
 30
0
 70
32
  0
VERTEX
  5
5022F
  8
0
  6
CONTINUOUS
 10
63.0926
 20
44.917894585227337
 30
0
 70
32
  0
VERTEX
  5
50230
  8
0
  6
CONTINUOUS
 10
63.2985
 20
44.946594585227338
 30
0
 70
32
  0
VERTEX
  5
50231
  8
0
  6
CONTINUOUS
 10
63.5055
 20
44.97319458522734
 30
0
 70
32
  0
VERTEX
  5
50232
  8
0
  6
CONTINUOUS
 10
63.7136
 20
44.99769458522735
 30
0
 70
32
  0
VERTEX
  5
50233
  8
0
  6
CONTINUOUS
 10
63.9226
 20
45.020194585227337
 30
0
 70
32
  0
VERTEX
  5
50234
  8
0
  6
CONTINUOUS
 10
64.1324
 20
45.040594585227353
 30
0
 70
32
  0
VERTEX
  5
50235
  8
0
  6
CONTINUOUS
 10
64.343
 20
45.05889458522735
 30
0
 70
32
  0
VERTEX
  5
50236
  8
0
  6
CONTINUOUS
 10
64.5544
 20
45.075194585227337
 30
0
 70
32
  0
VERTEX
  5
50237
  8
0
  6
CONTINUOUS
 10
64.7664
 20
45.089394585227353
 30
0
 70
32
  0
VERTEX
  5
50238
  8
0
  6
CONTINUOUS
 10
64.9789
 20
45.101394585227347
 30
0
 70
32
  0
VERTEX
  5
50239
  8
0
  6
CONTINUOUS
 10
65.1918
 20
45.111394585227337
 30
0
 70
32
  0
VERTEX
  5
5023A
  8
0
  6
CONTINUOUS
 10
65.4052
 20
45.119294585227337
 30
0
 70
32
  0
VERTEX
  5
5023B
  8
0
  6
CONTINUOUS
 10
65.6188
 20
45.124994585227348
 30
0
 70
32
  0
VERTEX
  5
5023C
  8
0
  6
CONTINUOUS
 10
65.8327
 20
45.128694585227343
 30
0
 70
32
  0
VERTEX
  5
5023D
  8
0
  6
CONTINUOUS
 10
66.046599999999984
 20
45.13029458522734
 30
0
 70
32
  0
VERTEX
  5
5023E
  8
0
  6
CONTINUOUS
 10
66.175971461762686
 20
45.129932030920678
 30
0
 70
32
  0
SEQEND
  5
50224
  8
0
  0
POLYLINE
  5
5023F
  8
0
  6
CONTINUOUS
 66
1
 70
8
  0
VERTEX
  5
50241
  8
0
  6
CONTINUOUS
 10
61.176667350169957
 20
44.721162088017252
 30
0
 70
32
  0
VERTEX
  5
50242
  8
0
  6
CONTINUOUS
 10
61.4336
 20
44.78429458522735
 30
0
 70
32
  0
VERTEX
  5
50243
  8
0
  6
CONTINUOUS
 10
61.7476
 20
44.855394585227337
 30
0
 70
32
  0
VERTEX
  5
50244
  8
0
  6
CONTINUOUS
 10
62.066
 20
44.921494585227343
 30
0
 70
32
  0
VERTEX
  5
50245
  8
0
  6
CONTINUOUS
 10
62.38839999999999
 20
44.982494585227343
 30
0
 70
32
  0
VERTEX
  5
50246
  8
0
  6
CONTINUOUS
 10
62.7147
 20
45.038394585227337
 30
0
 70
32
  0
VERTEX
  5
50247
  8
0
  6
CONTINUOUS
 10
63.0444
 20
45.08909458522735
 30
0
 70
32
  0
VERTEX
  5
50248
  8
0
  6
CONTINUOUS
 10
63.3772
 20
45.134494585227337
 30
0
 70
32
  0
VERTEX
  5
50249
  8
0
  6
CONTINUOUS
 10
63.712699999999991
 20
45.17469458522735
 30
0
 70
32
  0
VERTEX
  5
5024A
  8
0
  6
CONTINUOUS
 10
64.0508
 20
45.209594585227343
 30
0
 70
32
  0
VERTEX
  5
5024B
  8
0
  6
CONTINUOUS
 10
64.3909
 20
45.239094585227349
 30
0
 70
32
  0
VERTEX
  5
5024C
  8
0
  6
CONTINUOUS
 10
64.732799999999983
 20
45.263194585227339
 30
0
 70
32
  0
VERTEX
  5
5024D
  8
0
  6
CONTINUOUS
 10
65.0762
 20
45.281894585227342
 30
0
 70
32
  0
VERTEX
  5
5024E
  8
0
  6
CONTINUOUS
 10
65.4206
 20
45.295094585227339
 30
0
 70
32
  0
VERTEX
  5
5024F
  8
0
  6
CONTINUOUS
 10
65.765799999999984
 20
45.302994585227339
 30
0
 70
32
  0
VERTEX
  5
50250
  8
0
  6
CONTINUOUS
 10
66.1114
 20
45.30539458522734
 30
0
 70
32
  0
VERTEX
  5
50251
  8
0
  6
CONTINUOUS
 10
66.175971461762686
 20
45.3048155527383
 30
0
 70
32
  0
SEQEND
  5
50240
  8
0
  0
POLYLINE
  5
50252
  8
0
  6
CONTINUOUS
 66
1
 70
8
  0
VERTEX
  5
50254
  8
0
  6
CONTINUOUS
 10
61.176667350169957
 20
44.921406485216188
 30
0
 70
32
  0
VERTEX
  5
50255
  8
0
  6
CONTINUOUS
 10
61.3069
 20
44.953294585227347
 30
0
 70
32
  0
VERTEX
  5
50256
  8
0
  6
CONTINUOUS
 10
61.4983
 20
44.99769458522735
 30
0
 70
32
  0
VERTEX
  5
50257
  8
0
  6
CONTINUOUS
 10
61.6914
 20
45.040294585227343
 30
0
 70
32
  0
VERTEX
  5
50258
  8
0
  6
CONTINUOUS
 10
61.8862
 20
45.080894585227348
 30
0
 70
32
  0
VERTEX
  5
50259
  8
0
  6
CONTINUOUS
 10
62.0827
 20
45.119494585227343
 30
0
 70
32
  0
VERTEX
  5
5025A
  8
0
  6
CONTINUOUS
 10
62.2807
 20
45.15619458522734
 30
0
 70
32
  0
VERTEX
  5
5025B
  8
0
  6
CONTINUOUS
 10
62.4802
 20
45.19089458522734
 30
0
 70
32
  0
VERTEX
  5
5025C
  8
0
  6
CONTINUOUS
 10
62.6811
 20
45.223594585227353
 30
0
 70
32
  0
VERTEX
  5
5025D
  8
0
  6
CONTINUOUS
 10
62.8833
 20
45.254294585227349
 30
0
 70
32
  0
VERTEX
  5
5025E
  8
0
  6
CONTINUOUS
 10
63.08679999999999
 20
45.282994585227343
 30
0
 70
32
  0
VERTEX
  5
5025F
  8
0
  6
CONTINUOUS
 10
63.2914
 20
45.309694585227348
 30
0
 70
32
  0
VERTEX
  5
50260
  8
0
  6
CONTINUOUS
 10
63.4972
 20
45.334294585227347
 30
0
 70
32
  0
VERTEX
  5
50261
  8
0
  6
CONTINUOUS
 10
63.7039
 20
45.356894585227337
 30
0
 70
32
  0
VERTEX
  5
50262
  8
0
  6
CONTINUOUS
 10
63.9116
 20
45.37739458522735
 30
0
 70
32
  0
VERTEX
  5
50263
  8
0
  6
CONTINUOUS
 10
64.1202
 20
45.395894585227339
 30
0
 70
32
  0
VERTEX
  5
50264
  8
0
  6
CONTINUOUS
 10
64.3295
 20
45.412294585227343
 30
0
 70
32
  0
VERTEX
  5
50265
  8
0
  6
CONTINUOUS
 10
64.5396
 20
45.426594585227342
 30
0
 70
32
  0
VERTEX
  5
50266
  8
0
  6
CONTINUOUS
 10
64.7502
 20
45.438894585227338
 30
0
 70
32
  0
VERTEX
  5
50267
  8
0
  6
CONTINUOUS
 10
64.9614
 20
45.448994585227339
 30
0
 70
32
  0
VERTEX
  5
50268
  8
0
  6
CONTINUOUS
 10
65.1731
 20
45.457094585227338
 30
0
 70
32
  0
VERTEX
  5
50269
  8
0
  6
CONTINUOUS
 10
65.3852
 20
45.462994585227342
 30
0
 70
32
  0
VERTEX
  5
5026A
  8
0
  6
CONTINUOUS
 10
65.5975
 20
45.466894585227337
 30
0
 70
32
  0
VERTEX
  5
5026B
  8
0
  6
CONTINUOUS
 10
65.8101
 20
45.46869458522734
 30
0
 70
32
  0
VERTEX
  5
5026C
  8
0
  6
CONTINUOUS
 10
66.0228
 20
45.468394585227337
 30
0
 70
32
  0
VERTEX
  5
5026D
  8
0
  6
CONTINUOUS
 10
66.175971461762686
 20
45.466594262451579
 30
0
 70
32
  0
SEQEND
  5
50253
  8
0
  0
ARC
  5
50279
  8
0
  6
CONTINUOUS
 10
62.938242962596618
 20
33.453314142478163
 30
0
 40
11.069008434063679
 50
99.157263364135474
 51
137.80379311424423
  0
ARC
  5
5027A
  8
0
  6
CONTINUOUS
 10
62.938242962596611
 20
33.610822710028678
 30
0
 40
11.069008434063679
 50
99.157263364135474
 51
137.80379311424423
  0
ARC
  5
5027B
  8
0
  6
CONTINUOUS
 10
62.938242962596611
 20
33.793225454092408
 30
0
 40
11.069008434063679
 50
99.157263364135474
 51
137.80379311424423
  0
ARC
  5
5027C
  8
0
  6
CONTINUOUS
 10
62.938242962596618
 20
33.993469851291351
 30
0
 40
11.069008434063679
 50
99.157263364135474
 51
137.80379311424423
  0
ARC
  5
5027D
  8
0
  6
CONTINUOUS
 10
57.57494399038729
 20
38.704592381903673
 30
0
 40
3.6782660513545591
 50
140.47368319225041
 51
162.1635451874254
  0
ARC
  5
5027E
  8
0
  6
CONTINUOUS
 10
57.57494399038729
 20
38.8869951259674
 30
0
 40
3.6782660513545591
 50
140.47368319225041
 51
162.1635451874254
  0
ARC
  5
5027F
  8
0
  6
CONTINUOUS
 10
57.5749439903873
 20
39.087239523166339
 30
0
 40
3.6782660513545591
 50
140.47368319225041
 51
162.1635451874258
  0
POLYLINE
  5
50281
  8
0
  6
CONTINUOUS
 66
1
 70
8
  0
VERTEX
  5
50AEB
  8
0
 10
54.6892
 20
36.757
 30
0
 70
32
  0
VERTEX
  5
50AEC
  8
0
 10
54.7853
 20
36.6385
 30
0
 70
32
  0
VERTEX
  5
50AED
  8
0
 10
54.8858
 20
36.521
 30
0
 70
32
  0
VERTEX
  5
50AEE
  8
0
 10
54.9908
 20
36.4045
 30
0
 70
32
  0
VERTEX
  5
50AEF
  8
0
 10
55.1002
 20
36.2892
 30
0
 70
32
  0
VERTEX
  5
50AF0
  8
0
 10
55.214
 20
36.175
 30
0
 70
32
  0
VERTEX
  5
50AF1
  8
0
 10
55.3321
 20
36.0621
 30
0
 70
32
  0
VERTEX
  5
50AF2
  8
0
 10
55.4544
 20
35.9504
 30
0
 70
32
  0
VERTEX
  5
50AF3
  8
0
 10
55.581
 20
35.84
 30
0
 70
32
  0
VERTEX
  5
50AF4
  8
0
 10
55.7118
 20
35.731
 30
0
 70
32
  0
VERTEX
  5
50AF5
  8
0
 10
55.8466
 20
35.6233
 30
0
 70
32
  0
VERTEX
  5
50AF6
  8
0
 10
55.9855
 20
35.5171
 30
0
 70
32
  0
VERTEX
  5
50AF7
  8
0
 10
56.1285
 20
35.4124
 30
0
 70
32
  0
VERTEX
  5
50AF8
  8
0
 10
56.2754
 20
35.3091
 30
0
 70
32
  0
VERTEX
  5
50AF9
  8
0
 10
56.4261
 20
35.2075
 30
0
 70
32
  0
VERTEX
  5
50AFA
  8
0
 10
56.5808
 20
35.1074
 30
0
 70
32
  0
VERTEX
  5
50AFB
  8
0
 10
56.7392
 20
35.0089
 30
0
 70
32
  0
VERTEX
  5
50AFC
  8
0
 10
56.9013
 20
34.9122
 30
0
 70
32
  0
VERTEX
  5
50AFD
  8
0
 10
57.067
 20
34.8171
 30
0
 70
32
  0
VERTEX
  5
50AFE
  8
0
 10
57.2363
 20
34.7238
 30
0
 70
32
  0
VERTEX
  5
50AFF
  8
0
 10
57.4092
 20
34.6323
 30
0
 70
32
  0
VERTEX
  5
50B00
  8
0
 10
57.5854
 20
34.5426
 30
0
 70
32
  0
VERTEX
  5
50B01
  8
0
 10
57.7651
 20
34.4547
 30
0
 70
32
  0
VERTEX
  5
50B02
  8
0
 10
57.9481
 20
34.3688
 30
0
 70
32
  0
VERTEX
  5
50B03
  8
0
 10
58.1342
 20
34.2848
 30
0
 70
32
  0
VERTEX
  5
50B04
  8
0
 10
58.3236
 20
34.2027
 30
0
 70
32
  0
VERTEX
  5
50B05
  8
0
 10
58.516
 20
34.1226
 30
0
 70
32
  0
VERTEX
  5
50B06
  8
0
 10
58.7115
 20
34.0446
 30
0
 70
32
  0
VERTEX
  5
50B07
  8
0
 10
58.9098
 20
33.9686
 30
0
 70
32
  0
VERTEX
  5
50B08
  8
0
 10
59.111
 20
33.8947
 30
0
 70
32
  0
VERTEX
  5
50B09
  8
0
 10
59.315
 20
33.823
 30
0
 70
32
  0
VERTEX
  5
50B0A
  8
0
 10
59.5217
 20
33.7533
 30
0
 70
32
  0
VERTEX
  5
50B0B
  8
0
 10
59.7309
 20
33.6859
 30
0
 70
32
  0
VERTEX
  5
50B0C
  8
0
 10
59.9427
 20
33.6206
 30
0
 70
32
  0
VERTEX
  5
50B0D
  8
0
 10
60.157
 20
33.5576
 30
0
 70
32
  0
VERTEX
  5
50B0E
  8
0
 10
60.3735
 20
33.4968
 30
0
 70
32
  0
VERTEX
  5
50B0F
  8
0
 10
60.5924
 20
33.4383
 30
0
 70
32
  0
VERTEX
  5
50B10
  8
0
 10
60.8134
 20
33.3821
 30
0
 70
32
  0
VERTEX
  5
50B11
  8
0
 10
61.0366
 20
33.3282
 30
0
 70
32
  0
VERTEX
  5
50B12
  8
0
 10
61.2617
 20
33.2766
 30
0
 70
32
  0
VERTEX
  5
50B13
  8
0
 10
61.4887
 20
33.2275
 30
0
 70
32
  0
VERTEX
  5
50B14
  8
0
 10
61.7176
 20
33.1806
 30
0
 70
32
  0
VERTEX
  5
50B15
  8
0
 10
61.9482
 20
33.1362
 30
0
 70
32
  0
VERTEX
  5
50B16
  8
0
 10
62.1805
 20
33.0943
 30
0
 70
32
  0
VERTEX
  5
50B17
  8
0
 10
62.4143
 20
33.0547
 30
0
 70
32
  0
VERTEX
  5
50B18
  8
0
 10
62.6495
 20
33.0176
 30
0
 70
32
  0
VERTEX
  5
50B19
  8
0
 10
62.8862
 20
32.983
 30
0
 70
32
  0
VERTEX
  5
50B1A
  8
0
 10
63.124
 20
32.9508
 30
0
 70
32
  0
VERTEX
  5
50B1B
  8
0
 10
63.3631
 20
32.9211
 30
0
 70
32
  0
VERTEX
  5
50B1C
  8
0
 10
63.6033
 20
32.8939
 30
0
 70
32
  0
VERTEX
  5
50B1D
  8
0
 10
63.8444
 20
32.8693
 30
0
 70
32
  0
VERTEX
  5
50B1E
  8
0
 10
64.0864
 20
32.8472
 30
0
 70
32
  0
VERTEX
  5
50B1F
  8
0
 10
64.3293
 20
32.8276
 30
0
 70
32
  0
VERTEX
  5
50B20
  8
0
 10
64.5728
 20
32.8105
 30
0
 70
32
  0
VERTEX
  5
50B21
  8
0
 10
64.8169
 20
32.796
 30
0
 70
32
  0
VERTEX
  5
50B22
  8
0
 10
65.0615
 20
32.784
 30
0
 70
32
  0
VERTEX
  5
50B23
  8
0
 10
65.3066
 20
32.7746
 30
0
 70
32
  0
VERTEX
  5
50B24
  8
0
 10
65.5519
 20
32.7678
 30
0
 70
32
  0
VERTEX
  5
50B25
  8
0
 10
65.7974
 20
32.7635
 30
0
 70
32
  0
VERTEX
  5
50B26
  8
0
 10
66.0431
 20
32.7618
 30
0
 70
32
  0
VERTEX
  5
50B27
  8
0
 10
66.2888
 20
32.7627
 30
0
 70
32
  0
VERTEX
  5
50B28
  8
0
 10
66.5344
 20
32.7661
 30
0
 70
32
  0
VERTEX
  5
50B29
  8
0
 10
66.7798
 20
32.7721
 30
0
 70
32
  0
VERTEX
  5
50B2A
  8
0
 10
67.025
 20
32.7806
 30
0
 70
32
  0
VERTEX
  5
50B2B
  8
0
 10
67.2698
 20
32.7917
 30
0
 70
32
  0
VERTEX
  5
50B2C
  8
0
 10
67.5141
 20
32.8054
 30
0
 70
32
  0
VERTEX
  5
50B2D
  8
0
 10
67.7578
 20
32.8216
 30
0
 70
32
  0
VERTEX
  5
50B2E
  8
0
 10
68.0009
 20
32.8403
 30
0
 70
32
  0
VERTEX
  5
50B2F
  8
0
 10
68.2433
 20
32.8616
 30
0
 70
32
  0
VERTEX
  5
50B30
  8
0
 10
68.4847
 20
32.8854
 30
0
 70
32
  0
VERTEX
  5
50B31
  8
0
 10
68.7252
 20
32.9117
 30
0
 70
32
  0
VERTEX
  5
50B32
  8
0
 10
68.9647
 20
32.9406
 30
0
 70
32
  0
VERTEX
  5
50B33
  8
0
 10
69.203
 20
32.9719
 30
0
 70
32
  0
VERTEX
  5
50B34
  8
0
 10
69.4401
 20
33.0057
 30
0
 70
32
  0
VERTEX
  5
50B35
  8
0
 10
69.6759
 20
33.042
 30
0
 70
32
  0
VERTEX
  5
50B36
  8
0
 10
69.9102
 20
33.0807
 30
0
 70
32
  0
VERTEX
  5
50B37
  8
0
 10
70.1431
 20
33.1219
 30
0
 70
32
  0
VERTEX
  5
50B38
  8
0
 10
70.3743
 20
33.1655
 30
0
 70
32
  0
VERTEX
  5
50B39
  8
0
 10
70.6038
 20
33.2115
 30
0
 70
32
  0
VERTEX
  5
50B3A
  8
0
 10
70.8315
 20
33.2599
 30
0
 70
32
  0
VERTEX
  5
50B3B
  8
0
 10
71.0573
 20
33.3107
 30
0
 70
32
  0
VERTEX
  5
50B3C
  8
0
 10
71.2812
 20
33.3638
 30
0
 70
32
  0
VERTEX
  5
50B3D
  8
0
 10
71.503
 20
33.4192
 30
0
 70
32
  0
VERTEX
  5
50B3E
  8
0
 10
71.7227
 20
33.477
 30
0
 70
32
  0
VERTEX
  5
50B3F
  8
0
 10
71.9401
 20
33.537
 30
0
 70
32
  0
VERTEX
  5
50B40
  8
0
 10
72.1552
 20
33.5993
 30
0
 70
32
  0
VERTEX
  5
50B41
  8
0
 10
72.3679
 20
33.6638
 30
0
 70
32
  0
VERTEX
  5
50B42
  8
0
 10
72.578
 20
33.7305
 30
0
 70
32
  0
VERTEX
  5
50B43
  8
0
 10
72.7857
 20
33.7994
 30
0
 70
32
  0
VERTEX
  5
50B44
  8
0
 10
72.9906
 20
33.8705
 30
0
 70
32
  0
VERTEX
  5
50B45
  8
0
 10
73.1928
 20
33.9437
 30
0
 70
32
  0
VERTEX
  5
50B46
  8
0
 10
73.3922
 20
34.019
 30
0
 70
32
  0
VERTEX
  5
50B47
  8
0
 10
73.5887
 20
34.0963
 30
0
 70
32
  0
VERTEX
  5
50B48
  8
0
 10
73.7823
 20
34.1757
 30
0
 70
32
  0
VERTEX
  5
50B49
  8
0
 10
73.9727
 20
34.2571
 30
0
 70
32
  0
VERTEX
  5
50B4A
  8
0
 10
74.1601
 20
34.3404
 30
0
 70
32
  0
VERTEX
  5
50B4B
  8
0
 10
74.3442
 20
34.4257
 30
0
 70
32
  0
VERTEX
  5
50B4C
  8
0
 10
74.5251
 20
34.513
 30
0
 70
32
  0
VERTEX
  5
50B4D
  8
0
 10
74.7026
 20
34.602
 30
0
 70
32
  0
VERTEX
  5
50B4E
  8
0
 10
74.8767
 20
34.693
 30
0
 70
32
  0
VERTEX
  5
50B4F
  8
0
 10
75.0473
 20
34.7857
 30
0
 70
32
  0
VERTEX
  5
50B50
  8
0
 10
75.2143
 20
34.8802
 30
0
 70
32
  0
VERTEX
  5
50B51
  8
0
 10
75.3778
 20
34.9764
 30
0
 70
32
  0
VERTEX
  5
50B52
  8
0
 10
75.5375
 20
35.0743
 30
0
 70
32
  0
VERTEX
  5
50B53
  8
0
 10
75.6935
 20
35.1738
 30
0
 70
32
  0
VERTEX
  5
50B54
  8
0
 10
75.8457
 20
35.2749
 30
0
 70
32
  0
VERTEX
  5
50B55
  8
0
 10
75.994
 20
35.3777
 30
0
 70
32
  0
VERTEX
  5
50B56
  8
0
 10
76.1383
 20
35.4819
 30
0
 70
32
  0
VERTEX
  5
50B57
  8
0
 10
76.2787
 20
35.5876
 30
0
 70
32
  0
VERTEX
  5
50B58
  8
0
 10
76.4151
 20
35.6948
 30
0
 70
32
  0
VERTEX
  5
50B59
  8
0
 10
76.5473
 20
35.8034
 30
0
 70
32
  0
VERTEX
  5
50B5A
  8
0
 10
76.6754
 20
35.9133
 30
0
 70
32
  0
VERTEX
  5
50B5B
  8
0
 10
76.7993
 20
36.0246
 30
0
 70
32
  0
VERTEX
  5
50B5C
  8
0
 10
76.9189
 20
36.1371
 30
0
 70
32
  0
VERTEX
  5
50B5D
  8
0
 10
77.0342
 20
36.2509
 30
0
 70
32
  0
VERTEX
  5
50B5E
  8
0
 10
77.1452
 20
36.3658
 30
0
 70
32
  0
VERTEX
  5
50B5F
  8
0
 10
77.2518
 20
36.4819
 30
0
 70
32
  0
VERTEX
  5
50B60
  8
0
 10
77.354
 20
36.599
 30
0
 70
32
  0
VERTEX
  5
50B61
  8
0
 10
77.4517
 20
36.7172
 30
0
 70
32
  0
VERTEX
  5
50B62
  8
0
 10
77.5449
 20
36.8364
 30
0
 70
32
  0
VERTEX
  5
50B63
  8
0
 10
77.6335
 20
36.9566
 30
0
 70
32
  0
VERTEX
  5
50B64
  8
0
 10
77.7176
 20
37.0776
 30
0
 70
32
  0
VERTEX
  5
50B65
  8
0
 10
77.797
 20
37.1995
 30
0
 70
32
  0
VERTEX
  5
50B66
  8
0
 10
77.8718
 20
37.3222
 30
0
 70
32
  0
VERTEX
  5
50B67
  8
0
 10
77.942
 20
37.4457
 30
0
 70
32
  0
VERTEX
  5
50B68
  8
0
 10
78.0074
 20
37.5698
 30
0
 70
32
  0
VERTEX
  5
50B69
  8
0
 10
78.0681
 20
37.6947
 30
0
 70
32
  0
VERTEX
  5
50B6A
  8
0
 10
78.124
 20
37.8201
 30
0
 70
32
  0
VERTEX
  5
50B6B
  8
0
 10
78.1752
 20
37.9461
 30
0
 70
32
  0
SEQEND
  5
50B6C
  8
0
  0
ARC
  5
50282
  8
0
  6
CONTINUOUS
 10
57.630976638880611
 20
38.763711308930269
 30
0
 40
3.5610434392703718
 50
179.61238041347289
 51
214.29938850589329
  0
POLYLINE
  5
502F4
  8
0
  6
CONTINUOUS
 66
1
 70
8
  0
VERTEX
  5
502F6
  8
0
  6
CONTINUOUS
 10
59.919397420652551
 20
45.024657320305728
 30
0
 70
32
  0
VERTEX
  5
502F7
  8
0
  6
CONTINUOUS
 10
60.0232
 20
45.059793244930212
 30
0
 70
32
  0
VERTEX
  5
502F8
  8
0
  6
CONTINUOUS
 10
60.2001
 20
45.117193244930213
 30
0
 70
32
  0
VERTEX
  5
502F9
  8
0
  6
CONTINUOUS
 10
60.3793
 20
45.1726932449302
 30
0
 70
32
  0
VERTEX
  5
502FA
  8
0
  6
CONTINUOUS
 10
60.5607
 20
45.226493244930211
 30
0
 70
32
  0
VERTEX
  5
502FB
  8
0
  6
CONTINUOUS
 10
60.744199999999992
 20
45.27849324493021
 30
0
 70
32
  0
VERTEX
  5
502FC
  8
0
  6
CONTINUOUS
 10
60.9298
 20
45.328593244930211
 30
0
 70
32
  0
VERTEX
  5
502FD
  8
0
  6
CONTINUOUS
 10
61.117400000000011
 20
45.376793244930212
 30
0
 70
32
  0
VERTEX
  5
502FE
  8
0
  6
CONTINUOUS
 10
61.3069
 20
45.4231932449302
 30
0
 70
32
  0
VERTEX
  5
502FF
  8
0
  6
CONTINUOUS
 10
61.4983
 20
45.467593244930207
 30
0
 70
32
  0
VERTEX
  5
50300
  8
0
  6
CONTINUOUS
 10
61.6914
 20
45.510193244930207
 30
0
 70
32
  0
VERTEX
  5
50301
  8
0
  6
CONTINUOUS
 10
61.8862
 20
45.5507932449302
 30
0
 70
32
  0
VERTEX
  5
50302
  8
0
  6
CONTINUOUS
 10
62.0827
 20
45.5893932449302
 30
0
 70
32
  0
VERTEX
  5
50303
  8
0
  6
CONTINUOUS
 10
62.2807
 20
45.62609324493021
 30
0
 70
32
  0
VERTEX
  5
50304
  8
0
  6
CONTINUOUS
 10
62.4802
 20
45.660793244930211
 30
0
 70
32
  0
VERTEX
  5
50305
  8
0
  6
CONTINUOUS
 10
62.6811
 20
45.6934932449302
 30
0
 70
32
  0
VERTEX
  5
50306
  8
0
  6
CONTINUOUS
 10
62.8833
 20
45.724193244930213
 30
0
 70
32
  0
VERTEX
  5
50307
  8
0
  6
CONTINUOUS
 10
63.08679999999999
 20
45.752893244930213
 30
0
 70
32
  0
VERTEX
  5
50308
  8
0
  6
CONTINUOUS
 10
63.2914
 20
45.779593244930211
 30
0
 70
32
  0
VERTEX
  5
50309
  8
0
  6
CONTINUOUS
 10
63.4972
 20
45.8041932449302
 30
0
 70
32
  0
VERTEX
  5
5030A
  8
0
  6
CONTINUOUS
 10
63.7039
 20
45.8267932449302
 30
0
 70
32
  0
VERTEX
  5
5030B
  8
0
  6
CONTINUOUS
 10
63.9116
 20
45.847293244930214
 30
0
 70
32
  0
VERTEX
  5
5030C
  8
0
  6
CONTINUOUS
 10
64.1202
 20
45.865793244930209
 30
0
 70
32
  0
VERTEX
  5
5030D
  8
0
  6
CONTINUOUS
 10
64.3295
 20
45.882193244930207
 30
0
 70
32
  0
VERTEX
  5
5030E
  8
0
  6
CONTINUOUS
 10
64.5396
 20
45.896493244930213
 30
0
 70
32
  0
VERTEX
  5
5030F
  8
0
  6
CONTINUOUS
 10
64.7502
 20
45.908793244930209
 30
0
 70
32
  0
VERTEX
  5
50310
  8
0
  6
CONTINUOUS
 10
64.9614
 20
45.91889324493021
 30
0
 70
32
  0
VERTEX
  5
50311
  8
0
  6
CONTINUOUS
 10
65.1731
 20
45.926993244930209
 30
0
 70
32
  0
VERTEX
  5
50312
  8
0
  6
CONTINUOUS
 10
65.3852
 20
45.932893244930213
 30
0
 70
32
  0
VERTEX
  5
50313
  8
0
  6
CONTINUOUS
 10
65.5975
 20
45.9367932449302
 30
0
 70
32
  0
VERTEX
  5
50314
  8
0
  6
CONTINUOUS
 10
65.8101
 20
45.93859324493021
 30
0
 70
32
  0
VERTEX
  5
50315
  8
0
  6
CONTINUOUS
 10
66.0228
 20
45.938293244930207
 30
0
 70
32
  0
VERTEX
  5
50316
  8
0
  6
CONTINUOUS
 10
66.175971461762686
 20
45.936492922154443
 30
0
 70
32
  0
SEQEND
  5
502F5
  8
0
  0
POLYLINE
  5
50317
  8
0
  6
CONTINUOUS
 66
1
 70
8
  0
VERTEX
  5
50319
  8
0
  6
CONTINUOUS
 10
59.919397420652551
 20
45.092958706569938
 30
0
 70
32
  0
VERTEX
  5
5031A
  8
0
  6
CONTINUOUS
 10
60.0232
 20
45.128094631194422
 30
0
 70
32
  0
VERTEX
  5
5031B
  8
0
  6
CONTINUOUS
 10
60.2001
 20
45.185494631194423
 30
0
 70
32
  0
VERTEX
  5
5031C
  8
0
  6
CONTINUOUS
 10
60.3793
 20
45.240994631194411
 30
0
 70
32
  0
VERTEX
  5
5031D
  8
0
  6
CONTINUOUS
 10
60.5607
 20
45.294794631194421
 30
0
 70
32
  0
VERTEX
  5
5031E
  8
0
  6
CONTINUOUS
 10
60.744199999999992
 20
45.34679463119442
 30
0
 70
32
  0
VERTEX
  5
5031F
  8
0
  6
CONTINUOUS
 10
60.9298
 20
45.396894631194421
 30
0
 70
32
  0
VERTEX
  5
50320
  8
0
  6
CONTINUOUS
 10
61.117400000000011
 20
45.445094631194422
 30
0
 70
32
  0
VERTEX
  5
50321
  8
0
  6
CONTINUOUS
 10
61.3069
 20
45.491494631194421
 30
0
 70
32
  0
VERTEX
  5
50322
  8
0
  6
CONTINUOUS
 10
61.4983
 20
45.535894631194417
 30
0
 70
32
  0
VERTEX
  5
50323
  8
0
  6
CONTINUOUS
 10
61.6914
 20
45.57849463119441
 30
0
 70
32
  0
VERTEX
  5
50324
  8
0
  6
CONTINUOUS
 10
61.8862
 20
45.619094631194422
 30
0
 70
32
  0
VERTEX
  5
50325
  8
0
  6
CONTINUOUS
 10
62.0827
 20
45.65769463119441
 30
0
 70
32
  0
VERTEX
  5
50326
  8
0
  6
CONTINUOUS
 10
62.2807
 20
45.69439463119442
 30
0
 70
32
  0
VERTEX
  5
50327
  8
0
  6
CONTINUOUS
 10
62.4802
 20
45.729094631194421
 30
0
 70
32
  0
VERTEX
  5
50328
  8
0
  6
CONTINUOUS
 10
62.6811
 20
45.761794631194419
 30
0
 70
32
  0
VERTEX
  5
50329
  8
0
  6
CONTINUOUS
 10
62.8833
 20
45.792494631194423
 30
0
 70
32
  0
VERTEX
  5
5032A
  8
0
  6
CONTINUOUS
 10
63.08679999999999
 20
45.821194631194423
 30
0
 70
32
  0
VERTEX
  5
5032B
  8
0
  6
CONTINUOUS
 10
63.2914
 20
45.847894631194421
 30
0
 70
32
  0
VERTEX
  5
5032C
  8
0
  6
CONTINUOUS
 10
63.4972
 20
45.872494631194421
 30
0
 70
32
  0
VERTEX
  5
5032D
  8
0
  6
CONTINUOUS
 10
63.7039
 20
45.895094631194411
 30
0
 70
32
  0
VERTEX
  5
5032E
  8
0
  6
CONTINUOUS
 10
63.9116
 20
45.915594631194423
 30
0
 70
32
  0
VERTEX
  5
5032F
  8
0
  6
CONTINUOUS
 10
64.1202
 20
45.934094631194412
 30
0
 70
32
  0
VERTEX
  5
50330
  8
0
  6
CONTINUOUS
 10
64.3295
 20
45.950494631194417
 30
0
 70
32
  0
VERTEX
  5
50331
  8
0
  6
CONTINUOUS
 10
64.5396
 20
45.964794631194422
 30
0
 70
32
  0
VERTEX
  5
50332
  8
0
  6
CONTINUOUS
 10
64.7502
 20
45.977094631194419
 30
0
 70
32
  0
VERTEX
  5
50333
  8
0
  6
CONTINUOUS
 10
64.9614
 20
45.98719463119442
 30
0
 70
32
  0
VERTEX
  5
50334
  8
0
  6
CONTINUOUS
 10
65.1731
 20
45.995294631194412
 30
0
 70
32
  0
VERTEX
  5
50335
  8
0
  6
CONTINUOUS
 10
65.3852
 20
46.001194631194423
 30
0
 70
32
  0
VERTEX
  5
50336
  8
0
  6
CONTINUOUS
 10
65.5975
 20
46.005094631194417
 30
0
 70
32
  0
VERTEX
  5
50337
  8
0
  6
CONTINUOUS
 10
65.8101
 20
46.00689463119442
 30
0
 70
32
  0
VERTEX
  5
50338
  8
0
  6
CONTINUOUS
 10
66.0228
 20
46.00659463119441
 30
0
 70
32
  0
VERTEX
  5
50339
  8
0
  6
CONTINUOUS
 10
66.175971461762686
 20
46.004794308418653
 30
0
 70
32
  0
SEQEND
  5
50318
  8
0
  0
ARC
  5
50346
  8
0
  6
CONTINUOUS
 10
62.7835650148426
 20
33.900578333029323
 30
0
 40
11.486887712638829
 50
104.4385993613939
 51
129.54309484443181
  0
ARC
  5
50347
  8
0
  6
CONTINUOUS
 10
58.215363161426083
 20
39.426883276490479
 30
0
 40
4.3169181581239711
 50
129.48493833865439
 51
161.8979187127317
  0
ARC
  5
50348
  8
0
  6
CONTINUOUS
 10
62.7835650148426
 20
33.968879719293518
 30
0
 40
11.486887712638829
 50
104.4385993613939
 51
129.54309484443181
  0
ARC
  5
50349
  8
0
  6
CONTINUOUS
 10
58.215363161426083
 20
39.495184662754681
 30
0
 40
4.3169181581239711
 50
129.48493833865439
 51
161.5083430293283
  0
ARC
  5
508B7
  8
0
  6
CONTINUOUS
 10
68.613613141885409
 20
39.427205206035978
 30
0
 40
14.56337041766712
 50
174.25752364069061
 51
183.23675180285423
  0
ARC
  5
508BA
  8
0
  6
CONTINUOUS
 10
65.478059816748171
 20
30.36213719308795
 30
0
 40
15.965344724783179
 50
87.494564703158588
 51
121.0123842425169
  0
POLYLINE
  5
508BC
  8
0
  6
CONTINUOUS
 66
1
 70
8
  0
VERTEX
  5
508BD
  8
0
  6
CONTINUOUS
 10
66.171074692033585
 20
33.001831823543142
 30
0
 70
32
  0
VERTEX
  5
508BE
  8
0
  6
CONTINUOUS
 10
67.810142923525376
 20
33.0345
 30
0
 70
32
  0
VERTEX
  5
508BF
  8
0
  6
CONTINUOUS
 10
68.338042923525364
 20
33.08120000000001
 30
0
 70
32
  0
VERTEX
  5
508C0
  8
0
  6
CONTINUOUS
 10
68.860842923525368
 20
33.141
 30
0
 70
32
  0
VERTEX
  5
508C1
  8
0
  6
CONTINUOUS
 10
69.377142923525369
 20
33.21350000000001
 30
0
 70
32
  0
VERTEX
  5
508C2
  8
0
  6
CONTINUOUS
 10
69.885642923525381
 20
33.2986
 30
0
 70
32
  0
VERTEX
  5
508C3
  8
0
  6
CONTINUOUS
 10
70.385342923525371
 20
33.3962
 30
0
 70
32
  0
VERTEX
  5
508C4
  8
0
  6
CONTINUOUS
 10
70.874842923525364
 20
33.5059
 30
0
 70
32
  0
VERTEX
  5
508C5
  8
0
  6
CONTINUOUS
 10
71.353042923525379
 20
33.6276
 30
0
 70
32
  0
VERTEX
  5
508C6
  8
0
  6
CONTINUOUS
 10
71.818742923525377
 20
33.7609
 30
0
 70
32
  0
VERTEX
  5
508C7
  8
0
  6
CONTINUOUS
 10
72.270942923525354
 20
33.905500000000011
 30
0
 70
32
  0
VERTEX
  5
508C8
  8
0
  6
CONTINUOUS
 10
72.708342923525379
 20
34.0611
 30
0
 70
32
  0
VERTEX
  5
508C9
  8
0
  6
CONTINUOUS
 10
73.130142923525369
 20
34.2273
 30
0
 70
32
  0
VERTEX
  5
508CA
  8
0
  6
CONTINUOUS
 10
73.53514292352537
 20
34.4036
 30
0
 70
32
  0
VERTEX
  5
508CB
  8
0
  6
CONTINUOUS
 10
73.922442923525381
 20
34.5897
 30
0
 70
32
  0
VERTEX
  5
508CC
  8
0
  6
CONTINUOUS
 10
74.291042923525367
 20
34.7851
 30
0
 70
32
  0
VERTEX
  5
508CD
  8
0
  6
CONTINUOUS
 10
74.640242923525363
 20
34.98940000000001
 30
0
 70
32
  0
VERTEX
  5
508CE
  8
0
  6
CONTINUOUS
 10
74.968942923525361
 20
35.202
 30
0
 70
32
  0
VERTEX
  5
508CF
  8
0
  6
CONTINUOUS
 10
75.276542923525355
 20
35.4225
 30
0
 70
32
  0
VERTEX
  5
508D0
  8
0
  6
CONTINUOUS
 10
75.562142923525371
 20
35.6502
 30
0
 70
32
  0
VERTEX
  5
508D1
  8
0
  6
CONTINUOUS
 10
75.825242923525366
 20
35.8848
 30
0
 70
32
  0
VERTEX
  5
508D2
  8
0
  6
CONTINUOUS
 10
76.065042923525354
 20
36.125500000000009
 30
0
 70
32
  0
VERTEX
  5
508D3
  8
0
  6
CONTINUOUS
 10
76.281042923525376
 20
36.3718
 30
0
 70
32
  0
VERTEX
  5
508D4
  8
0
  6
CONTINUOUS
 10
76.472742923525374
 20
36.6232
 30
0
 70
32
  0
VERTEX
  5
508D5
  8
0
  6
CONTINUOUS
 10
76.639642923525372
 20
36.879
 30
0
 70
32
  0
VERTEX
  5
508D6
  8
0
  6
CONTINUOUS
 10
76.781442923525361
 20
37.1385
 30
0
 70
32
  0
VERTEX
  5
508D7
  8
0
  6
CONTINUOUS
 10
76.897642923525368
 20
37.4013
 30
0
 70
32
  0
VERTEX
  5
508D8
  8
0
  6
CONTINUOUS
 10
76.987942923525367
 20
37.6666
 30
0
 70
32
  0
VERTEX
  5
508D9
  8
0
  6
CONTINUOUS
 10
77.052342923525373
 20
37.9338
 30
0
 70
32
  0
VERTEX
  5
508DA
  8
0
  6
CONTINUOUS
 10
77.090542923525362
 20
38.2023
 30
0
 70
32
  0
VERTEX
  5
508DB
  8
0
  6
CONTINUOUS
 10
77.102442923525373
 20
38.4714
 30
0
 70
32
  0
VERTEX
  5
508DC
  8
0
  6
CONTINUOUS
 10
77.088042923525364
 20
38.7404
 30
0
 70
32
  0
VERTEX
  5
508DD
  8
0
  6
CONTINUOUS
 10
77.047342923525363
 20
39.0088
 30
0
 70
32
  0
VERTEX
  5
508DE
  8
0
  6
CONTINUOUS
 10
76.980442923525374
 20
39.2759
 30
0
 70
32
  0
VERTEX
  5
508DF
  8
0
  6
CONTINUOUS
 10
76.887642923525362
 20
39.5409
 30
0
 70
32
  0
VERTEX
  5
508E0
  8
0
  6
CONTINUOUS
 10
76.768942923525373
 20
39.8034
 30
0
 70
32
  0
VERTEX
  5
508E1
  8
0
  6
CONTINUOUS
 10
76.624842923525364
 20
40.062699999999992
 30
0
 70
32
  0
VERTEX
  5
508E2
  8
0
  6
CONTINUOUS
 10
76.455542923525371
 20
40.3181
 30
0
 70
32
  0
VERTEX
  5
508E3
  8
0
  6
CONTINUOUS
 10
76.261442923525379
 20
40.569
 30
0
 70
32
  0
VERTEX
  5
508E4
  8
0
  6
CONTINUOUS
 10
76.04314292352538
 20
40.814799999999991
 30
0
 70
32
  0
VERTEX
  5
508E5
  8
0
  6
CONTINUOUS
 10
75.801042923525372
 20
41.0549
 30
0
 70
32
  0
VERTEX
  5
508E6
  8
0
  6
CONTINUOUS
 10
75.535842923525365
 20
41.2888
 30
0
 70
32
  0
VERTEX
  5
508E7
  8
0
  6
CONTINUOUS
 10
75.248042923525361
 20
41.5159
 30
0
 70
32
  0
VERTEX
  5
508E8
  8
0
  6
CONTINUOUS
 10
74.938442923525372
 20
41.7357
 30
0
 70
32
  0
VERTEX
  5
508E9
  8
0
  6
CONTINUOUS
 10
74.607742923525365
 20
41.947499999999991
 30
0
 70
32
  0
VERTEX
  5
508EA
  8
0
  6
CONTINUOUS
 10
74.256642923525362
 20
42.1509
 30
0
 70
32
  0
VERTEX
  5
508EB
  8
0
  6
CONTINUOUS
 10
73.886242923525373
 20
42.3455
 30
0
 70
32
  0
VERTEX
  5
508EC
  8
0
  6
CONTINUOUS
 10
73.497142923525374
 20
42.5307
 30
0
 70
32
  0
VERTEX
  5
508ED
  8
0
  6
CONTINUOUS
 10
73.090542923525362
 20
42.7061
 30
0
 70
32
  0
VERTEX
  5
508EE
  8
0
  6
CONTINUOUS
 10
72.667242923525379
 20
42.8712
 30
0
 70
32
  0
VERTEX
  5
508EF
  8
0
  6
CONTINUOUS
 10
72.228342923525361
 20
43.02579999999999
 30
0
 70
32
  0
VERTEX
  5
508F0
  8
0
  6
CONTINUOUS
 10
71.77484292352537
 20
43.1693
 30
0
 70
32
  0
VERTEX
  5
508F1
  8
0
  6
CONTINUOUS
 10
71.307842923525371
 20
43.30149999999999
 30
0
 70
32
  0
VERTEX
  5
508F2
  8
0
  6
CONTINUOUS
 10
70.828542923525362
 20
43.4221
 30
0
 70
32
  0
VERTEX
  5
508F3
  8
0
  6
CONTINUOUS
 10
70.337942923525361
 20
43.5307
 30
0
 70
32
  0
VERTEX
  5
508F4
  8
0
  6
CONTINUOUS
 10
69.837442923525373
 20
43.627099999999992
 30
0
 70
32
  0
VERTEX
  5
508F5
  8
0
  6
CONTINUOUS
 10
69.328042923525373
 20
43.711
 30
0
 70
32
  0
VERTEX
  5
508F6
  8
0
  6
CONTINUOUS
 10
68.811142923525381
 20
43.7823
 30
0
 70
32
  0
VERTEX
  5
508F7
  8
0
  6
CONTINUOUS
 10
68.287842923525375
 20
43.840799999999987
 30
0
 70
32
  0
VERTEX
  5
508F8
  8
0
  6
CONTINUOUS
 10
67.75944292352537
 20
43.8863
 30
0
 70
32
  0
VERTEX
  5
508F9
  8
0
  6
CONTINUOUS
 10
67.227242923525367
 20
43.91879999999999
 30
0
 70
32
  0
VERTEX
  5
508FA
  8
0
  6
CONTINUOUS
 10
66.692542923525366
 20
43.9381
 30
0
 70
32
  0
VERTEX
  5
508FB
  8
0
  6
CONTINUOUS
 10
66.175971461762686
 20
43.94397889163573
 30
0
 70
32
  0
SEQEND
  5
508FC
  8
0
  0
POLYLINE
  5
508FD
  8
0
  6
CONTINUOUS
 66
1
 70
8
  0
VERTEX
  5
508FE
  8
0
  6
CONTINUOUS
 10
74.951042923525364
 20
41.89289999999999
 30
0
 70
32
  0
VERTEX
  5
508FF
  8
0
  6
CONTINUOUS
 10
74.821842923525367
 20
41.97829999999999
 30
0
 70
32
  0
VERTEX
  5
50900
  8
0
  6
CONTINUOUS
 10
74.689342923525373
 20
42.0624
 30
0
 70
32
  0
VERTEX
  5
50901
  8
0
  6
CONTINUOUS
 10
74.55354292352537
 20
42.1452
 30
0
 70
32
  0
VERTEX
  5
50902
  8
0
  6
CONTINUOUS
 10
74.414642923525378
 20
42.2266
 30
0
 70
32
  0
VERTEX
  5
50903
  8
0
  6
CONTINUOUS
 10
74.272442923525375
 20
42.3066
 30
0
 70
32
  0
VERTEX
  5
50904
  8
0
  6
CONTINUOUS
 10
74.127142923525369
 20
42.3852
 30
0
 70
32
  0
VERTEX
  5
50905
  8
0
  6
CONTINUOUS
 10
73.978842923525377
 20
42.4624
 30
0
 70
32
  0
VERTEX
  5
50906
  8
0
  6
CONTINUOUS
 10
73.827542923525371
 20
42.538
 30
0
 70
32
  0
VERTEX
  5
50907
  8
0
  6
CONTINUOUS
 10
73.673342923525368
 20
42.6121
 30
0
 70
32
  0
VERTEX
  5
50908
  8
0
  6
CONTINUOUS
 10
73.516142923525365
 20
42.684699999999992
 30
0
 70
32
  0
VERTEX
  5
50909
  8
0
  6
CONTINUOUS
 10
73.356242923525372
 20
42.7557
 30
0
 70
32
  0
VERTEX
  5
5090A
  8
0
  6
CONTINUOUS
 10
73.193542923525371
 20
42.8251
 30
0
 70
32
  0
VERTEX
  5
5090B
  8
0
  6
CONTINUOUS
 10
73.028142923525365
 20
42.8929
 30
0
 70
32
  0
VERTEX
  5
5090C
  8
0
  6
CONTINUOUS
 10
72.860142923525373
 20
42.959
 30
0
 70
32
  0
VERTEX
  5
5090D
  8
0
  6
CONTINUOUS
 10
72.68954292352538
 20
43.023499999999991
 30
0
 70
32
  0
VERTEX
  5
5090E
  8
0
  6
CONTINUOUS
 10
72.516542923525378
 20
43.0862
 30
0
 70
32
  0
VERTEX
  5
5090F
  8
0
  6
CONTINUOUS
 10
72.340942923525375
 20
43.1472
 30
0
 70
32
  0
VERTEX
  5
50910
  8
0
  6
CONTINUOUS
 10
72.163142923525371
 20
43.206499999999991
 30
0
 70
32
  0
VERTEX
  5
50911
  8
0
  6
CONTINUOUS
 10
71.982942923525371
 20
43.264
 30
0
 70
32
  0
VERTEX
  5
50912
  8
0
  6
CONTINUOUS
 10
71.80054292352537
 20
43.3197
 30
0
 70
32
  0
VERTEX
  5
50913
  8
0
  6
CONTINUOUS
 10
71.615942923525381
 20
43.373499999999993
 30
0
 70
32
  0
VERTEX
  5
50914
  8
0
  6
CONTINUOUS
 10
71.429342923525368
 20
43.4256
 30
0
 70
32
  0
VERTEX
  5
50915
  8
0
  6
CONTINUOUS
 10
71.240642923525371
 20
43.475799999999992
 30
0
 70
32
  0
VERTEX
  5
50916
  8
0
  6
CONTINUOUS
 10
71.050042923525353
 20
43.52409999999999
 30
0
 70
32
  0
VERTEX
  5
50917
  8
0
  6
CONTINUOUS
 10
70.857542923525372
 20
43.5705
 30
0
 70
32
  0
VERTEX
  5
50918
  8
0
  6
CONTINUOUS
 10
70.663242923525374
 20
43.615
 30
0
 70
32
  0
VERTEX
  5
50919
  8
0
  6
CONTINUOUS
 10
70.467242923525362
 20
43.6575
 30
0
 70
32
  0
VERTEX
  5
5091A
  8
0
  6
CONTINUOUS
 10
70.269642923525367
 20
43.698199999999993
 30
0
 70
32
  0
VERTEX
  5
5091B
  8
0
  6
CONTINUOUS
 10
70.070442923525377
 20
43.7368
 30
0
 70
32
  0
VERTEX
  5
5091C
  8
0
  6
CONTINUOUS
 10
69.869642923525362
 20
43.773499999999991
 30
0
 70
32
  0
VERTEX
  5
5091D
  8
0
  6
CONTINUOUS
 10
69.667542923525374
 20
43.808199999999992
 30
0
 70
32
  0
VERTEX
  5
5091E
  8
0
  6
CONTINUOUS
 10
69.464042923525369
 20
43.840899999999991
 30
0
 70
32
  0
VERTEX
  5
5091F
  8
0
  6
CONTINUOUS
 10
69.259342923525367
 20
43.8715
 30
0
 70
32
  0
VERTEX
  5
50920
  8
0
  6
CONTINUOUS
 10
69.053442923525381
 20
43.900199999999991
 30
0
 70
32
  0
VERTEX
  5
50921
  8
0
  6
CONTINUOUS
 10
68.846442923525373
 20
43.9268
 30
0
 70
32
  0
VERTEX
  5
50922
  8
0
  6
CONTINUOUS
 10
68.638342923525371
 20
43.9513
 30
0
 70
32
  0
VERTEX
  5
50923
  8
0
  6
CONTINUOUS
 10
68.429342923525368
 20
43.9738
 30
0
 70
32
  0
VERTEX
  5
50924
  8
0
  6
CONTINUOUS
 10
68.219542923525367
 20
43.9942
 30
0
 70
32
  0
VERTEX
  5
50925
  8
0
  6
CONTINUOUS
 10
68.008942923525368
 20
44.0125
 30
0
 70
32
  0
VERTEX
  5
50926
  8
0
  6
CONTINUOUS
 10
67.79754292352537
 20
44.02879999999999
 30
0
 70
32
  0
VERTEX
  5
50927
  8
0
  6
CONTINUOUS
 10
67.585542923525367
 20
44.043
 30
0
 70
32
  0
VERTEX
  5
50928
  8
0
  6
CONTINUOUS
 10
67.373042923525375
 20
44.054999999999993
 30
0
 70
32
  0
VERTEX
  5
50929
  8
0
  6
CONTINUOUS
 10
67.16014292352537
 20
44.065
 30
0
 70
32
  0
VERTEX
  5
5092A
  8
0
  6
CONTINUOUS
 10
66.946742923525363
 20
44.07289999999999
 30
0
 70
32
  0
VERTEX
  5
5092B
  8
0
  6
CONTINUOUS
 10
66.733142923525378
 20
44.0786
 30
0
 70
32
  0
VERTEX
  5
5092C
  8
0
  6
CONTINUOUS
 10
66.519242923525368
 20
44.082299999999989
 30
0
 70
32
  0
VERTEX
  5
5092D
  8
0
  6
CONTINUOUS
 10
66.305342923525373
 20
44.083899999999993
 30
0
 70
32
  0
VERTEX
  5
5092E
  8
0
  6
CONTINUOUS
 10
66.175971461762686
 20
44.083537445693338
 30
0
 70
32
  0
SEQEND
  5
5092F
  8
0
  0
POLYLINE
  5
50930
  8
0
  6
CONTINUOUS
 66
1
 70
8
  0
VERTEX
  5
50931
  8
0
  6
CONTINUOUS
 10
74.799042923525377
 20
42.4025
 30
0
 70
32
  0
VERTEX
  5
50932
  8
0
  6
CONTINUOUS
 10
74.666942923525369
 20
42.484999999999992
 30
0
 70
32
  0
VERTEX
  5
50933
  8
0
  6
CONTINUOUS
 10
74.531542923525365
 20
42.5662
 30
0
 70
32
  0
VERTEX
  5
50934
  8
0
  6
CONTINUOUS
 10
74.393042923525371
 20
42.646
 30
0
 70
32
  0
VERTEX
  5
50935
  8
0
  6
CONTINUOUS
 10
74.251342923525371
 20
42.724299999999992
 30
0
 70
32
  0
VERTEX
  5
50936
  8
0
  6
CONTINUOUS
 10
74.106642923525371
 20
42.801299999999991
 30
0
 70
32
  0
VERTEX
  5
50937
  8
0
  6
CONTINUOUS
 10
73.95894292352537
 20
42.8767
 30
0
 70
32
  0
VERTEX
  5
50938
  8
0
  6
CONTINUOUS
 10
73.80824292352537
 20
42.9506
 30
0
 70
32
  0
VERTEX
  5
50939
  8
0
  6
CONTINUOUS
 10
73.654642923525373
 20
43.023
 30
0
 70
32
  0
VERTEX
  5
5093A
  8
0
  6
CONTINUOUS
 10
73.498142923525364
 20
43.093799999999987
 30
0
 70
32
  0
VERTEX
  5
5093B
  8
0
  6
CONTINUOUS
 10
73.338942923525366
 20
43.163
 30
0
 70
32
  0
VERTEX
  5
5093C
  8
0
  6
CONTINUOUS
 10
73.177042923525363
 20
43.2306
 30
0
 70
32
  0
VERTEX
  5
5093D
  8
0
  6
CONTINUOUS
 10
73.01244292352537
 20
43.296599999999991
 30
0
 70
32
  0
VERTEX
  5
5093E
  8
0
  6
CONTINUOUS
 10
72.845242923525376
 20
43.3609
 30
0
 70
32
  0
VERTEX
  5
5093F
  8
0
  6
CONTINUOUS
 10
72.67554292352537
 20
43.42349999999999
 30
0
 70
32
  0
VERTEX
  5
50940
  8
0
  6
CONTINUOUS
 10
72.503342923525366
 20
43.4844
 30
0
 70
32
  0
VERTEX
  5
50941
  8
0
  6
CONTINUOUS
 10
72.328742923525368
 20
43.5435
 30
0
 70
32
  0
VERTEX
  5
50942
  8
0
  6
CONTINUOUS
 10
72.151842923525379
 20
43.6009
 30
0
 70
32
  0
VERTEX
  5
50943
  8
0
  6
CONTINUOUS
 10
71.97264292352537
 20
43.656399999999991
 30
0
 70
32
  0
VERTEX
  5
50944
  8
0
  6
CONTINUOUS
 10
71.791242923525374
 20
43.7102
 30
0
 70
32
  0
VERTEX
  5
50945
  8
0
  6
CONTINUOUS
 10
71.607742923525365
 20
43.762199999999993
 30
0
 70
32
  0
VERTEX
  5
50946
  8
0
  6
CONTINUOUS
 10
71.422142923525371
 20
43.8123
 30
0
 70
32
  0
VERTEX
  5
50947
  8
0
  6
CONTINUOUS
 10
71.234542923525368
 20
43.8605
 30
0
 70
32
  0
VERTEX
  5
50948
  8
0
  6
CONTINUOUS
 10
71.045042923525372
 20
43.9069
 30
0
 70
32
  0
VERTEX
  5
50949
  8
0
  6
CONTINUOUS
 10
70.853642923525371
 20
43.9513
 30
0
 70
32
  0
VERTEX
  5
5094A
  8
0
  6
CONTINUOUS
 10
70.660542923525369
 20
43.993899999999989
 30
0
 70
32
  0
VERTEX
  5
5094B
  8
0
  6
CONTINUOUS
 10
70.465742923525369
 20
44.0345
 30
0
 70
32
  0
VERTEX
  5
5094C
  8
0
  6
CONTINUOUS
 10
70.269242923525368
 20
44.07309999999999
 30
0
 70
32
  0
VERTEX
  5
5094D
  8
0
  6
CONTINUOUS
 10
70.071242923525375
 20
44.1098
 30
0
 70
32
  0
VERTEX
  5
5094E
  8
0
  6
CONTINUOUS
 10
69.871742923525375
 20
44.1445
 30
0
 70
32
  0
VERTEX
  5
5094F
  8
0
  6
CONTINUOUS
 10
69.67084292352537
 20
44.1772
 30
0
 70
32
  0
VERTEX
  5
50950
  8
0
  6
CONTINUOUS
 10
69.46864292352538
 20
44.2079
 30
0
 70
32
  0
VERTEX
  5
50951
  8
0
  6
CONTINUOUS
 10
69.265142923525374
 20
44.2366
 30
0
 70
32
  0
VERTEX
  5
50952
  8
0
  6
CONTINUOUS
 10
69.060542923525361
 20
44.2633
 30
0
 70
32
  0
VERTEX
  5
50953
  8
0
  6
CONTINUOUS
 10
68.854742923525379
 20
44.2879
 30
0
 70
32
  0
VERTEX
  5
50954
  8
0
  6
CONTINUOUS
 10
68.648042923525367
 20
44.31049999999999
 30
0
 70
32
  0
VERTEX
  5
50955
  8
0
  6
CONTINUOUS
 10
68.440342923525378
 20
44.331
 30
0
 70
32
  0
VERTEX
  5
50956
  8
0
  6
CONTINUOUS
 10
68.231742923525374
 20
44.349499999999992
 30
0
 70
32
  0
VERTEX
  5
50957
  8
0
  6
CONTINUOUS
 10
68.022442923525375
 20
44.3659
 30
0
 70
32
  0
VERTEX
  5
50958
  8
0
  6
CONTINUOUS
 10
67.812342923525378
 20
44.3802
 30
0
 70
32
  0
VERTEX
  5
50959
  8
0
  6
CONTINUOUS
 10
67.601742923525364
 20
44.3925
 30
0
 70
32
  0
VERTEX
  5
5095A
  8
0
  6
CONTINUOUS
 10
67.390542923525373
 20
44.4026
 30
0
 70
32
  0
VERTEX
  5
5095B
  8
0
  6
CONTINUOUS
 10
67.178842923525366
 20
44.410699999999991
 30
0
 70
32
  0
VERTEX
  5
5095C
  8
0
  6
CONTINUOUS
 10
66.966742923525374
 20
44.4166
 30
0
 70
32
  0
VERTEX
  5
5095D
  8
0
  6
CONTINUOUS
 10
66.754442923525374
 20
44.4205
 30
0
 70
32
  0
VERTEX
  5
5095E
  8
0
  6
CONTINUOUS
 10
66.541842923525365
 20
44.4223
 30
0
 70
32
  0
VERTEX
  5
5095F
  8
0
  6
CONTINUOUS
 10
66.329142923525367
 20
44.42199999999999
 30
0
 70
32
  0
VERTEX
  5
50960
  8
0
  6
CONTINUOUS
 10
66.175971461762686
 20
44.420199677224232
 30
0
 70
32
  0
SEQEND
  5
50961
  8
0
  0
POLYLINE
  5
50962
  8
0
  6
CONTINUOUS
 66
1
 70
8
  0
VERTEX
  5
50963
  8
0
  6
CONTINUOUS
 10
74.687442923525353
 20
42.265399999999993
 30
0
 70
32
  0
VERTEX
  5
50964
  8
0
  6
CONTINUOUS
 10
74.465242923525381
 20
42.397
 30
0
 70
32
  0
VERTEX
  5
50965
  8
0
  6
CONTINUOUS
 10
74.234842923525363
 20
42.525
 30
0
 70
32
  0
VERTEX
  5
50966
  8
0
  6
CONTINUOUS
 10
73.996442923525365
 20
42.64929999999999
 30
0
 70
32
  0
VERTEX
  5
50967
  8
0
  6
CONTINUOUS
 10
73.750242923525377
 20
42.7697
 30
0
 70
32
  0
VERTEX
  5
50968
  8
0
  6
CONTINUOUS
 10
73.496542923525354
 20
42.8862
 30
0
 70
32
  0
VERTEX
  5
50969
  8
0
  6
CONTINUOUS
 10
73.235542923525372
 20
42.9986
 30
0
 70
32
  0
VERTEX
  5
5096A
  8
0
  6
CONTINUOUS
 10
72.967542923525372
 20
43.1067
 30
0
 70
32
  0
VERTEX
  5
5096B
  8
0
  6
CONTINUOUS
 10
72.692842923525376
 20
43.2106
 30
0
 70
32
  0
VERTEX
  5
5096C
  8
0
  6
CONTINUOUS
 10
72.411642923525363
 20
43.3101
 30
0
 70
32
  0
VERTEX
  5
5096D
  8
0
  6
CONTINUOUS
 10
72.124242923525372
 20
43.405
 30
0
 70
32
  0
VERTEX
  5
5096E
  8
0
  6
CONTINUOUS
 10
71.830842923525381
 20
43.4954
 30
0
 70
32
  0
VERTEX
  5
5096F
  8
0
  6
CONTINUOUS
 10
71.531942923525364
 20
43.581
 30
0
 70
32
  0
VERTEX
  5
50970
  8
0
  6
CONTINUOUS
 10
71.227642923525366
 20
43.6619
 30
0
 70
32
  0
VERTEX
  5
50971
  8
0
  6
CONTINUOUS
 10
70.918342923525373
 20
43.7379
 30
0
 70
32
  0
VERTEX
  5
50972
  8
0
  6
CONTINUOUS
 10
70.604342923525365
 20
43.80899999999999
 30
0
 70
32
  0
VERTEX
  5
50973
  8
0
  6
CONTINUOUS
 10
70.285942923525354
 20
43.8751
 30
0
 70
32
  0
VERTEX
  5
50974
  8
0
  6
CONTINUOUS
 10
69.963542923525381
 20
43.9361
 30
0
 70
32
  0
VERTEX
  5
50975
  8
0
  6
CONTINUOUS
 10
69.637242923525363
 20
43.99199999999999
 30
0
 70
32
  0
VERTEX
  5
50976
  8
0
  6
CONTINUOUS
 10
69.307542923525375
 20
44.0427
 30
0
 70
32
  0
VERTEX
  5
50977
  8
0
  6
CONTINUOUS
 10
68.974742923525369
 20
44.08809999999999
 30
0
 70
32
  0
VERTEX
  5
50978
  8
0
  6
CONTINUOUS
 10
68.639242923525373
 20
44.1283
 30
0
 70
32
  0
VERTEX
  5
50979
  8
0
  6
CONTINUOUS
 10
68.301142923525376
 20
44.1632
 30
0
 70
32
  0
VERTEX
  5
5097A
  8
0
  6
CONTINUOUS
 10
67.961042923525369
 20
44.1927
 30
0
 70
32
  0
VERTEX
  5
5097B
  8
0
  6
CONTINUOUS
 10
67.619142923525374
 20
44.2168
 30
0
 70
32
  0
VERTEX
  5
5097C
  8
0
  6
CONTINUOUS
 10
67.275742923525371
 20
44.2355
 30
0
 70
32
  0
VERTEX
  5
5097D
  8
0
  6
CONTINUOUS
 10
66.931342923525378
 20
44.2487
 30
0
 70
32
  0
VERTEX
  5
5097E
  8
0
  6
CONTINUOUS
 10
66.586142923525372
 20
44.256599999999992
 30
0
 70
32
  0
VERTEX
  5
5097F
  8
0
  6
CONTINUOUS
 10
66.240542923525354
 20
44.259
 30
0
 70
32
  0
VERTEX
  5
50980
  8
0
  6
CONTINUOUS
 10
66.175971461762686
 20
44.258420967510958
 30
0
 70
32
  0
SEQEND
  5
50981
  8
0
  0
ARC
  5
50982
  8
0
  6
CONTINUOUS
 10
71.7509467358998
 20
36.947297016795289
 30
0
 40
6.2489992744788641
 50
28.715557051210993
 51
60.805177322807609
  0
ARC
  5
50983
  8
0
  6
CONTINUOUS
 10
71.304559044795838
 20
36.319221828751331
 30
0
 40
6.8411092526842721
 50
31.873773304256439
 51
60.363825556321338
  0
ARC
  5
50984
  8
0
  6
CONTINUOUS
 10
72.022639130478865
 20
37.09585320694773
 30
0
 40
5.62024354399803
 50
29.03177209365564
 51
58.597245656029472
  0
ARC
  5
50985
  8
0
  6
CONTINUOUS
 10
74.72096628464476
 20
38.81189355439507
 30
0
 40
3.5610434392703718
 50
345.92874237535949
 51
35.663215833574753
  0
POLYLINE
  5
50986
  8
0
  6
CONTINUOUS
 66
1
 70
8
  0
VERTEX
  5
50987
  8
0
  6
CONTINUOUS
 10
71.1752755733554
 20
44.381250776403
 30
0
 70
32
  0
VERTEX
  5
50988
  8
0
  6
CONTINUOUS
 10
70.828542923525362
 20
44.46849458522734
 30
0
 70
32
  0
VERTEX
  5
50989
  8
0
  6
CONTINUOUS
 10
70.337942923525361
 20
44.577094585227343
 30
0
 70
32
  0
VERTEX
  5
5098A
  8
0
  6
CONTINUOUS
 10
69.837442923525373
 20
44.673494585227338
 30
0
 70
32
  0
VERTEX
  5
5098B
  8
0
  6
CONTINUOUS
 10
69.328042923525373
 20
44.757394585227338
 30
0
 70
32
  0
VERTEX
  5
5098C
  8
0
  6
CONTINUOUS
 10
68.811142923525381
 20
44.828694585227339
 30
0
 70
32
  0
VERTEX
  5
5098D
  8
0
  6
CONTINUOUS
 10
68.287842923525375
 20
44.887194585227348
 30
0
 70
32
  0
VERTEX
  5
5098E
  8
0
  6
CONTINUOUS
 10
67.75944292352537
 20
44.932694585227352
 30
0
 70
32
  0
VERTEX
  5
5098F
  8
0
  6
CONTINUOUS
 10
67.227242923525367
 20
44.965194585227337
 30
0
 70
32
  0
VERTEX
  5
50990
  8
0
  6
CONTINUOUS
 10
66.692542923525366
 20
44.984494585227338
 30
0
 70
32
  0
VERTEX
  5
50991
  8
0
  6
CONTINUOUS
 10
66.175971461762686
 20
44.99037347686307
 30
0
 70
32
  0
SEQEND
  5
50992
  8
0
  0
POLYLINE
  5
50993
  8
0
  6
CONTINUOUS
 66
1
 70
8
  0
VERTEX
  5
50994
  8
0
  6
CONTINUOUS
 10
71.1752755733554
 20
44.538759343953522
 30
0
 70
32
  0
VERTEX
  5
50995
  8
0
  6
CONTINUOUS
 10
71.050042923525353
 20
44.570494585227337
 30
0
 70
32
  0
VERTEX
  5
50996
  8
0
  6
CONTINUOUS
 10
70.857542923525372
 20
44.61689458522735
 30
0
 70
32
  0
VERTEX
  5
50997
  8
0
  6
CONTINUOUS
 10
70.663242923525374
 20
44.661394585227349
 30
0
 70
32
  0
VERTEX
  5
50998
  8
0
  6
CONTINUOUS
 10
70.467242923525362
 20
44.703894585227339
 30
0
 70
32
  0
VERTEX
  5
50999
  8
0
  6
CONTINUOUS
 10
70.269642923525367
 20
44.74459458522734
 30
0
 70
32
  0
VERTEX
  5
5099A
  8
0
  6
CONTINUOUS
 10
70.070442923525377
 20
44.783194585227349
 30
0
 70
32
  0
VERTEX
  5
5099B
  8
0
  6
CONTINUOUS
 10
69.869642923525362
 20
44.819894585227338
 30
0
 70
32
  0
VERTEX
  5
5099C
  8
0
  6
CONTINUOUS
 10
69.667542923525374
 20
44.854594585227339
 30
0
 70
32
  0
VERTEX
  5
5099D
  8
0
  6
CONTINUOUS
 10
69.464042923525369
 20
44.887294585227338
 30
0
 70
32
  0
VERTEX
  5
5099E
  8
0
  6
CONTINUOUS
 10
69.259342923525367
 20
44.917894585227337
 30
0
 70
32
  0
VERTEX
  5
5099F
  8
0
  6
CONTINUOUS
 10
69.053442923525381
 20
44.946594585227338
 30
0
 70
32
  0
VERTEX
  5
509A0
  8
0
  6
CONTINUOUS
 10
68.846442923525373
 20
44.97319458522734
 30
0
 70
32
  0
VERTEX
  5
509A1
  8
0
  6
CONTINUOUS
 10
68.638342923525371
 20
44.99769458522735
 30
0
 70
32
  0
VERTEX
  5
509A2
  8
0
  6
CONTINUOUS
 10
68.429342923525368
 20
45.020194585227337
 30
0
 70
32
  0
VERTEX
  5
509A3
  8
0
  6
CONTINUOUS
 10
68.219542923525367
 20
45.040594585227353
 30
0
 70
32
  0
VERTEX
  5
509A4
  8
0
  6
CONTINUOUS
 10
68.008942923525368
 20
45.05889458522735
 30
0
 70
32
  0
VERTEX
  5
509A5
  8
0
  6
CONTINUOUS
 10
67.79754292352537
 20
45.075194585227337
 30
0
 70
32
  0
VERTEX
  5
509A6
  8
0
  6
CONTINUOUS
 10
67.585542923525367
 20
45.089394585227353
 30
0
 70
32
  0
VERTEX
  5
509A7
  8
0
  6
CONTINUOUS
 10
67.373042923525375
 20
45.101394585227347
 30
0
 70
32
  0
VERTEX
  5
509A8
  8
0
  6
CONTINUOUS
 10
67.16014292352537
 20
45.111394585227337
 30
0
 70
32
  0
VERTEX
  5
509A9
  8
0
  6
CONTINUOUS
 10
66.946742923525363
 20
45.119294585227337
 30
0
 70
32
  0
VERTEX
  5
509AA
  8
0
  6
CONTINUOUS
 10
66.733142923525378
 20
45.124994585227348
 30
0
 70
32
  0
VERTEX
  5
509AB
  8
0
  6
CONTINUOUS
 10
66.519242923525368
 20
45.128694585227343
 30
0
 70
32
  0
VERTEX
  5
509AC
  8
0
  6
CONTINUOUS
 10
66.305342923525373
 20
45.13029458522734
 30
0
 70
32
  0
VERTEX
  5
509AD
  8
0
  6
CONTINUOUS
 10
66.175971461762686
 20
45.129932030920678
 30
0
 70
32
  0
SEQEND
  5
509AE
  8
0
  0
POLYLINE
  5
509AF
  8
0
  6
CONTINUOUS
 66
1
 70
8
  0
VERTEX
  5
509B0
  8
0
  6
CONTINUOUS
 10
71.1752755733554
 20
44.921406485216188
 30
0
 70
32
  0
VERTEX
  5
509B1
  8
0
  6
CONTINUOUS
 10
71.045042923525372
 20
44.953294585227347
 30
0
 70
32
  0
VERTEX
  5
509B2
  8
0
  6
CONTINUOUS
 10
70.853642923525371
 20
44.99769458522735
 30
0
 70
32
  0
VERTEX
  5
509B3
  8
0
  6
CONTINUOUS
 10
70.660542923525369
 20
45.040294585227343
 30
0
 70
32
  0
VERTEX
  5
509B4
  8
0
  6
CONTINUOUS
 10
70.465742923525369
 20
45.080894585227348
 30
0
 70
32
  0
VERTEX
  5
509B5
  8
0
  6
CONTINUOUS
 10
70.269242923525368
 20
45.119494585227343
 30
0
 70
32
  0
VERTEX
  5
509B6
  8
0
  6
CONTINUOUS
 10
70.071242923525375
 20
45.15619458522734
 30
0
 70
32
  0
VERTEX
  5
509B7
  8
0
  6
CONTINUOUS
 10
69.871742923525375
 20
45.19089458522734
 30
0
 70
32
  0
VERTEX
  5
509B8
  8
0
  6
CONTINUOUS
 10
69.67084292352537
 20
45.223594585227353
 30
0
 70
32
  0
VERTEX
  5
509B9
  8
0
  6
CONTINUOUS
 10
69.46864292352538
 20
45.254294585227349
 30
0
 70
32
  0
VERTEX
  5
509BA
  8
0
  6
CONTINUOUS
 10
69.265142923525374
 20
45.282994585227343
 30
0
 70
32
  0
VERTEX
  5
509BB
  8
0
  6
CONTINUOUS
 10
69.060542923525361
 20
45.309694585227348
 30
0
 70
32
  0
VERTEX
  5
509BC
  8
0
  6
CONTINUOUS
 10
68.854742923525379
 20
45.334294585227347
 30
0
 70
32
  0
VERTEX
  5
509BD
  8
0
  6
CONTINUOUS
 10
68.648042923525367
 20
45.356894585227337
 30
0
 70
32
  0
VERTEX
  5
509BE
  8
0
  6
CONTINUOUS
 10
68.440342923525378
 20
45.37739458522735
 30
0
 70
32
  0
VERTEX
  5
509BF
  8
0
  6
CONTINUOUS
 10
68.231742923525374
 20
45.395894585227339
 30
0
 70
32
  0
VERTEX
  5
509C0
  8
0
  6
CONTINUOUS
 10
68.022442923525375
 20
45.412294585227343
 30
0
 70
32
  0
VERTEX
  5
509C1
  8
0
  6
CONTINUOUS
 10
67.812342923525378
 20
45.426594585227342
 30
0
 70
32
  0
VERTEX
  5
509C2
  8
0
  6
CONTINUOUS
 10
67.601742923525364
 20
45.438894585227338
 30
0
 70
32
  0
VERTEX
  5
509C3
  8
0
  6
CONTINUOUS
 10
67.390542923525373
 20
45.448994585227339
 30
0
 70
32
  0
VERTEX
  5
509C4
  8
0
  6
CONTINUOUS
 10
67.178842923525366
 20
45.457094585227338
 30
0
 70
32
  0
VERTEX
  5
509C5
  8
0
  6
CONTINUOUS
 10
66.966742923525374
 20
45.462994585227342
 30
0
 70
32
  0
VERTEX
  5
509C6
  8
0
  6
CONTINUOUS
 10
66.754442923525374
 20
45.466894585227337
 30
0
 70
32
  0
VERTEX
  5
509C7
  8
0
  6
CONTINUOUS
 10
66.541842923525365
 20
45.46869458522734
 30
0
 70
32
  0
VERTEX
  5
509C8
  8
0
  6
CONTINUOUS
 10
66.329142923525367
 20
45.468394585227337
 30
0
 70
32
  0
VERTEX
  5
509C9
  8
0
  6
CONTINUOUS
 10
66.175971461762686
 20
45.466594262451579
 30
0
 70
32
  0
SEQEND
  5
509CA
  8
0
  0
POLYLINE
  5
509CB
  8
0
  6
CONTINUOUS
 66
1
 70
8
  0
VERTEX
  5
509CC
  8
0
  6
CONTINUOUS
 10
71.1752755733554
 20
44.721162088017252
 30
0
 70
32
  0
VERTEX
  5
509CD
  8
0
  6
CONTINUOUS
 10
70.918342923525373
 20
44.78429458522735
 30
0
 70
32
  0
VERTEX
  5
509CE
  8
0
  6
CONTINUOUS
 10
70.604342923525365
 20
44.855394585227337
 30
0
 70
32
  0
VERTEX
  5
509CF
  8
0
  6
CONTINUOUS
 10
70.285942923525354
 20
44.921494585227343
 30
0
 70
32
  0
VERTEX
  5
509D0
  8
0
  6
CONTINUOUS
 10
69.963542923525381
 20
44.982494585227343
 30
0
 70
32
  0
VERTEX
  5
509D1
  8
0
  6
CONTINUOUS
 10
69.637242923525363
 20
45.038394585227337
 30
0
 70
32
  0
VERTEX
  5
509D2
  8
0
  6
CONTINUOUS
 10
69.307542923525375
 20
45.08909458522735
 30
0
 70
32
  0
VERTEX
  5
509D3
  8
0
  6
CONTINUOUS
 10
68.974742923525369
 20
45.134494585227337
 30
0
 70
32
  0
VERTEX
  5
509D4
  8
0
  6
CONTINUOUS
 10
68.639242923525373
 20
45.17469458522735
 30
0
 70
32
  0
VERTEX
  5
509D5
  8
0
  6
CONTINUOUS
 10
68.301142923525376
 20
45.209594585227343
 30
0
 70
32
  0
VERTEX
  5
509D6
  8
0
  6
CONTINUOUS
 10
67.961042923525369
 20
45.239094585227349
 30
0
 70
32
  0
VERTEX
  5
509D7
  8
0
  6
CONTINUOUS
 10
67.619142923525374
 20
45.263194585227339
 30
0
 70
32
  0
VERTEX
  5
509D8
  8
0
  6
CONTINUOUS
 10
67.275742923525371
 20
45.281894585227342
 30
0
 70
32
  0
VERTEX
  5
509D9
  8
0
  6
CONTINUOUS
 10
66.931342923525378
 20
45.295094585227339
 30
0
 70
32
  0
VERTEX
  5
509DA
  8
0
  6
CONTINUOUS
 10
66.586142923525372
 20
45.302994585227339
 30
0
 70
32
  0
VERTEX
  5
509DB
  8
0
  6
CONTINUOUS
 10
66.240542923525354
 20
45.30539458522734
 30
0
 70
32
  0
VERTEX
  5
509DC
  8
0
  6
CONTINUOUS
 10
66.175971461762686
 20
45.3048155527383
 30
0
 70
32
  0
SEQEND
  5
509DD
  8
0
  0
ARC
  5
509DE
  8
0
  6
CONTINUOUS
 10
69.413699960928724
 20
33.453314142478163
 30
0
 40
11.069008434063679
 50
42.196206885756361
 51
80.842736635865
  0
ARC
  5
509DF
  8
0
  6
CONTINUOUS
 10
69.413699960928753
 20
33.610822710028678
 30
0
 40
11.069008434063679
 50
42.196206885756361
 51
80.842736635865
  0
ARC
  5
509E0
  8
0
  6
CONTINUOUS
 10
69.413699960928753
 20
33.793225454092408
 30
0
 40
11.069008434063679
 50
42.196206885756361
 51
80.842736635865
  0
ARC
  5
509E1
  8
0
  6
CONTINUOUS
 10
69.413699960928724
 20
33.993469851291351
 30
0
 40
11.069008434063679
 50
42.196206885756361
 51
80.842736635865
  0
ARC
  5
509E2
  8
0
  6
CONTINUOUS
 10
74.776998933138088
 20
38.704592381903673
 30
0
 40
3.6782660513545591
 50
17.83645481257464
 51
39.526316807749808
  0
ARC
  5
509E3
  8
0
  6
CONTINUOUS
 10
74.776998933138088
 20
38.8869951259674
 30
0
 40
3.6782660513545591
 50
17.83645481257464
 51
39.526316807749808
  0
ARC
  5
509E4
  8
0
  6
CONTINUOUS
 10
74.776998933138074
 20
39.087239523166339
 30
0
 40
3.6782660513545591
 50
17.836454812574232
 51
39.526316807749808
  0
POLYLINE
  5
509E5
  8
0
  6
CONTINUOUS
 66
1
 70
8
  0
VERTEX
  5
509E6
  8
0
  6
CONTINUOUS
 10
72.432545502872813
 20
45.024657320305728
 30
0
 70
32
  0
VERTEX
  5
509E7
  8
0
  6
CONTINUOUS
 10
72.328742923525368
 20
45.059793244930212
 30
0
 70
32
  0
VERTEX
  5
509E8
  8
0
  6
CONTINUOUS
 10
72.151842923525379
 20
45.117193244930213
 30
0
 70
32
  0
VERTEX
  5
509E9
  8
0
  6
CONTINUOUS
 10
71.97264292352537
 20
45.1726932449302
 30
0
 70
32
  0
VERTEX
  5
509EA
  8
0
  6
CONTINUOUS
 10
71.791242923525374
 20
45.226493244930211
 30
0
 70
32
  0
VERTEX
  5
509EB
  8
0
  6
CONTINUOUS
 10
71.607742923525365
 20
45.27849324493021
 30
0
 70
32
  0
VERTEX
  5
509EC
  8
0
  6
CONTINUOUS
 10
71.422142923525371
 20
45.328593244930211
 30
0
 70
32
  0
VERTEX
  5
509ED
  8
0
  6
CONTINUOUS
 10
71.234542923525368
 20
45.376793244930212
 30
0
 70
32
  0
VERTEX
  5
509EE
  8
0
  6
CONTINUOUS
 10
71.045042923525372
 20
45.4231932449302
 30
0
 70
32
  0
VERTEX
  5
509EF
  8
0
  6
CONTINUOUS
 10
70.853642923525371
 20
45.467593244930207
 30
0
 70
32
  0
VERTEX
  5
509F0
  8
0
  6
CONTINUOUS
 10
70.660542923525369
 20
45.510193244930207
 30
0
 70
32
  0
VERTEX
  5
509F1
  8
0
  6
CONTINUOUS
 10
70.465742923525369
 20
45.5507932449302
 30
0
 70
32
  0
VERTEX
  5
509F2
  8
0
  6
CONTINUOUS
 10
70.269242923525368
 20
45.5893932449302
 30
0
 70
32
  0
VERTEX
  5
509F3
  8
0
  6
CONTINUOUS
 10
70.071242923525375
 20
45.62609324493021
 30
0
 70
32
  0
VERTEX
  5
509F4
  8
0
  6
CONTINUOUS
 10
69.871742923525375
 20
45.660793244930211
 30
0
 70
32
  0
VERTEX
  5
509F5
  8
0
  6
CONTINUOUS
 10
69.67084292352537
 20
45.6934932449302
 30
0
 70
32
  0
VERTEX
  5
509F6
  8
0
  6
CONTINUOUS
 10
69.46864292352538
 20
45.724193244930213
 30
0
 70
32
  0
VERTEX
  5
509F7
  8
0
  6
CONTINUOUS
 10
69.265142923525374
 20
45.752893244930213
 30
0
 70
32
  0
VERTEX
  5
509F8
  8
0
  6
CONTINUOUS
 10
69.060542923525361
 20
45.779593244930211
 30
0
 70
32
  0
VERTEX
  5
509F9
  8
0
  6
CONTINUOUS
 10
68.854742923525379
 20
45.8041932449302
 30
0
 70
32
  0
VERTEX
  5
509FA
  8
0
  6
CONTINUOUS
 10
68.648042923525367
 20
45.8267932449302
 30
0
 70
32
  0
VERTEX
  5
509FB
  8
0
  6
CONTINUOUS
 10
68.440342923525378
 20
45.847293244930214
 30
0
 70
32
  0
VERTEX
  5
509FC
  8
0
  6
CONTINUOUS
 10
68.231742923525374
 20
45.865793244930209
 30
0
 70
32
  0
VERTEX
  5
509FD
  8
0
  6
CONTINUOUS
 10
68.022442923525375
 20
45.882193244930207
 30
0
 70
32
  0
VERTEX
  5
509FE
  8
0
  6
CONTINUOUS
 10
67.812342923525378
 20
45.896493244930213
 30
0
 70
32
  0
VERTEX
  5
509FF
  8
0
  6
CONTINUOUS
 10
67.601742923525364
 20
45.908793244930209
 30
0
 70
32
  0
VERTEX
  5
50A00
  8
0
  6
CONTINUOUS
 10
67.390542923525373
 20
45.91889324493021
 30
0
 70
32
  0
VERTEX
  5
50A01
  8
0
  6
CONTINUOUS
 10
67.178842923525366
 20
45.926993244930209
 30
0
 70
32
  0
VERTEX
  5
50A02
  8
0
  6
CONTINUOUS
 10
66.966742923525374
 20
45.932893244930213
 30
0
 70
32
  0
VERTEX
  5
50A03
  8
0
  6
CONTINUOUS
 10
66.754442923525374
 20
45.9367932449302
 30
0
 70
32
  0
VERTEX
  5
50A04
  8
0
  6
CONTINUOUS
 10
66.541842923525365
 20
45.93859324493021
 30
0
 70
32
  0
VERTEX
  5
50A05
  8
0
  6
CONTINUOUS
 10
66.329142923525367
 20
45.938293244930207
 30
0
 70
32
  0
VERTEX
  5
50A06
  8
0
  6
CONTINUOUS
 10
66.175971461762686
 20
45.936492922154443
 30
0
 70
32
  0
SEQEND
  5
50A07
  8
0
  0
POLYLINE
  5
50A08
  8
0
  6
CONTINUOUS
 66
1
 70
8
  0
VERTEX
  5
50A09
  8
0
  6
CONTINUOUS
 10
72.432545502872813
 20
45.092958706569938
 30
0
 70
32
  0
VERTEX
  5
50A0A
  8
0
  6
CONTINUOUS
 10
72.328742923525368
 20
45.128094631194422
 30
0
 70
32
  0
VERTEX
  5
50A0B
  8
0
  6
CONTINUOUS
 10
72.151842923525379
 20
45.185494631194423
 30
0
 70
32
  0
VERTEX
  5
50A0C
  8
0
  6
CONTINUOUS
 10
71.97264292352537
 20
45.240994631194411
 30
0
 70
32
  0
VERTEX
  5
50A0D
  8
0
  6
CONTINUOUS
 10
71.791242923525374
 20
45.294794631194421
 30
0
 70
32
  0
VERTEX
  5
50A0E
  8
0
  6
CONTINUOUS
 10
71.607742923525365
 20
45.34679463119442
 30
0
 70
32
  0
VERTEX
  5
50A0F
  8
0
  6
CONTINUOUS
 10
71.422142923525371
 20
45.396894631194421
 30
0
 70
32
  0
VERTEX
  5
50A10
  8
0
  6
CONTINUOUS
 10
71.234542923525368
 20
45.445094631194422
 30
0
 70
32
  0
VERTEX
  5
50A11
  8
0
  6
CONTINUOUS
 10
71.045042923525372
 20
45.491494631194421
 30
0
 70
32
  0
VERTEX
  5
50A12
  8
0
  6
CONTINUOUS
 10
70.853642923525371
 20
45.535894631194417
 30
0
 70
32
  0
VERTEX
  5
50A13
  8
0
  6
CONTINUOUS
 10
70.660542923525369
 20
45.57849463119441
 30
0
 70
32
  0
VERTEX
  5
50A14
  8
0
  6
CONTINUOUS
 10
70.465742923525369
 20
45.619094631194422
 30
0
 70
32
  0
VERTEX
  5
50A15
  8
0
  6
CONTINUOUS
 10
70.269242923525368
 20
45.65769463119441
 30
0
 70
32
  0
VERTEX
  5
50A16
  8
0
  6
CONTINUOUS
 10
70.071242923525375
 20
45.69439463119442
 30
0
 70
32
  0
VERTEX
  5
50A17
  8
0
  6
CONTINUOUS
 10
69.871742923525375
 20
45.729094631194421
 30
0
 70
32
  0
VERTEX
  5
50A18
  8
0
  6
CONTINUOUS
 10
69.67084292352537
 20
45.761794631194419
 30
0
 70
32
  0
VERTEX
  5
50A19
  8
0
  6
CONTINUOUS
 10
69.46864292352538
 20
45.792494631194423
 30
0
 70
32
  0
VERTEX
  5
50A1A
  8
0
  6
CONTINUOUS
 10
69.265142923525374
 20
45.821194631194423
 30
0
 70
32
  0
VERTEX
  5
50A1B
  8
0
  6
CONTINUOUS
 10
69.060542923525361
 20
45.847894631194421
 30
0
 70
32
  0
VERTEX
  5
50A1C
  8
0
  6
CONTINUOUS
 10
68.854742923525379
 20
45.872494631194421
 30
0
 70
32
  0
VERTEX
  5
50A1D
  8
0
  6
CONTINUOUS
 10
68.648042923525367
 20
45.895094631194411
 30
0
 70
32
  0
VERTEX
  5
50A1E
  8
0
  6
CONTINUOUS
 10
68.440342923525378
 20
45.915594631194423
 30
0
 70
32
  0
VERTEX
  5
50A1F
  8
0
  6
CONTINUOUS
 10
68.231742923525374
 20
45.934094631194412
 30
0
 70
32
  0
VERTEX
  5
50A20
  8
0
  6
CONTINUOUS
 10
68.022442923525375
 20
45.950494631194417
 30
0
 70
32
  0
VERTEX
  5
50A21
  8
0
  6
CONTINUOUS
 10
67.812342923525378
 20
45.964794631194422
 30
0
 70
32
  0
VERTEX
  5
50A22
  8
0
  6
CONTINUOUS
 10
67.601742923525364
 20
45.977094631194419
 30
0
 70
32
  0
VERTEX
  5
50A23
  8
0
  6
CONTINUOUS
 10
67.390542923525373
 20
45.98719463119442
 30
0
 70
32
  0
VERTEX
  5
50A24
  8
0
  6
CONTINUOUS
 10
67.178842923525366
 20
45.995294631194412
 30
0
 70
32
  0
VERTEX
  5
50A25
  8
0
  6
CONTINUOUS
 10
66.966742923525374
 20
46.001194631194423
 30
0
 70
32
  0
VERTEX
  5
50A26
  8
0
  6
CONTINUOUS
 10
66.754442923525374
 20
46.005094631194417
 30
0
 70
32
  0
VERTEX
  5
50A27
  8
0
  6
CONTINUOUS
 10
66.541842923525365
 20
46.00689463119442
 30
0
 70
32
  0
VERTEX
  5
50A28
  8
0
  6
CONTINUOUS
 10
66.329142923525367
 20
46.00659463119441
 30
0
 70
32
  0
VERTEX
  5
50A29
  8
0
  6
CONTINUOUS
 10
66.175971461762686
 20
46.004794308418653
 30
0
 70
32
  0
SEQEND
  5
50A2A
  8
0
  0
ARC
  5
50A2B
  8
0
  6
CONTINUOUS
 10
69.568377908682763
 20
33.900578333029323
 30
0
 40
11.486887712638829
 50
50.456905155568492
 51
75.561400638605718
  0
ARC
  5
50A2C
  8
0
  6
CONTINUOUS
 10
74.1365797620993
 20
39.426883276490479
 30
0
 40
4.3169181581239711
 50
18.102081287268259
 51
50.51506166134569
  0
ARC
  5
50A2D
  8
0
  6
CONTINUOUS
 10
69.568377908682763
 20
33.968879719293518
 30
0
 40
11.486887712638829
 50
50.456905155568492
 51
75.561400638605718
  0
ARC
  5
50A2E
  8
0
  6
CONTINUOUS
 10
74.1365797620993
 20
39.495184662754681
 30
0
 40
4.3169181581239711
 50
18.491656970671489
 51
50.51506166134569
  0
ARC
  5
50A2F
  8
0
  6
CONTINUOUS
 10
63.738329781639962
 20
39.427205206035978
 30
0
 40
14.56337041766712
 50
357.73721348117869
 51
5.742476359309383
  0
ARC
  5
50A30
  8
0
  6
CONTINUOUS
 10
66.8738831067772
 20
30.36213719308795
 30
0
 40
15.965344724783179
 50
58.987615757483567
 51
92.5054352968416
  0
INSERT
  5
50B7C
  8
0
  2
SPECEL-CP5009M
 10
89.797693171442575
 20
4.4501049315867647
 30
0
 41
1
 42
1
 43
1
 50
0
  0
ENDSEC
999
Created By CadLib version 4.0.36.7
999
CadLib website: www.woutware.com
  0
EOF
