  0
SECTION
  2
HEADER
  9
$ACADVER
  1
AC1015
  9
$ACADMAINTVER
 70
6
  9
$DWGCODEPAGE
  3
ANSI_932
  9
$INSBASE
 10
0.0
 20
0.0
 30
0.0
  9
$EXTMIN
 10
0.0
 20
0.0
 30
0.0
  9
$EXTMAX
 10
0.0
 20
0.0
 30
0.0
  9
$LIMMIN
 10
0.0
 20
0.0
  9
$LIMMAX
 10
12.0
 20
9.0
  9
$ORTHOMODE
 70
0
  9
$REGENMODE
 70
1
  9
$FILLMODE
 70
1
  9
$QTEXTMODE
 70
0
  9
$MIRRTEXT
 70
1
  9
$LTSCALE
 40
1.0
  9
$ATTMODE
 70
1
  9
$TEXTSIZE
 40
0.2
  9
$TRACEWID
 40
1.0
  9
$TEXTSTYLE
  7
STANDARD
  9
$CLAYER
  8
__
  9
$CELTYPE
  6
ByLayer
  9
$CECOLOR
 62
256
  9
$CELTSCALE
 40
1.0
  9
$DISPSILH
 70
0
  9
$DIMSCALE
 40
1.0
  9
$DIMASZ
 40
0.18
  9
$DIMEXO
 40
0.0625
  9
$DIMDLI
 40
0.38
  9
$DIMRND
 40
0.0
  9
$DIMDLE
 40
0.0
  9
$DIMEXE
 40
0.18
  9
$DIMTP
 40
0.0
  9
$DIMTM
 40
0.0
  9
$DIMTXT
 40
0.18
  9
$DIMCEN
 40
0.09
  9
$DIMTSZ
 40
0.0
  9
$DIMTOL
 70
0
  9
$DIMLIM
 70
0
  9
$DIMTIH
 70
1
  9
$DIMTOH
 70
1
  9
$DIMSE1
 70
0
  9
$DIMSE2
 70
0
  9
$DIMTAD
 70
0
  9
$DIMZIN
 70
0
  9
$DIMBLK
  1

  9
$DIMASO
 70
1
  9
$DIMSHO
 70
1
  9
$DIMPOST
  1

  9
$DIMAPOST
  1

  9
$DIMALT
 70
0
  9
$DIMALTD
 70
2
  9
$DIMALTF
 40
25.4
  9
$DIMLFAC
 40
1.0
  9
$DIMTOFL
 70
0
  9
$DIMTVP
 40
0.0
  9
$DIMTIX
 70
0
  9
$DIMSOXD
 70
0
  9
$DIMSAH
 70
0
  9
$DIMBLK1
  1

  9
$DIMBLK2
  1

  9
$DIMSTYLE
  2
STANDARD
  9
$DIMCLRD
 70
0
  9
$DIMCLRE
 70
0
  9
$DIMCLRT
 70
0
  9
$DIMTFAC
 40
1.0
  9
$DIMGAP
 40
0.09
  9
$DIMJUST
 70
0
  9
$DIMSD1
 70
0
  9
$DIMSD2
 70
0
  9
$DIMTOLJ
 70
1
  9
$DIMTZIN
 70
0
  9
$DIMALTZ
 70
0
  9
$DIMALTTZ
 70
0
  9
$DIMUPT
 70
0
  9
$DIMDEC
 70
4
  9
$DIMTDEC
 70
4
  9
$DIMALTU
 70
2
  9
$DIMALTTD
 70
2
  9
$DIMTXSTY
  7
STANDARD
  9
$DIMAUNIT
 70
0
  9
$DIMADEC
 70
0
  9
$DIMALTRND
 40
0.0
  9
$DIMAZIN
 70
0
  9
$DIMDSEP
 70
46
  9
$DIMATFIT
 70
3
  9
$DIMFRAC
 70
0
  9
$DIMLDRBLK
  1

  9
$DIMLUNIT
 70
2
  9
$DIMLWD
 70
-2
  9
$DIMLWE
 70
-2
  9
$DIMTMOVE
 70
0
  9
$LUNITS
 70
2
  9
$LUPREC
 70
2
  9
$SKETCHINC
 40
0.1
  9
$FILLETRAD
 40
0.5
  9
$AUNITS
 70
0
  9
$AUPREC
 70
2
  9
$MENU
  1
.
  9
$ELEVATION
 40
0.0
  9
$PELEVATION
 40
0.0
  9
$THICKNESS
 40
0.0
  9
$LIMCHECK
 70
0
  9
$CHAMFERA
 40
0.0
  9
$CHAMFERB
 40
0.0
  9
$CHAMFERC
 40
0.0
  9
$CHAMFERD
 40
0.0
  9
$SKPOLY
 70
0
  9
$TDCREATE
 40
2459474.689189815
  9
$TDUCREATE
 40
2459044.413842593
  9
$TDUPDATE
 40
2459474.689189815
  9
$TDUUPDATE
 40
2459045.001064815
  9
$TDINDWG
 40
0.001006956
  9
$TDUSRTIMER
 40
0.0009953819
  9
$USRTIMER
 70
1
  9
$ANGBASE
 50
0.0
  9
$ANGDIR
 70
0
  9
$PDMODE
 70
1
  9
$PDSIZE
 40
-2.0
  9
$PLINEWID
 40
0.0
  9
$SPLFRAME
 70
0
  9
$SPLINETYPE
 70
6
  9
$SPLINESEGS
 70
8
  9
$HANDSEED
  5
EE9
  9
$SURFTAB1
 70
6
  9
$SURFTAB2
 70
6
  9
$SURFTYPE
 70
6
  9
$SURFU
 70
6
  9
$SURFV
 70
6
  9
$UCSBASE
  2

  9
$UCSNAME
  2

  9
$UCSORG
 10
0.0
 20
0.0
 30
0.0
  9
$UCSXDIR
 10
1.0
 20
0.0
 30
0.0
  9
$UCSYDIR
 10
0.0
 20
1.0
 30
0.0
  9
$UCSORTHOREF
  2

  9
$UCSORTHOVIEW
 70
0
  9
$UCSORGTOP
 10
0.0
 20
0.0
 30
0.0
  9
$UCSORGBOTTOM
 10
0.0
 20
0.0
 30
0.0
  9
$UCSORGLEFT
 10
0.0
 20
0.0
 30
0.0
  9
$UCSORGRIGHT
 10
0.0
 20
0.0
 30
0.0
  9
$UCSORGFRONT
 10
0.0
 20
0.0
 30
0.0
  9
$UCSORGBACK
 10
0.0
 20
0.0
 30
0.0
  9
$PUCSBASE
  2

  9
$PUCSNAME
  2

  9
$PUCSORG
 10
0.0
 20
0.0
 30
0.0
  9
$PUCSXDIR
 10
1.0
 20
0.0
 30
0.0
  9
$PUCSYDIR
 10
0.0
 20
1.0
 30
0.0
  9
$PUCSORTHOREF
  2

  9
$PUCSORTHOVIEW
 70
0
  9
$PUCSORGTOP
 10
0.0
 20
0.0
 30
0.0
  9
$PUCSORGBOTTOM
 10
0.0
 20
0.0
 30
0.0
  9
$PUCSORGLEFT
 10
0.0
 20
0.0
 30
0.0
  9
$PUCSORGRIGHT
 10
0.0
 20
0.0
 30
0.0
  9
$PUCSORGFRONT
 10
0.0
 20
0.0
 30
0.0
  9
$PUCSORGBACK
 10
0.0
 20
0.0
 30
0.0
  9
$USERI1
 70
0
  9
$USERI2
 70
0
  9
$USERI3
 70
0
  9
$USERI4
 70
0
  9
$USERI5
 70
0
  9
$USERR1
 40
0.0
  9
$USERR2
 40
0.0
  9
$USERR3
 40
0.0
  9
$USERR4
 40
0.0
  9
$USERR5
 40
0.0
  9
$WORLDVIEW
 70
1
  9
$SHADEDGE
 70
3
  9
$SHADEDIF
 70
70
  9
$TILEMODE
 70
1
  9
$MAXACTVP
 70
64
  9
$PINSBASE
 10
0.0
 20
0.0
 30
0.0
  9
$PLIMCHECK
 70
0
  9
$PEXTMIN
 10
1e+20
 20
1e+20
 30
1e+20
  9
$PEXTMAX
 10
-1e+20
 20
-1e+20
 30
-1e+20
  9
$PLIMMIN
 10
-20.0
 20
-7.5
  9
$PLIMMAX
 10
277.0
 20
202.5
  9
$UNITMODE
 70
0
  9
$VISRETAIN
 70
1
  9
$PLINEGEN
 70
0
  9
$PSLTSCALE
 70
1
  9
$TREEDEPTH
 70
3020
  9
$CMLSTYLE
  2
Standard
  9
$CMLJUST
 70
0
  9
$CMLSCALE
 40
1.0
  9
$PROXYGRAPHICS
 70
1
  9
$MEASUREMENT
 70
0
  9
$CELWEIGHT
370
-1
  9
$ENDCAPS
280
0
  9
$JOINSTYLE
280
0
  9
$LWDISPLAY
290
0
  9
$INSUNITS
 70
0
  9
$HYPERLINKBASE
  1

  9
$STYLESHEET
  1

  9
$XEDIT
290
1
  9
$CEPSNTYPE
380
0
  9
$PSTYLEMODE
290
1
  9
$FINGERPRINTGUID
  2
{01D82BBE-5A8F-4C22-8676-0D3F5619AB6B}
  9
$VERSIONGUID
  2
{383D91DA-23BC-47C7-9131-DBEA34DBBF5E}
  9
$EXTNAMES
290
1
  9
$PSVPSCALE
 40
0.0
  9
$OLESTARTUP
290
0
  0
ENDSEC
  0
SECTION
  2
CLASSES
  0
CLASS
  1
ACDBDICTIONARYWDFLT
  2
AcDbDictionaryWithDefault
  3
ObjectDBX Classes
 90
0
280
0
281
0
  0
CLASS
  1
MATERIAL
  2
AcDbMaterial
  3
ObjectDBX Classes
 90
1153
280
0
281
0
  0
CLASS
  1
VISUALSTYLE
  2
AcDbVisualStyle
  3
ObjectDBX Classes
 90
4095
280
0
281
0
  0
CLASS
  1
SCALE
  2
AcDbScale
  3
ObjectDBX Classes
 90
1153
280
0
281
0
  0
CLASS
  1
TABLESTYLE
  2
AcDbTableStyle
  3
ObjectDBX Classes
 90
4095
280
0
281
0
  0
CLASS
  1
MLEADERSTYLE
  2
AcDbMLeaderStyle
  3
ACDB_MLEADERSTYLE_CLASS
 90
4095
280
0
281
0
  0
CLASS
  1
ACDBSECTIONVIEWSTYLE
  2
AcDbSectionViewStyle
  3
ObjectDBX Classes
 90
1025
280
0
281
0
  0
CLASS
  1
ACDBDETAILVIEWSTYLE
  2
AcDbDetailViewStyle
  3
ObjectDBX Classes
 90
1025
280
0
281
0
  0
CLASS
  1
DICTIONARYVAR
  2
AcDbDictionaryVar
  3
ObjectDBX Classes
 90
0
280
0
281
0
  0
CLASS
  1
CELLSTYLEMAP
  2
AcDbCellStyleMap
  3
ObjectDBX Classes
 90
1152
280
0
281
0
  0
CLASS
  1
ACDBPLACEHOLDER
  2
AcDbPlaceHolder
  3
ObjectDBX Classes
 90
0
280
0
281
0
  0
CLASS
  1
LAYOUT
  2
AcDbLayout
  3
ObjectDBX Classes
 90
0
280
0
281
0
  0
CLASS
  1
SUN
  2
AcDbSun
  3
SCENEOE
 90
1153
280
0
281
0
  0
CLASS
  1
MENTALRAYRENDERSETTINGS
  2
AcDbMentalRayRenderSettings
  3
SCENEOE
 90
1024
280
0
281
0
  0
CLASS
  1
RASTERVARIABLES
  2
AcDbRasterVariables
  3
ISM
 90
0
280
0
281
0
  0
ENDSEC
  0
SECTION
  2
TABLES
  0
TABLE
  2
VPORT
  5
9CE
330
0
100
AcDbSymbolTable
 70
1
  0
VPORT
  5
A3A
330
9CE
100
AcDbSymbolTableRecord
100
AcDbViewportTableRecord
  2
*ACTIVE
 70
0
 10
0.0
 20
0.0
 11
1.0
 21
1.0
 12
50.22649720630994
 22
14.7479721186084
 13
0.0
 23
0.0
 14
0.5
 24
0.5
 15
0.5
 25
0.5
 16
0.0
 26
0.0
 36
1.0
 17
0.0
 27
0.0
 37
0.0
 40
167.9470367482983
 41
2.193641618497109
 42
50.0
 43
0.0
 44
0.0
 50
0.0
 51
0.0
 71
0
 72
1000
 73
1
 74
3
 75
0
 76
0
 77
0
 78
0
281
0
 65
1
110
0.0
120
0.0
130
0.0
111
1.0
121
0.0
131
0.0
112
0.0
122
1.0
132
0.0
 79
0
146
0.0
1001
ACAD_NAV_VCDISPLAY
1070
3
  0
ENDTAB
  0
TABLE
  2
LTYPE
  5
9CB
330
0
100
AcDbSymbolTable
 70
3
  0
LTYPE
  5
A3B
330
9CB
100
AcDbSymbolTableRecord
100
AcDbLinetypeTableRecord
  2
BYBLOCK
 70
0
  3

 72
65
 73
0
 40
0.0
  0
LTYPE
  5
A3C
330
9CB
100
AcDbSymbolTableRecord
100
AcDbLinetypeTableRecord
  2
BYLAYER
 70
0
  3

 72
65
 73
0
 40
0.0
  0
LTYPE
  5
A22
330
9CB
100
AcDbSymbolTableRecord
100
AcDbLinetypeTableRecord
  2
CONTINUOUS
 70
0
  3
Solid line
 72
65
 73
0
 40
0.0
  0
ENDTAB
  0
TABLE
  2
LAYER
  5
9C8
330
0
100
AcDbSymbolTable
 70
4
  0
LAYER
  5
A1A
102
{ACAD_XDICTIONARY
360
A49
102
}
330
9C8
100
AcDbSymbolTableRecord
100
AcDbLayerTableRecord
  2
0
 70
0
 62
7
  6
CONTINUOUS
370
-3
390
9D5
  0
LAYER
  5
A39
102
{ACAD_XDICTIONARY
360
A4B
102
}
330
9C8
100
AcDbSymbolTableRecord
100
AcDbLayerTableRecord
  2
__
 70
0
 62
7
  6
CONTINUOUS
370
-3
390
9D5
  0
LAYER
  5
A3D
102
{ACAD_XDICTIONARY
360
A4D
102
}
330
9C8
100
AcDbSymbolTableRecord
100
AcDbLayerTableRecord
  2
_____1
 70
0
 62
7
  6
CONTINUOUS
370
-3
390
9D5
  0
LAYER
  5
A3E
330
9C8
100
AcDbSymbolTableRecord
100
AcDbLayerTableRecord
  2
DEFPOINTS
 70
0
 62
7
  6
CONTINUOUS
290
0
370
-3
390
9D5
  0
ENDTAB
  0
TABLE
  2
STYLE
  5
9C9
330
0
100
AcDbSymbolTable
 70
2
  0
STYLE
  5
A1B
330
9C9
100
AcDbSymbolTableRecord
100
AcDbTextStyleTableRecord
  2
STANDARD
 70
0
 40
0.0
 41
1.0
 50
0.0
 71
0
 42
0.2
  3
txt
  4
BIGFONT.SHX
  0
STYLE
  5
A1F
330
9C9
100
AcDbSymbolTableRecord
100
AcDbTextStyleTableRecord
  2
Annotative
 70
0
 40
0.0
 41
1.0
 50
0.0
 71
0
 42
0.2
  3
txt
  4

1001
AcadAnnotative
1000
AnnotativeData
1002
{
1070
1
1070
1
1002
}
  0
ENDTAB
  0
TABLE
  2
VIEW
  5
9CC
330
0
100
AcDbSymbolTable
 70
0
  0
ENDTAB
  0
TABLE
  2
UCS
  5
9CD
330
0
100
AcDbSymbolTable
 70
0
  0
ENDTAB
  0
TABLE
  2
APPID
  5
9CF
330
0
100
AcDbSymbolTable
 70
8
  0
APPID
  5
A1C
330
9CF
100
AcDbSymbolTableRecord
100
AcDbRegAppTableRecord
  2
ACAD
 70
0
  0
APPID
  5
A23
330
9CF
100
AcDbSymbolTableRecord
100
AcDbRegAppTableRecord
  2
AcadAnnotative
 70
0
  0
APPID
  5
A3F
330
9CF
100
AcDbSymbolTableRecord
100
AcDbRegAppTableRecord
  2
ACCMTRANSPARENCY
 70
0
  0
APPID
  5
A40
330
9CF
100
AcDbSymbolTableRecord
100
AcDbRegAppTableRecord
  2
ACAECLAYERSTANDARD
 70
0
  0
APPID
  5
A59
330
9CF
100
AcDbSymbolTableRecord
100
AcDbRegAppTableRecord
  2
ACAD_NAV_VCDISPLAY
 70
0
  0
APPID
  5
A94
330
9CF
100
AcDbSymbolTableRecord
100
AcDbRegAppTableRecord
  2
ACAD_MLEADERVER
 70
0
  0
APPID
  5
EE5
330
9CF
100
AcDbSymbolTableRecord
100
AcDbRegAppTableRecord
  2
HATCHBACKGROUNDCOLOR
 70
0
  0
APPID
  5
EE6
330
9CF
100
AcDbSymbolTableRecord
100
AcDbRegAppTableRecord
  2
EZDXF
 70
0
  0
ENDTAB
  0
TABLE
  2
DIMSTYLE
  5
9D0
330
0
100
AcDbSymbolTable
 70
2
100
AcDbDimStyleTable
  0
DIMSTYLE
105
A1D
330
9D0
100
AcDbSymbolTableRecord
100
AcDbDimStyleTableRecord
  2
STANDARD
 70
0
  3

  4

 40
1.0
 41
2.5
 42
0.625
 43
3.75
 44
1.25
 45
0.0
 46
0.0
 47
0.0
 48
0.0
140
2.5
141
2.5
142
0.0
143
0.03937007874
144
1.0
145
0.0
146
1.0
147
0.625
148
0.0
 71
0
 72
0
 73
0
 74
0
 75
0
 76
0
 77
1
 78
8
 79
0
170
0
171
3
172
1
173
0
174
0
175
0
176
0
177
0
178
0
179
0
271
2
272
2
273
2
274
3
275
0
276
0
277
2
278
44
279
2
280
0
281
0
282
0
283
0
284
8
285
0
286
0
288
0
289
3
371
-2
372
-2
  0
DIMSTYLE
105
A1E
330
9D0
100
AcDbSymbolTableRecord
100
AcDbDimStyleTableRecord
  2
Annotative
 70
0
  3

  4

 40
1.0
 41
2.5
 42
0.625
 43
3.75
 44
1.25
 45
0.0
 46
0.0
 47
0.0
 48
0.0
140
2.5
141
2.5
142
0.0
143
0.03937007874
144
1.0
145
0.0
146
1.0
147
0.625
148
0.0
 71
0
 72
0
 73
0
 74
0
 75
0
 76
0
 77
1
 78
8
 79
0
170
0
171
3
172
1
173
0
174
0
175
0
176
0
177
0
178
0
179
0
271
0
272
2
273
2
274
3
275
0
276
0
277
2
278
44
279
0
280
0
281
0
282
0
283
0
284
8
285
0
286
0
288
0
289
3
371
-2
372
-2
1001
AcadAnnotative
1000
AnnotativeData
1002
{
1070
1
1070
1
1002
}
  0
ENDTAB
  0
TABLE
  2
BLOCK_RECORD
  5
9C7
330
0
100
AcDbSymbolTable
 70
4
  0
BLOCK_RECORD
  5
A35
330
9C7
100
AcDbSymbolTableRecord
100
AcDbBlockTableRecord
  2
*Model_Space
340
A38
  0
BLOCK_RECORD
  5
A31
330
9C7
100
AcDbSymbolTableRecord
100
AcDbBlockTableRecord
  2
*Paper_Space
340
A34
  0
BLOCK_RECORD
  5
A43
330
9C7
100
AcDbSymbolTableRecord
100
AcDbBlockTableRecord
  2
$MODEL_SPACE
340
0
  0
BLOCK_RECORD
  5
A44
330
9C7
100
AcDbSymbolTableRecord
100
AcDbBlockTableRecord
  2
$PAPER_SPACE
340
0
  0
ENDTAB
  0
ENDSEC
  0
SECTION
  2
BLOCKS
  0
BLOCK
  5
A36
330
A35
100
AcDbEntity
  8
0
100
AcDbBlockBegin
  2
*Model_Space
 70
0
 10
0.0
 20
0.0
 30
0.0
  3
*Model_Space
  1

  0
ENDBLK
  5
A37
330
A35
100
AcDbEntity
  8
0
100
AcDbBlockEnd
  0
BLOCK
  5
A32
330
A31
100
AcDbEntity
 67
1
  8
0
100
AcDbBlockBegin
  2
*Paper_Space
 70
0
 10
0.0
 20
0.0
 30
0.0
  3
*Paper_Space
  1

  0
ENDBLK
  5
A33
330
A31
100
AcDbEntity
 67
1
  8
0
100
AcDbBlockEnd
  0
BLOCK
  5
470
330
A43
100
AcDbEntity
  8
0
100
AcDbBlockBegin
  2
$MODEL_SPACE
 70
0
 10
0.0
 20
0.0
 30
0.0
  3
$MODEL_SPACE
  1

  0
ENDBLK
  5
21
330
A43
100
AcDbEntity
  8
0
100
AcDbBlockEnd
  0
BLOCK
  5
471
330
A44
100
AcDbEntity
  8
0
100
AcDbBlockBegin
  2
$PAPER_SPACE
 70
0
 10
0.0
 20
0.0
 30
0.0
  3
$PAPER_SPACE
  1

  0
ENDBLK
  5
1D
330
A44
100
AcDbEntity
  8
0
100
AcDbBlockEnd
  0
ENDSEC
  0
SECTION
  2
ENTITIES
  0
LINE
  5
A9D
330
A35
100
AcDbEntity
  8
0
100
AcDbLine
 10
7.159463243257761
 20
77.6054202291908
 30
0.0
 11
7.224676788235882
 21
77.67063377416886
 31
0.0
  0
LINE
  5
A9E
330
A35
100
AcDbEntity
  8
0
100
AcDbLine
 10
7.224676788235882
 20
77.67063377416886
 30
0.0
 11
7.257548656436228
 21
77.70324054665801
 31
0.0
  0
LINE
  5
A9F
330
A35
100
AcDbEntity
  8
0
100
AcDbLine
 10
7.257548656436228
 20
77.70324054665801
 30
0.0
 11
7.35510387819204
 21
77.7358473191471
 31
0.0
  0
LINE
  5
AA0
330
A35
100
AcDbEntity
  8
0
100
AcDbLine
 10
7.35510387819204
 20
77.7358473191471
 30
0.0
 11
7.4203174231701325
 21
77.76818899592473
 31
0.0
  0
LINE
  5
AA1
330
A35
100
AcDbEntity
  8
0
100
AcDbLine
 10
7.4203174231701325
 20
77.76818899592473
 30
0.0
 11
7.517872644926058
 21
77.86600931339188
 31
0.0
  0
LINE
  5
AA2
330
A35
100
AcDbEntity
  8
0
100
AcDbLine
 10
7.517872644926058
 20
77.86600931339188
 30
0.0
 11
7.583086189904094
 21
77.89861608588103
 31
0.0
  0
LINE
  5
AA3
330
A35
100
AcDbEntity
  8
0
100
AcDbLine
 10
7.583086189904094
 20
77.89861608588103
 30
0.0
 11
7.615958058104468
 21
77.96382963085904
 31
0.0
  0
LINE
  5
AA4
330
A35
100
AcDbEntity
  8
0
100
AcDbLine
 10
7.615958058104468
 20
77.96382963085904
 30
0.0
 11
7.713513279860308
 21
78.0613848526149
 31
0.0
  0
LINE
  5
AA5
330
A35
100
AcDbEntity
  8
0
100
AcDbLine
 10
7.713513279860308
 20
78.0613848526149
 30
0.0
 11
7.745854956638084
 21
78.09399162510402
 31
0.0
  0
LINE
  5
AA6
330
A35
100
AcDbEntity
  8
0
100
AcDbLine
 10
7.745854956638084
 20
78.09399162510402
 30
0.0
 11
7.7787268248383725
 21
78.15920517008206
 31
0.0
  0
LINE
  5
AA7
330
A35
100
AcDbEntity
  8
0
100
AcDbLine
 10
7.7787268248383725
 20
78.15920517008206
 30
0.0
 11
7.811068501616177
 21
78.19181194257118
 31
0.0
  0
LINE
  5
AA8
330
A35
100
AcDbEntity
  8
0
100
AcDbLine
 10
7.224676788235882
 20
77.50759991172364
 30
0.0
 11
7.322762201414321
 21
77.54020668421279
 31
0.0
  0
LINE
  5
AA9
330
A35
100
AcDbEntity
  8
0
100
AcDbLine
 10
7.322762201414321
 20
77.54020668421279
 30
0.0
 11
7.35510387819204
 21
77.57281345670171
 31
0.0
  0
LINE
  5
AAA
330
A35
100
AcDbEntity
  8
0
100
AcDbLine
 10
7.35510387819204
 20
77.57281345670171
 30
0.0
 11
7.4203174231701325
 21
77.67063377416886
 31
0.0
  0
LINE
  5
AAB
330
A35
100
AcDbEntity
  8
0
100
AcDbLine
 10
7.4203174231701325
 20
77.67063377416886
 30
0.0
 11
7.517872644926058
 21
77.70324054665801
 31
0.0
  0
LINE
  5
AAC
330
A35
100
AcDbEntity
  8
0
100
AcDbLine
 10
7.517872644926058
 20
77.70324054665801
 30
0.0
 11
7.583086189904094
 21
77.7358473191471
 31
0.0
  0
LINE
  5
AAD
330
A35
100
AcDbEntity
  8
0
100
AcDbLine
 10
7.583086189904094
 20
77.7358473191471
 30
0.0
 11
7.648299734882215
 21
77.80079576841385
 31
0.0
  0
LINE
  5
AAE
330
A35
100
AcDbEntity
  8
0
100
AcDbLine
 10
7.648299734882215
 20
77.80079576841385
 30
0.0
 11
7.713513279860308
 21
77.89861608588103
 31
0.0
  0
LINE
  5
AAF
330
A35
100
AcDbEntity
  8
0
100
AcDbLine
 10
7.713513279860308
 20
77.89861608588103
 30
0.0
 11
7.7787268248383725
 21
77.93122285837012
 31
0.0
  0
LINE
  5
AB0
330
A35
100
AcDbEntity
  8
0
100
AcDbLine
 10
7.7787268248383725
 20
77.93122285837012
 30
0.0
 11
7.811068501616177
 21
77.99617130763687
 31
0.0
  0
LINE
  5
AB1
330
A35
100
AcDbEntity
  8
0
100
AcDbLine
 10
7.811068501616177
 20
77.99617130763687
 30
0.0
 11
7.843940369816465
 21
78.0613848526149
 31
0.0
  0
LINE
  5
AB2
330
A35
100
AcDbEntity
  8
0
100
AcDbLine
 10
7.843940369816465
 20
78.0613848526149
 30
0.0
 11
7.909153914794587
 21
78.12659839759294
 31
0.0
  0
LINE
  5
AB3
330
A35
100
AcDbEntity
  8
0
100
AcDbLine
 10
15.564057674093505
 20
78.28936716432705
 30
0.0
 11
15.564057674093505
 21
78.25702548754921
 31
0.0
  0
LINE
  5
AB4
330
A35
100
AcDbEntity
  8
0
100
AcDbLine
 10
15.564057674093505
 20
78.25702548754921
 30
0.0
 11
15.49884412911544
 21
78.25702548754921
 31
0.0
  0
LINE
  5
AB5
330
A35
100
AcDbEntity
  8
0
100
AcDbLine
 10
15.564057674093505
 20
78.19181194257118
 30
0.0
 11
15.564057674093505
 21
78.15920517008206
 31
0.0
  0
LINE
  5
AB6
330
A35
100
AcDbEntity
  8
0
100
AcDbLine
 10
15.564057674093505
 20
78.15920517008206
 30
0.0
 11
15.49884412911544
 21
78.15920517008206
 31
0.0
  0
LINE
  5
AB7
330
A35
100
AcDbEntity
  8
0
100
AcDbLine
 10
15.49884412911544
 20
78.15920517008206
 30
0.0
 11
15.49884412911544
 21
78.12659839759294
 31
0.0
  0
LINE
  5
AB8
330
A35
100
AcDbEntity
  8
0
100
AcDbLine
 10
8.49501543675234
 20
76.4326368024303
 30
0.0
 11
8.527887304952628
 21
76.49785034740836
 31
0.0
  0
LINE
  5
AB9
330
A35
100
AcDbEntity
  8
0
100
AcDbLine
 10
8.527887304952628
 20
76.49785034740836
 30
0.0
 11
8.560228981730432
 21
76.49785034740836
 31
0.0
  0
LINE
  5
ABA
330
A35
100
AcDbEntity
  8
0
100
AcDbLine
 10
8.560228981730432
 20
76.49785034740836
 30
0.0
 11
8.560228981730432
 21
76.53045711989745
 31
0.0
  0
LINE
  5
ABB
330
A35
100
AcDbEntity
  8
0
100
AcDbLine
 10
8.560228981730432
 20
76.53045711989745
 30
0.0
 11
8.59310084993075
 21
76.53045711989745
 31
0.0
  0
LINE
  5
ABC
330
A35
100
AcDbEntity
  8
0
100
AcDbLine
 10
8.59310084993075
 20
76.53045711989745
 30
0.0
 11
8.625442526708497
 21
76.56306389238637
 31
0.0
  0
LINE
  5
ABD
330
A35
100
AcDbEntity
  8
0
100
AcDbLine
 10
8.625442526708497
 20
76.56306389238637
 30
0.0
 11
8.69065607168659
 21
76.59567066487551
 31
0.0
  0
LINE
  5
ABE
330
A35
100
AcDbEntity
  8
0
100
AcDbLine
 10
8.69065607168659
 20
76.59567066487551
 30
0.0
 11
8.69065607168659
 21
76.6282774373646
 31
0.0
  0
LINE
  5
ABF
330
A35
100
AcDbEntity
  8
0
100
AcDbLine
 10
8.69065607168659
 20
76.6282774373646
 30
0.0
 11
8.723527939886935
 21
76.69322588663138
 31
0.0
  0
LINE
  5
AC0
330
A35
100
AcDbEntity
  8
0
100
AcDbLine
 10
7.973837268350081
 20
78.3871874817942
 30
0.0
 11
4.5212307244690635
 21
76.69322588663138
 31
0.0
  0
LINE
  5
AC1
330
A35
100
AcDbEntity
  8
0
100
AcDbLine
 10
7.941495591572391
 20
78.3871874817942
 30
0.0
 11
4.5212307244690635
 21
76.69322588663138
 31
0.0
  0
LINE
  5
AC2
330
A35
100
AcDbEntity
  8
0
100
AcDbLine
 10
4.651657814425221
 20
76.36768835316337
 30
0.0
 11
7.159463243257761
 21
77.6054202291908
 31
0.0
  0
LINE
  5
AC3
330
A35
100
AcDbEntity
  8
0
100
AcDbLine
 10
4.7163411679807155
 20
76.23726126320727
 30
0.0
 11
7.224676788235882
 21
77.50759991172364
 31
0.0
  0
LINE
  5
AC4
330
A35
100
AcDbEntity
  8
0
100
AcDbLine
 10
28.7568108423049
 20
84.93478645502182
 30
0.0
 11
15.596399350871309
 21
78.32197393681597
 31
0.0
  0
LINE
  5
AC5
330
A35
100
AcDbEntity
  8
0
100
AcDbLine
 10
28.822024387282994
 20
84.93478645502182
 30
0.0
 11
28.952451477239208
 21
84.96739322751091
 31
0.0
  0
LINE
  5
AC6
330
A35
100
AcDbEntity
  8
0
100
AcDbLine
 10
28.887237932261087
 20
84.8043593650657
 30
0.0
 11
28.952451477239208
 21
84.83696613755464
 31
0.0
  0
LINE
  5
AC7
330
A35
100
AcDbEntity
  8
0
100
AcDbLine
 10
10.319404121871287
 20
73.69631887046299
 30
0.0
 11
13.707327312196838
 21
75.42288723811495
 31
0.0
  0
LINE
  5
AC8
330
A35
100
AcDbEntity
  8
0
100
AcDbLine
 10
11.752511537121649
 20
72.29581822770163
 30
0.0
 11
15.173306595647574
 21
74.02212149964231
 31
0.0
  0
LINE
  5
AC9
330
A35
100
AcDbEntity
  8
0
100
AcDbLine
 10
36.770124003272144
 20
82.0683065288099
 30
0.0
 11
36.64022710473844
 21
82.00309298383166
 31
0.0
  0
LINE
  5
ACA
330
A35
100
AcDbEntity
  8
0
100
AcDbLine
 10
36.770124003272144
 20
82.03569975632075
 30
0.0
 11
36.64022710473844
 21
81.97048621134275
 31
0.0
  0
LINE
  5
ACB
330
A35
100
AcDbEntity
  8
0
100
AcDbLine
 10
21.362231071495785
 20
73.37078133699521
 30
0.0
 11
17.941966204392457
 21
71.64421296934341
 31
0.0
  0
LINE
  5
ACC
330
A35
100
AcDbEntity
  8
0
100
AcDbLine
 10
36.50980001478237
 20
80.79770278458201
 30
0.0
 11
36.54214169156003
 21
80.79770278458201
 31
0.0
  0
LINE
  5
ACD
330
A35
100
AcDbEntity
  8
0
100
AcDbLine
 10
21.492658161452
 20
73.24035424703891
 30
0.0
 11
21.362231071495785
 21
73.20774747454999
 31
0.0
  0
LINE
  5
ACE
330
A35
100
AcDbEntity
  8
0
100
AcDbLine
 10
21.362231071495785
 20
73.07758548030503
 30
0.0
 11
22.339373863322066
 21
73.59876364870715
 31
0.0
  0
LINE
  5
ACF
330
A35
100
AcDbEntity
  8
0
100
AcDbLine
 10
21.32988939471798
 20
72.91455161785981
 30
0.0
 11
22.339373863322066
 21
73.43572978626193
 31
0.0
  0
LINE
  5
AD0
330
A35
100
AcDbEntity
  8
0
100
AcDbLine
 10
31.167591240804228
 20
69.72226906246843
 30
0.0
 11
31.297488139337702
 21
69.75487583495757
 31
0.0
  0
LINE
  5
AD1
330
A35
100
AcDbEntity
  8
0
100
AcDbLine
 10
22.274690509766543
 20
71.64421296934341
 30
0.0
 11
22.307032186544262
 21
71.64421296934341
 31
0.0
  0
LINE
  5
AD2
330
A35
100
AcDbEntity
  8
0
100
AcDbLine
 10
15.433630584137347
 20
68.15873455726188
 30
0.0
 11
15.4012889073596
 21
68.12612778477293
 31
0.0
  0
LINE
  5
AD3
330
A35
100
AcDbEntity
  8
0
100
AcDbLine
 10
15.4012889073596
 20
68.12612778477293
 30
0.0
 11
15.368417039159255
 21
68.12612778477293
 31
0.0
  0
LINE
  5
AD4
330
A35
100
AcDbEntity
  8
0
100
AcDbLine
 10
15.368417039159255
 20
68.12612778477293
 30
0.0
 11
15.368417039159255
 21
68.09352101228382
 31
0.0
  0
LINE
  5
AD5
330
A35
100
AcDbEntity
  8
0
100
AcDbLine
 10
15.368417039159255
 20
68.09352101228382
 30
0.0
 11
15.368417039159255
 21
68.02830746730578
 31
0.0
  0
LINE
  5
AD6
330
A35
100
AcDbEntity
  8
0
100
AcDbLine
 10
15.596399350871309
 20
78.32197393681597
 30
0.0
 11
15.596399350871309
 21
78.28936716432705
 31
0.0
  0
LINE
  5
AD7
330
A35
100
AcDbEntity
  8
0
100
AcDbLine
 10
15.596399350871309
 20
78.28936716432705
 30
0.0
 11
15.564057674093505
 21
78.28936716432705
 31
0.0
  0
LINE
  5
AD8
330
A35
100
AcDbEntity
  8
0
100
AcDbLine
 10
15.564057674093505
 20
78.28936716432705
 30
0.0
 11
15.564057674093505
 21
78.25702548754921
 31
0.0
  0
LINE
  5
AD9
330
A35
100
AcDbEntity
  8
0
100
AcDbLine
 10
36.64022710473844
 20
82.00309298383166
 30
0.0
 11
36.64022710473844
 21
81.97048621134275
 31
0.0
  0
LINE
  5
ADA
330
A35
100
AcDbEntity
  8
0
100
AcDbLine
 10
17.941966204392457
 20
71.64421296934341
 30
0.0
 11
17.90962452761471
 21
71.61160619685432
 31
0.0
  0
LINE
  5
ADB
330
A35
100
AcDbEntity
  8
0
100
AcDbLine
 10
17.90962452761471
 20
71.61160619685432
 30
0.0
 11
17.90962452761471
 21
71.54639265187626
 31
0.0
  0
LINE
  5
ADC
330
A35
100
AcDbEntity
  8
0
100
AcDbLine
 10
31.362701684315937
 20
69.65705551749042
 30
0.0
 11
31.362701684315937
 21
69.59210706822364
 31
0.0
  0
LINE
  5
ADD
330
A35
100
AcDbEntity
  8
0
100
AcDbLine
 10
23.186619756614732
 20
72.23060468272357
 30
0.0
 11
27.454130517010697
 21
74.41313767379947
 31
0.0
  0
LINE
  5
ADE
330
A35
100
AcDbEntity
  8
0
100
AcDbLine
 10
23.186619756614732
 20
72.03522914350054
 30
0.0
 11
27.454130517010697
 21
74.18515536208753
 31
0.0
  0
LINE
  5
ADF
330
A35
100
AcDbEntity
  8
0
100
AcDbLine
 10
20.645942459581875
 20
70.53664308756092
 30
0.0
 11
18.984322541196832
 21
69.72226906246843
 31
0.0
  0
LINE
  5
AE0
330
A35
100
AcDbEntity
  8
0
100
AcDbLine
 10
35.727767666467656
 20
74.60851321302246
 30
0.0
 11
35.59787076793404
 21
74.57590644053354
 31
0.0
  0
LINE
  5
AE1
330
A35
100
AcDbEntity
  8
0
100
AcDbLine
 10
35.66255412148965
 20
73.98951472715316
 30
0.0
 11
35.630212444711844
 21
73.95690795466408
 31
0.0
  0
LINE
  5
AE2
330
A35
100
AcDbEntity
  8
0
100
AcDbLine
 10
36.347031248048296
 20
74.18515536208753
 30
0.0
 11
36.444586469804136
 21
74.21749703886533
 31
0.0
  0
LINE
  5
AE3
330
A35
100
AcDbEntity
  8
0
100
AcDbLine
 10
36.3793729248261
 20
74.18515536208753
 30
0.0
 11
36.50980001478237
 21
74.21749703886533
 31
0.0
  0
LINE
  5
AE4
330
A35
100
AcDbEntity
  8
0
100
AcDbLine
 10
38.138548064966955
 20
53.07637915895364
 30
0.0
 11
38.6920679101469
 21
53.30462656637687
 31
0.0
  0
LINE
  5
AE5
330
A35
100
AcDbEntity
  8
0
100
AcDbLine
 10
38.6920679101469
 20
53.30462656637687
 30
0.0
 11
39.180904401771244
 21
53.53260887808901
 31
0.0
  0
LINE
  5
AE6
330
A35
100
AcDbEntity
  8
0
100
AcDbLine
 10
39.180904401771244
 20
53.53260887808901
 30
0.0
 11
39.70208257017359
 21
53.76059118980095
 31
0.0
  0
LINE
  5
AE7
330
A35
100
AcDbEntity
  8
0
100
AcDbLine
 10
39.70208257017359
 20
53.76059118980095
 30
0.0
 11
40.15804719359761
 21
54.053787046491124
 31
0.0
  0
LINE
  5
AE8
330
A35
100
AcDbEntity
  8
0
100
AcDbLine
 10
40.15804719359761
 20
54.053787046491124
 30
0.0
 11
40.64688368522215
 21
54.31437613069221
 31
0.0
  0
LINE
  5
AE9
330
A35
100
AcDbEntity
  8
0
100
AcDbLine
 10
40.64688368522215
 20
54.31437613069221
 30
0.0
 11
41.0699764404458
 21
54.60757198738236
 31
0.0
  0
LINE
  5
AEA
330
A35
100
AcDbEntity
  8
0
100
AcDbLine
 10
41.0699764404458
 20
54.60757198738236
 30
0.0
 11
41.46125771031441
 21
54.868161071583444
 31
0.0
  0
LINE
  5
AEB
330
A35
100
AcDbEntity
  8
0
100
AcDbLine
 10
41.46125771031441
 20
54.868161071583444
 30
0.0
 11
41.81966711198265
 21
55.19369860505128
 31
0.0
  0
LINE
  5
AEC
330
A35
100
AcDbEntity
  8
0
100
AcDbLine
 10
41.81966711198265
 20
55.19369860505128
 30
0.0
 11
42.14520464545049
 21
55.48689446174146
 31
0.0
  0
LINE
  5
AED
330
A35
100
AcDbEntity
  8
0
100
AcDbLine
 10
42.14520464545049
 20
55.48689446174146
 30
0.0
 11
42.4707421789185
 21
55.81269709092072
 31
0.0
  0
LINE
  5
AEE
330
A35
100
AcDbEntity
  8
0
100
AcDbLine
 10
42.4707421789185
 20
55.81269709092072
 30
0.0
 11
42.73159635883084
 21
56.105892947610926
 31
0.0
  0
LINE
  5
AEF
330
A35
100
AcDbEntity
  8
0
100
AcDbLine
 10
42.73159635883084
 20
56.105892947610926
 30
0.0
 11
42.991920347320644
 21
56.43169557679002
 31
0.0
  0
LINE
  5
AF0
330
A35
100
AcDbEntity
  8
0
100
AcDbLine
 10
42.991920347320644
 20
56.43169557679002
 30
0.0
 11
43.18756098225495
 21
56.79010497845826
 31
0.0
  0
LINE
  5
AF1
330
A35
100
AcDbEntity
  8
0
100
AcDbLine
 10
43.18756098225495
 20
56.79010497845826
 30
0.0
 11
43.383201617189286
 21
57.148249284415186
 31
0.0
  0
LINE
  5
AF2
330
A35
100
AcDbEntity
  8
0
100
AcDbLine
 10
43.383201617189286
 20
57.148249284415186
 30
0.0
 11
43.5130985157229
 21
57.44144514110536
 31
0.0
  0
LINE
  5
AF3
330
A35
100
AcDbEntity
  8
0
100
AcDbLine
 10
43.5130985157229
 20
57.44144514110536
 30
0.0
 11
43.6111839289012
 21
57.79985454277357
 31
0.0
  0
LINE
  5
AF4
330
A35
100
AcDbEntity
  8
0
100
AcDbLine
 10
43.6111839289012
 20
57.79985454277357
 30
0.0
 11
43.676397473879405
 21
58.15826394444181
 31
0.0
  0
LINE
  5
AF5
330
A35
100
AcDbEntity
  8
0
100
AcDbLine
 10
43.676397473879405
 20
58.15826394444181
 30
0.0
 11
43.70873915065707
 21
58.51640825039874
 31
0.0
  0
LINE
  5
AF6
330
A35
100
AcDbEntity
  8
0
100
AcDbLine
 10
43.70873915065707
 20
58.51640825039874
 30
0.0
 11
43.7739526956353
 21
58.842210879578005
 31
0.0
  0
LINE
  5
AF7
330
A35
100
AcDbEntity
  8
0
100
AcDbLine
 10
43.7739526956353
 20
58.842210879578005
 30
0.0
 11
43.70873915065707
 21
59.200620281246245
 31
0.0
  0
LINE
  5
AF8
330
A35
100
AcDbEntity
  8
0
100
AcDbLine
 10
43.70873915065707
 20
59.200620281246245
 30
0.0
 11
43.643525605679
 21
59.55876458720317
 31
0.0
  0
LINE
  5
AF9
330
A35
100
AcDbEntity
  8
0
100
AcDbLine
 10
43.643525605679
 20
59.55876458720317
 30
0.0
 11
43.578312060700995
 21
59.91717398887141
 31
0.0
  0
LINE
  5
AFA
330
A35
100
AcDbEntity
  8
0
100
AcDbLine
 10
43.578312060700995
 20
59.91717398887141
 30
0.0
 11
43.448415162167294
 21
60.27558339053965
 31
0.0
  0
LINE
  5
AFB
330
A35
100
AcDbEntity
  8
0
100
AcDbLine
 10
43.448415162167294
 20
60.27558339053965
 30
0.0
 11
43.28511620401079
 21
60.5687792472298
 31
0.0
  0
LINE
  5
AFC
330
A35
100
AcDbEntity
  8
0
100
AcDbLine
 10
43.28511620401079
 20
60.5687792472298
 30
0.0
 11
43.090005760499054
 21
60.926923553186754
 31
0.0
  0
LINE
  5
AFD
330
A35
100
AcDbEntity
  8
0
100
AcDbLine
 10
43.090005760499054
 20
60.926923553186754
 30
0.0
 11
42.86202344878711
 21
61.285332954854965
 31
0.0
  0
LINE
  5
AFE
330
A35
100
AcDbEntity
  8
0
100
AcDbLine
 10
42.86202344878711
 20
61.285332954854965
 30
0.0
 11
42.60116926887457
 21
61.57852881154514
 31
0.0
  0
LINE
  5
AFF
330
A35
100
AcDbEntity
  8
0
100
AcDbLine
 10
42.60116926887457
 20
61.57852881154514
 30
0.0
 11
42.307973412184595
 21
61.90433144072429
 31
0.0
  0
LINE
  5
B00
330
A35
100
AcDbEntity
  8
0
100
AcDbLine
 10
42.307973412184595
 20
61.90433144072429
 30
0.0
 11
41.949564010516355
 21
62.230134069903556
 31
0.0
  0
LINE
  5
B01
330
A35
100
AcDbEntity
  8
0
100
AcDbLine
 10
41.949564010516355
 20
62.230134069903556
 30
0.0
 11
41.624026477048346
 21
62.52306483088242
 31
0.0
  0
LINE
  5
B02
330
A35
100
AcDbEntity
  8
0
100
AcDbLine
 10
41.624026477048346
 20
62.52306483088242
 30
0.0
 11
41.265617075380106
 21
62.816260687572594
 31
0.0
  0
LINE
  5
B03
330
A35
100
AcDbEntity
  8
0
100
AcDbLine
 10
31.06950582762576
 20
69.65705551749042
 30
0.0
 11
31.167591240804228
 21
69.72226906246843
 31
0.0
  0
LINE
  5
B04
330
A35
100
AcDbEntity
  8
0
100
AcDbLine
 10
17.38844635921251
 20
62.62088514834957
 30
0.0
 11
16.997165089343923
 21
62.29508251917031
 31
0.0
  0
LINE
  5
B05
330
A35
100
AcDbEntity
  8
0
100
AcDbLine
 10
16.997165089343923
 20
62.29508251917031
 30
0.0
 11
16.671627555876
 21
61.96954498570247
 31
0.0
  0
LINE
  5
B06
330
A35
100
AcDbEntity
  8
0
100
AcDbLine
 10
16.671627555876
 20
61.96954498570247
 30
0.0
 11
16.37843169918588
 21
61.676349129012294
 31
0.0
  0
LINE
  5
B07
330
A35
100
AcDbEntity
  8
0
100
AcDbLine
 10
16.37843169918588
 20
61.676349129012294
 30
0.0
 11
16.085235842495763
 21
61.31793972734408
 31
0.0
  0
LINE
  5
B08
330
A35
100
AcDbEntity
  8
0
100
AcDbLine
 10
16.085235842495763
 20
61.31793972734408
 30
0.0
 11
15.85725353078368
 21
60.99213709816479
 31
0.0
  0
LINE
  5
B09
330
A35
100
AcDbEntity
  8
0
100
AcDbLine
 10
15.85725353078368
 20
60.99213709816479
 30
0.0
 11
15.66161289584943
 21
60.66633446898567
 31
0.0
  0
LINE
  5
B0A
330
A35
100
AcDbEntity
  8
0
100
AcDbLine
 10
15.66161289584943
 20
60.66633446898567
 30
0.0
 11
15.466502452337693
 21
60.30819016302874
 31
0.0
  0
LINE
  5
B0B
330
A35
100
AcDbEntity
  8
0
100
AcDbLine
 10
15.466502452337693
 20
60.30819016302874
 30
0.0
 11
15.368417039159255
 21
59.9497807613605
 31
0.0
  0
LINE
  5
B0C
330
A35
100
AcDbEntity
  8
0
100
AcDbLine
 10
15.368417039159255
 20
59.9497807613605
 30
0.0
 11
15.238520140625667
 21
59.59137135969229
 31
0.0
  0
LINE
  5
B0D
330
A35
100
AcDbEntity
  8
0
100
AcDbLine
 10
15.238520140625667
 20
59.59137135969229
 30
0.0
 11
15.205648272425293
 21
59.233227053735334
 31
0.0
  0
LINE
  5
B0E
330
A35
100
AcDbEntity
  8
0
100
AcDbLine
 10
15.205648272425293
 20
59.233227053735334
 30
0.0
 11
15.173306595647574
 21
58.90742442455607
 31
0.0
  0
LINE
  5
B0F
330
A35
100
AcDbEntity
  8
0
100
AcDbLine
 10
15.173306595647574
 20
58.90742442455607
 30
0.0
 11
15.173306595647574
 21
58.51640825039874
 31
0.0
  0
LINE
  5
B10
330
A35
100
AcDbEntity
  8
0
100
AcDbLine
 10
15.173306595647574
 20
58.51640825039874
 30
0.0
 11
15.205648272425293
 21
58.15826394444181
 31
0.0
  0
LINE
  5
B11
330
A35
100
AcDbEntity
  8
0
100
AcDbLine
 10
15.205648272425293
 20
58.15826394444181
 30
0.0
 11
15.270861817403386
 21
57.79985454277357
 31
0.0
  0
LINE
  5
B12
330
A35
100
AcDbEntity
  8
0
100
AcDbLine
 10
15.270861817403386
 20
57.79985454277357
 30
0.0
 11
15.4012889073596
 21
57.44144514110536
 31
0.0
  0
LINE
  5
B13
330
A35
100
AcDbEntity
  8
0
100
AcDbLine
 10
15.4012889073596
 20
57.44144514110536
 30
0.0
 11
15.564057674093505
 21
57.083300835148435
 31
0.0
  0
LINE
  5
B14
330
A35
100
AcDbEntity
  8
0
100
AcDbLine
 10
15.564057674093505
 20
57.083300835148435
 30
0.0
 11
15.759698309027812
 21
56.75749820596917
 31
0.0
  0
LINE
  5
B15
330
A35
100
AcDbEntity
  8
0
100
AcDbLine
 10
15.759698309027812
 20
56.75749820596917
 30
0.0
 11
15.954808752539549
 21
56.43169557679002
 31
0.0
  0
LINE
  5
B16
330
A35
100
AcDbEntity
  8
0
100
AcDbLine
 10
15.954808752539549
 20
56.43169557679002
 30
0.0
 11
16.21566293245195
 21
56.07328617512178
 31
0.0
  0
LINE
  5
B17
330
A35
100
AcDbEntity
  8
0
100
AcDbLine
 10
16.21566293245195
 20
56.07328617512178
 30
0.0
 11
16.475986920941722
 21
55.78009031843163
 31
0.0
  0
LINE
  5
B18
330
A35
100
AcDbEntity
  8
0
100
AcDbLine
 10
16.475986920941722
 20
55.78009031843163
 30
0.0
 11
16.802054645832214
 21
55.42194601247468
 31
0.0
  0
LINE
  5
B19
330
A35
100
AcDbEntity
  8
0
100
AcDbLine
 10
16.802054645832214
 20
55.42194601247468
 30
0.0
 11
17.159933856077856
 21
55.09614338329558
 31
0.0
  0
LINE
  5
B1A
330
A35
100
AcDbEntity
  8
0
100
AcDbLine
 10
17.159933856077856
 20
55.09614338329558
 30
0.0
 11
17.55121512594647
 21
54.835554299094355
 31
0.0
  0
LINE
  5
B1B
330
A35
100
AcDbEntity
  8
0
100
AcDbLine
 10
17.55121512594647
 20
54.835554299094355
 30
0.0
 11
17.941966204392457
 21
54.509751669915204
 31
0.0
  0
LINE
  5
B1C
330
A35
100
AcDbEntity
  8
0
100
AcDbLine
 10
17.941966204392457
 20
54.509751669915204
 30
0.0
 11
18.36558915103882
 21
54.249162585714174
 31
0.0
  0
LINE
  5
B1D
330
A35
100
AcDbEntity
  8
0
100
AcDbLine
 10
18.36558915103882
 20
54.249162585714174
 30
0.0
 11
18.82155377446287
 21
53.95596672902397
 31
0.0
  0
LINE
  5
B1E
330
A35
100
AcDbEntity
  8
0
100
AcDbLine
 10
18.82155377446287
 20
53.95596672902397
 30
0.0
 11
19.3427319428651
 21
53.69537764482294
 31
0.0
  0
LINE
  5
B1F
330
A35
100
AcDbEntity
  8
0
100
AcDbLine
 10
44.68588194248349
 20
54.444538124937196
 30
0.0
 11
44.81630903243956
 21
54.54235844240435
 31
0.0
  0
LINE
  5
B20
330
A35
100
AcDbEntity
  8
0
100
AcDbLine
 10
4.423145311290597
 20
76.49785034740836
 30
0.0
 11
4.390803634512878
 21
76.4326368024303
 31
0.0
  0
LINE
  5
B21
330
A35
100
AcDbEntity
  8
0
100
AcDbLine
 10
4.390803634512878
 20
76.4326368024303
 30
0.0
 11
4.390803634512878
 21
76.40003002994115
 31
0.0
  0
LINE
  5
B22
330
A35
100
AcDbEntity
  8
0
100
AcDbLine
 10
4.390803634512878
 20
76.40003002994115
 30
0.0
 11
4.325590089534785
 21
76.40003002994115
 31
0.0
  0
LINE
  5
B23
330
A35
100
AcDbEntity
  8
0
100
AcDbLine
 10
4.325590089534785
 20
76.40003002994115
 30
0.0
 11
4.325590089534785
 21
76.36742325745206
 31
0.0
  0
LINE
  5
B24
330
A35
100
AcDbEntity
  8
0
100
AcDbLine
 10
4.325590089534785
 20
76.36742325745206
 30
0.0
 11
4.325590089534785
 21
76.33508158067443
 31
0.0
  0
LINE
  5
B25
330
A35
100
AcDbEntity
  8
0
100
AcDbLine
 10
4.325590089534785
 20
76.33508158067443
 30
0.0
 11
4.390803634512878
 21
76.33508158067443
 31
0.0
  0
LINE
  5
B26
330
A35
100
AcDbEntity
  8
0
100
AcDbLine
 10
4.390803634512878
 20
76.33508158067443
 30
0.0
 11
4.390803634512878
 21
76.30247480818531
 31
0.0
  0
LINE
  5
B27
330
A35
100
AcDbEntity
  8
0
100
AcDbLine
 10
4.390803634512878
 20
76.30247480818531
 30
0.0
 11
4.423145311290597
 21
76.30247480818531
 31
0.0
  0
LINE
  5
B28
330
A35
100
AcDbEntity
  8
0
100
AcDbLine
 10
4.423145311290597
 20
76.30247480818531
 30
0.0
 11
4.456017179490942
 21
76.30247480818531
 31
0.0
  0
LINE
  5
B29
330
A35
100
AcDbEntity
  8
0
100
AcDbLine
 10
4.456017179490942
 20
76.30247480818531
 30
0.0
 11
4.488358856268718
 21
76.30247480818531
 31
0.0
  0
LINE
  5
B2A
330
A35
100
AcDbEntity
  8
0
100
AcDbLine
 10
4.488358856268718
 20
76.30247480818531
 30
0.0
 11
4.5212307244690635
 21
76.30247480818531
 31
0.0
  0
LINE
  5
B2B
330
A35
100
AcDbEntity
  8
0
100
AcDbLine
 10
4.5212307244690635
 20
76.30247480818531
 30
0.0
 11
4.586444269447156
 21
76.33508158067443
 31
0.0
  0
LINE
  5
B2C
330
A35
100
AcDbEntity
  8
0
100
AcDbLine
 10
4.586444269447156
 20
76.33508158067443
 30
0.0
 11
4.618785946224904
 21
76.33508158067443
 31
0.0
  0
LINE
  5
B2D
330
A35
100
AcDbEntity
  8
0
100
AcDbLine
 10
4.618785946224904
 20
76.33508158067443
 30
0.0
 11
4.651657814425221
 21
76.36742325745206
 31
0.0
  0
LINE
  5
B2E
330
A35
100
AcDbEntity
  8
0
100
AcDbLine
 10
4.5212307244690635
 20
76.69322588663138
 30
0.0
 11
4.423145311290597
 21
76.49785034740836
 31
0.0
  0
LINE
  5
B2F
330
A35
100
AcDbEntity
  8
0
100
AcDbLine
 10
7.941495591572391
 20
78.3871874817942
 30
0.0
 11
7.811068501616177
 21
78.19181194257118
 31
0.0
  0
LINE
  5
B30
330
A35
100
AcDbEntity
  8
0
100
AcDbLine
 10
8.006709136550484
 20
78.28936716432705
 30
0.0
 11
7.909153914794587
 21
78.12659839759294
 31
0.0
  0
LINE
  5
B31
330
A35
100
AcDbEntity
  8
0
100
AcDbLine
 10
31.362701684315937
 20
69.59210706822364
 30
0.0
 11
31.330360007538133
 21
69.55950029573455
 31
0.0
  0
LINE
  5
B32
330
A35
100
AcDbEntity
  8
0
100
AcDbLine
 10
44.81630903243956
 20
54.54235844240435
 30
0.0
 11
45.27227365586364
 21
54.93337461656151
 31
0.0
  0
LINE
  5
B33
330
A35
100
AcDbEntity
  8
0
100
AcDbLine
 10
45.27227365586364
 20
54.93337461656151
 30
0.0
 11
45.66302473430969
 21
55.38933923998559
 31
0.0
  0
LINE
  5
B34
330
A35
100
AcDbEntity
  8
0
100
AcDbLine
 10
45.66302473430969
 20
55.38933923998559
 30
0.0
 11
46.0214341359779
 21
55.81269709092072
 31
0.0
  0
LINE
  5
B35
330
A35
100
AcDbEntity
  8
0
100
AcDbLine
 10
46.0214341359779
 20
55.81269709092072
 30
0.0
 11
46.347501860868505
 21
56.236320037567
 31
0.0
  0
LINE
  5
B36
330
A35
100
AcDbEntity
  8
0
100
AcDbLine
 10
46.347501860868505
 20
56.236320037567
 30
0.0
 11
46.60782584935825
 21
56.65967788850219
 31
0.0
  0
LINE
  5
B37
330
A35
100
AcDbEntity
  8
0
100
AcDbLine
 10
46.60782584935825
 20
56.65967788850219
 30
0.0
 11
46.83580816107022
 21
57.083300835148435
 31
0.0
  0
LINE
  5
B38
330
A35
100
AcDbEntity
  8
0
100
AcDbLine
 10
46.83580816107022
 20
57.083300835148435
 30
0.0
 11
46.99910711922686
 21
57.571872231061604
 31
0.0
  0
LINE
  5
B39
330
A35
100
AcDbEntity
  8
0
100
AcDbLine
 10
46.99910711922686
 20
57.571872231061604
 30
0.0
 11
47.1618758859608
 21
57.995230081996596
 31
0.0
  0
LINE
  5
B3A
330
A35
100
AcDbEntity
  8
0
100
AcDbLine
 10
47.1618758859608
 20
57.995230081996596
 30
0.0
 11
47.22708943093886
 21
58.451194705420704
 31
0.0
  0
LINE
  5
B3B
330
A35
100
AcDbEntity
  8
0
100
AcDbLine
 10
47.22708943093886
 20
58.451194705420704
 30
0.0
 11
47.29177278449433
 21
58.94003119704516
 31
0.0
  0
LINE
  5
B3C
330
A35
100
AcDbEntity
  8
0
100
AcDbLine
 10
47.29177278449433
 20
58.94003119704516
 30
0.0
 11
47.29177278449433
 21
59.36338904798018
 31
0.0
  0
LINE
  5
B3D
330
A35
100
AcDbEntity
  8
0
100
AcDbLine
 10
47.29177278449433
 20
59.36338904798018
 30
0.0
 11
47.22708943093886
 21
59.81961876711554
 31
0.0
  0
LINE
  5
B3E
330
A35
100
AcDbEntity
  8
0
100
AcDbLine
 10
47.22708943093886
 20
59.81961876711554
 30
0.0
 11
47.129004017760394
 21
60.30819016302874
 31
0.0
  0
LINE
  5
B3F
330
A35
100
AcDbEntity
  8
0
100
AcDbLine
 10
47.129004017760394
 20
60.30819016302874
 30
0.0
 11
46.96623525102649
 21
60.73154801396373
 31
0.0
  0
LINE
  5
B40
330
A35
100
AcDbEntity
  8
0
100
AcDbLine
 10
46.96623525102649
 20
60.73154801396373
 30
0.0
 11
46.770594616092154
 21
61.18751263738781
 31
0.0
  0
LINE
  5
B41
330
A35
100
AcDbEntity
  8
0
100
AcDbLine
 10
46.770594616092154
 20
61.18751263738781
 30
0.0
 11
46.54261230438024
 21
61.643742356523205
 31
0.0
  0
LINE
  5
B42
330
A35
100
AcDbEntity
  8
0
100
AcDbLine
 10
46.54261230438024
 20
61.643742356523205
 30
0.0
 11
46.24941644769001
 21
62.06710020745834
 31
0.0
  0
LINE
  5
B43
330
A35
100
AcDbEntity
  8
0
100
AcDbLine
 10
46.24941644769001
 20
62.06710020745834
 30
0.0
 11
45.95622059099989
 21
62.490723154104614
 31
0.0
  0
LINE
  5
B44
330
A35
100
AcDbEntity
  8
0
100
AcDbLine
 10
45.95622059099989
 20
62.490723154104614
 30
0.0
 11
45.56546951255382
 21
62.91408100503975
 31
0.0
  0
LINE
  5
B45
330
A35
100
AcDbEntity
  8
0
100
AcDbLine
 10
45.56546951255382
 20
62.91408100503975
 30
0.0
 11
45.1747184341078
 21
63.305097179196935
 31
0.0
  0
LINE
  5
B46
330
A35
100
AcDbEntity
  8
0
100
AcDbLine
 10
45.1747184341078
 20
63.305097179196935
 30
0.0
 11
44.68588194248349
 21
63.69584825764298
 31
0.0
  0
LINE
  5
B47
330
A35
100
AcDbEntity
  8
0
100
AcDbLine
 10
44.68588194248349
 20
63.69584825764298
 30
0.0
 11
44.19757564228155
 21
64.08686443180028
 31
0.0
  0
LINE
  5
B48
330
A35
100
AcDbEntity
  8
0
100
AcDbLine
 10
44.19757564228155
 20
64.08686443180028
 30
0.0
 11
43.676397473879405
 21
64.47761551024632
 31
0.0
  0
LINE
  5
B49
330
A35
100
AcDbEntity
  8
0
100
AcDbLine
 10
43.676397473879405
 20
64.47761551024632
 30
0.0
 11
43.090005760499054
 21
64.83602491191456
 31
0.0
  0
LINE
  5
B4A
330
A35
100
AcDbEntity
  8
0
100
AcDbLine
 10
43.090005760499054
 20
64.83602491191456
 30
0.0
 11
42.50361404711873
 21
65.16182754109369
 31
0.0
  0
LINE
  5
B4B
330
A35
100
AcDbEntity
  8
0
100
AcDbLine
 10
42.50361404711873
 20
65.16182754109369
 30
0.0
 11
41.85200878876046
 21
65.48763017027295
 31
0.0
  0
LINE
  5
B4C
330
A35
100
AcDbEntity
  8
0
100
AcDbLine
 10
41.85200878876046
 20
65.48763017027295
 30
0.0
 11
41.168061853624295
 21
65.81316770374079
 31
0.0
  0
LINE
  5
B4D
330
A35
100
AcDbEntity
  8
0
100
AcDbLine
 10
41.168061853624295
 20
65.81316770374079
 30
0.0
 11
40.484114918488046
 21
66.07375678794187
 31
0.0
  0
LINE
  5
B4E
330
A35
100
AcDbEntity
  8
0
100
AcDbLine
 10
40.484114918488046
 20
66.07375678794187
 30
0.0
 11
39.73442424695136
 21
66.36695264463202
 31
0.0
  0
LINE
  5
B4F
330
A35
100
AcDbEntity
  8
0
100
AcDbLine
 10
39.73442424695136
 20
66.36695264463202
 30
0.0
 11
38.98526376683711
 21
66.62754172883311
 31
0.0
  0
LINE
  5
B50
330
A35
100
AcDbEntity
  8
0
100
AcDbLine
 10
38.98526376683711
 20
66.62754172883311
 30
0.0
 11
38.20376160994505
 21
66.8557891362565
 31
0.0
  0
LINE
  5
B51
330
A35
100
AcDbEntity
  8
0
100
AcDbLine
 10
38.20376160994505
 20
66.8557891362565
 30
0.0
 11
37.3893875848527
 21
67.05116467547953
 31
0.0
  0
LINE
  5
B52
330
A35
100
AcDbEntity
  8
0
100
AcDbLine
 10
37.3893875848527
 20
67.05116467547953
 30
0.0
 11
36.57501355976041
 21
67.2465402147024
 31
0.0
  0
LINE
  5
B53
330
A35
100
AcDbEntity
  8
0
100
AcDbLine
 10
36.57501355976041
 20
67.2465402147024
 30
0.0
 11
35.727767666467656
 21
67.44191575392543
 31
0.0
  0
LINE
  5
B54
330
A35
100
AcDbEntity
  8
0
100
AcDbLine
 10
35.727767666467656
 20
67.44191575392543
 30
0.0
 11
34.84818009639733
 21
67.57234284388167
 31
0.0
  0
LINE
  5
B55
330
A35
100
AcDbEntity
  8
0
100
AcDbLine
 10
34.84818009639733
 20
67.57234284388167
 30
0.0
 11
33.9691227177494
 21
67.7351116106156
 31
0.0
  0
LINE
  5
B56
330
A35
100
AcDbEntity
  8
0
100
AcDbLine
 10
33.9691227177494
 20
67.7351116106156
 30
0.0
 11
33.089535147679044
 21
67.80032515559367
 31
0.0
  0
LINE
  5
B57
330
A35
100
AcDbEntity
  8
0
100
AcDbLine
 10
33.089535147679044
 20
67.80032515559367
 30
0.0
 11
32.20994757760849
 21
67.89814547306082
 31
0.0
  0
LINE
  5
B58
330
A35
100
AcDbEntity
  8
0
100
AcDbLine
 10
32.20994757760849
 20
67.89814547306082
 30
0.0
 11
31.265146462560097
 21
67.963359018039
 31
0.0
  0
LINE
  5
B59
330
A35
100
AcDbEntity
  8
0
100
AcDbLine
 10
31.265146462560097
 20
67.963359018039
 30
0.0
 11
30.353217215711823
 21
67.99570069481666
 31
0.0
  0
LINE
  5
B5A
330
A35
100
AcDbEntity
  8
0
100
AcDbLine
 10
30.353217215711823
 20
67.99570069481666
 30
0.0
 11
29.47362964564138
 21
67.99570069481666
 31
0.0
  0
LINE
  5
B5B
330
A35
100
AcDbEntity
  8
0
100
AcDbLine
 10
29.47362964564138
 20
67.99570069481666
 30
0.0
 11
28.528828530592875
 21
67.99570069481666
 31
0.0
  0
LINE
  5
B5C
330
A35
100
AcDbEntity
  8
0
100
AcDbLine
 10
28.528828530592875
 20
67.99570069481666
 30
0.0
 11
27.616899283744686
 21
67.963359018039
 31
0.0
  0
LINE
  5
B5D
330
A35
100
AcDbEntity
  8
0
100
AcDbLine
 10
27.616899283744686
 20
67.963359018039
 30
0.0
 11
26.737311713674217
 21
67.89814547306082
 31
0.0
  0
LINE
  5
B5E
330
A35
100
AcDbEntity
  8
0
100
AcDbLine
 10
26.737311713674217
 20
67.89814547306082
 30
0.0
 11
25.825382466826056
 21
67.80032515559367
 31
0.0
  0
LINE
  5
B5F
330
A35
100
AcDbEntity
  8
0
100
AcDbLine
 10
25.825382466826056
 20
67.80032515559367
 30
0.0
 11
24.945794896755586
 21
67.7351116106156
 31
0.0
  0
LINE
  5
B60
330
A35
100
AcDbEntity
  8
0
100
AcDbLine
 10
24.945794896755586
 20
67.7351116106156
 30
0.0
 11
24.066207326685202
 21
67.57234284388167
 31
0.0
  0
LINE
  5
B61
330
A35
100
AcDbEntity
  8
0
100
AcDbLine
 10
24.066207326685202
 20
67.57234284388167
 30
0.0
 11
23.186619756614732
 21
67.44191575392543
 31
0.0
  0
LINE
  5
B62
330
A35
100
AcDbEntity
  8
0
100
AcDbLine
 10
23.186619756614732
 20
67.44191575392543
 30
0.0
 11
22.339373863322066
 21
67.2465402147024
 31
0.0
  0
LINE
  5
B63
330
A35
100
AcDbEntity
  8
0
100
AcDbLine
 10
22.339373863322066
 20
67.2465402147024
 30
0.0
 11
21.52499983822969
 21
67.05116467547953
 31
0.0
  0
LINE
  5
B64
330
A35
100
AcDbEntity
  8
0
100
AcDbLine
 10
21.52499983822969
 20
67.05116467547953
 30
0.0
 11
20.71062581313737
 21
66.8557891362565
 31
0.0
  0
LINE
  5
B65
330
A35
100
AcDbEntity
  8
0
100
AcDbLine
 10
20.71062581313737
 20
66.8557891362565
 30
0.0
 11
19.929123656245366
 21
66.62754172883311
 31
0.0
  0
LINE
  5
B66
330
A35
100
AcDbEntity
  8
0
100
AcDbLine
 10
19.929123656245366
 20
66.62754172883311
 30
0.0
 11
19.147091307930793
 21
66.36695264463202
 31
0.0
  0
LINE
  5
B67
330
A35
100
AcDbEntity
  8
0
100
AcDbLine
 10
19.147091307930793
 20
66.36695264463202
 30
0.0
 11
18.430802696016883
 21
66.07375678794187
 31
0.0
  0
LINE
  5
B68
330
A35
100
AcDbEntity
  8
0
100
AcDbLine
 10
18.430802696016883
 20
66.07375678794187
 30
0.0
 11
17.74632556945818
 21
65.81316770374079
 31
0.0
  0
LINE
  5
B69
330
A35
100
AcDbEntity
  8
0
100
AcDbLine
 10
17.74632556945818
 20
65.81316770374079
 30
0.0
 11
17.03003695754427
 21
65.48763017027295
 31
0.0
  0
LINE
  5
B6A
330
A35
100
AcDbEntity
  8
0
100
AcDbLine
 10
17.03003695754427
 20
65.48763017027295
 30
0.0
 11
16.41077337596363
 21
65.16182754109369
 31
0.0
  0
LINE
  5
B6B
330
A35
100
AcDbEntity
  8
0
100
AcDbLine
 10
16.41077337596363
 20
65.16182754109369
 30
0.0
 11
15.792039985805616
 21
64.83602491191456
 31
0.0
  0
LINE
  5
B6C
330
A35
100
AcDbEntity
  8
0
100
AcDbLine
 10
15.792039985805616
 20
64.83602491191456
 30
0.0
 11
15.238520140625667
 21
64.47761551024632
 31
0.0
  0
LINE
  5
B6D
330
A35
100
AcDbEntity
  8
0
100
AcDbLine
 10
15.238520140625667
 20
64.47761551024632
 30
0.0
 11
14.68447010402312
 21
64.08686443180028
 31
0.0
  0
LINE
  5
B6E
330
A35
100
AcDbEntity
  8
0
100
AcDbLine
 10
14.68447010402312
 20
64.08686443180028
 30
0.0
 11
14.228505480599011
 21
63.69584825764298
 31
0.0
  0
LINE
  5
B6F
330
A35
100
AcDbEntity
  8
0
100
AcDbLine
 10
14.228505480599011
 20
63.69584825764298
 30
0.0
 11
13.739668988974557
 21
63.305097179196935
 31
0.0
  0
LINE
  5
B70
330
A35
100
AcDbEntity
  8
0
100
AcDbLine
 10
13.739668988974557
 20
63.305097179196935
 30
0.0
 11
13.316576233750823
 21
62.91408100503975
 31
0.0
  0
LINE
  5
B71
330
A35
100
AcDbEntity
  8
0
100
AcDbLine
 10
13.316576233750823
 20
62.91408100503975
 30
0.0
 11
12.958166832082583
 21
62.490723154104614
 31
0.0
  0
LINE
  5
B72
330
A35
100
AcDbEntity
  8
0
100
AcDbLine
 10
12.958166832082583
 20
62.490723154104614
 30
0.0
 11
12.664970975392464
 21
62.06710020745834
 31
0.0
  0
LINE
  5
B73
330
A35
100
AcDbEntity
  8
0
100
AcDbLine
 10
12.664970975392464
 20
62.06710020745834
 30
0.0
 11
12.338903250501943
 21
61.643742356523205
 31
0.0
  0
LINE
  5
B74
330
A35
100
AcDbEntity
  8
0
100
AcDbLine
 10
12.338903250501943
 20
61.643742356523205
 30
0.0
 11
12.110920938789917
 21
61.18751263738781
 31
0.0
  0
LINE
  5
B75
330
A35
100
AcDbEntity
  8
0
100
AcDbLine
 10
12.110920938789917
 20
61.18751263738781
 30
0.0
 11
11.915810495278208
 21
60.73154801396373
 31
0.0
  0
LINE
  5
B76
330
A35
100
AcDbEntity
  8
0
100
AcDbLine
 10
11.915810495278208
 20
60.73154801396373
 30
0.0
 11
11.785383405321994
 21
60.30819016302874
 31
0.0
  0
LINE
  5
B77
330
A35
100
AcDbEntity
  8
0
100
AcDbLine
 10
11.785383405321994
 20
60.30819016302874
 30
0.0
 11
11.687828183566154
 21
59.81961876711554
 31
0.0
  0
LINE
  5
B78
330
A35
100
AcDbEntity
  8
0
100
AcDbLine
 10
11.687828183566154
 20
59.81961876711554
 30
0.0
 11
11.65495631536578
 21
59.36338904798018
 31
0.0
  0
LINE
  5
B79
330
A35
100
AcDbEntity
  8
0
100
AcDbLine
 10
11.65495631536578
 20
59.36338904798018
 30
0.0
 11
11.62261463858809
 21
58.94003119704516
 31
0.0
  0
LINE
  5
B7A
330
A35
100
AcDbEntity
  8
0
100
AcDbLine
 10
11.62261463858809
 20
58.94003119704516
 30
0.0
 11
11.65495631536578
 21
58.451194705420704
 31
0.0
  0
LINE
  5
B7B
330
A35
100
AcDbEntity
  8
0
100
AcDbLine
 10
11.65495631536578
 20
58.451194705420704
 30
0.0
 11
11.752511537121649
 21
57.995230081996596
 31
0.0
  0
LINE
  5
B7C
330
A35
100
AcDbEntity
  8
0
100
AcDbLine
 10
11.752511537121649
 20
57.995230081996596
 30
0.0
 11
11.882938627077863
 21
57.571872231061604
 31
0.0
  0
LINE
  5
B7D
330
A35
100
AcDbEntity
  8
0
100
AcDbLine
 10
11.882938627077863
 20
57.571872231061604
 30
0.0
 11
12.078579262012113
 21
57.083300835148435
 31
0.0
  0
LINE
  5
B7E
330
A35
100
AcDbEntity
  8
0
100
AcDbLine
 10
12.078579262012113
 20
57.083300835148435
 30
0.0
 11
12.27368970552385
 21
56.65967788850219
 31
0.0
  0
LINE
  5
B7F
330
A35
100
AcDbEntity
  8
0
100
AcDbLine
 10
12.27368970552385
 20
56.65967788850219
 30
0.0
 11
12.53454388543625
 21
56.236320037567
 31
0.0
  0
LINE
  5
B80
330
A35
100
AcDbEntity
  8
0
100
AcDbLine
 10
12.53454388543625
 20
56.236320037567
 30
0.0
 11
12.860081418904144
 21
55.81269709092072
 31
0.0
  0
LINE
  5
B81
330
A35
100
AcDbEntity
  8
0
100
AcDbLine
 10
12.860081418904144
 20
55.81269709092072
 30
0.0
 11
13.25136268877273
 21
55.38933923998559
 31
0.0
  0
LINE
  5
B82
330
A35
100
AcDbEntity
  8
0
100
AcDbLine
 10
13.25136268877273
 20
55.38933923998559
 30
0.0
 11
13.642113767218746
 21
54.93337461656151
 31
0.0
  0
LINE
  5
B83
330
A35
100
AcDbEntity
  8
0
100
AcDbLine
 10
13.642113767218746
 20
54.93337461656151
 30
0.0
 11
14.065736713865078
 21
54.54235844240435
 31
0.0
  0
LINE
  5
B84
330
A35
100
AcDbEntity
  8
0
100
AcDbLine
 10
30.97195060586992
 20
69.52689352324558
 30
0.0
 11
31.06950582762576
 21
69.65705551749042
 31
0.0
  0
LINE
  5
B85
330
A35
100
AcDbEntity
  8
0
100
AcDbLine
 10
31.330360007538133
 20
69.55950029573455
 30
0.0
 11
31.297488139337702
 21
69.52689352324558
 31
0.0
  0
LINE
  5
B86
330
A35
100
AcDbEntity
  8
0
100
AcDbLine
 10
15.368417039159255
 20
68.02830746730578
 30
0.0
 11
15.30320349418119
 21
67.83293192808276
 31
0.0
  0
LINE
  5
B87
330
A35
100
AcDbEntity
  8
0
100
AcDbLine
 10
15.30320349418119
 20
67.83293192808276
 30
0.0
 11
15.270861817403386
 21
67.63755638885974
 31
0.0
  0
LINE
  5
B88
330
A35
100
AcDbEntity
  8
0
100
AcDbLine
 10
15.270861817403386
 20
67.63755638885974
 30
0.0
 11
15.238520140625667
 21
67.44218084963671
 31
0.0
  0
LINE
  5
B89
330
A35
100
AcDbEntity
  8
0
100
AcDbLine
 10
15.238520140625667
 20
67.44218084963671
 30
0.0
 11
15.238520140625667
 21
67.2465402147024
 31
0.0
  0
LINE
  5
B8A
330
A35
100
AcDbEntity
  8
0
100
AcDbLine
 10
15.238520140625667
 20
67.2465402147024
 30
0.0
 11
15.238520140625667
 21
67.05116467547953
 31
0.0
  0
LINE
  5
B8B
330
A35
100
AcDbEntity
  8
0
100
AcDbLine
 10
15.238520140625667
 20
67.05116467547953
 30
0.0
 11
15.238520140625667
 21
66.8557891362565
 31
0.0
  0
LINE
  5
B8C
330
A35
100
AcDbEntity
  8
0
100
AcDbLine
 10
15.238520140625667
 20
66.8557891362565
 30
0.0
 11
15.270861817403386
 21
66.6278068245444
 31
0.0
  0
LINE
  5
B8D
330
A35
100
AcDbEntity
  8
0
100
AcDbLine
 10
15.270861817403386
 20
66.6278068245444
 30
0.0
 11
15.30320349418119
 21
66.43216618961009
 31
0.0
  0
LINE
  5
B8E
330
A35
100
AcDbEntity
  8
0
100
AcDbLine
 10
15.30320349418119
 20
66.43216618961009
 30
0.0
 11
15.368417039159255
 21
66.23679065038709
 31
0.0
  0
LINE
  5
B8F
330
A35
100
AcDbEntity
  8
0
100
AcDbLine
 10
15.368417039159255
 20
66.23679065038709
 30
0.0
 11
15.4012889073596
 21
66.04141511116407
 31
0.0
  0
LINE
  5
B90
330
A35
100
AcDbEntity
  8
0
100
AcDbLine
 10
15.4012889073596
 20
66.04141511116407
 30
0.0
 11
15.466502452337693
 21
65.84577447622988
 31
0.0
  0
LINE
  5
B91
330
A35
100
AcDbEntity
  8
0
100
AcDbLine
 10
20.645942459581875
 20
70.5692498600499
 30
0.0
 11
20.645942459581875
 21
70.53664308756092
 31
0.0
  0
LINE
  5
B92
330
A35
100
AcDbEntity
  8
0
100
AcDbLine
 10
15.368417039159255
 20
68.28889655150684
 30
0.0
 11
15.30320349418119
 21
68.191341329751
 31
0.0
  0
LINE
  5
B93
330
A35
100
AcDbEntity
  8
0
100
AcDbLine
 10
15.30320349418119
 20
68.191341329751
 30
0.0
 11
15.30320349418119
 21
68.12612778477293
 31
0.0
  0
LINE
  5
B94
330
A35
100
AcDbEntity
  8
0
100
AcDbLine
 10
15.30320349418119
 20
68.12612778477293
 30
0.0
 11
15.270861817403386
 21
68.02830746730578
 31
0.0
  0
LINE
  5
B95
330
A35
100
AcDbEntity
  8
0
100
AcDbLine
 10
15.270861817403386
 20
68.02830746730578
 30
0.0
 11
15.270861817403386
 21
67.963359018039
 31
0.0
  0
LINE
  5
B96
330
A35
100
AcDbEntity
  8
0
100
AcDbLine
 10
15.270861817403386
 20
67.963359018039
 30
0.0
 11
15.270861817403386
 21
67.89814547306082
 31
0.0
  0
LINE
  5
B97
330
A35
100
AcDbEntity
  8
0
100
AcDbLine
 10
15.270861817403386
 20
67.89814547306082
 30
0.0
 11
15.270861817403386
 21
67.80032515559367
 31
0.0
  0
LINE
  5
B98
330
A35
100
AcDbEntity
  8
0
100
AcDbLine
 10
15.270861817403386
 20
67.80032515559367
 30
0.0
 11
15.238520140625667
 21
67.7351116106156
 31
0.0
  0
LINE
  5
B99
330
A35
100
AcDbEntity
  8
0
100
AcDbLine
 10
15.238520140625667
 20
67.7351116106156
 30
0.0
 11
15.238520140625667
 21
67.63755638885974
 31
0.0
  0
LINE
  5
B9A
330
A35
100
AcDbEntity
  8
0
100
AcDbLine
 10
15.238520140625667
 20
67.63755638885974
 30
0.0
 11
15.238520140625667
 21
67.53973607139258
 31
0.0
  0
LINE
  5
B9B
330
A35
100
AcDbEntity
  8
0
100
AcDbLine
 10
15.238520140625667
 20
67.53973607139258
 30
0.0
 11
15.238520140625667
 21
67.44191575392543
 31
0.0
  0
LINE
  5
B9C
330
A35
100
AcDbEntity
  8
0
100
AcDbLine
 10
15.238520140625667
 20
67.44191575392543
 30
0.0
 11
15.238520140625667
 21
67.37696730465868
 31
0.0
  0
LINE
  5
B9D
330
A35
100
AcDbEntity
  8
0
100
AcDbLine
 10
21.297017526517692
 20
73.27296101952805
 30
0.0
 11
20.645942459581875
 21
70.5692498600499
 31
0.0
  0
LINE
  5
B9E
330
A35
100
AcDbEntity
  8
0
100
AcDbLine
 10
21.362231071495785
 20
73.20774747454999
 30
0.0
 11
20.743497681337743
 21
70.50403631507183
 31
0.0
  0
LINE
  5
B9F
330
A35
100
AcDbEntity
  8
0
100
AcDbLine
 10
30.939608929092117
 20
69.33125288831127
 30
0.0
 11
30.97195060586992
 21
69.52689352324558
 31
0.0
  0
LINE
  5
BA0
330
A35
100
AcDbEntity
  8
0
100
AcDbLine
 10
11.62261463858809
 20
59.623978132181236
 30
0.0
 11
11.62261463858809
 21
59.10279996377909
 31
0.0
  0
LINE
  5
BA1
330
A35
100
AcDbEntity
  8
0
100
AcDbLine
 10
15.238520140625667
 20
67.37696730465868
 30
0.0
 11
15.238520140625667
 21
67.18132666972434
 31
0.0
  0
LINE
  5
BA2
330
A35
100
AcDbEntity
  8
0
100
AcDbLine
 10
15.368417039159255
 20
68.02830746730578
 30
0.0
 11
15.368417039159255
 21
68.28889655150684
 31
0.0
  0
LINE
  5
BA3
330
A35
100
AcDbEntity
  8
0
100
AcDbLine
 10
15.49884412911544
 20
78.12659839759294
 30
0.0
 11
15.49884412911544
 21
73.8919595053973
 31
0.0
  0
LINE
  5
BA4
330
A35
100
AcDbEntity
  8
0
100
AcDbLine
 10
15.49884412911544
 20
78.25702548754921
 30
0.0
 11
15.49884412911544
 21
78.15920517008206
 31
0.0
  0
LINE
  5
BA5
330
A35
100
AcDbEntity
  8
0
100
AcDbLine
 10
15.564057674093505
 20
78.19181194257118
 30
0.0
 11
15.564057674093505
 21
78.25702548754921
 31
0.0
  0
LINE
  5
BA6
330
A35
100
AcDbEntity
  8
0
100
AcDbLine
 10
20.482643501425315
 20
64.31484674351228
 30
0.0
 11
20.482643501425315
 21
63.66324148515386
 31
0.0
  0
LINE
  5
BA7
330
A35
100
AcDbEntity
  8
0
100
AcDbLine
 10
20.482643501425315
 20
63.66324148515386
 30
0.0
 11
20.51551536962566
 21
63.46786594593087
 31
0.0
  0
LINE
  5
BA8
330
A35
100
AcDbEntity
  8
0
100
AcDbLine
 10
20.51551536962566
 20
63.46786594593087
 30
0.0
 11
20.580728914603753
 21
63.23988363421887
 31
0.0
  0
LINE
  5
BA9
330
A35
100
AcDbEntity
  8
0
100
AcDbLine
 10
20.580728914603753
 20
63.23988363421887
 30
0.0
 11
20.678284136359622
 21
63.04450809499588
 31
0.0
  0
LINE
  5
BAA
330
A35
100
AcDbEntity
  8
0
100
AcDbLine
 10
20.678284136359622
 20
63.04450809499588
 30
0.0
 11
20.775839358115434
 21
62.84886746006154
 31
0.0
  0
LINE
  5
BAB
330
A35
100
AcDbEntity
  8
0
100
AcDbLine
 10
20.775839358115434
 20
62.84886746006154
 30
0.0
 11
20.906266448071648
 21
62.65349192083855
 31
0.0
  0
LINE
  5
BAC
330
A35
100
AcDbEntity
  8
0
100
AcDbLine
 10
20.906266448071648
 20
62.65349192083855
 30
0.0
 11
21.036693538027862
 21
62.42550960912655
 31
0.0
  0
LINE
  5
BAD
330
A35
100
AcDbEntity
  8
0
100
AcDbLine
 10
21.036693538027862
 20
62.42550960912655
 30
0.0
 11
21.167120627984076
 21
62.230134069903556
 31
0.0
  0
LINE
  5
BAE
330
A35
100
AcDbEntity
  8
0
100
AcDbLine
 10
21.167120627984076
 20
62.230134069903556
 30
0.0
 11
21.362231071495785
 21
62.03449343496922
 31
0.0
  0
LINE
  5
BAF
330
A35
100
AcDbEntity
  8
0
100
AcDbLine
 10
21.362231071495785
 20
62.03449343496922
 30
0.0
 11
21.557871706430063
 21
61.83911789574623
 31
0.0
  0
LINE
  5
BB0
330
A35
100
AcDbEntity
  8
0
100
AcDbLine
 10
21.557871706430063
 20
61.83911789574623
 30
0.0
 11
21.753512341364313
 21
61.676349129012294
 31
0.0
  0
LINE
  5
BB1
330
A35
100
AcDbEntity
  8
0
100
AcDbLine
 10
21.753512341364313
 20
61.676349129012294
 30
0.0
 11
22.013836329854144
 21
61.48070849407799
 31
0.0
  0
LINE
  5
BB2
330
A35
100
AcDbEntity
  8
0
100
AcDbLine
 10
22.013836329854144
 20
61.48070849407799
 30
0.0
 11
22.274690509766543
 21
61.31793972734408
 31
0.0
  0
LINE
  5
BB3
330
A35
100
AcDbEntity
  8
0
100
AcDbLine
 10
22.274690509766543
 20
61.31793972734408
 30
0.0
 11
22.50267282147857
 21
61.12256418812106
 31
0.0
  0
LINE
  5
BB4
330
A35
100
AcDbEntity
  8
0
100
AcDbLine
 10
22.50267282147857
 20
61.12256418812106
 30
0.0
 11
22.795868678168716
 21
60.95953032567584
 31
0.0
  0
LINE
  5
BB5
330
A35
100
AcDbEntity
  8
0
100
AcDbLine
 10
22.795868678168716
 20
60.95953032567584
 30
0.0
 11
23.089064534858863
 21
60.79676155894191
 31
0.0
  0
LINE
  5
BB6
330
A35
100
AcDbEntity
  8
0
100
AcDbLine
 10
20.547857046403408
 20
64.11947120428925
 30
0.0
 11
20.580728914603753
 21
63.891488892577286
 31
0.0
  0
LINE
  5
BB7
330
A35
100
AcDbEntity
  8
0
100
AcDbLine
 10
20.580728914603753
 20
63.891488892577286
 30
0.0
 11
20.645942459581875
 21
63.69584825764298
 31
0.0
  0
LINE
  5
BB8
330
A35
100
AcDbEntity
  8
0
100
AcDbLine
 10
20.645942459581875
 20
63.69584825764298
 30
0.0
 11
20.71062581313737
 21
63.46786594593087
 31
0.0
  0
LINE
  5
BB9
330
A35
100
AcDbEntity
  8
0
100
AcDbLine
 10
20.71062581313737
 20
63.46786594593087
 30
0.0
 11
20.775839358115434
 21
63.23988363421887
 31
0.0
  0
LINE
  5
BBA
330
A35
100
AcDbEntity
  8
0
100
AcDbLine
 10
20.775839358115434
 20
63.23988363421887
 30
0.0
 11
20.906266448071648
 21
63.01190132250676
 31
0.0
  0
LINE
  5
BBB
330
A35
100
AcDbEntity
  8
0
100
AcDbLine
 10
20.906266448071648
 20
63.01190132250676
 30
0.0
 11
21.036693538027862
 21
62.816260687572594
 31
0.0
  0
LINE
  5
BBC
330
A35
100
AcDbEntity
  8
0
100
AcDbLine
 10
21.036693538027862
 20
62.816260687572594
 30
0.0
 11
21.167120627984076
 21
62.55593669908268
 31
0.0
  0
LINE
  5
BBD
330
A35
100
AcDbEntity
  8
0
100
AcDbLine
 10
21.167120627984076
 20
62.55593669908268
 30
0.0
 11
21.362231071495785
 21
62.360296064148486
 31
0.0
  0
LINE
  5
BBE
330
A35
100
AcDbEntity
  8
0
100
AcDbLine
 10
21.362231071495785
 20
62.360296064148486
 30
0.0
 11
21.557871706430063
 21
62.16492052492549
 31
0.0
  0
LINE
  5
BBF
330
A35
100
AcDbEntity
  8
0
100
AcDbLine
 10
21.557871706430063
 20
62.16492052492549
 30
0.0
 11
21.752982149941772
 21
61.96954498570247
 31
0.0
  0
LINE
  5
BC0
330
A35
100
AcDbEntity
  8
0
100
AcDbLine
 10
21.752982149941772
 20
61.96954498570247
 30
0.0
 11
22.046178006631948
 21
61.77390435076816
 31
0.0
  0
LINE
  5
BC1
330
A35
100
AcDbEntity
  8
0
100
AcDbLine
 10
22.046178006631948
 20
61.77390435076816
 30
0.0
 11
22.274690509766543
 21
61.57852881154514
 31
0.0
  0
LINE
  5
BC2
330
A35
100
AcDbEntity
  8
0
100
AcDbLine
 10
22.274690509766543
 20
61.57852881154514
 30
0.0
 11
22.535014498256373
 21
61.38315327232212
 31
0.0
  0
LINE
  5
BC3
330
A35
100
AcDbEntity
  8
0
100
AcDbLine
 10
22.535014498256373
 20
61.38315327232212
 30
0.0
 11
22.86055203172421
 21
61.25272618236602
 31
0.0
  0
LINE
  5
BC4
330
A35
100
AcDbEntity
  8
0
100
AcDbLine
 10
22.86055203172421
 20
61.25272618236602
 30
0.0
 11
23.186619756614732
 21
61.08995741563197
 31
0.0
  0
LINE
  5
BC5
330
A35
100
AcDbEntity
  8
0
100
AcDbLine
 10
31.818666307740045
 20
68.48453718644114
 30
0.0
 11
31.818666307740045
 21
68.67991272566417
 31
0.0
  0
LINE
  5
BC6
330
A35
100
AcDbEntity
  8
0
100
AcDbLine
 10
21.623085251408156
 20
67.63755638885974
 30
0.0
 11
21.492658161452
 21
71.87219528105538
 31
0.0
  0
LINE
  5
BC7
330
A35
100
AcDbEntity
  8
0
100
AcDbLine
 10
20.547857046403408
 20
64.18468474926746
 30
0.0
 11
20.547857046403408
 21
64.11947120428925
 31
0.0
  0
LINE
  5
BC8
330
A35
100
AcDbEntity
  8
0
100
AcDbLine
 10
32.01430694267415
 20
68.74512627064223
 30
0.0
 11
32.01430694267415
 21
68.48453718644114
 31
0.0
  0
LINE
  5
BC9
330
A35
100
AcDbEntity
  8
0
100
AcDbLine
 10
31.493128774272066
 20
69.75487583495757
 30
0.0
 11
31.493128774272066
 21
69.72226906246843
 31
0.0
  0
LINE
  5
BCA
330
A35
100
AcDbEntity
  8
0
100
AcDbLine
 10
31.493128774272066
 20
69.72226906246843
 30
0.0
 11
31.526000642472468
 21
69.72226906246843
 31
0.0
  0
LINE
  5
BCB
330
A35
100
AcDbEntity
  8
0
100
AcDbLine
 10
31.526000642472468
 20
69.72226906246843
 30
0.0
 11
31.526000642472468
 21
69.68966228997951
 31
0.0
  0
LINE
  5
BCC
330
A35
100
AcDbEntity
  8
0
100
AcDbLine
 10
31.526000642472468
 20
69.68966228997951
 30
0.0
 11
31.526000642472468
 21
69.65705551749042
 31
0.0
  0
LINE
  5
BCD
330
A35
100
AcDbEntity
  8
0
100
AcDbLine
 10
31.427915229294
 20
69.78748260744666
 30
0.0
 11
31.427915229294
 21
69.65705551749042
 31
0.0
  0
LINE
  5
BCE
330
A35
100
AcDbEntity
  8
0
100
AcDbLine
 10
31.427915229294
 20
69.65705551749042
 30
0.0
 11
31.460787097494233
 21
69.65705551749042
 31
0.0
  0
LINE
  5
BCF
330
A35
100
AcDbEntity
  8
0
100
AcDbLine
 10
36.80299587147235
 20
67.7677183831047
 30
0.0
 11
36.80299587147235
 21
68.81007471990898
 31
0.0
  0
LINE
  5
BD0
330
A35
100
AcDbEntity
  8
0
100
AcDbLine
 10
37.128533404940356
 20
68.54948563570792
 30
0.0
 11
37.128533404940356
 21
67.70250483812652
 31
0.0
  0
LINE
  5
BD1
330
A35
100
AcDbEntity
  8
0
100
AcDbLine
 10
37.09619172816258
 20
68.81007471990898
 30
0.0
 11
37.128533404940356
 21
68.54948563570792
 31
0.0
  0
LINE
  5
BD2
330
A35
100
AcDbEntity
  8
0
100
AcDbLine
 10
21.88340923989793
 20
67.7351116106156
 30
0.0
 11
21.88340923989793
 21
71.67681974183233
 31
0.0
  0
LINE
  5
BD3
330
A35
100
AcDbEntity
  8
0
100
AcDbLine
 10
22.307032186544262
 20
68.94050180986525
 30
0.0
 11
22.307032186544262
 21
67.80032515559367
 31
0.0
  0
LINE
  5
BD4
330
A35
100
AcDbEntity
  8
0
100
AcDbLine
 10
22.307032186544262
 20
71.09042802845215
 30
0.0
 11
22.307032186544262
 21
68.94050180986525
 31
0.0
  0
LINE
  5
BD5
330
A35
100
AcDbEntity
  8
0
100
AcDbLine
 10
22.307032186544262
 20
71.64421296934341
 30
0.0
 11
22.307032186544262
 21
71.09042802845215
 31
0.0
  0
LINE
  5
BD6
330
A35
100
AcDbEntity
  8
0
100
AcDbLine
 10
20.547857046403408
 20
64.21702642604512
 30
0.0
 11
20.547857046403408
 21
64.18441965355615
 31
0.0
  0
LINE
  5
BD7
330
A35
100
AcDbEntity
  8
0
100
AcDbLine
 10
20.645942459581875
 20
70.53664308756092
 30
0.0
 11
20.645942459581875
 21
67.37696730465868
 31
0.0
  0
LINE
  5
BD8
330
A35
100
AcDbEntity
  8
0
100
AcDbLine
 10
20.743497681337743
 20
67.40957407714777
 30
0.0
 11
20.743497681337743
 21
70.50403631507183
 31
0.0
  0
LINE
  5
BD9
330
A35
100
AcDbEntity
  8
0
100
AcDbLine
 10
21.557871706430063
 20
72.58874898868049
 30
0.0
 11
21.557871706430063
 21
72.3933734494575
 31
0.0
  0
LINE
  5
BDA
330
A35
100
AcDbEntity
  8
0
100
AcDbLine
 10
22.274690509766543
 20
72.03522914350054
 30
0.0
 11
22.274690509766543
 21
72.23060468272357
 31
0.0
  0
LINE
  5
BDB
330
A35
100
AcDbEntity
  8
0
100
AcDbLine
 10
22.339373863322066
 20
73.43572978626193
 30
0.0
 11
22.339373863322066
 21
73.59876364870715
 31
0.0
  0
LINE
  5
BDC
330
A35
100
AcDbEntity
  8
0
100
AcDbLine
 10
23.186619756614732
 20
72.23060468272357
 30
0.0
 11
23.186619756614732
 21
72.03522914350054
 31
0.0
  0
LINE
  5
BDD
330
A35
100
AcDbEntity
  8
0
100
AcDbLine
 10
24.65259904006544
 20
73.59876364870715
 30
0.0
 11
24.65259904006544
 21
73.43572978626193
 31
0.0
  0
LINE
  5
BDE
330
A35
100
AcDbEntity
  8
0
100
AcDbLine
 10
27.454130517010697
 20
74.18515536208753
 30
0.0
 11
27.454130517010697
 21
74.41313767379947
 31
0.0
  0
LINE
  5
BDF
330
A35
100
AcDbEntity
  8
0
100
AcDbLine
 10
27.649240960522405
 20
74.44574444628856
 30
0.0
 11
27.649240960522405
 21
74.21749703886533
 31
0.0
  0
LINE
  5
BE0
330
A35
100
AcDbEntity
  8
0
100
AcDbLine
 10
28.724469165527182
 20
74.4783512187777
 30
0.0
 11
28.724469165527182
 21
84.8043593650657
 31
0.0
  0
LINE
  5
BE1
330
A35
100
AcDbEntity
  8
0
100
AcDbLine
 10
28.822024387282994
 20
84.8043593650657
 30
0.0
 11
28.822024387282994
 21
84.93478645502182
 31
0.0
  0
LINE
  5
BE2
330
A35
100
AcDbEntity
  8
0
100
AcDbLine
 10
28.952451477239208
 20
84.83696613755464
 30
0.0
 11
28.952451477239208
 21
84.96739322751091
 31
0.0
  0
LINE
  5
BE3
330
A35
100
AcDbEntity
  8
0
100
AcDbLine
 10
31.330360007538133
 20
84.77201768828789
 30
0.0
 11
31.330360007538133
 21
84.93478645502182
 31
0.0
  0
LINE
  5
BE4
330
A35
100
AcDbEntity
  8
0
100
AcDbLine
 10
31.91675172091834
 20
74.38053090131052
 30
0.0
 11
31.91675172091834
 21
84.70680414330982
 31
0.0
  0
LINE
  5
BE5
330
A35
100
AcDbEntity
  8
0
100
AcDbLine
 10
32.07952048765239
 20
74.15254858959838
 30
0.0
 11
32.07952048765239
 21
74.38053090131052
 31
0.0
  0
LINE
  5
BE6
330
A35
100
AcDbEntity
  8
0
100
AcDbLine
 10
32.24228925438632
 20
74.3479241288214
 30
0.0
 11
32.24228925438632
 21
74.08733504462037
 31
0.0
  0
LINE
  5
BE7
330
A35
100
AcDbEntity
  8
0
100
AcDbLine
 10
35.59787076793404
 20
72.65396253365873
 30
0.0
 11
35.59787076793404
 21
74.5432996680444
 31
0.0
  0
LINE
  5
BE8
330
A35
100
AcDbEntity
  8
0
100
AcDbLine
 10
35.630212444711844
 20
72.62135576116964
 30
0.0
 11
35.630212444711844
 21
74.05472827213123
 31
0.0
  0
LINE
  5
BE9
330
A35
100
AcDbEntity
  8
0
100
AcDbLine
 10
35.66255412148965
 20
73.98951472715316
 30
0.0
 11
35.66255412148965
 21
72.62135576116964
 31
0.0
  0
LINE
  5
BEA
330
A35
100
AcDbEntity
  8
0
100
AcDbLine
 10
36.50980001478237
 20
72.23060468272357
 30
0.0
 11
36.50980001478237
 21
74.21749703886533
 31
0.0
  0
LINE
  5
BEB
330
A35
100
AcDbEntity
  8
0
100
AcDbLine
 10
36.50980001478237
 20
82.36123728978859
 30
0.0
 11
36.50980001478237
 21
74.25010381135425
 31
0.0
  0
LINE
  5
BEC
330
A35
100
AcDbEntity
  8
0
100
AcDbLine
 10
36.64022710473844
 20
80.8303095570711
 30
0.0
 11
36.64022710473844
 21
81.97048621134275
 31
0.0
  0
LINE
  5
BED
330
A35
100
AcDbEntity
  8
0
100
AcDbLine
 10
36.770124003272144
 20
80.79770278458201
 30
0.0
 11
36.770124003272144
 21
82.03569975632075
 31
0.0
  0
LINE
  5
BEE
330
A35
100
AcDbEntity
  8
0
100
AcDbLine
 10
30.906737060891686
 20
68.51687886321895
 30
0.0
 11
30.939608929092117
 21
68.94050180986525
 31
0.0
  0
LINE
  5
BEF
330
A35
100
AcDbEntity
  8
0
100
AcDbLine
 10
30.939608929092117
 20
68.94050180986525
 30
0.0
 11
30.939608929092117
 21
69.33125288831127
 31
0.0
  0
LINE
  5
BF0
330
A35
100
AcDbEntity
  8
0
100
AcDbLine
 10
31.297488139337702
 20
69.4616799782674
 30
0.0
 11
31.265146462560097
 21
68.51687886321895
 31
0.0
  0
LINE
  5
BF1
330
A35
100
AcDbEntity
  8
0
100
AcDbLine
 10
31.297488139337702
 20
69.52689352324558
 30
0.0
 11
31.297488139337702
 21
69.4616799782674
 31
0.0
  0
LINE
  5
BF2
330
A35
100
AcDbEntity
  8
0
100
AcDbLine
 10
41.168061853624295
 20
69.39646643328933
 30
0.0
 11
41.168061853624295
 21
69.52689352324558
 31
0.0
  0
LINE
  5
BF3
330
A35
100
AcDbEntity
  8
0
100
AcDbLine
 10
41.168061853624295
 20
69.52689352324558
 30
0.0
 11
41.13518998542389
 21
69.55950029573455
 31
0.0
  0
LINE
  5
BF4
330
A35
100
AcDbEntity
  8
0
100
AcDbLine
 10
41.13518998542389
 20
69.55950029573455
 30
0.0
 11
41.13518998542389
 21
69.59210706822364
 31
0.0
  0
LINE
  5
BF5
330
A35
100
AcDbEntity
  8
0
100
AcDbLine
 10
41.13518998542389
 20
69.59210706822364
 30
0.0
 11
41.1028483086462
 21
69.59210706822364
 31
0.0
  0
LINE
  5
BF6
330
A35
100
AcDbEntity
  8
0
100
AcDbLine
 10
41.1028483086462
 20
69.59210706822364
 30
0.0
 11
41.0699764404458
 21
69.65705551749042
 31
0.0
  0
LINE
  5
BF7
330
A35
100
AcDbEntity
  8
0
100
AcDbLine
 10
41.0699764404458
 20
69.65705551749042
 30
0.0
 11
41.037634763667995
 21
69.68966228997951
 31
0.0
  0
LINE
  5
BF8
330
A35
100
AcDbEntity
  8
0
100
AcDbLine
 10
41.037634763667995
 20
69.68966228997951
 30
0.0
 11
40.97242121868999
 21
69.72226906246843
 31
0.0
  0
LINE
  5
BF9
330
A35
100
AcDbEntity
  8
0
100
AcDbLine
 10
40.97242121868999
 20
69.72226906246843
 30
0.0
 11
40.940079541912155
 21
69.75487583495757
 31
0.0
  0
LINE
  5
BFA
330
A35
100
AcDbEntity
  8
0
100
AcDbLine
 10
40.940079541912155
 20
69.75487583495757
 30
0.0
 11
40.907207673711895
 21
69.75487583495757
 31
0.0
  0
LINE
  5
BFB
330
A35
100
AcDbEntity
  8
0
100
AcDbLine
 10
38.33365850847866
 20
64.05425765931119
 30
0.0
 11
38.33365850847866
 21
64.21702642604512
 31
0.0
  0
LINE
  5
BFC
330
A35
100
AcDbEntity
  8
0
100
AcDbLine
 10
40.907207673711895
 20
67.05116467547953
 30
0.0
 11
41.168061853624295
 21
69.39646643328933
 31
0.0
  0
LINE
  5
BFD
330
A35
100
AcDbEntity
  8
0
100
AcDbLine
 10
32.47027156609829
 20
68.38671686897399
 30
0.0
 11
32.47027156609829
 21
68.48453718644114
 31
0.0
  0
LINE
  5
BFE
330
A35
100
AcDbEntity
  8
0
100
AcDbLine
 10
40.907207673711895
 20
67.2465402147024
 30
0.0
 11
40.87486599693409
 21
67.60494961637065
 31
0.0
  0
LINE
  5
BFF
330
A35
100
AcDbEntity
  8
0
100
AcDbLine
 10
40.87486599693409
 20
67.60494961637065
 30
0.0
 11
40.84199412873386
 21
67.93075224554991
 31
0.0
  0
LINE
  5
C00
330
A35
100
AcDbEntity
  8
0
100
AcDbLine
 10
40.84199412873386
 20
67.93075224554991
 30
0.0
 11
40.71209723020016
 21
68.22394810224009
 31
0.0
  0
LINE
  5
C01
330
A35
100
AcDbEntity
  8
0
100
AcDbLine
 10
40.71209723020016
 20
68.22394810224009
 30
0.0
 11
40.58167014024394
 21
68.54948563570792
 31
0.0
  0
LINE
  5
C02
330
A35
100
AcDbEntity
  8
0
100
AcDbLine
 10
40.58167014024394
 20
68.54948563570792
 30
0.0
 11
40.38602950530961
 21
68.87528826488719
 31
0.0
  0
LINE
  5
C03
330
A35
100
AcDbEntity
  8
0
100
AcDbLine
 10
40.38602950530961
 20
68.87528826488719
 30
0.0
 11
40.19091906179801
 21
69.13587734908825
 31
0.0
  0
LINE
  5
C04
330
A35
100
AcDbEntity
  8
0
100
AcDbLine
 10
40.19091906179801
 20
69.13587734908825
 30
0.0
 11
39.962406558663304
 21
69.4616799782674
 31
0.0
  0
LINE
  5
C05
330
A35
100
AcDbEntity
  8
0
100
AcDbLine
 10
39.962406558663304
 20
69.4616799782674
 30
0.0
 11
39.70208257017359
 21
69.72226906246843
 31
0.0
  0
LINE
  5
C06
330
A35
100
AcDbEntity
  8
0
100
AcDbLine
 10
39.70208257017359
 20
69.72226906246843
 30
0.0
 11
39.37654503670555
 21
70.04807169164772
 31
0.0
  0
LINE
  5
C07
330
A35
100
AcDbEntity
  8
0
100
AcDbLine
 10
39.37654503670555
 20
70.04807169164772
 30
0.0
 11
39.08334918001552
 21
70.27605400335966
 31
0.0
  0
LINE
  5
C08
330
A35
100
AcDbEntity
  8
0
100
AcDbLine
 10
39.08334918001552
 20
70.27605400335966
 30
0.0
 11
38.72493977834722
 21
70.53664308756092
 31
0.0
  0
LINE
  5
C09
330
A35
100
AcDbEntity
  8
0
100
AcDbLine
 10
38.72493977834722
 20
70.53664308756092
 30
0.0
 11
38.33365850847866
 21
70.82983894425092
 31
0.0
  0
LINE
  5
C0A
330
A35
100
AcDbEntity
  8
0
100
AcDbLine
 10
38.33365850847866
 20
70.82983894425092
 30
0.0
 11
37.91056575325484
 21
71.05782125596306
 31
0.0
  0
LINE
  5
C0B
330
A35
100
AcDbEntity
  8
0
100
AcDbLine
 10
37.91056575325484
 20
71.05782125596306
 30
0.0
 11
37.486942806608596
 21
71.285803567675
 31
0.0
  0
LINE
  5
C0C
330
A35
100
AcDbEntity
  8
0
100
AcDbLine
 10
37.486942806608596
 20
71.285803567675
 30
0.0
 11
36.998106314984085
 21
71.48144420260931
 31
0.0
  0
LINE
  5
C0D
330
A35
100
AcDbEntity
  8
0
100
AcDbLine
 10
36.998106314984085
 20
71.48144420260931
 30
0.0
 11
36.50980001478237
 21
71.67681974183233
 31
0.0
  0
LINE
  5
C0E
330
A35
100
AcDbEntity
  8
0
100
AcDbLine
 10
36.50980001478237
 20
71.67681974183233
 30
0.0
 11
35.988621846380084
 21
71.87219528105538
 31
0.0
  0
LINE
  5
C0F
330
A35
100
AcDbEntity
  8
0
100
AcDbLine
 10
35.988621846380084
 20
71.87219528105538
 30
0.0
 11
35.43457180977754
 21
72.0675708202784
 31
0.0
  0
LINE
  5
C10
330
A35
100
AcDbEntity
  8
0
100
AcDbLine
 10
35.43457180977754
 20
72.0675708202784
 30
0.0
 11
34.88105196459759
 21
72.23060468272357
 31
0.0
  0
LINE
  5
C11
330
A35
100
AcDbEntity
  8
0
100
AcDbLine
 10
34.88105196459759
 20
72.23060468272357
 30
0.0
 11
34.29466025121738
 21
72.32842500019078
 31
0.0
  0
LINE
  5
C12
330
A35
100
AcDbEntity
  8
0
100
AcDbLine
 10
34.29466025121738
 20
72.32842500019078
 30
0.0
 11
33.708268537837
 21
72.49119376692465
 31
0.0
  0
LINE
  5
C13
330
A35
100
AcDbEntity
  8
0
100
AcDbLine
 10
33.708268537837
 20
72.49119376692465
 30
0.0
 11
33.12187682445665
 21
72.58874898868049
 31
0.0
  0
LINE
  5
C14
330
A35
100
AcDbEntity
  8
0
100
AcDbLine
 10
33.12187682445665
 20
72.58874898868049
 30
0.0
 11
32.5354851110765
 21
72.68656930614767
 31
0.0
  0
LINE
  5
C15
330
A35
100
AcDbEntity
  8
0
100
AcDbLine
 10
32.5354851110765
 20
72.68656930614767
 30
0.0
 11
31.91675172091834
 21
72.78438962361483
 31
0.0
  0
LINE
  5
C16
330
A35
100
AcDbEntity
  8
0
100
AcDbLine
 10
31.91675172091834
 20
72.78438962361483
 30
0.0
 11
31.297488139337702
 21
72.81699639610395
 31
0.0
  0
LINE
  5
C17
330
A35
100
AcDbEntity
  8
0
100
AcDbLine
 10
31.297488139337702
 20
72.81699639610395
 30
0.0
 11
30.678754749179745
 21
72.84960316859286
 31
0.0
  0
LINE
  5
C18
330
A35
100
AcDbEntity
  8
0
100
AcDbLine
 10
30.678754749179745
 20
72.84960316859286
 30
0.0
 11
29.994807814043583
 21
72.88194484537073
 31
0.0
  0
LINE
  5
C19
330
A35
100
AcDbEntity
  8
0
100
AcDbLine
 10
29.994807814043583
 20
72.88194484537073
 30
0.0
 11
29.375544232462943
 21
72.88194484537073
 31
0.0
  0
LINE
  5
C1A
330
A35
100
AcDbEntity
  8
0
100
AcDbLine
 10
29.375544232462943
 20
72.88194484537073
 30
0.0
 11
28.7568108423049
 21
72.88194484537073
 31
0.0
  0
LINE
  5
C1B
330
A35
100
AcDbEntity
  8
0
100
AcDbLine
 10
28.7568108423049
 20
72.88194484537073
 30
0.0
 11
28.105205583946542
 21
72.84960316859286
 31
0.0
  0
LINE
  5
C1C
330
A35
100
AcDbEntity
  8
0
100
AcDbLine
 10
28.105205583946542
 20
72.84960316859286
 30
0.0
 11
27.453600325588127
 21
72.81699639610395
 31
0.0
  0
LINE
  5
C1D
330
A35
100
AcDbEntity
  8
0
100
AcDbLine
 10
27.453600325588127
 20
72.81699639610395
 30
0.0
 11
26.834866935430085
 21
72.71917607863679
 31
0.0
  0
LINE
  5
C1E
330
A35
100
AcDbEntity
  8
0
100
AcDbLine
 10
26.834866935430085
 20
72.71917607863679
 30
0.0
 11
26.24847522204979
 21
72.65396253365873
 31
0.0
  0
LINE
  5
C1F
330
A35
100
AcDbEntity
  8
0
100
AcDbLine
 10
26.24847522204979
 20
72.65396253365873
 30
0.0
 11
25.62974183189172
 21
72.58874898868049
 31
0.0
  0
LINE
  5
C20
330
A35
100
AcDbEntity
  8
0
100
AcDbLine
 10
25.62974183189172
 20
72.58874898868049
 30
0.0
 11
25.043350118511484
 21
72.45858699443573
 31
0.0
  0
LINE
  5
C21
330
A35
100
AcDbEntity
  8
0
100
AcDbLine
 10
25.043350118511484
 20
72.45858699443573
 30
0.0
 11
24.456958405131132
 21
72.32842500019078
 31
0.0
  0
LINE
  5
C22
330
A35
100
AcDbEntity
  8
0
100
AcDbLine
 10
24.456958405131132
 20
72.32842500019078
 30
0.0
 11
23.870566691750895
 21
72.19799791023465
 31
0.0
  0
LINE
  5
C23
330
A35
100
AcDbEntity
  8
0
100
AcDbLine
 10
23.870566691750895
 20
72.19799791023465
 30
0.0
 11
23.317046846570946
 21
72.03522914350054
 31
0.0
  0
LINE
  5
C24
330
A35
100
AcDbEntity
  8
0
100
AcDbLine
 10
23.317046846570946
 20
72.03522914350054
 30
0.0
 11
22.828210354946492
 21
71.83958850856624
 31
0.0
  0
LINE
  5
C25
330
A35
100
AcDbEntity
  8
0
100
AcDbLine
 10
22.828210354946492
 20
71.83958850856624
 30
0.0
 11
22.307032186544262
 21
71.64421296934341
 31
0.0
  0
LINE
  5
C26
330
A35
100
AcDbEntity
  8
0
100
AcDbLine
 10
31.949093397696146
 20
69.00571535484332
 30
0.0
 11
32.01430694267415
 21
68.74512627064223
 31
0.0
  0
LINE
  5
C27
330
A35
100
AcDbEntity
  8
0
100
AcDbLine
 10
31.818666307740045
 20
68.67991272566417
 30
0.0
 11
31.753982954184437
 21
68.90789503737614
 31
0.0
  0
LINE
  5
C28
330
A35
100
AcDbEntity
  8
0
100
AcDbLine
 10
35.630212444711844
 20
74.05472827213123
 30
0.0
 11
35.630212444711844
 21
74.08733504462037
 31
0.0
  0
LINE
  5
C29
330
A35
100
AcDbEntity
  8
0
100
AcDbLine
 10
35.630212444711844
 20
74.08733504462037
 30
0.0
 11
35.59734057651147
 21
74.08733504462037
 31
0.0
  0
LINE
  5
C2A
330
A35
100
AcDbEntity
  8
0
100
AcDbLine
 10
41.168061853624295
 20
69.65705551749042
 30
0.0
 11
41.168061853624295
 21
69.75487583495757
 31
0.0
  0
LINE
  5
C2B
330
A35
100
AcDbEntity
  8
0
100
AcDbLine
 10
41.168061853624295
 20
69.75487583495757
 30
0.0
 11
41.13518998542389
 21
69.78748260744666
 31
0.0
  0
LINE
  5
C2C
330
A35
100
AcDbEntity
  8
0
100
AcDbLine
 10
41.13518998542389
 20
69.78748260744666
 30
0.0
 11
41.13518998542389
 21
69.85269615242473
 31
0.0
  0
LINE
  5
C2D
330
A35
100
AcDbEntity
  8
0
100
AcDbLine
 10
41.13518998542389
 20
69.85269615242473
 30
0.0
 11
41.1028483086462
 21
69.85269615242473
 31
0.0
  0
LINE
  5
C2E
330
A35
100
AcDbEntity
  8
0
100
AcDbLine
 10
41.1028483086462
 20
69.85269615242473
 30
0.0
 11
41.0699764404458
 21
69.88530292491382
 31
0.0
  0
LINE
  5
C2F
330
A35
100
AcDbEntity
  8
0
100
AcDbLine
 10
41.0699764404458
 20
69.88530292491382
 30
0.0
 11
41.037634763667995
 21
69.91764460169148
 31
0.0
  0
LINE
  5
C30
330
A35
100
AcDbEntity
  8
0
100
AcDbLine
 10
41.037634763667995
 20
69.91764460169148
 30
0.0
 11
40.97242121868999
 21
69.95025137418057
 31
0.0
  0
LINE
  5
C31
330
A35
100
AcDbEntity
  8
0
100
AcDbLine
 10
40.97242121868999
 20
69.95025137418057
 30
0.0
 11
40.940079541912155
 21
69.95025137418057
 31
0.0
  0
LINE
  5
C32
330
A35
100
AcDbEntity
  8
0
100
AcDbLine
 10
40.940079541912155
 20
69.95025137418057
 30
0.0
 11
40.907207673711895
 21
69.98285814666968
 31
0.0
  0
LINE
  5
C33
330
A35
100
AcDbEntity
  8
0
100
AcDbLine
 10
40.679225361999784
 20
80.08114907695685
 30
0.0
 11
40.679225361999784
 21
80.113755849446
 31
0.0
  0
LINE
  5
C34
330
A35
100
AcDbEntity
  8
0
100
AcDbLine
 10
40.679225361999784
 20
80.113755849446
 30
0.0
 11
40.64688368522215
 21
80.14636262193491
 31
0.0
  0
LINE
  5
C35
330
A35
100
AcDbEntity
  8
0
100
AcDbLine
 10
38.33365850847866
 20
67.37696730465868
 30
0.0
 11
38.26897515492308
 21
68.94050180986525
 31
0.0
  0
LINE
  5
C36
330
A35
100
AcDbEntity
  8
0
100
AcDbLine
 10
38.72493977834722
 20
67.2465402147024
 30
0.0
 11
38.6597262333691
 21
68.81007471990898
 31
0.0
  0
LINE
  5
C37
330
A35
100
AcDbEntity
  8
0
100
AcDbLine
 10
35.66255412148965
 20
73.98951472715316
 30
0.0
 11
35.66255412148965
 21
74.05472827213123
 31
0.0
  0
LINE
  5
C38
330
A35
100
AcDbEntity
  8
0
100
AcDbLine
 10
35.66255412148965
 20
74.05472827213123
 30
0.0
 11
35.630212444711844
 21
74.05472827213123
 31
0.0
  0
LINE
  5
C39
330
A35
100
AcDbEntity
  8
0
100
AcDbLine
 10
36.50980001478237
 20
82.36123728978859
 30
0.0
 11
36.50980001478237
 21
82.4264508347668
 31
0.0
  0
LINE
  5
C3A
330
A35
100
AcDbEntity
  8
0
100
AcDbLine
 10
36.50980001478237
 20
82.4264508347668
 30
0.0
 11
36.444586469804136
 21
82.4264508347668
 31
0.0
  0
LINE
  5
C3B
330
A35
100
AcDbEntity
  8
0
100
AcDbLine
 10
47.29177278449433
 20
59.623978132181236
 30
0.0
 11
47.29177278449433
 21
60.014994306338565
 31
0.0
  0
LINE
  5
C3C
330
A35
100
AcDbEntity
  8
0
100
AcDbLine
 10
47.29177278449433
 20
60.014994306338565
 30
0.0
 11
47.1942175627386
 21
60.40574538478458
 31
0.0
  0
LINE
  5
C3D
330
A35
100
AcDbEntity
  8
0
100
AcDbLine
 10
47.1942175627386
 20
60.40574538478458
 30
0.0
 11
47.129004017760394
 21
60.79676155894191
 31
0.0
  0
LINE
  5
C3E
330
A35
100
AcDbEntity
  8
0
100
AcDbLine
 10
47.129004017760394
 20
60.79676155894191
 30
0.0
 11
46.99910711922686
 21
61.18751263738781
 31
0.0
  0
LINE
  5
C3F
330
A35
100
AcDbEntity
  8
0
100
AcDbLine
 10
46.99910711922686
 20
61.18751263738781
 30
0.0
 11
46.83580816107022
 21
61.54592203905605
 31
0.0
  0
LINE
  5
C40
330
A35
100
AcDbEntity
  8
0
100
AcDbLine
 10
46.83580816107022
 20
61.54592203905605
 30
0.0
 11
46.705911262536745
 21
61.93693821321338
 31
0.0
  0
LINE
  5
C41
330
A35
100
AcDbEntity
  8
0
100
AcDbLine
 10
46.705911262536745
 20
61.93693821321338
 30
0.0
 11
46.44505708262432
 21
62.3276892916594
 31
0.0
  0
LINE
  5
C42
330
A35
100
AcDbEntity
  8
0
100
AcDbLine
 10
46.44505708262432
 20
62.3276892916594
 30
0.0
 11
46.217074770912205
 21
62.68609869332764
 31
0.0
  0
LINE
  5
C43
330
A35
100
AcDbEntity
  8
0
100
AcDbLine
 10
46.217074770912205
 20
62.68609869332764
 30
0.0
 11
45.92387891422206
 21
63.04450809499588
 31
0.0
  0
LINE
  5
C44
330
A35
100
AcDbEntity
  8
0
100
AcDbLine
 10
45.92387891422206
 20
63.04450809499588
 30
0.0
 11
45.59834138075425
 21
63.4026524009528
 31
0.0
  0
LINE
  5
C45
330
A35
100
AcDbEntity
  8
0
100
AcDbLine
 10
45.59834138075425
 20
63.4026524009528
 30
0.0
 11
45.27227365586364
 21
63.72845503013207
 31
0.0
  0
LINE
  5
C46
330
A35
100
AcDbEntity
  8
0
100
AcDbLine
 10
45.27227365586364
 20
63.72845503013207
 30
0.0
 11
44.8815225774178
 21
64.08686443180028
 31
0.0
  0
LINE
  5
C47
330
A35
100
AcDbEntity
  8
0
100
AcDbLine
 10
44.8815225774178
 20
64.08686443180028
 30
0.0
 11
44.49077149897175
 21
64.44500873775723
 31
0.0
  0
LINE
  5
C48
330
A35
100
AcDbEntity
  8
0
100
AcDbLine
 10
44.49077149897175
 20
64.44500873775723
 30
0.0
 11
44.06714855232542
 21
64.77081136693636
 31
0.0
  0
LINE
  5
C49
330
A35
100
AcDbEntity
  8
0
100
AcDbLine
 10
44.06714855232542
 20
64.77081136693636
 30
0.0
 11
43.6111839289012
 21
65.06400722362653
 31
0.0
  0
LINE
  5
C4A
330
A35
100
AcDbEntity
  8
0
100
AcDbLine
 10
43.6111839289012
 20
65.06400722362653
 30
0.0
 11
43.090005760499054
 21
65.3898098528058
 31
0.0
  0
LINE
  5
C4B
330
A35
100
AcDbEntity
  8
0
100
AcDbLine
 10
43.090005760499054
 20
65.3898098528058
 30
0.0
 11
42.60116926887457
 21
65.65039893700688
 31
0.0
  0
LINE
  5
C4C
330
A35
100
AcDbEntity
  8
0
100
AcDbLine
 10
42.60116926887457
 20
65.65039893700688
 30
0.0
 11
42.04764942369462
 21
65.94359479369703
 31
0.0
  0
LINE
  5
C4D
330
A35
100
AcDbEntity
  8
0
100
AcDbLine
 10
40.940079541912155
 20
66.43216618961009
 30
0.0
 11
40.907207673711895
 21
67.2465402147024
 31
0.0
  0
LINE
  5
C4E
330
A35
100
AcDbEntity
  8
0
100
AcDbLine
 10
40.484114918488046
 20
80.30913138866902
 30
0.0
 11
40.484114918488046
 21
80.34173816115793
 31
0.0
  0
LINE
  5
C4F
330
A35
100
AcDbEntity
  8
0
100
AcDbLine
 10
40.484114918488046
 20
80.34173816115793
 30
0.0
 11
40.45124305028784
 21
80.34173816115793
 31
0.0
  0
LINE
  5
C50
330
A35
100
AcDbEntity
  8
0
100
AcDbLine
 10
40.45124305028784
 20
80.34173816115793
 30
0.0
 11
40.45124305028784
 21
80.40695170613617
 31
0.0
  0
LINE
  5
C51
330
A35
100
AcDbEntity
  8
0
100
AcDbLine
 10
40.45124305028784
 20
80.40695170613617
 30
0.0
 11
40.38602950530961
 21
80.43955847862509
 31
0.0
  0
LINE
  5
C52
330
A35
100
AcDbEntity
  8
0
100
AcDbLine
 10
40.484114918488046
 20
80.24391784369078
 30
0.0
 11
40.484114918488046
 21
80.30913138866902
 31
0.0
  0
LINE
  5
C53
330
A35
100
AcDbEntity
  8
0
100
AcDbLine
 10
40.679225361999784
 20
70.11328523662579
 30
0.0
 11
40.679225361999784
 21
80.08114907695685
 31
0.0
  0
LINE
  5
C54
330
A35
100
AcDbEntity
  8
0
100
AcDbLine
 10
40.907207673711895
 20
69.75487583495757
 30
0.0
 11
40.907207673711895
 21
69.98285814666968
 31
0.0
  0
LINE
  5
C55
330
A35
100
AcDbEntity
  8
0
100
AcDbLine
 10
41.168061853624295
 20
69.4616799782674
 30
0.0
 11
41.168061853624295
 21
69.65705551749042
 31
0.0
  0
LINE
  5
C56
330
A35
100
AcDbEntity
  8
0
100
AcDbLine
 10
47.29177278449433
 20
59.10279996377909
 30
0.0
 11
47.29177278449433
 21
59.623978132181236
 31
0.0
  0
LINE
  5
C57
330
A35
100
AcDbEntity
  8
0
100
AcDbLine
 10
14.586914882267223
 20
58.77699733459997
 30
0.0
 11
14.977665960713267
 21
57.148249284415186
 31
0.0
  0
LINE
  5
C58
330
A35
100
AcDbEntity
  8
0
100
AcDbLine
 10
14.977665960713267
 20
57.148249284415186
 30
0.0
 11
16.05289416571796
 21
55.519501234230546
 31
0.0
  0
LINE
  5
C59
330
A35
100
AcDbEntity
  8
0
100
AcDbLine
 10
16.05289416571796
 20
55.519501234230546
 30
0.0
 11
17.8115391144363
 21
54.11900059146919
 31
0.0
  0
LINE
  5
C5A
330
A35
100
AcDbEntity
  8
0
100
AcDbLine
 10
17.8115391144363
 20
54.11900059146919
 30
0.0
 11
20.189447644735196
 21
52.94621716470863
 31
0.0
  0
LINE
  5
C5B
330
A35
100
AcDbEntity
  8
0
100
AcDbLine
 10
20.189447644735196
 20
52.94621716470863
 30
0.0
 11
23.0238509898808
 21
52.06662959463813
 31
0.0
  0
LINE
  5
C5C
330
A35
100
AcDbEntity
  8
0
100
AcDbLine
 10
23.0238509898808
 20
52.06662959463813
 30
0.0
 11
26.18326167707167
 21
51.51310974945818
 31
0.0
  0
LINE
  5
C5D
330
A35
100
AcDbEntity
  8
0
100
AcDbLine
 10
26.18326167707167
 20
51.51310974945818
 30
0.0
 11
29.47362964564138
 21
51.34981079130168
 31
0.0
  0
LINE
  5
C5E
330
A35
100
AcDbEntity
  8
0
100
AcDbLine
 10
29.47362964564138
 20
51.34981079130168
 30
0.0
 11
32.731125746010804
 21
51.51310974945818
 31
0.0
  0
LINE
  5
C5F
330
A35
100
AcDbEntity
  8
0
100
AcDbLine
 10
32.731125746010804
 20
51.51310974945818
 30
0.0
 11
35.92340830140196
 21
52.06662959463813
 31
0.0
  0
LINE
  5
C60
330
A35
100
AcDbEntity
  8
0
100
AcDbLine
 10
35.92340830140196
 20
52.06662959463813
 30
0.0
 11
38.6920679101469
 21
52.94621716470863
 31
0.0
  0
LINE
  5
C61
330
A35
100
AcDbEntity
  8
0
100
AcDbLine
 10
38.6920679101469
 20
52.94621716470863
 30
0.0
 11
41.0699764404458
 21
54.11900059146919
 31
0.0
  0
LINE
  5
C62
330
A35
100
AcDbEntity
  8
0
100
AcDbLine
 10
41.0699764404458
 20
54.11900059146919
 30
0.0
 11
42.82915158058674
 21
55.519501234230546
 31
0.0
  0
LINE
  5
C63
330
A35
100
AcDbEntity
  8
0
100
AcDbLine
 10
42.82915158058674
 20
55.519501234230546
 30
0.0
 11
43.96959333056961
 21
57.148249284415186
 31
0.0
  0
LINE
  5
C64
330
A35
100
AcDbEntity
  8
0
100
AcDbLine
 10
43.96959333056961
 20
57.148249284415186
 30
0.0
 11
44.295130864037446
 21
58.77699733459997
 31
0.0
  0
LINE
  5
C65
330
A35
100
AcDbEntity
  8
0
100
AcDbLine
 10
44.295130864037446
 20
58.77699733459997
 30
0.0
 11
43.96959333056961
 21
60.40574538478458
 31
0.0
  0
LINE
  5
C66
330
A35
100
AcDbEntity
  8
0
100
AcDbLine
 10
43.96959333056961
 20
60.40574538478458
 30
0.0
 11
42.82915158058674
 21
61.96954498570247
 31
0.0
  0
LINE
  5
C67
330
A35
100
AcDbEntity
  8
0
100
AcDbLine
 10
42.82915158058674
 20
61.96954498570247
 30
0.0
 11
41.0699764404458
 21
63.4026524009528
 31
0.0
  0
LINE
  5
C68
330
A35
100
AcDbEntity
  8
0
100
AcDbLine
 10
41.0699764404458
 20
63.4026524009528
 30
0.0
 11
38.6920679101469
 21
64.60804260020245
 31
0.0
  0
LINE
  5
C69
330
A35
100
AcDbEntity
  8
0
100
AcDbLine
 10
38.6920679101469
 20
64.60804260020245
 30
0.0
 11
35.92340830140196
 21
65.45502339778386
 31
0.0
  0
LINE
  5
C6A
330
A35
100
AcDbEntity
  8
0
100
AcDbLine
 10
35.92340830140196
 20
65.45502339778386
 30
0.0
 11
32.731125746010804
 21
66.0088083386751
 31
0.0
  0
LINE
  5
C6B
330
A35
100
AcDbEntity
  8
0
100
AcDbLine
 10
32.731125746010804
 20
66.0088083386751
 30
0.0
 11
29.47362964564138
 21
66.20418387789812
 31
0.0
  0
LINE
  5
C6C
330
A35
100
AcDbEntity
  8
0
100
AcDbLine
 10
29.47362964564138
 20
66.20418387789812
 30
0.0
 11
26.18326167707167
 21
66.0088083386751
 31
0.0
  0
LINE
  5
C6D
330
A35
100
AcDbEntity
  8
0
100
AcDbLine
 10
26.18326167707167
 20
66.0088083386751
 30
0.0
 11
23.0238509898808
 21
65.45502339778386
 31
0.0
  0
LINE
  5
C6E
330
A35
100
AcDbEntity
  8
0
100
AcDbLine
 10
23.0238509898808
 20
65.45502339778386
 30
0.0
 11
20.189447644735196
 21
64.60804260020245
 31
0.0
  0
LINE
  5
C6F
330
A35
100
AcDbEntity
  8
0
100
AcDbLine
 10
20.189447644735196
 20
64.60804260020245
 30
0.0
 11
17.8115391144363
 21
63.4026524009528
 31
0.0
  0
LINE
  5
C70
330
A35
100
AcDbEntity
  8
0
100
AcDbLine
 10
17.8115391144363
 20
63.4026524009528
 30
0.0
 11
16.05289416571796
 21
61.96954498570247
 31
0.0
  0
LINE
  5
C71
330
A35
100
AcDbEntity
  8
0
100
AcDbLine
 10
16.05289416571796
 20
61.96954498570247
 30
0.0
 11
14.977665960713267
 21
60.40574538478458
 31
0.0
  0
LINE
  5
C72
330
A35
100
AcDbEntity
  8
0
100
AcDbLine
 10
14.977665960713267
 20
60.40574538478458
 30
0.0
 11
14.586914882267223
 21
58.77699733459997
 31
0.0
  0
LINE
  5
C73
330
A35
100
AcDbEntity
  8
0
100
AcDbLine
 10
8.723527939886935
 20
76.6282774373646
 30
0.0
 11
8.723527939886935
 21
76.72583265912047
 31
0.0
  0
LINE
  5
C74
330
A35
100
AcDbEntity
  8
0
100
AcDbLine
 10
8.723527939886935
 20
76.72583265912047
 30
0.0
 11
8.625442526708497
 21
76.79104620409854
 31
0.0
  0
LINE
  5
C75
330
A35
100
AcDbEntity
  8
0
100
AcDbLine
 10
8.625442526708497
 20
76.79104620409854
 30
0.0
 11
8.560228981730432
 21
76.88886652156569
 31
0.0
  0
LINE
  5
C76
330
A35
100
AcDbEntity
  8
0
100
AcDbLine
 10
8.560228981730432
 20
76.88886652156569
 30
0.0
 11
8.397460214996414
 21
76.95381497083241
 31
0.0
  0
LINE
  5
C77
330
A35
100
AcDbEntity
  8
0
100
AcDbLine
 10
8.397460214996414
 20
76.95381497083241
 30
0.0
 11
8.23469144826251
 21
76.98642174332156
 31
0.0
  0
LINE
  5
C78
330
A35
100
AcDbEntity
  8
0
100
AcDbLine
 10
8.23469144826251
 20
76.98642174332156
 30
0.0
 11
8.104264358306295
 21
77.01902851581048
 31
0.0
  0
LINE
  5
C79
330
A35
100
AcDbEntity
  8
0
100
AcDbLine
 10
8.104264358306295
 20
77.01902851581048
 30
0.0
 11
7.909153914794587
 21
77.01902851581048
 31
0.0
  0
LINE
  5
C7A
330
A35
100
AcDbEntity
  8
0
100
AcDbLine
 10
7.909153914794587
 20
77.01902851581048
 30
0.0
 11
7.745854956638084
 21
77.01902851581048
 31
0.0
  0
LINE
  5
C7B
330
A35
100
AcDbEntity
  8
0
100
AcDbLine
 10
7.745854956638084
 20
77.01902851581048
 30
0.0
 11
7.550744513126347
 21
76.98642174332156
 31
0.0
  0
LINE
  5
C7C
330
A35
100
AcDbEntity
  8
0
100
AcDbLine
 10
7.550744513126347
 20
76.98642174332156
 30
0.0
 11
7.4203174231701325
 21
76.95381497083241
 31
0.0
  0
LINE
  5
C7D
330
A35
100
AcDbEntity
  8
0
100
AcDbLine
 10
7.4203174231701325
 20
76.95381497083241
 30
0.0
 11
7.257548656436228
 21
76.88886652156569
 31
0.0
  0
LINE
  5
C7E
330
A35
100
AcDbEntity
  8
0
100
AcDbLine
 10
7.257548656436228
 20
76.88886652156569
 30
0.0
 11
7.192335111458135
 21
76.79104620409854
 31
0.0
  0
LINE
  5
C7F
330
A35
100
AcDbEntity
  8
0
100
AcDbLine
 10
7.192335111458135
 20
76.79104620409854
 30
0.0
 11
7.127121566480014
 21
76.72583265912047
 31
0.0
  0
LINE
  5
C80
330
A35
100
AcDbEntity
  8
0
100
AcDbLine
 10
7.127121566480014
 20
76.72583265912047
 30
0.0
 11
7.127121566480014
 21
76.6282774373646
 31
0.0
  0
LINE
  5
C81
330
A35
100
AcDbEntity
  8
0
100
AcDbLine
 10
7.127121566480014
 20
76.6282774373646
 30
0.0
 11
7.127121566480014
 21
76.56306389238637
 31
0.0
  0
LINE
  5
C82
330
A35
100
AcDbEntity
  8
0
100
AcDbLine
 10
7.127121566480014
 20
76.56306389238637
 30
0.0
 11
7.192335111458135
 21
76.4326368024303
 31
0.0
  0
LINE
  5
C83
330
A35
100
AcDbEntity
  8
0
100
AcDbLine
 10
7.192335111458135
 20
76.4326368024303
 30
0.0
 11
7.257548656436228
 21
76.36742325745206
 31
0.0
  0
LINE
  5
C84
330
A35
100
AcDbEntity
  8
0
100
AcDbLine
 10
7.257548656436228
 20
76.36742325745206
 30
0.0
 11
7.4203174231701325
 21
76.33508158067443
 31
0.0
  0
LINE
  5
C85
330
A35
100
AcDbEntity
  8
0
100
AcDbLine
 10
7.4203174231701325
 20
76.33508158067443
 30
0.0
 11
7.550744513126347
 21
76.30247480818531
 31
0.0
  0
LINE
  5
C86
330
A35
100
AcDbEntity
  8
0
100
AcDbLine
 10
7.550744513126347
 20
76.30247480818531
 30
0.0
 11
7.745854956638084
 21
76.23726126320727
 31
0.0
  0
LINE
  5
C87
330
A35
100
AcDbEntity
  8
0
100
AcDbLine
 10
7.745854956638084
 20
76.23726126320727
 30
0.0
 11
7.909153914794587
 21
76.23726126320727
 31
0.0
  0
LINE
  5
C88
330
A35
100
AcDbEntity
  8
0
100
AcDbLine
 10
7.909153914794587
 20
76.23726126320727
 30
0.0
 11
8.104264358306295
 21
76.23726126320727
 31
0.0
  0
LINE
  5
C89
330
A35
100
AcDbEntity
  8
0
100
AcDbLine
 10
8.104264358306295
 20
76.23726126320727
 30
0.0
 11
8.23469144826251
 21
76.30247480818531
 31
0.0
  0
LINE
  5
C8A
330
A35
100
AcDbEntity
  8
0
100
AcDbLine
 10
8.23469144826251
 20
76.30247480818531
 30
0.0
 11
8.397460214996414
 21
76.33508158067443
 31
0.0
  0
LINE
  5
C8B
330
A35
100
AcDbEntity
  8
0
100
AcDbLine
 10
8.397460214996414
 20
76.33508158067443
 30
0.0
 11
8.560228981730432
 21
76.36742325745206
 31
0.0
  0
LINE
  5
C8C
330
A35
100
AcDbEntity
  8
0
100
AcDbLine
 10
8.560228981730432
 20
76.36742325745206
 30
0.0
 11
8.625442526708497
 21
76.4326368024303
 31
0.0
  0
LINE
  5
C8D
330
A35
100
AcDbEntity
  8
0
100
AcDbLine
 10
8.625442526708497
 20
76.4326368024303
 30
0.0
 11
8.723527939886935
 21
76.56306389238637
 31
0.0
  0
LINE
  5
C8E
330
A35
100
AcDbEntity
  8
0
100
AcDbLine
 10
8.723527939886935
 20
76.56306389238637
 30
0.0
 11
8.723527939886935
 21
76.6282774373646
 31
0.0
  0
LINE
  5
C8F
330
A35
100
AcDbEntity
  8
0
100
AcDbLine
 10
32.47027156609829
 20
68.48453718644114
 30
0.0
 11
32.4050580211202
 21
68.74512627064223
 31
0.0
  0
LINE
  5
C90
330
A35
100
AcDbEntity
  8
0
100
AcDbLine
 10
32.307502799364386
 20
68.41932364146311
 30
0.0
 11
32.307502799364386
 21
68.74512627064223
 31
0.0
  0
LINE
  5
C91
330
A35
100
AcDbEntity
  8
0
100
AcDbLine
 10
22.20947696478845
 20
71.64421296934341
 30
0.0
 11
22.274690509766543
 21
71.64421296934341
 31
0.0
  0
LINE
  5
C92
330
A35
100
AcDbEntity
  8
0
100
AcDbLine
 10
31.427915229294
 20
69.65705551749042
 30
0.0
 11
31.362701684315937
 21
69.65705551749042
 31
0.0
  0
LINE
  5
C93
330
A35
100
AcDbEntity
  8
0
100
AcDbLine
 10
37.09619172816258
 20
68.81007471990898
 30
0.0
 11
38.26897515492308
 21
68.94050180986525
 31
0.0
  0
LINE
  5
C94
330
A35
100
AcDbEntity
  8
0
100
AcDbLine
 10
15.466502452337693
 20
65.84577447622988
 30
0.0
 11
15.466502452337693
 21
65.81316770374079
 31
0.0
  0
LINE
  5
C95
330
A35
100
AcDbEntity
  8
0
100
AcDbLine
 10
15.466502452337693
 20
65.81316770374079
 30
0.0
 11
15.49884412911544
 21
65.81316770374079
 31
0.0
  0
LINE
  5
C96
330
A35
100
AcDbEntity
  8
0
100
AcDbLine
 10
15.49884412911544
 20
65.81316770374079
 30
0.0
 11
15.49884412911544
 21
65.7805609312517
 31
0.0
  0
LINE
  5
C97
330
A35
100
AcDbEntity
  8
0
100
AcDbLine
 10
15.49884412911544
 20
65.7805609312517
 30
0.0
 11
15.564057674093505
 21
65.7805609312517
 31
0.0
  0
LINE
  5
C98
330
A35
100
AcDbEntity
  8
0
100
AcDbLine
 10
7.127121566480014
 20
76.69322588663138
 30
0.0
 11
7.127121566480014
 21
76.6282774373646
 31
0.0
  0
LINE
  5
C99
330
A35
100
AcDbEntity
  8
0
100
AcDbLine
 10
7.127121566480014
 20
76.6282774373646
 30
0.0
 11
7.159463243257761
 21
76.59567066487551
 31
0.0
  0
LINE
  5
C9A
330
A35
100
AcDbEntity
  8
0
100
AcDbLine
 10
7.159463243257761
 20
76.59567066487551
 30
0.0
 11
7.192335111458135
 21
76.56306389238637
 31
0.0
  0
LINE
  5
C9B
330
A35
100
AcDbEntity
  8
0
100
AcDbLine
 10
7.192335111458135
 20
76.56306389238637
 30
0.0
 11
7.224676788235882
 21
76.53045711989745
 31
0.0
  0
LINE
  5
C9C
330
A35
100
AcDbEntity
  8
0
100
AcDbLine
 10
7.224676788235882
 20
76.53045711989745
 30
0.0
 11
7.257548656436228
 21
76.49785034740836
 31
0.0
  0
LINE
  5
C9D
330
A35
100
AcDbEntity
  8
0
100
AcDbLine
 10
7.257548656436228
 20
76.49785034740836
 30
0.0
 11
7.35510387819204
 21
76.49785034740836
 31
0.0
  0
LINE
  5
C9E
330
A35
100
AcDbEntity
  8
0
100
AcDbLine
 10
7.35510387819204
 20
76.49785034740836
 30
0.0
 11
7.387445554969844
 21
76.4326368024303
 31
0.0
  0
LINE
  5
C9F
330
A35
100
AcDbEntity
  8
0
100
AcDbLine
 10
7.387445554969844
 20
76.4326368024303
 30
0.0
 11
7.452659099947937
 21
76.40003002994115
 31
0.0
  0
LINE
  5
CA0
330
A35
100
AcDbEntity
  8
0
100
AcDbLine
 10
7.452659099947937
 20
76.40003002994115
 30
0.0
 11
7.550744513126347
 21
76.40003002994115
 31
0.0
  0
LINE
  5
CA1
330
A35
100
AcDbEntity
  8
0
100
AcDbLine
 10
7.550744513126347
 20
76.40003002994115
 30
0.0
 11
7.615958058104468
 21
76.36742325745206
 31
0.0
  0
LINE
  5
CA2
330
A35
100
AcDbEntity
  8
0
100
AcDbLine
 10
7.615958058104468
 20
76.36742325745206
 30
0.0
 11
7.713513279860308
 21
76.36742325745206
 31
0.0
  0
LINE
  5
CA3
330
A35
100
AcDbEntity
  8
0
100
AcDbLine
 10
7.713513279860308
 20
76.36742325745206
 30
0.0
 11
7.7787268248383725
 21
76.36742325745206
 31
0.0
  0
LINE
  5
CA4
330
A35
100
AcDbEntity
  8
0
100
AcDbLine
 10
7.7787268248383725
 20
76.36742325745206
 30
0.0
 11
7.843940369816465
 21
76.33508158067443
 31
0.0
  0
LINE
  5
CA5
330
A35
100
AcDbEntity
  8
0
100
AcDbLine
 10
7.843940369816465
 20
76.33508158067443
 30
0.0
 11
7.941495591572391
 21
76.33508158067443
 31
0.0
  0
LINE
  5
CA6
330
A35
100
AcDbEntity
  8
0
100
AcDbLine
 10
7.941495591572391
 20
76.33508158067443
 30
0.0
 11
8.039050813328203
 21
76.36742325745206
 31
0.0
  0
LINE
  5
CA7
330
A35
100
AcDbEntity
  8
0
100
AcDbLine
 10
8.039050813328203
 20
76.36742325745206
 30
0.0
 11
8.137136226506641
 21
76.36742325745206
 31
0.0
  0
LINE
  5
CA8
330
A35
100
AcDbEntity
  8
0
100
AcDbLine
 10
8.137136226506641
 20
76.36742325745206
 30
0.0
 11
8.201819580062164
 21
76.36742325745206
 31
0.0
  0
LINE
  5
CA9
330
A35
100
AcDbEntity
  8
0
100
AcDbLine
 10
8.201819580062164
 20
76.36742325745206
 30
0.0
 11
8.299904993240602
 21
76.40003002994115
 31
0.0
  0
LINE
  5
CAA
330
A35
100
AcDbEntity
  8
0
100
AcDbLine
 10
8.299904993240602
 20
76.40003002994115
 30
0.0
 11
8.365118538218724
 21
76.40003002994115
 31
0.0
  0
LINE
  5
CAB
330
A35
100
AcDbEntity
  8
0
100
AcDbLine
 10
8.365118538218724
 20
76.40003002994115
 30
0.0
 11
8.397460214996414
 21
76.4326368024303
 31
0.0
  0
LINE
  5
CAC
330
A35
100
AcDbEntity
  8
0
100
AcDbLine
 10
8.397460214996414
 20
76.4326368024303
 30
0.0
 11
8.49501543675234
 21
76.4326368024303
 31
0.0
  0
LINE
  5
CAD
330
A35
100
AcDbEntity
  8
0
100
AcDbLine
 10
19.277518397887007
 20
69.16848412157717
 30
0.0
 11
19.277518397887007
 21
69.20109089406631
 31
0.0
  0
LINE
  5
CAE
330
A35
100
AcDbEntity
  8
0
100
AcDbLine
 10
16.345559830985565
 20
65.65039893700688
 30
0.0
 11
15.759698309027812
 21
67.44218084963671
 31
0.0
  0
LINE
  5
CAF
330
A35
100
AcDbEntity
  8
0
100
AcDbLine
 10
19.863910111267273
 20
67.14898499294657
 30
0.0
 11
19.17996317613111
 21
69.16848412157717
 31
0.0
  0
LINE
  5
CB0
330
A35
100
AcDbEntity
  8
0
100
AcDbLine
 10
19.89625178804505
 20
67.18132666972434
 30
0.0
 11
19.277518397887007
 21
69.16848412157717
 31
0.0
  0
LINE
  5
CB1
330
A35
100
AcDbEntity
  8
0
100
AcDbLine
 10
32.4050580211202
 20
68.74512627064223
 30
0.0
 11
32.33984447614219
 21
69.00571535484332
 31
0.0
  0
LINE
  5
CB2
330
A35
100
AcDbEntity
  8
0
100
AcDbLine
 10
31.91675172091834
 20
69.4616799782674
 30
0.0
 11
31.949093397696146
 21
69.39646643328933
 31
0.0
  0
LINE
  5
CB3
330
A35
100
AcDbEntity
  8
0
100
AcDbLine
 10
31.91675172091834
 20
69.20109089406631
 30
0.0
 11
31.949093397696146
 21
69.00571535484332
 31
0.0
  0
LINE
  5
CB4
330
A35
100
AcDbEntity
  8
0
100
AcDbLine
 10
31.753982954184437
 20
68.90789503737614
 30
0.0
 11
31.721111085984177
 21
69.10327057659916
 31
0.0
  0
LINE
  5
CB5
330
A35
100
AcDbEntity
  8
0
100
AcDbLine
 10
32.307502799364386
 20
68.74512627064223
 30
0.0
 11
32.24228925438632
 21
69.00571535484332
 31
0.0
  0
LINE
  5
CB6
330
A35
100
AcDbEntity
  8
0
100
AcDbLine
 10
38.26897515492308
 20
68.94050180986525
 30
0.0
 11
38.30131683170089
 21
68.97310858235434
 31
0.0
  0
LINE
  5
CB7
330
A35
100
AcDbEntity
  8
0
100
AcDbLine
 10
27.649240960522405
 20
74.21749703886533
 30
0.0
 11
27.616899283744686
 21
74.21749703886533
 31
0.0
  0
LINE
  5
CB8
330
A35
100
AcDbEntity
  8
0
100
AcDbLine
 10
27.616899283744686
 20
74.21749703886533
 30
0.0
 11
27.584027415544284
 21
74.21749703886533
 31
0.0
  0
LINE
  5
CB9
330
A35
100
AcDbEntity
  8
0
100
AcDbLine
 10
27.584027415544284
 20
74.21749703886533
 30
0.0
 11
27.551685738766594
 21
74.21749703886533
 31
0.0
  0
LINE
  5
CBA
330
A35
100
AcDbEntity
  8
0
100
AcDbLine
 10
27.551685738766594
 20
74.21749703886533
 30
0.0
 11
27.551685738766594
 21
74.18515536208753
 31
0.0
  0
LINE
  5
CBB
330
A35
100
AcDbEntity
  8
0
100
AcDbLine
 10
27.551685738766594
 20
74.18515536208753
 30
0.0
 11
27.51881387056619
 21
74.18515536208753
 31
0.0
  0
LINE
  5
CBC
330
A35
100
AcDbEntity
  8
0
100
AcDbLine
 10
27.51881387056619
 20
74.18515536208753
 30
0.0
 11
27.454130517010697
 21
74.18515536208753
 31
0.0
  0
LINE
  5
CBD
330
A35
100
AcDbEntity
  8
0
100
AcDbLine
 10
27.649240960522405
 20
74.44574444628856
 30
0.0
 11
27.616899283744686
 21
74.44574444628856
 31
0.0
  0
LINE
  5
CBE
330
A35
100
AcDbEntity
  8
0
100
AcDbLine
 10
27.616899283744686
 20
74.44574444628856
 30
0.0
 11
27.584027415544284
 21
74.44574444628856
 31
0.0
  0
LINE
  5
CBF
330
A35
100
AcDbEntity
  8
0
100
AcDbLine
 10
27.584027415544284
 20
74.44574444628856
 30
0.0
 11
27.584027415544284
 21
74.41313767379947
 31
0.0
  0
LINE
  5
CC0
330
A35
100
AcDbEntity
  8
0
100
AcDbLine
 10
27.584027415544284
 20
74.41313767379947
 30
0.0
 11
27.551685738766594
 21
74.41313767379947
 31
0.0
  0
LINE
  5
CC1
330
A35
100
AcDbEntity
  8
0
100
AcDbLine
 10
27.551685738766594
 20
74.41313767379947
 30
0.0
 11
27.51881387056619
 21
74.41313767379947
 31
0.0
  0
LINE
  5
CC2
330
A35
100
AcDbEntity
  8
0
100
AcDbLine
 10
27.51881387056619
 20
74.41313767379947
 30
0.0
 11
27.454130517010697
 21
74.41313767379947
 31
0.0
  0
LINE
  5
CC3
330
A35
100
AcDbEntity
  8
0
100
AcDbLine
 10
31.297488139337702
 20
69.75487583495757
 30
0.0
 11
31.427915229294
 21
69.78748260744666
 31
0.0
  0
LINE
  5
CC4
330
A35
100
AcDbEntity
  8
0
100
AcDbLine
 10
36.998106314984085
 20
68.77773304313132
 30
0.0
 11
37.09619172816258
 21
68.81007471990898
 31
0.0
  0
LINE
  5
CC5
330
A35
100
AcDbEntity
  8
0
100
AcDbLine
 10
22.079049874832236
 20
71.61160619685432
 30
0.0
 11
22.20947696478845
 21
71.64421296934341
 31
0.0
  0
LINE
  5
CC6
330
A35
100
AcDbEntity
  8
0
100
AcDbLine
 10
31.460787097494233
 20
69.65705551749042
 30
0.0
 11
31.427915229294
 21
69.65705551749042
 31
0.0
  0
LINE
  5
CC7
330
A35
100
AcDbEntity
  8
0
100
AcDbLine
 10
38.30131683170089
 20
68.97310858235434
 30
0.0
 11
38.36653037667898
 21
68.97310858235434
 31
0.0
  0
LINE
  5
CC8
330
A35
100
AcDbEntity
  8
0
100
AcDbLine
 10
31.88387985271808
 20
69.33125288831127
 30
0.0
 11
31.818666307740045
 21
69.33125288831127
 31
0.0
  0
LINE
  5
CC9
330
A35
100
AcDbEntity
  8
0
100
AcDbLine
 10
31.818666307740045
 20
69.33125288831127
 30
0.0
 11
31.818666307740045
 21
69.29891121153346
 31
0.0
  0
LINE
  5
CCA
330
A35
100
AcDbEntity
  8
0
100
AcDbLine
 10
31.818666307740045
 20
69.29891121153346
 30
0.0
 11
31.753982954184437
 21
69.29891121153346
 31
0.0
  0
LINE
  5
CCB
330
A35
100
AcDbEntity
  8
0
100
AcDbLine
 10
31.753982954184437
 20
69.29891121153346
 30
0.0
 11
31.721111085984177
 21
69.29891121153346
 31
0.0
  0
LINE
  5
CCC
330
A35
100
AcDbEntity
  8
0
100
AcDbLine
 10
31.721111085984177
 20
69.29891121153346
 30
0.0
 11
31.721111085984177
 21
69.26630443904435
 31
0.0
  0
LINE
  5
CCD
330
A35
100
AcDbEntity
  8
0
100
AcDbLine
 10
31.721111085984177
 20
69.26630443904435
 30
0.0
 11
31.688769409206373
 21
69.20109089406631
 31
0.0
  0
LINE
  5
CCE
330
A35
100
AcDbEntity
  8
0
100
AcDbLine
 10
31.688769409206373
 20
69.20109089406631
 30
0.0
 11
31.688769409206373
 21
69.16848412157717
 31
0.0
  0
LINE
  5
CCF
330
A35
100
AcDbEntity
  8
0
100
AcDbLine
 10
10.482172888605191
 20
73.56615687621823
 30
0.0
 11
10.482172888605191
 21
73.59876364870715
 31
0.0
  0
LINE
  5
CD0
330
A35
100
AcDbEntity
  8
0
100
AcDbLine
 10
10.482172888605191
 20
73.59876364870715
 30
0.0
 11
10.449831211827501
 21
73.59876364870715
 31
0.0
  0
LINE
  5
CD1
330
A35
100
AcDbEntity
  8
0
100
AcDbLine
 10
10.449831211827501
 20
73.59876364870715
 30
0.0
 11
10.449831211827501
 21
73.63137042119627
 31
0.0
  0
LINE
  5
CD2
330
A35
100
AcDbEntity
  8
0
100
AcDbLine
 10
10.449831211827501
 20
73.63137042119627
 30
0.0
 11
10.38461766684938
 21
73.66397719368538
 31
0.0
  0
LINE
  5
CD3
330
A35
100
AcDbEntity
  8
0
100
AcDbLine
 10
10.38461766684938
 20
73.66397719368538
 30
0.0
 11
10.352275990071576
 21
73.66397719368538
 31
0.0
  0
LINE
  5
CD4
330
A35
100
AcDbEntity
  8
0
100
AcDbLine
 10
10.352275990071576
 20
73.66397719368538
 30
0.0
 11
10.352275990071576
 21
73.69631887046299
 31
0.0
  0
LINE
  5
CD5
330
A35
100
AcDbEntity
  8
0
100
AcDbLine
 10
10.352275990071576
 20
73.69631887046299
 30
0.0
 11
10.319404121871287
 21
73.69631887046299
 31
0.0
  0
LINE
  5
CD6
330
A35
100
AcDbEntity
  8
0
100
AcDbLine
 10
13.902437755708519
 20
75.26011847138088
 30
0.0
 11
13.870096078930771
 21
75.3250669206478
 31
0.0
  0
LINE
  5
CD7
330
A35
100
AcDbEntity
  8
0
100
AcDbLine
 10
13.870096078930771
 20
75.3250669206478
 30
0.0
 11
13.870096078930771
 21
75.35767369313672
 31
0.0
  0
LINE
  5
CD8
330
A35
100
AcDbEntity
  8
0
100
AcDbLine
 10
13.870096078930771
 20
75.35767369313672
 30
0.0
 11
13.837754402153024
 21
75.35767369313672
 31
0.0
  0
LINE
  5
CD9
330
A35
100
AcDbEntity
  8
0
100
AcDbLine
 10
13.837754402153024
 20
75.35767369313672
 30
0.0
 11
13.837754402153024
 21
75.39028046562586
 31
0.0
  0
LINE
  5
CDA
330
A35
100
AcDbEntity
  8
0
100
AcDbLine
 10
13.837754402153024
 20
75.39028046562586
 30
0.0
 11
13.804882533952679
 21
75.39028046562586
 31
0.0
  0
LINE
  5
CDB
330
A35
100
AcDbEntity
  8
0
100
AcDbLine
 10
13.804882533952679
 20
75.39028046562586
 30
0.0
 11
13.739668988974557
 21
75.42288723811495
 31
0.0
  0
LINE
  5
CDC
330
A35
100
AcDbEntity
  8
0
100
AcDbLine
 10
13.739668988974557
 20
75.42288723811495
 30
0.0
 11
13.707327312196838
 21
75.42288723811495
 31
0.0
  0
LINE
  5
CDD
330
A35
100
AcDbEntity
  8
0
100
AcDbLine
 10
13.935309623908864
 20
75.3250669206478
 30
0.0
 11
13.935309623908864
 21
75.35767369313672
 31
0.0
  0
LINE
  5
CDE
330
A35
100
AcDbEntity
  8
0
100
AcDbLine
 10
13.935309623908864
 20
75.35767369313672
 30
0.0
 11
13.902437755708519
 21
75.39028046562586
 31
0.0
  0
LINE
  5
CDF
330
A35
100
AcDbEntity
  8
0
100
AcDbLine
 10
13.902437755708519
 20
75.39028046562586
 30
0.0
 11
13.870096078930771
 21
75.42288723811495
 31
0.0
  0
LINE
  5
CE0
330
A35
100
AcDbEntity
  8
0
100
AcDbLine
 10
13.870096078930771
 20
75.42288723811495
 30
0.0
 11
13.837754402153024
 21
75.45549401060387
 31
0.0
  0
LINE
  5
CE1
330
A35
100
AcDbEntity
  8
0
100
AcDbLine
 10
13.837754402153024
 20
75.45549401060387
 30
0.0
 11
13.837754402153024
 21
75.5207075555821
 31
0.0
  0
LINE
  5
CE2
330
A35
100
AcDbEntity
  8
0
100
AcDbLine
 10
13.837754402153024
 20
75.5207075555821
 30
0.0
 11
13.804882533952679
 21
75.5207075555821
 31
0.0
  0
LINE
  5
CE3
330
A35
100
AcDbEntity
  8
0
100
AcDbLine
 10
13.804882533952679
 20
75.5207075555821
 30
0.0
 11
13.739668988974557
 21
75.55331432807105
 31
0.0
  0
LINE
  5
CE4
330
A35
100
AcDbEntity
  8
0
100
AcDbLine
 10
13.739668988974557
 20
75.55331432807105
 30
0.0
 11
13.707327312196838
 21
75.55331432807105
 31
0.0
  0
LINE
  5
CE5
330
A35
100
AcDbEntity
  8
0
100
AcDbLine
 10
10.482172888605191
 20
73.56615687621823
 30
0.0
 11
10.547386433583313
 21
73.43572978626193
 31
0.0
  0
LINE
  5
CE6
330
A35
100
AcDbEntity
  8
0
100
AcDbLine
 10
10.547386433583313
 20
73.43572978626193
 30
0.0
 11
10.64494165533921
 21
73.30556779201697
 31
0.0
  0
LINE
  5
CE7
330
A35
100
AcDbEntity
  8
0
100
AcDbLine
 10
10.64494165533921
 20
73.30556779201697
 30
0.0
 11
10.710155200317274
 21
73.20774747454999
 31
0.0
  0
LINE
  5
CE8
330
A35
100
AcDbEntity
  8
0
100
AcDbLine
 10
10.710155200317274
 20
73.20774747454999
 30
0.0
 11
10.84058229027346
 21
73.07758548030503
 31
0.0
  0
LINE
  5
CE9
330
A35
100
AcDbEntity
  8
0
100
AcDbLine
 10
10.84058229027346
 20
73.07758548030503
 30
0.0
 11
10.905795835251524
 21
72.97976516283788
 31
0.0
  0
LINE
  5
CEA
330
A35
100
AcDbEntity
  8
0
100
AcDbLine
 10
10.905795835251524
 20
72.97976516283788
 30
0.0
 11
10.971009380229646
 21
72.84960316859286
 31
0.0
  0
LINE
  5
CEB
330
A35
100
AcDbEntity
  8
0
100
AcDbLine
 10
10.971009380229646
 20
72.84960316859286
 30
0.0
 11
11.101436470185831
 21
72.78438962361483
 31
0.0
  0
LINE
  5
CEC
330
A35
100
AcDbEntity
  8
0
100
AcDbLine
 10
11.101436470185831
 20
72.78438962361483
 30
0.0
 11
11.231333368719447
 21
72.65396253365873
 31
0.0
  0
LINE
  5
CED
330
A35
100
AcDbEntity
  8
0
100
AcDbLine
 10
11.231333368719447
 20
72.65396253365873
 30
0.0
 11
11.296546913697568
 21
72.58874898868049
 31
0.0
  0
LINE
  5
CEE
330
A35
100
AcDbEntity
  8
0
100
AcDbLine
 10
11.296546913697568
 20
72.58874898868049
 30
0.0
 11
11.426974003653783
 21
72.49119376692465
 31
0.0
  0
LINE
  5
CEF
330
A35
100
AcDbEntity
  8
0
100
AcDbLine
 10
11.426974003653783
 20
72.49119376692465
 30
0.0
 11
11.524529225409594
 21
72.42598022194665
 31
0.0
  0
LINE
  5
CF0
330
A35
100
AcDbEntity
  8
0
100
AcDbLine
 10
13.902437755708519
 20
75.26011847138088
 30
0.0
 11
14.000523168886986
 21
75.16229815391372
 31
0.0
  0
LINE
  5
CF1
330
A35
100
AcDbEntity
  8
0
100
AcDbLine
 10
14.000523168886986
 20
75.16229815391372
 30
0.0
 11
14.065736713865078
 21
75.03187106395765
 31
0.0
  0
LINE
  5
CF2
330
A35
100
AcDbEntity
  8
0
100
AcDbLine
 10
14.065736713865078
 20
75.03187106395765
 30
0.0
 11
14.130950258843171
 21
74.86910229722372
 31
0.0
  0
LINE
  5
CF3
330
A35
100
AcDbEntity
  8
0
100
AcDbLine
 10
14.130950258843171
 20
74.86910229722372
 30
0.0
 11
14.228505480599011
 21
74.80388875224548
 31
0.0
  0
LINE
  5
CF4
330
A35
100
AcDbEntity
  8
0
100
AcDbLine
 10
14.228505480599011
 20
74.80388875224548
 30
0.0
 11
14.326060702354852
 21
74.6737267580007
 31
0.0
  0
LINE
  5
CF5
330
A35
100
AcDbEntity
  8
0
100
AcDbLine
 10
14.326060702354852
 20
74.6737267580007
 30
0.0
 11
14.424146115533318
 21
74.57590644053354
 31
0.0
  0
LINE
  5
CF6
330
A35
100
AcDbEntity
  8
0
100
AcDbLine
 10
14.424146115533318
 20
74.57590644053354
 30
0.0
 11
14.52170133728913
 21
74.4783512187777
 31
0.0
  0
LINE
  5
CF7
330
A35
100
AcDbEntity
  8
0
100
AcDbLine
 10
14.52170133728913
 20
74.4783512187777
 30
0.0
 11
14.619256559045027
 21
74.38053090131052
 31
0.0
  0
LINE
  5
CF8
330
A35
100
AcDbEntity
  8
0
100
AcDbLine
 10
14.619256559045027
 20
74.38053090131052
 30
0.0
 11
14.716811780800839
 21
74.28271058384337
 31
0.0
  0
LINE
  5
CF9
330
A35
100
AcDbEntity
  8
0
100
AcDbLine
 10
14.716811780800839
 20
74.28271058384337
 30
0.0
 11
14.847238870757053
 21
74.21749703886533
 31
0.0
  0
LINE
  5
CFA
330
A35
100
AcDbEntity
  8
0
100
AcDbLine
 10
14.847238870757053
 20
74.21749703886533
 30
0.0
 11
14.912452415735146
 21
74.15254858959838
 31
0.0
  0
LINE
  5
CFB
330
A35
100
AcDbEntity
  8
0
100
AcDbLine
 10
13.935309623908864
 20
75.3250669206478
 30
0.0
 11
14.032864845664676
 21
75.19490492640281
 31
0.0
  0
LINE
  5
CFC
330
A35
100
AcDbEntity
  8
0
100
AcDbLine
 10
14.032864845664676
 20
75.19490492640281
 30
0.0
 11
14.098078390642797
 21
75.06447783644657
 31
0.0
  0
LINE
  5
CFD
330
A35
100
AcDbEntity
  8
0
100
AcDbLine
 10
14.098078390642797
 20
75.06447783644657
 30
0.0
 11
14.195633612398694
 21
74.96692261469087
 31
0.0
  0
LINE
  5
CFE
330
A35
100
AcDbEntity
  8
0
100
AcDbLine
 10
14.195633612398694
 20
74.96692261469087
 30
0.0
 11
14.260847157376787
 21
74.83649552473463
 31
0.0
  0
LINE
  5
CFF
330
A35
100
AcDbEntity
  8
0
100
AcDbLine
 10
14.260847157376787
 20
74.83649552473463
 30
0.0
 11
14.391274247332973
 21
74.77154707546785
 31
0.0
  0
LINE
  5
D00
330
A35
100
AcDbEntity
  8
0
100
AcDbLine
 10
14.391274247332973
 20
74.77154707546785
 30
0.0
 11
14.456487792311066
 21
74.64111998551158
 31
0.0
  0
LINE
  5
D01
330
A35
100
AcDbEntity
  8
0
100
AcDbLine
 10
14.456487792311066
 20
74.64111998551158
 30
0.0
 11
14.586914882267223
 21
74.57590644053354
 31
0.0
  0
LINE
  5
D02
330
A35
100
AcDbEntity
  8
0
100
AcDbLine
 10
14.586914882267223
 20
74.57590644053354
 30
0.0
 11
14.652128427245344
 21
74.4783512187777
 31
0.0
  0
LINE
  5
D03
330
A35
100
AcDbEntity
  8
0
100
AcDbLine
 10
14.652128427245344
 20
74.4783512187777
 30
0.0
 11
14.78202532577896
 21
74.41313767379947
 31
0.0
  0
LINE
  5
D04
330
A35
100
AcDbEntity
  8
0
100
AcDbLine
 10
14.78202532577896
 20
74.41313767379947
 30
0.0
 11
14.847238870757053
 21
74.3479241288214
 31
0.0
  0
LINE
  5
D05
330
A35
100
AcDbEntity
  8
0
100
AcDbLine
 10
14.847238870757053
 20
74.3479241288214
 30
0.0
 11
14.977665960713267
 21
74.25010381135425
 31
0.0
  0
LINE
  5
D06
330
A35
100
AcDbEntity
  8
0
100
AcDbLine
 10
15.759698309027812
 20
67.44218084963671
 30
0.0
 11
15.49884412911544
 21
67.99570069481666
 31
0.0
  0
LINE
  5
D07
330
A35
100
AcDbEntity
  8
0
100
AcDbLine
 10
15.49884412911544
 20
67.99570069481666
 30
0.0
 11
15.205648272425293
 21
68.54948563570792
 31
0.0
  0
LINE
  5
D08
330
A35
100
AcDbEntity
  8
0
100
AcDbLine
 10
15.205648272425293
 20
68.54948563570792
 30
0.0
 11
14.880110738957399
 21
69.10327057659916
 31
0.0
  0
LINE
  5
D09
330
A35
100
AcDbEntity
  8
0
100
AcDbLine
 10
14.880110738957399
 20
69.10327057659916
 30
0.0
 11
14.52170133728913
 21
69.55950029573455
 31
0.0
  0
LINE
  5
D0A
330
A35
100
AcDbEntity
  8
0
100
AcDbLine
 10
14.52170133728913
 20
69.55950029573455
 30
0.0
 11
14.195633612398694
 21
70.08067846413684
 31
0.0
  0
LINE
  5
D0B
330
A35
100
AcDbEntity
  8
0
100
AcDbLine
 10
14.195633612398694
 20
70.08067846413684
 30
0.0
 11
13.837754402153024
 21
70.50403631507183
 31
0.0
  0
LINE
  5
D0C
330
A35
100
AcDbEntity
  8
0
100
AcDbLine
 10
13.837754402153024
 20
70.50403631507183
 30
0.0
 11
13.446473132284439
 21
70.92765926171808
 31
0.0
  0
LINE
  5
D0D
330
A35
100
AcDbEntity
  8
0
100
AcDbLine
 10
13.446473132284439
 20
70.92765926171808
 30
0.0
 11
13.023380377060704
 21
71.31841034016415
 31
0.0
  0
LINE
  5
D0E
330
A35
100
AcDbEntity
  8
0
100
AcDbLine
 10
13.023380377060704
 20
71.31841034016415
 30
0.0
 11
12.566885562213969
 21
71.67681974183233
 31
0.0
  0
LINE
  5
D0F
330
A35
100
AcDbEntity
  8
0
100
AcDbLine
 10
12.566885562213969
 20
71.67681974183233
 30
0.0
 11
12.176134483768038
 21
72.03522914350054
 31
0.0
  0
LINE
  5
D10
330
A35
100
AcDbEntity
  8
0
100
AcDbLine
 10
12.176134483768038
 20
72.03522914350054
 30
0.0
 11
11.752511537121649
 21
72.29555313199035
 31
0.0
  0
LINE
  5
D11
330
A35
100
AcDbEntity
  8
0
100
AcDbLine
 10
19.17996317613111
 20
69.16848412157717
 30
0.0
 11
18.919108996218768
 21
69.72226906246843
 31
0.0
  0
LINE
  5
D12
330
A35
100
AcDbEntity
  8
0
100
AcDbLine
 10
18.919108996218768
 20
69.72226906246843
 30
0.0
 11
18.62591313952862
 21
70.27605400335966
 31
0.0
  0
LINE
  5
D13
330
A35
100
AcDbEntity
  8
0
100
AcDbLine
 10
18.62591313952862
 20
70.27605400335966
 30
0.0
 11
18.332717282838445
 21
70.76462539927289
 31
0.0
  0
LINE
  5
D14
330
A35
100
AcDbEntity
  8
0
100
AcDbLine
 10
18.332717282838445
 20
70.76462539927289
 30
0.0
 11
17.974307881170205
 21
71.285803567675
 31
0.0
  0
LINE
  5
D15
330
A35
100
AcDbEntity
  8
0
100
AcDbLine
 10
17.974307881170205
 20
71.285803567675
 30
0.0
 11
17.616428670924563
 21
71.80698173607732
 31
0.0
  0
LINE
  5
D16
330
A35
100
AcDbEntity
  8
0
100
AcDbLine
 10
17.616428670924563
 20
71.80698173607732
 30
0.0
 11
17.22514740105595
 21
72.23060468272357
 31
0.0
  0
LINE
  5
D17
330
A35
100
AcDbEntity
  8
0
100
AcDbLine
 10
17.22514740105595
 20
72.23060468272357
 30
0.0
 11
16.83439632261002
 21
72.65396253365873
 31
0.0
  0
LINE
  5
D18
330
A35
100
AcDbEntity
  8
0
100
AcDbLine
 10
16.83439632261002
 20
72.65396253365873
 30
0.0
 11
16.443645244163974
 21
73.04497870781589
 31
0.0
  0
LINE
  5
D19
330
A35
100
AcDbEntity
  8
0
100
AcDbLine
 10
16.443645244163974
 20
73.04497870781589
 30
0.0
 11
16.02002229751764
 21
73.40312301377281
 31
0.0
  0
LINE
  5
D1A
330
A35
100
AcDbEntity
  8
0
100
AcDbLine
 10
16.02002229751764
 20
73.40312301377281
 30
0.0
 11
15.596399350871309
 21
73.76153241544122
 31
0.0
  0
LINE
  5
D1B
330
A35
100
AcDbEntity
  8
0
100
AcDbLine
 10
15.596399350871309
 20
73.76153241544122
 30
0.0
 11
15.173306595647574
 21
74.02212149964231
 31
0.0
  0
LINE
  5
D1C
330
A35
100
AcDbEntity
  8
0
100
AcDbLine
 10
19.277518397887007
 20
69.20109089406631
 30
0.0
 11
18.984322541196832
 21
69.75487583495757
 31
0.0
  0
LINE
  5
D1D
330
A35
100
AcDbEntity
  8
0
100
AcDbLine
 10
18.984322541196832
 20
69.75487583495757
 30
0.0
 11
18.691126684506656
 21
70.30866077584881
 31
0.0
  0
LINE
  5
D1E
330
A35
100
AcDbEntity
  8
0
100
AcDbLine
 10
18.691126684506656
 20
70.30866077584881
 30
0.0
 11
18.36558915103882
 21
70.86244571674004
 31
0.0
  0
LINE
  5
D1F
330
A35
100
AcDbEntity
  8
0
100
AcDbLine
 10
18.36558915103882
 20
70.86244571674004
 30
0.0
 11
18.039521426148326
 21
71.35101711265324
 31
0.0
  0
LINE
  5
D20
330
A35
100
AcDbEntity
  8
0
100
AcDbLine
 10
18.039521426148326
 20
71.35101711265324
 30
0.0
 11
17.648770347702282
 21
71.83958850856624
 31
0.0
  0
LINE
  5
D21
330
A35
100
AcDbEntity
  8
0
100
AcDbLine
 10
17.648770347702282
 20
71.83958850856624
 30
0.0
 11
17.25801926925635
 21
72.29555313199035
 31
0.0
  0
LINE
  5
D22
330
A35
100
AcDbEntity
  8
0
100
AcDbLine
 10
17.25801926925635
 20
72.29555313199035
 30
0.0
 11
16.867268190810307
 21
72.71917607863679
 31
0.0
  0
LINE
  5
D23
330
A35
100
AcDbEntity
  8
0
100
AcDbLine
 10
16.867268190810307
 20
72.71917607863679
 30
0.0
 11
16.475986920941722
 21
73.10992715708284
 31
0.0
  0
LINE
  5
D24
330
A35
100
AcDbEntity
  8
0
100
AcDbLine
 10
16.475986920941722
 20
73.10992715708284
 30
0.0
 11
16.05289416571796
 21
73.50094333124
 31
0.0
  0
LINE
  5
D25
330
A35
100
AcDbEntity
  8
0
100
AcDbLine
 10
16.05289416571796
 20
73.50094333124
 30
0.0
 11
15.629271219071626
 21
73.82674596041929
 31
0.0
  0
LINE
  5
D26
330
A35
100
AcDbEntity
  8
0
100
AcDbLine
 10
15.629271219071626
 20
73.82674596041929
 30
0.0
 11
15.173306595647574
 21
74.15254858959838
 31
0.0
  0
LINE
  5
D27
330
A35
100
AcDbEntity
  8
0
100
AcDbLine
 10
32.24228925438632
 20
69.00571535484332
 30
0.0
 11
32.14473403263045
 21
69.20109089406631
 31
0.0
  0
LINE
  5
D28
330
A35
100
AcDbEntity
  8
0
100
AcDbLine
 10
47.129004017760394
 20
58.94003119704516
 30
0.0
 11
46.705911262536745
 21
60.894316780697636
 31
0.0
  0
LINE
  5
D29
330
A35
100
AcDbEntity
  8
0
100
AcDbLine
 10
46.705911262536745
 20
60.894316780697636
 30
0.0
 11
45.37035906904211
 21
62.7513122383057
 31
0.0
  0
LINE
  5
D2A
330
A35
100
AcDbEntity
  8
0
100
AcDbLine
 10
45.37035906904211
 20
62.7513122383057
 30
0.0
 11
43.28511620401079
 21
64.44500873775723
 31
0.0
  0
LINE
  5
D2B
330
A35
100
AcDbEntity
  8
0
100
AcDbLine
 10
43.28511620401079
 20
64.44500873775723
 30
0.0
 11
40.45124305028784
 21
65.84577447622988
 31
0.0
  0
LINE
  5
D2C
330
A35
100
AcDbEntity
  8
0
100
AcDbLine
 10
40.45124305028784
 20
65.84577447622988
 30
0.0
 11
37.128533404940356
 21
66.8557891362565
 31
0.0
  0
LINE
  5
D2D
330
A35
100
AcDbEntity
  8
0
100
AcDbLine
 10
37.128533404940356
 20
66.8557891362565
 30
0.0
 11
33.38273100436919
 21
67.53973607139258
 31
0.0
  0
LINE
  5
D2E
330
A35
100
AcDbEntity
  8
0
100
AcDbLine
 10
33.38273100436919
 20
67.53973607139258
 30
0.0
 11
29.47362964564138
 21
67.7677183831047
 31
0.0
  0
LINE
  5
D2F
330
A35
100
AcDbEntity
  8
0
100
AcDbLine
 10
29.47362964564138
 20
67.7677183831047
 30
0.0
 11
25.564528286913628
 21
67.53973607139258
 31
0.0
  0
LINE
  5
D30
330
A35
100
AcDbEntity
  8
0
100
AcDbLine
 10
25.564528286913628
 20
67.53973607139258
 30
0.0
 11
21.753512341364313
 21
66.8557891362565
 31
0.0
  0
LINE
  5
D31
330
A35
100
AcDbEntity
  8
0
100
AcDbLine
 10
21.753512341364313
 20
66.8557891362565
 30
0.0
 11
18.430802696016883
 21
65.84577447622988
 31
0.0
  0
LINE
  5
D32
330
A35
100
AcDbEntity
  8
0
100
AcDbLine
 10
18.430802696016883
 20
65.84577447622988
 30
0.0
 11
15.629271219071626
 21
64.44500873775723
 31
0.0
  0
LINE
  5
D33
330
A35
100
AcDbEntity
  8
0
100
AcDbLine
 10
15.629271219071626
 20
64.44500873775723
 30
0.0
 11
13.511686677262531
 21
62.7513122383057
 31
0.0
  0
LINE
  5
D34
330
A35
100
AcDbEntity
  8
0
100
AcDbLine
 10
13.511686677262531
 20
62.7513122383057
 30
0.0
 11
12.241348028746074
 21
60.894316780697636
 31
0.0
  0
LINE
  5
D35
330
A35
100
AcDbEntity
  8
0
100
AcDbLine
 10
12.241348028746074
 20
60.894316780697636
 30
0.0
 11
11.752511537121649
 21
58.94003119704516
 31
0.0
  0
LINE
  5
D36
330
A35
100
AcDbEntity
  8
0
100
AcDbLine
 10
11.752511537121649
 20
58.94003119704516
 30
0.0
 11
12.241348028746074
 21
56.98548051768125
 31
0.0
  0
LINE
  5
D37
330
A35
100
AcDbEntity
  8
0
100
AcDbLine
 10
12.241348028746074
 20
56.98548051768125
 30
0.0
 11
13.511686677262531
 21
55.09614338329558
 31
0.0
  0
LINE
  5
D38
330
A35
100
AcDbEntity
  8
0
100
AcDbLine
 10
13.511686677262531
 20
55.09614338329558
 30
0.0
 11
15.629271219071626
 21
53.434788560621854
 31
0.0
  0
LINE
  5
D39
330
A35
100
AcDbEntity
  8
0
100
AcDbLine
 10
15.629271219071626
 20
53.434788560621854
 30
0.0
 11
18.430802696016883
 21
52.001416049660065
 31
0.0
  0
LINE
  5
D3A
330
A35
100
AcDbEntity
  8
0
100
AcDbLine
 10
18.430802696016883
 20
52.001416049660065
 30
0.0
 11
21.753512341364313
 21
50.959059712855634
 31
0.0
  0
LINE
  5
D3B
330
A35
100
AcDbEntity
  8
0
100
AcDbLine
 10
21.753512341364313
 20
50.959059712855634
 30
0.0
 11
25.564528286913628
 21
50.30745445449742
 31
0.0
  0
LINE
  5
D3C
330
A35
100
AcDbEntity
  8
0
100
AcDbLine
 10
25.564528286913628
 20
50.30745445449742
 30
0.0
 11
29.47362964564138
 21
50.11234401098568
 31
0.0
  0
LINE
  5
D3D
330
A35
100
AcDbEntity
  8
0
100
AcDbLine
 10
29.47362964564138
 20
50.11234401098568
 30
0.0
 11
33.38273100436919
 21
50.30745445449742
 31
0.0
  0
LINE
  5
D3E
330
A35
100
AcDbEntity
  8
0
100
AcDbLine
 10
33.38273100436919
 20
50.30745445449742
 30
0.0
 11
37.128533404940356
 21
50.959059712855634
 31
0.0
  0
LINE
  5
D3F
330
A35
100
AcDbEntity
  8
0
100
AcDbLine
 10
37.128533404940356
 20
50.959059712855634
 30
0.0
 11
40.45124305028784
 21
52.001416049660065
 31
0.0
  0
LINE
  5
D40
330
A35
100
AcDbEntity
  8
0
100
AcDbLine
 10
40.45124305028784
 20
52.001416049660065
 30
0.0
 11
43.28511620401079
 21
53.434788560621854
 31
0.0
  0
LINE
  5
D41
330
A35
100
AcDbEntity
  8
0
100
AcDbLine
 10
43.28511620401079
 20
53.434788560621854
 30
0.0
 11
45.37035906904211
 21
55.09614338329558
 31
0.0
  0
LINE
  5
D42
330
A35
100
AcDbEntity
  8
0
100
AcDbLine
 10
45.37035906904211
 20
55.09614338329558
 30
0.0
 11
46.705911262536745
 21
56.98548051768125
 31
0.0
  0
LINE
  5
D43
330
A35
100
AcDbEntity
  8
0
100
AcDbLine
 10
46.705911262536745
 20
56.98548051768125
 30
0.0
 11
47.129004017760394
 21
58.94003119704516
 31
0.0
  0
LINE
  5
D44
330
A35
100
AcDbEntity
  8
0
100
AcDbLine
 10
28.822024387282994
 20
84.8043593650657
 30
0.0
 11
28.789682710505247
 21
84.8043593650657
 31
0.0
  0
LINE
  5
D45
330
A35
100
AcDbEntity
  8
0
100
AcDbLine
 10
28.789682710505247
 20
84.8043593650657
 30
0.0
 11
28.7568108423049
 21
84.77201768828789
 31
0.0
  0
LINE
  5
D46
330
A35
100
AcDbEntity
  8
0
100
AcDbLine
 10
28.7568108423049
 20
84.77201768828789
 30
0.0
 11
28.724469165527182
 21
84.77201768828789
 31
0.0
  0
LINE
  5
D47
330
A35
100
AcDbEntity
  8
0
100
AcDbLine
 10
29.0176650222173
 20
84.83696613755464
 30
0.0
 11
28.984793154016955
 21
84.83696613755464
 31
0.0
  0
LINE
  5
D48
330
A35
100
AcDbEntity
  8
0
100
AcDbLine
 10
28.984793154016955
 20
84.83696613755464
 30
0.0
 11
28.952451477239208
 21
84.83696613755464
 31
0.0
  0
LINE
  5
D49
330
A35
100
AcDbEntity
  8
0
100
AcDbLine
 10
29.0176650222173
 20
85.0
 30
0.0
 11
28.984793154016955
 21
85.0
 31
0.0
  0
LINE
  5
D4A
330
A35
100
AcDbEntity
  8
0
100
AcDbLine
 10
28.984793154016955
 20
85.0
 30
0.0
 11
28.984793154016955
 21
84.96739322751091
 31
0.0
  0
LINE
  5
D4B
330
A35
100
AcDbEntity
  8
0
100
AcDbLine
 10
28.984793154016955
 20
84.96739322751091
 30
0.0
 11
28.952451477239208
 21
84.96739322751091
 31
0.0
  0
LINE
  5
D4C
330
A35
100
AcDbEntity
  8
0
100
AcDbLine
 10
28.822024387282994
 20
84.8043593650657
 30
0.0
 11
31.85153817594025
 21
84.7394109157988
 31
0.0
  0
LINE
  5
D4D
330
A35
100
AcDbEntity
  8
0
100
AcDbLine
 10
29.0176650222173
 20
84.83696613755464
 30
0.0
 11
31.297488139337702
 21
84.77201768828789
 31
0.0
  0
LINE
  5
D4E
330
A35
100
AcDbEntity
  8
0
100
AcDbLine
 10
29.0176650222173
 20
85.0
 30
0.0
 11
31.297488139337702
 21
84.93478645502182
 31
0.0
  0
LINE
  5
D4F
330
A35
100
AcDbEntity
  8
0
100
AcDbLine
 10
30.939608929092117
 20
69.33125288831127
 30
0.0
 11
31.167591240804228
 21
69.33125288831127
 31
0.0
  0
LINE
  5
D50
330
A35
100
AcDbEntity
  8
0
100
AcDbLine
 10
31.167591240804228
 20
69.33125288831127
 30
0.0
 11
31.167591240804228
 21
69.36385966080024
 31
0.0
  0
LINE
  5
D51
330
A35
100
AcDbEntity
  8
0
100
AcDbLine
 10
31.167591240804228
 20
69.36385966080024
 30
0.0
 11
31.232804785782292
 21
69.36385966080024
 31
0.0
  0
LINE
  5
D52
330
A35
100
AcDbEntity
  8
0
100
AcDbLine
 10
31.232804785782292
 20
69.36385966080024
 30
0.0
 11
31.265146462560097
 21
69.39646643328933
 31
0.0
  0
LINE
  5
D53
330
A35
100
AcDbEntity
  8
0
100
AcDbLine
 10
31.265146462560097
 20
69.39646643328933
 30
0.0
 11
31.297488139337702
 21
69.39646643328933
 31
0.0
  0
LINE
  5
D54
330
A35
100
AcDbEntity
  8
0
100
AcDbLine
 10
31.297488139337702
 20
69.39646643328933
 30
0.0
 11
31.297488139337702
 21
69.4616799782674
 31
0.0
  0
LINE
  5
D55
330
A35
100
AcDbEntity
  8
0
100
AcDbLine
 10
32.07952048765239
 20
74.15254858959838
 30
0.0
 11
31.688769409206373
 21
74.18515536208753
 31
0.0
  0
LINE
  5
D56
330
A35
100
AcDbEntity
  8
0
100
AcDbLine
 10
31.688769409206373
 20
74.18515536208753
 30
0.0
 11
31.297488139337702
 21
74.21749703886533
 31
0.0
  0
LINE
  5
D57
330
A35
100
AcDbEntity
  8
0
100
AcDbLine
 10
31.297488139337702
 20
74.21749703886533
 30
0.0
 11
30.874395384114052
 21
74.25010381135425
 31
0.0
  0
LINE
  5
D58
330
A35
100
AcDbEntity
  8
0
100
AcDbLine
 10
30.874395384114052
 20
74.25010381135425
 30
0.0
 11
30.48311411424544
 21
74.25010381135425
 31
0.0
  0
LINE
  5
D59
330
A35
100
AcDbEntity
  8
0
100
AcDbLine
 10
30.48311411424544
 20
74.25010381135425
 30
0.0
 11
30.092363035799394
 21
74.25010381135425
 31
0.0
  0
LINE
  5
D5A
330
A35
100
AcDbEntity
  8
0
100
AcDbLine
 10
30.092363035799394
 20
74.25010381135425
 30
0.0
 11
29.66874008915306
 21
74.25010381135425
 31
0.0
  0
LINE
  5
D5B
330
A35
100
AcDbEntity
  8
0
100
AcDbLine
 10
29.66874008915306
 20
74.25010381135425
 30
0.0
 11
29.27798901070713
 21
74.25010381135425
 31
0.0
  0
LINE
  5
D5C
330
A35
100
AcDbEntity
  8
0
100
AcDbLine
 10
29.27798901070713
 20
74.25010381135425
 30
0.0
 11
28.887237932261087
 21
74.25010381135425
 31
0.0
  0
LINE
  5
D5D
330
A35
100
AcDbEntity
  8
0
100
AcDbLine
 10
28.887237932261087
 20
74.25010381135425
 30
0.0
 11
28.431273308837007
 21
74.25010381135425
 31
0.0
  0
LINE
  5
D5E
330
A35
100
AcDbEntity
  8
0
100
AcDbLine
 10
28.431273308837007
 20
74.25010381135425
 30
0.0
 11
28.03999203896842
 21
74.25010381135425
 31
0.0
  0
LINE
  5
D5F
330
A35
100
AcDbEntity
  8
0
100
AcDbLine
 10
28.03999203896842
 20
74.25010381135425
 30
0.0
 11
27.649240960522405
 21
74.21749703886533
 31
0.0
  0
LINE
  5
D60
330
A35
100
AcDbEntity
  8
0
100
AcDbLine
 10
32.07952048765239
 20
74.38053090131052
 30
0.0
 11
31.688769409206373
 21
74.41313767379947
 31
0.0
  0
LINE
  5
D61
330
A35
100
AcDbEntity
  8
0
100
AcDbLine
 10
31.688769409206373
 20
74.41313767379947
 30
0.0
 11
31.297488139337702
 21
74.44574444628856
 31
0.0
  0
LINE
  5
D62
330
A35
100
AcDbEntity
  8
0
100
AcDbLine
 10
31.297488139337702
 20
74.44574444628856
 30
0.0
 11
30.874395384114052
 21
74.44574444628856
 31
0.0
  0
LINE
  5
D63
330
A35
100
AcDbEntity
  8
0
100
AcDbLine
 10
30.874395384114052
 20
74.44574444628856
 30
0.0
 11
30.48311411424544
 21
74.4783512187777
 31
0.0
  0
LINE
  5
D64
330
A35
100
AcDbEntity
  8
0
100
AcDbLine
 10
30.48311411424544
 20
74.4783512187777
 30
0.0
 11
30.092363035799394
 21
74.4783512187777
 31
0.0
  0
LINE
  5
D65
330
A35
100
AcDbEntity
  8
0
100
AcDbLine
 10
30.092363035799394
 20
74.4783512187777
 30
0.0
 11
29.66874008915306
 21
74.4783512187777
 31
0.0
  0
LINE
  5
D66
330
A35
100
AcDbEntity
  8
0
100
AcDbLine
 10
29.66874008915306
 20
74.4783512187777
 30
0.0
 11
29.27798901070713
 21
74.4783512187777
 31
0.0
  0
LINE
  5
D67
330
A35
100
AcDbEntity
  8
0
100
AcDbLine
 10
29.27798901070713
 20
74.4783512187777
 30
0.0
 11
28.887237932261087
 21
74.4783512187777
 31
0.0
  0
LINE
  5
D68
330
A35
100
AcDbEntity
  8
0
100
AcDbLine
 10
28.887237932261087
 20
74.4783512187777
 30
0.0
 11
28.431273308837007
 21
74.4783512187777
 31
0.0
  0
LINE
  5
D69
330
A35
100
AcDbEntity
  8
0
100
AcDbLine
 10
28.431273308837007
 20
74.4783512187777
 30
0.0
 11
28.03999203896842
 21
74.44574444628856
 31
0.0
  0
LINE
  5
D6A
330
A35
100
AcDbEntity
  8
0
100
AcDbLine
 10
28.03999203896842
 20
74.44574444628856
 30
0.0
 11
27.649240960522405
 21
74.44574444628856
 31
0.0
  0
LINE
  5
D6B
330
A35
100
AcDbEntity
  8
0
100
AcDbLine
 10
31.88387985271808
 20
69.33125288831127
 30
0.0
 11
32.11186216443008
 21
69.29891121153346
 31
0.0
  0
LINE
  5
D6C
330
A35
100
AcDbEntity
  8
0
100
AcDbLine
 10
31.526000642472468
 20
69.65705551749042
 30
0.0
 11
31.460787097494233
 21
69.65705551749042
 31
0.0
  0
LINE
  5
D6D
330
A35
100
AcDbEntity
  8
0
100
AcDbLine
 10
31.427915229294
 20
69.78748260744666
 30
0.0
 11
31.493128774272066
 21
69.75487583495757
 31
0.0
  0
LINE
  5
D6E
330
A35
100
AcDbEntity
  8
0
100
AcDbLine
 10
36.900551093228245
 20
68.81007471990898
 30
0.0
 11
36.998106314984085
 21
68.77773304313132
 31
0.0
  0
LINE
  5
D6F
330
A35
100
AcDbEntity
  8
0
100
AcDbLine
 10
38.36653037667898
 20
68.97310858235434
 30
0.0
 11
38.398872053456785
 21
68.94050180986525
 31
0.0
  0
LINE
  5
D70
330
A35
100
AcDbEntity
  8
0
100
AcDbLine
 10
21.948622784876022
 20
71.64421296934341
 30
0.0
 11
22.079049874832236
 21
71.61160619685432
 31
0.0
  0
LINE
  5
D71
330
A35
100
AcDbEntity
  8
0
100
AcDbLine
 10
31.493128774272066
 20
69.75487583495757
 30
0.0
 11
31.55834231925013
 21
69.75487583495757
 31
0.0
  0
LINE
  5
D72
330
A35
100
AcDbEntity
  8
0
100
AcDbLine
 10
31.55834231925013
 20
69.59210706822364
 30
0.0
 11
31.52547045104987
 21
69.65705551749042
 31
0.0
  0
LINE
  5
D73
330
A35
100
AcDbEntity
  8
0
100
AcDbLine
 10
38.398872053456785
 20
68.94050180986525
 30
0.0
 11
38.496957466635195
 21
68.94050180986525
 31
0.0
  0
LINE
  5
D74
330
A35
100
AcDbEntity
  8
0
100
AcDbLine
 10
20.87392477129393
 20
53.043772386464525
 30
0.0
 11
21.91628110809833
 21
52.68589317621891
 31
0.0
  0
LINE
  5
D75
330
A35
100
AcDbEntity
  8
0
100
AcDbLine
 10
21.91628110809833
 20
52.68589317621891
 30
0.0
 11
22.990979121680425
 21
52.39216712810608
 31
0.0
  0
LINE
  5
D76
330
A35
100
AcDbEntity
  8
0
100
AcDbLine
 10
22.990979121680425
 20
52.39216712810608
 30
0.0
 11
24.09854900346292
 21
52.131843139616365
 31
0.0
  0
LINE
  5
D77
330
A35
100
AcDbEntity
  8
0
100
AcDbLine
 10
24.09854900346292
 20
52.131843139616365
 30
0.0
 11
25.27133243022351
 21
51.93620250468206
 31
0.0
  0
LINE
  5
D78
330
A35
100
AcDbEntity
  8
0
100
AcDbLine
 10
25.27133243022351
 20
51.93620250468206
 30
0.0
 11
26.444115856984098
 21
51.773433737948125
 31
0.0
  0
LINE
  5
D79
330
A35
100
AcDbEntity
  8
0
100
AcDbLine
 10
26.444115856984098
 20
51.773433737948125
 30
0.0
 11
27.649240960522405
 21
51.675878516192256
 31
0.0
  0
LINE
  5
D7A
330
A35
100
AcDbEntity
  8
0
100
AcDbLine
 10
27.649240960522405
 20
51.675878516192256
 30
0.0
 11
28.919579609038863
 21
51.61066497121402
 31
0.0
  0
LINE
  5
D7B
330
A35
100
AcDbEntity
  8
0
100
AcDbLine
 10
28.919579609038863
 20
51.61066497121402
 30
0.0
 11
30.125234903999797
 21
51.61066497121402
 31
0.0
  0
LINE
  5
D7C
330
A35
100
AcDbEntity
  8
0
100
AcDbLine
 10
30.125234903999797
 20
51.61066497121402
 30
0.0
 11
31.362701684315937
 21
51.675878516192256
 31
0.0
  0
LINE
  5
D7D
330
A35
100
AcDbEntity
  8
0
100
AcDbLine
 10
31.362701684315937
 20
51.675878516192256
 30
0.0
 11
32.60069865605456
 21
51.773433737948125
 31
0.0
  0
LINE
  5
D7E
330
A35
100
AcDbEntity
  8
0
100
AcDbLine
 10
32.60069865605456
 20
51.773433737948125
 30
0.0
 11
33.77348208281509
 21
51.93620250468206
 31
0.0
  0
LINE
  5
D7F
330
A35
100
AcDbEntity
  8
0
100
AcDbLine
 10
33.77348208281509
 20
51.93620250468206
 30
0.0
 11
34.946265509575795
 21
52.16418481639397
 31
0.0
  0
LINE
  5
D80
330
A35
100
AcDbEntity
  8
0
100
AcDbLine
 10
34.946265509575795
 20
52.16418481639397
 30
0.0
 11
36.05383539135809
 21
52.39216712810608
 31
0.0
  0
LINE
  5
D81
330
A35
100
AcDbEntity
  8
0
100
AcDbLine
 10
36.05383539135809
 20
52.39216712810608
 30
0.0
 11
37.128533404940356
 21
52.71823485299652
 31
0.0
  0
LINE
  5
D82
330
A35
100
AcDbEntity
  8
0
100
AcDbLine
 10
37.128533404940356
 20
52.71823485299652
 30
0.0
 11
38.138548064966955
 21
53.07637915895364
 31
0.0
  0
LINE
  5
D83
330
A35
100
AcDbEntity
  8
0
100
AcDbLine
 10
23.089064534858863
 20
60.79676155894191
 30
0.0
 11
23.47981561330485
 21
60.66633446898567
 31
0.0
  0
LINE
  5
D84
330
A35
100
AcDbEntity
  8
0
100
AcDbLine
 10
23.47981561330485
 20
60.66633446898567
 30
0.0
 11
23.903438559951184
 21
60.470958929762645
 31
0.0
  0
LINE
  5
D85
330
A35
100
AcDbEntity
  8
0
100
AcDbLine
 10
23.903438559951184
 20
60.470958929762645
 30
0.0
 11
24.35940318337532
 21
60.30819016302874
 31
0.0
  0
LINE
  5
D86
330
A35
100
AcDbEntity
  8
0
100
AcDbLine
 10
24.35940318337532
 20
60.30819016302874
 30
0.0
 11
24.8153678067994
 21
60.14515630058352
 31
0.0
  0
LINE
  5
D87
330
A35
100
AcDbEntity
  8
0
100
AcDbLine
 10
24.8153678067994
 20
60.14515630058352
 30
0.0
 11
25.27133243022351
 21
60.014994306338565
 31
0.0
  0
LINE
  5
D88
330
A35
100
AcDbEntity
  8
0
100
AcDbLine
 10
25.27133243022351
 20
60.014994306338565
 30
0.0
 11
25.792510598625682
 21
59.91717398887141
 31
0.0
  0
LINE
  5
D89
330
A35
100
AcDbEntity
  8
0
100
AcDbLine
 10
25.792510598625682
 20
59.91717398887141
 30
0.0
 11
26.24847522204979
 21
59.787011994626596
 31
0.0
  0
LINE
  5
D8A
330
A35
100
AcDbEntity
  8
0
100
AcDbLine
 10
26.24847522204979
 20
59.787011994626596
 30
0.0
 11
26.802525258652338
 21
59.72179844964839
 31
0.0
  0
LINE
  5
D8B
330
A35
100
AcDbEntity
  8
0
100
AcDbLine
 10
26.802525258652338
 20
59.72179844964839
 30
0.0
 11
27.32370342705451
 21
59.623978132181236
 31
0.0
  0
LINE
  5
D8C
330
A35
100
AcDbEntity
  8
0
100
AcDbLine
 10
27.32370342705451
 20
59.623978132181236
 30
0.0
 11
27.844881595456712
 21
59.55876458720317
 31
0.0
  0
LINE
  5
D8D
330
A35
100
AcDbEntity
  8
0
100
AcDbLine
 10
27.844881595456712
 20
59.55876458720317
 30
0.0
 11
28.39840144063666
 21
59.52642291042537
 31
0.0
  0
LINE
  5
D8E
330
A35
100
AcDbEntity
  8
0
100
AcDbLine
 10
28.39840144063666
 20
59.52642291042537
 30
0.0
 11
28.919579609038863
 21
59.52642291042537
 31
0.0
  0
LINE
  5
D8F
330
A35
100
AcDbEntity
  8
0
100
AcDbLine
 10
28.919579609038863
 20
59.52642291042537
 30
0.0
 11
29.47362964564138
 21
59.52642291042537
 31
0.0
  0
LINE
  5
D90
330
A35
100
AcDbEntity
  8
0
100
AcDbLine
 10
29.47362964564138
 20
59.52642291042537
 30
0.0
 11
29.994807814043583
 21
59.52642291042537
 31
0.0
  0
LINE
  5
D91
330
A35
100
AcDbEntity
  8
0
100
AcDbLine
 10
29.994807814043583
 20
59.52642291042537
 30
0.0
 11
30.54832765922353
 21
59.52642291042537
 31
0.0
  0
LINE
  5
D92
330
A35
100
AcDbEntity
  8
0
100
AcDbLine
 10
30.54832765922353
 20
59.52642291042537
 30
0.0
 11
31.102377695825993
 21
59.59137135969229
 31
0.0
  0
LINE
  5
D93
330
A35
100
AcDbEntity
  8
0
100
AcDbLine
 10
31.102377695825993
 20
59.59137135969229
 30
0.0
 11
31.65589754100594
 21
59.623978132181236
 31
0.0
  0
LINE
  5
D94
330
A35
100
AcDbEntity
  8
0
100
AcDbLine
 10
31.65589754100594
 20
59.623978132181236
 30
0.0
 11
32.14473403263045
 21
59.72179844964839
 31
0.0
  0
LINE
  5
D95
330
A35
100
AcDbEntity
  8
0
100
AcDbLine
 10
32.14473403263045
 20
59.72179844964839
 30
0.0
 11
32.6659122010326
 21
59.787011994626596
 31
0.0
  0
LINE
  5
D96
330
A35
100
AcDbEntity
  8
0
100
AcDbLine
 10
32.6659122010326
 20
59.787011994626596
 30
0.0
 11
33.187090369434884
 21
59.91717398887141
 31
0.0
  0
LINE
  5
D97
330
A35
100
AcDbEntity
  8
0
100
AcDbLine
 10
33.187090369434884
 20
59.91717398887141
 30
0.0
 11
33.675926861059196
 21
60.014994306338565
 31
0.0
  0
LINE
  5
D98
330
A35
100
AcDbEntity
  8
0
100
AcDbLine
 10
33.675926861059196
 20
60.014994306338565
 30
0.0
 11
34.16423316126114
 21
60.14515630058352
 31
0.0
  0
LINE
  5
D99
330
A35
100
AcDbEntity
  8
0
100
AcDbLine
 10
34.16423316126114
 20
60.14515630058352
 30
0.0
 11
34.587856107907385
 21
60.30819016302874
 31
0.0
  0
LINE
  5
D9A
330
A35
100
AcDbEntity
  8
0
100
AcDbLine
 10
34.587856107907385
 20
60.30819016302874
 30
0.0
 11
35.04382073133152
 21
60.470958929762645
 31
0.0
  0
LINE
  5
D9B
330
A35
100
AcDbEntity
  8
0
100
AcDbLine
 10
35.04382073133152
 20
60.470958929762645
 30
0.0
 11
35.43457180977754
 21
60.66633446898567
 31
0.0
  0
LINE
  5
D9C
330
A35
100
AcDbEntity
  8
0
100
AcDbLine
 10
35.43457180977754
 20
60.66633446898567
 30
0.0
 11
35.82585307964615
 21
60.861975103919974
 31
0.0
  0
LINE
  5
D9D
330
A35
100
AcDbEntity
  8
0
100
AcDbLine
 10
35.82585307964615
 20
60.861975103919974
 30
0.0
 11
36.216604158092196
 21
61.057350643142996
 31
0.0
  0
LINE
  5
D9E
330
A35
100
AcDbEntity
  8
0
100
AcDbLine
 10
36.216604158092196
 20
61.057350643142996
 30
0.0
 11
36.57501355976041
 21
61.25272618236602
 31
0.0
  0
LINE
  5
D9F
330
A35
100
AcDbEntity
  8
0
100
AcDbLine
 10
36.57501355976041
 20
61.25272618236602
 30
0.0
 11
36.900551093228245
 21
61.48070849407799
 31
0.0
  0
LINE
  5
DA0
330
A35
100
AcDbEntity
  8
0
100
AcDbLine
 10
36.900551093228245
 20
61.48070849407799
 30
0.0
 11
37.16140527314059
 21
61.70895590150138
 31
0.0
  0
LINE
  5
DA1
330
A35
100
AcDbEntity
  8
0
100
AcDbLine
 10
37.16140527314059
 20
61.70895590150138
 30
0.0
 11
37.42172926163053
 21
61.93693821321338
 31
0.0
  0
LINE
  5
DA2
330
A35
100
AcDbEntity
  8
0
100
AcDbLine
 10
37.42172926163053
 20
61.93693821321338
 30
0.0
 11
37.6825834415429
 21
62.16492052492549
 31
0.0
  0
LINE
  5
DA3
330
A35
100
AcDbEntity
  8
0
100
AcDbLine
 10
37.6825834415429
 20
62.16492052492549
 30
0.0
 11
37.87769388505464
 21
62.458116381615525
 31
0.0
  0
LINE
  5
DA4
330
A35
100
AcDbEntity
  8
0
100
AcDbLine
 10
37.87769388505464
 20
62.458116381615525
 30
0.0
 11
38.07333451998895
 21
62.68609869332764
 31
0.0
  0
LINE
  5
DA5
330
A35
100
AcDbEntity
  8
0
100
AcDbLine
 10
38.07333451998895
 20
62.68609869332764
 30
0.0
 11
38.20376160994505
 21
62.946687777528695
 31
0.0
  0
LINE
  5
DA6
330
A35
100
AcDbEntity
  8
0
100
AcDbLine
 10
38.20376160994505
 20
62.946687777528695
 30
0.0
 11
38.30131683170089
 21
63.23988363421887
 31
0.0
  0
LINE
  5
DA7
330
A35
100
AcDbEntity
  8
0
100
AcDbLine
 10
38.30131683170089
 20
63.23988363421887
 30
0.0
 11
38.36653037667898
 21
63.50047271841996
 31
0.0
  0
LINE
  5
DA8
330
A35
100
AcDbEntity
  8
0
100
AcDbLine
 10
38.36653037667898
 20
63.50047271841996
 30
0.0
 11
38.46408559843479
 21
63.79366857511013
 31
0.0
  0
LINE
  5
DA9
330
A35
100
AcDbEntity
  8
0
100
AcDbLine
 10
38.46408559843479
 20
63.79366857511013
 30
0.0
 11
38.46408559843479
 21
64.05425765931119
 31
0.0
  0
LINE
  5
DAA
330
A35
100
AcDbEntity
  8
0
100
AcDbLine
 10
38.46408559843479
 20
64.05425765931119
 30
0.0
 11
38.398872053456785
 21
64.31484674351228
 31
0.0
  0
LINE
  5
DAB
330
A35
100
AcDbEntity
  8
0
100
AcDbLine
 10
23.186619756614732
 20
61.08995741563197
 30
0.0
 11
23.577370835060748
 21
60.894316780697636
 31
0.0
  0
LINE
  5
DAC
330
A35
100
AcDbEntity
  8
0
100
AcDbLine
 10
23.577370835060748
 20
60.894316780697636
 30
0.0
 11
23.968121913506707
 21
60.73154801396373
 31
0.0
  0
LINE
  5
DAD
330
A35
100
AcDbEntity
  8
0
100
AcDbLine
 10
23.968121913506707
 20
60.73154801396373
 30
0.0
 11
24.35940318337532
 21
60.5687792472298
 31
0.0
  0
LINE
  5
DAE
330
A35
100
AcDbEntity
  8
0
100
AcDbLine
 10
24.35940318337532
 20
60.5687792472298
 30
0.0
 11
24.782495938599055
 21
60.40574538478458
 31
0.0
  0
LINE
  5
DAF
330
A35
100
AcDbEntity
  8
0
100
AcDbLine
 10
24.782495938599055
 20
60.40574538478458
 30
0.0
 11
25.238990753445734
 21
60.30819016302874
 31
0.0
  0
LINE
  5
DB0
330
A35
100
AcDbEntity
  8
0
100
AcDbLine
 10
25.238990753445734
 20
60.30819016302874
 30
0.0
 11
25.662083508669525
 21
60.1777630730725
 31
0.0
  0
LINE
  5
DB1
330
A35
100
AcDbEntity
  8
0
100
AcDbLine
 10
25.662083508669525
 20
60.1777630730725
 30
0.0
 11
26.18326167707167
 21
60.079942755605316
 31
0.0
  0
LINE
  5
DB2
330
A35
100
AcDbEntity
  8
0
100
AcDbLine
 10
26.18326167707167
 20
60.079942755605316
 30
0.0
 11
26.639756491918405
 21
59.982387533849476
 31
0.0
  0
LINE
  5
DB3
330
A35
100
AcDbEntity
  8
0
100
AcDbLine
 10
26.639756491918405
 20
59.982387533849476
 30
0.0
 11
27.16093466032055
 21
59.91717398887141
 31
0.0
  0
LINE
  5
DB4
330
A35
100
AcDbEntity
  8
0
100
AcDbLine
 10
27.16093466032055
 20
59.91717398887141
 30
0.0
 11
27.616899283744686
 21
59.88456721638232
 31
0.0
  0
LINE
  5
DB5
330
A35
100
AcDbEntity
  8
0
100
AcDbLine
 10
27.616899283744686
 20
59.88456721638232
 30
0.0
 11
28.13807745214683
 21
59.81961876711554
 31
0.0
  0
LINE
  5
DB6
330
A35
100
AcDbEntity
  8
0
100
AcDbLine
 10
28.13807745214683
 20
59.81961876711554
 30
0.0
 11
28.626383752348687
 21
59.787011994626596
 31
0.0
  0
LINE
  5
DB7
330
A35
100
AcDbEntity
  8
0
100
AcDbLine
 10
28.626383752348687
 20
59.787011994626596
 30
0.0
 11
29.180433788951234
 21
59.75440522213748
 31
0.0
  0
LINE
  5
DB8
330
A35
100
AcDbEntity
  8
0
100
AcDbLine
 10
29.180433788951234
 20
59.75440522213748
 30
0.0
 11
29.701611957353464
 21
59.75440522213748
 31
0.0
  0
LINE
  5
DB9
330
A35
100
AcDbEntity
  8
0
100
AcDbLine
 10
29.701611957353464
 20
59.75440522213748
 30
0.0
 11
30.18991825755529
 21
59.787011994626596
 31
0.0
  0
LINE
  5
DBA
330
A35
100
AcDbEntity
  8
0
100
AcDbLine
 10
30.18991825755529
 20
59.787011994626596
 30
0.0
 11
30.711626617380034
 21
59.787011994626596
 31
0.0
  0
LINE
  5
DBB
330
A35
100
AcDbEntity
  8
0
100
AcDbLine
 10
30.711626617380034
 20
59.787011994626596
 30
0.0
 11
31.232804785782292
 21
59.88456721638232
 31
0.0
  0
LINE
  5
DBC
330
A35
100
AcDbEntity
  8
0
100
AcDbLine
 10
31.232804785782292
 20
59.88456721638232
 30
0.0
 11
31.721111085984177
 21
59.91717398887141
 31
0.0
  0
LINE
  5
DBD
330
A35
100
AcDbEntity
  8
0
100
AcDbLine
 10
31.721111085984177
 20
59.91717398887141
 30
0.0
 11
32.24228925438632
 21
59.982387533849476
 31
0.0
  0
LINE
  5
DBE
330
A35
100
AcDbEntity
  8
0
100
AcDbLine
 10
32.24228925438632
 20
59.982387533849476
 30
0.0
 11
32.6982538778104
 21
60.079942755605316
 31
0.0
  0
LINE
  5
DBF
330
A35
100
AcDbEntity
  8
0
100
AcDbLine
 10
32.6982538778104
 20
60.079942755605316
 30
0.0
 11
33.187090369434884
 21
60.1777630730725
 31
0.0
  0
LINE
  5
DC0
330
A35
100
AcDbEntity
  8
0
100
AcDbLine
 10
33.187090369434884
 20
60.1777630730725
 30
0.0
 11
33.64305499285899
 21
60.30819016302874
 31
0.0
  0
LINE
  5
DC1
330
A35
100
AcDbEntity
  8
0
100
AcDbLine
 10
33.64305499285899
 20
60.30819016302874
 30
0.0
 11
34.06667793950524
 21
60.40574538478458
 31
0.0
  0
LINE
  5
DC2
330
A35
100
AcDbEntity
  8
0
100
AcDbLine
 10
34.06667793950524
 20
60.40574538478458
 30
0.0
 11
34.49030088615157
 21
60.5687792472298
 31
0.0
  0
LINE
  5
DC3
330
A35
100
AcDbEntity
  8
0
100
AcDbLine
 10
34.49030088615157
 20
60.5687792472298
 30
0.0
 11
34.946265509575795
 21
60.73154801396373
 31
0.0
  0
LINE
  5
DC4
330
A35
100
AcDbEntity
  8
0
100
AcDbLine
 10
34.946265509575795
 20
60.73154801396373
 30
0.0
 11
35.33701658802164
 21
60.894316780697636
 31
0.0
  0
LINE
  5
DC5
330
A35
100
AcDbEntity
  8
0
100
AcDbLine
 10
35.33701658802164
 20
60.894316780697636
 30
0.0
 11
35.727767666467656
 21
61.057350643142996
 31
0.0
  0
LINE
  5
DC6
330
A35
100
AcDbEntity
  8
0
100
AcDbLine
 10
35.727767666467656
 20
61.057350643142996
 30
0.0
 11
36.05383539135809
 21
61.25272618236602
 31
0.0
  0
LINE
  5
DC7
330
A35
100
AcDbEntity
  8
0
100
AcDbLine
 10
36.05383539135809
 20
61.25272618236602
 30
0.0
 11
36.3793729248261
 21
61.44836681730018
 31
0.0
  0
LINE
  5
DC8
330
A35
100
AcDbEntity
  8
0
100
AcDbLine
 10
36.3793729248261
 20
61.44836681730018
 30
0.0
 11
36.70491045829394
 21
61.643742356523205
 31
0.0
  0
LINE
  5
DC9
330
A35
100
AcDbEntity
  8
0
100
AcDbLine
 10
36.70491045829394
 20
61.643742356523205
 30
0.0
 11
36.998106314984085
 21
61.871724668235316
 31
0.0
  0
LINE
  5
DCA
330
A35
100
AcDbEntity
  8
0
100
AcDbLine
 10
36.998106314984085
 20
61.871724668235316
 30
0.0
 11
37.226618818118766
 21
62.099706979947285
 31
0.0
  0
LINE
  5
DCB
330
A35
100
AcDbEntity
  8
0
100
AcDbLine
 10
37.226618818118766
 20
62.099706979947285
 30
0.0
 11
37.486942806608596
 21
62.29508251917031
 31
0.0
  0
LINE
  5
DCC
330
A35
100
AcDbEntity
  8
0
100
AcDbLine
 10
37.486942806608596
 20
62.29508251917031
 30
0.0
 11
37.71492511832054
 21
62.52306483088242
 31
0.0
  0
LINE
  5
DCD
330
A35
100
AcDbEntity
  8
0
100
AcDbLine
 10
37.71492511832054
 20
62.52306483088242
 30
0.0
 11
37.87769388505464
 21
62.816260687572594
 31
0.0
  0
LINE
  5
DCE
330
A35
100
AcDbEntity
  8
0
100
AcDbLine
 10
37.87769388505464
 20
62.816260687572594
 30
0.0
 11
38.00812097501074
 21
63.04450809499588
 31
0.0
  0
LINE
  5
DCF
330
A35
100
AcDbEntity
  8
0
100
AcDbLine
 10
38.00812097501074
 20
63.04450809499588
 30
0.0
 11
38.138548064966955
 21
63.27249040670796
 31
0.0
  0
LINE
  5
DD0
330
A35
100
AcDbEntity
  8
0
100
AcDbLine
 10
38.138548064966955
 20
63.27249040670796
 30
0.0
 11
38.20376160994505
 21
63.533079490909046
 31
0.0
  0
LINE
  5
DD1
330
A35
100
AcDbEntity
  8
0
100
AcDbLine
 10
38.20376160994505
 20
63.533079490909046
 30
0.0
 11
38.30131683170089
 21
63.79366857511013
 31
0.0
  0
LINE
  5
DD2
330
A35
100
AcDbEntity
  8
0
100
AcDbLine
 10
38.30131683170089
 20
63.79366857511013
 30
0.0
 11
38.33365850847866
 21
64.05425765931119
 31
0.0
  0
LINE
  5
DD3
330
A35
100
AcDbEntity
  8
0
100
AcDbLine
 10
19.3427319428651
 20
53.69537764482294
 30
0.0
 11
19.473159032821286
 21
53.662770872333795
 31
0.0
  0
LINE
  5
DD4
330
A35
100
AcDbEntity
  8
0
100
AcDbLine
 10
19.473159032821286
 20
53.662770872333795
 30
0.0
 11
19.603055931354902
 21
53.56495055486664
 31
0.0
  0
LINE
  5
DD5
330
A35
100
AcDbEntity
  8
0
100
AcDbLine
 10
19.603055931354902
 20
53.56495055486664
 30
0.0
 11
19.73348302131106
 21
53.50000210559989
 31
0.0
  0
LINE
  5
DD6
330
A35
100
AcDbEntity
  8
0
100
AcDbLine
 10
19.73348302131106
 20
53.50000210559989
 30
0.0
 11
19.89625178804505
 21
53.46739533311077
 31
0.0
  0
LINE
  5
DD7
330
A35
100
AcDbEntity
  8
0
100
AcDbLine
 10
19.89625178804505
 20
53.46739533311077
 30
0.0
 11
19.99433720122346
 21
53.36957501564362
 31
0.0
  0
LINE
  5
DD8
330
A35
100
AcDbEntity
  8
0
100
AcDbLine
 10
19.99433720122346
 20
53.36957501564362
 30
0.0
 11
20.15710596795742
 21
53.3369682431547
 31
0.0
  0
LINE
  5
DD9
330
A35
100
AcDbEntity
  8
0
100
AcDbLine
 10
20.15710596795742
 20
53.3369682431547
 30
0.0
 11
20.31987473469141
 21
53.27201979388778
 31
0.0
  0
LINE
  5
DDA
330
A35
100
AcDbEntity
  8
0
100
AcDbLine
 10
20.31987473469141
 20
53.27201979388778
 30
0.0
 11
20.450301824647596
 21
53.23941302139886
 31
0.0
  0
LINE
  5
DDB
330
A35
100
AcDbEntity
  8
0
100
AcDbLine
 10
20.450301824647596
 20
53.23941302139886
 30
0.0
 11
20.580728914603753
 21
53.14159270393171
 31
0.0
  0
LINE
  5
DDC
330
A35
100
AcDbEntity
  8
0
100
AcDbLine
 10
20.580728914603753
 20
53.14159270393171
 30
0.0
 11
20.743497681337743
 21
53.10898593144256
 31
0.0
  0
LINE
  5
DDD
330
A35
100
AcDbEntity
  8
0
100
AcDbLine
 10
20.743497681337743
 20
53.10898593144256
 30
0.0
 11
20.87392477129393
 21
53.043772386464525
 31
0.0
  0
LINE
  5
DDE
330
A35
100
AcDbEntity
  8
0
100
AcDbLine
 10
16.05289416571796
 20
65.5525786195397
 30
0.0
 11
15.564057674093505
 21
65.78082602696298
 31
0.0
  0
LINE
  5
DDF
330
A35
100
AcDbEntity
  8
0
100
AcDbLine
 10
14.065736713865078
 20
54.54235844240435
 30
0.0
 11
14.228505480599011
 21
54.444538124937196
 31
0.0
  0
LINE
  5
DE0
330
A35
100
AcDbEntity
  8
0
100
AcDbLine
 10
4.456017179490942
 20
76.20465449071816
 30
0.0
 11
4.488358856268718
 21
76.17204771822904
 31
0.0
  0
LINE
  5
DE1
330
A35
100
AcDbEntity
  8
0
100
AcDbLine
 10
4.488358856268718
 20
76.17204771822904
 30
0.0
 11
4.5212307244690635
 21
76.17204771822904
 31
0.0
  0
LINE
  5
DE2
330
A35
100
AcDbEntity
  8
0
100
AcDbLine
 10
4.5212307244690635
 20
76.17204771822904
 30
0.0
 11
4.5212307244690635
 21
76.20465449071816
 31
0.0
  0
LINE
  5
DE3
330
A35
100
AcDbEntity
  8
0
100
AcDbLine
 10
4.5212307244690635
 20
76.20465449071816
 30
0.0
 11
4.586444269447156
 21
76.20465449071816
 31
0.0
  0
LINE
  5
DE4
330
A35
100
AcDbEntity
  8
0
100
AcDbLine
 10
4.586444269447156
 20
76.20465449071816
 30
0.0
 11
4.618785946224904
 21
76.20465449071816
 31
0.0
  0
LINE
  5
DE5
330
A35
100
AcDbEntity
  8
0
100
AcDbLine
 10
4.618785946224904
 20
76.20465449071816
 30
0.0
 11
4.651657814425221
 21
76.20465449071816
 31
0.0
  0
LINE
  5
DE6
330
A35
100
AcDbEntity
  8
0
100
AcDbLine
 10
4.651657814425221
 20
76.20465449071816
 30
0.0
 11
4.683999491203025
 21
76.23726126320727
 31
0.0
  0
LINE
  5
DE7
330
A35
100
AcDbEntity
  8
0
100
AcDbLine
 10
4.683999491203025
 20
76.23726126320727
 30
0.0
 11
4.7163411679807155
 21
76.23726126320727
 31
0.0
  0
LINE
  5
DE8
330
A35
100
AcDbEntity
  8
0
100
AcDbLine
 10
4.390803634512878
 20
76.30247480818531
 30
0.0
 11
4.456017179490942
 21
76.20465449071816
 31
0.0
  0
LINE
  5
DE9
330
A35
100
AcDbEntity
  8
0
100
AcDbLine
 10
4.651657814425221
 20
76.36768835316337
 30
0.0
 11
4.7163411679807155
 21
76.23726126320727
 31
0.0
  0
LINE
  5
DEA
330
A35
100
AcDbEntity
  8
0
100
AcDbLine
 10
7.224676788235882
 20
77.50759991172364
 30
0.0
 11
7.159463243257761
 21
77.6054202291908
 31
0.0
  0
LINE
  5
DEB
330
A35
100
AcDbEntity
  8
0
100
AcDbLine
 10
7.811068501616177
 20
78.19181194257118
 30
0.0
 11
7.909153914794587
 21
78.12659839759294
 31
0.0
  0
LINE
  5
DEC
330
A35
100
AcDbEntity
  8
0
100
AcDbLine
 10
32.14473403263045
 20
69.20109089406631
 30
0.0
 11
32.11186216443008
 21
69.29891121153346
 31
0.0
  0
LINE
  5
DED
330
A35
100
AcDbEntity
  8
0
100
AcDbLine
 10
31.85153817594025
 20
69.59210706822364
 30
0.0
 11
31.91675172091834
 21
69.4616799782674
 31
0.0
  0
LINE
  5
DEE
330
A35
100
AcDbEntity
  8
0
100
AcDbLine
 10
31.88387985271808
 20
69.33125288831127
 30
0.0
 11
31.91675172091834
 21
69.20109089406631
 31
0.0
  0
LINE
  5
DEF
330
A35
100
AcDbEntity
  8
0
100
AcDbLine
 10
31.721111085984177
 20
69.10327057659916
 30
0.0
 11
31.688769409206373
 21
69.16848412157717
 31
0.0
  0
LINE
  5
DF0
330
A35
100
AcDbEntity
  8
0
100
AcDbLine
 10
32.34037466756476
 20
69.00571535484332
 30
0.0
 11
32.275161122586724
 21
69.16848412157717
 31
0.0
  0
LINE
  5
DF1
330
A35
100
AcDbEntity
  8
0
100
AcDbLine
 10
38.6597262333691
 20
68.87528826488719
 30
0.0
 11
38.6597262333691
 21
68.81007471990898
 31
0.0
  0
LINE
  5
DF2
330
A35
100
AcDbEntity
  8
0
100
AcDbLine
 10
36.80299587147235
 20
68.81007471990898
 30
0.0
 11
36.900551093228245
 21
68.81007471990898
 31
0.0
  0
LINE
  5
DF3
330
A35
100
AcDbEntity
  8
0
100
AcDbLine
 10
38.496957466635195
 20
68.94050180986525
 30
0.0
 11
38.52929914341297
 21
68.94050180986525
 31
0.0
  0
LINE
  5
DF4
330
A35
100
AcDbEntity
  8
0
100
AcDbLine
 10
21.88340923989793
 20
71.67681974183233
 30
0.0
 11
21.948622784876022
 21
71.64421296934341
 31
0.0
  0
LINE
  5
DF5
330
A35
100
AcDbEntity
  8
0
100
AcDbLine
 10
31.55834231925013
 20
69.75487583495757
 30
0.0
 11
31.688769409206373
 21
69.72226906246843
 31
0.0
  0
LINE
  5
DF6
330
A35
100
AcDbEntity
  8
0
100
AcDbLine
 10
36.444586469804136
 20
74.21749703886533
 30
0.0
 11
36.50980001478237
 21
74.21749703886533
 31
0.0
  0
LINE
  5
DF7
330
A35
100
AcDbEntity
  8
0
100
AcDbLine
 10
36.50980001478237
 20
74.21749703886533
 30
0.0
 11
36.50980001478237
 21
74.25010381135425
 31
0.0
  0
LINE
  5
DF8
330
A35
100
AcDbEntity
  8
0
100
AcDbLine
 10
35.727767666467656
 20
74.60851321302246
 30
0.0
 11
35.66255412148965
 21
74.60851321302246
 31
0.0
  0
LINE
  5
DF9
330
A35
100
AcDbEntity
  8
0
100
AcDbLine
 10
35.66255412148965
 20
74.60851321302246
 30
0.0
 11
35.630212444711844
 21
74.60851321302246
 31
0.0
  0
LINE
  5
DFA
330
A35
100
AcDbEntity
  8
0
100
AcDbLine
 10
35.630212444711844
 20
74.60851321302246
 30
0.0
 11
35.59787076793404
 21
74.60851321302246
 31
0.0
  0
LINE
  5
DFB
330
A35
100
AcDbEntity
  8
0
100
AcDbLine
 10
35.59787076793404
 20
74.60851321302246
 30
0.0
 11
35.59787076793404
 21
74.57590644053354
 31
0.0
  0
LINE
  5
DFC
330
A35
100
AcDbEntity
  8
0
100
AcDbLine
 10
35.59787076793404
 20
74.57590644053354
 30
0.0
 11
35.59787076793404
 21
74.5432996680444
 31
0.0
  0
LINE
  5
DFD
330
A35
100
AcDbEntity
  8
0
100
AcDbLine
 10
21.492658161452
 20
73.24035424703891
 30
0.0
 11
21.460316484674195
 21
73.24035424703891
 31
0.0
  0
LINE
  5
DFE
330
A35
100
AcDbEntity
  8
0
100
AcDbLine
 10
21.460316484674195
 20
73.24035424703891
 30
0.0
 11
21.427444616473878
 21
73.24035424703891
 31
0.0
  0
LINE
  5
DFF
330
A35
100
AcDbEntity
  8
0
100
AcDbLine
 10
21.427444616473878
 20
73.24035424703891
 30
0.0
 11
21.427444616473878
 21
73.20774747454999
 31
0.0
  0
LINE
  5
E00
330
A35
100
AcDbEntity
  8
0
100
AcDbLine
 10
21.427444616473878
 20
73.20774747454999
 30
0.0
 11
21.362231071495785
 21
73.20774747454999
 31
0.0
  0
LINE
  5
E01
330
A35
100
AcDbEntity
  8
0
100
AcDbLine
 10
21.492658161452
 20
73.37078133699521
 30
0.0
 11
21.460316484674195
 21
73.37078133699521
 31
0.0
  0
LINE
  5
E02
330
A35
100
AcDbEntity
  8
0
100
AcDbLine
 10
21.460316484674195
 20
73.37078133699521
 30
0.0
 11
21.427444616473878
 21
73.37078133699521
 31
0.0
  0
LINE
  5
E03
330
A35
100
AcDbEntity
  8
0
100
AcDbLine
 10
21.427444616473878
 20
73.37078133699521
 30
0.0
 11
21.362231071495785
 21
73.37078133699521
 31
0.0
  0
LINE
  5
E04
330
A35
100
AcDbEntity
  8
0
100
AcDbLine
 10
21.362231071495785
 20
73.37078133699521
 30
0.0
 11
21.32988939471798
 21
73.30556779201697
 31
0.0
  0
LINE
  5
E05
330
A35
100
AcDbEntity
  8
0
100
AcDbLine
 10
21.32988939471798
 20
73.30556779201697
 30
0.0
 11
21.297017526517692
 21
73.27296101952805
 31
0.0
  0
LINE
  5
E06
330
A35
100
AcDbEntity
  8
0
100
AcDbLine
 10
22.274690509766543
 20
72.03522914350054
 30
0.0
 11
22.307032186544262
 21
72.00262237101163
 31
0.0
  0
LINE
  5
E07
330
A35
100
AcDbEntity
  8
0
100
AcDbLine
 10
22.307032186544262
 20
72.00262237101163
 30
0.0
 11
22.40458740830016
 21
71.93740882603339
 31
0.0
  0
LINE
  5
E08
330
A35
100
AcDbEntity
  8
0
100
AcDbLine
 10
22.40458740830016
 20
71.93740882603339
 30
0.0
 11
22.600228043234438
 21
71.93740882603339
 31
0.0
  0
LINE
  5
E09
330
A35
100
AcDbEntity
  8
0
100
AcDbLine
 10
22.600228043234438
 20
71.93740882603339
 30
0.0
 11
22.66544158821253
 21
71.90480205354447
 31
0.0
  0
LINE
  5
E0A
330
A35
100
AcDbEntity
  8
0
100
AcDbLine
 10
22.66544158821253
 20
71.90480205354447
 30
0.0
 11
22.730655133190652
 21
71.90480205354447
 31
0.0
  0
LINE
  5
E0B
330
A35
100
AcDbEntity
  8
0
100
AcDbLine
 10
22.730655133190652
 20
71.90480205354447
 30
0.0
 11
22.86055203172421
 21
71.93740882603339
 31
0.0
  0
LINE
  5
E0C
330
A35
100
AcDbEntity
  8
0
100
AcDbLine
 10
22.86055203172421
 20
71.93740882603339
 30
0.0
 11
22.925765576702304
 21
71.93740882603339
 31
0.0
  0
LINE
  5
E0D
330
A35
100
AcDbEntity
  8
0
100
AcDbLine
 10
22.925765576702304
 20
71.93740882603339
 30
0.0
 11
23.0238509898808
 21
71.93740882603339
 31
0.0
  0
LINE
  5
E0E
330
A35
100
AcDbEntity
  8
0
100
AcDbLine
 10
23.0238509898808
 20
71.93740882603339
 30
0.0
 11
23.089064534858863
 21
72.00262237101163
 31
0.0
  0
LINE
  5
E0F
330
A35
100
AcDbEntity
  8
0
100
AcDbLine
 10
23.089064534858863
 20
72.00262237101163
 30
0.0
 11
23.186619756614732
 21
72.03522914350054
 31
0.0
  0
LINE
  5
E10
330
A35
100
AcDbEntity
  8
0
100
AcDbLine
 10
22.274690509766543
 20
72.23060468272357
 30
0.0
 11
22.307032186544262
 21
72.23060468272357
 31
0.0
  0
LINE
  5
E11
330
A35
100
AcDbEntity
  8
0
100
AcDbLine
 10
22.307032186544262
 20
72.23060468272357
 30
0.0
 11
22.40458740830016
 21
72.19799791023465
 31
0.0
  0
LINE
  5
E12
330
A35
100
AcDbEntity
  8
0
100
AcDbLine
 10
22.40458740830016
 20
72.19799791023465
 30
0.0
 11
22.46980095327828
 21
72.19799791023465
 31
0.0
  0
LINE
  5
E13
330
A35
100
AcDbEntity
  8
0
100
AcDbLine
 10
22.46980095327828
 20
72.19799791023465
 30
0.0
 11
22.600228043234438
 21
72.13278436525641
 31
0.0
  0
LINE
  5
E14
330
A35
100
AcDbEntity
  8
0
100
AcDbLine
 10
22.600228043234438
 20
72.13278436525641
 30
0.0
 11
22.66544158821253
 21
72.13278436525641
 31
0.0
  0
LINE
  5
E15
330
A35
100
AcDbEntity
  8
0
100
AcDbLine
 10
22.66544158821253
 20
72.13278436525641
 30
0.0
 11
22.730655133190652
 21
72.13278436525641
 31
0.0
  0
LINE
  5
E16
330
A35
100
AcDbEntity
  8
0
100
AcDbLine
 10
22.730655133190652
 20
72.13278436525641
 30
0.0
 11
22.86055203172421
 21
72.13278436525641
 31
0.0
  0
LINE
  5
E17
330
A35
100
AcDbEntity
  8
0
100
AcDbLine
 10
22.86055203172421
 20
72.13278436525641
 30
0.0
 11
22.925765576702304
 21
72.19799791023465
 31
0.0
  0
LINE
  5
E18
330
A35
100
AcDbEntity
  8
0
100
AcDbLine
 10
22.925765576702304
 20
72.19799791023465
 30
0.0
 11
23.0238509898808
 21
72.19799791023465
 31
0.0
  0
LINE
  5
E19
330
A35
100
AcDbEntity
  8
0
100
AcDbLine
 10
23.0238509898808
 20
72.19799791023465
 30
0.0
 11
23.089064534858863
 21
72.23060468272357
 31
0.0
  0
LINE
  5
E1A
330
A35
100
AcDbEntity
  8
0
100
AcDbLine
 10
23.089064534858863
 20
72.23060468272357
 30
0.0
 11
23.186619756614732
 21
72.23060468272357
 31
0.0
  0
LINE
  5
E1B
330
A35
100
AcDbEntity
  8
0
100
AcDbLine
 10
24.65259904006544
 20
73.43572978626193
 30
0.0
 11
24.489300081908937
 21
73.50094333124
 31
0.0
  0
LINE
  5
E1C
330
A35
100
AcDbEntity
  8
0
100
AcDbLine
 10
24.489300081908937
 20
73.50094333124
 30
0.0
 11
24.294189638397228
 21
73.59876364870715
 31
0.0
  0
LINE
  5
E1D
330
A35
100
AcDbEntity
  8
0
100
AcDbLine
 10
24.294189638397228
 20
73.59876364870715
 30
0.0
 11
24.066207326685202
 21
73.63137042119627
 31
0.0
  0
LINE
  5
E1E
330
A35
100
AcDbEntity
  8
0
100
AcDbLine
 10
24.066207326685202
 20
73.63137042119627
 30
0.0
 11
23.870566691750895
 21
73.66397719368538
 31
0.0
  0
LINE
  5
E1F
330
A35
100
AcDbEntity
  8
0
100
AcDbLine
 10
23.870566691750895
 20
73.66397719368538
 30
0.0
 11
23.642584380038812
 21
73.66397719368538
 31
0.0
  0
LINE
  5
E20
330
A35
100
AcDbEntity
  8
0
100
AcDbLine
 10
23.642584380038812
 20
73.66397719368538
 30
0.0
 11
23.414602068326758
 21
73.66397719368538
 31
0.0
  0
LINE
  5
E21
330
A35
100
AcDbEntity
  8
0
100
AcDbLine
 10
23.414602068326758
 20
73.66397719368538
 30
0.0
 11
23.186619756614732
 21
73.66397719368538
 31
0.0
  0
LINE
  5
E22
330
A35
100
AcDbEntity
  8
0
100
AcDbLine
 10
23.186619756614732
 20
73.66397719368538
 30
0.0
 11
22.925765576702304
 21
73.63137042119627
 31
0.0
  0
LINE
  5
E23
330
A35
100
AcDbEntity
  8
0
100
AcDbLine
 10
22.925765576702304
 20
73.63137042119627
 30
0.0
 11
22.730655133190652
 21
73.59876364870715
 31
0.0
  0
LINE
  5
E24
330
A35
100
AcDbEntity
  8
0
100
AcDbLine
 10
22.730655133190652
 20
73.59876364870715
 30
0.0
 11
22.535014498256373
 21
73.50094333124
 31
0.0
  0
LINE
  5
E25
330
A35
100
AcDbEntity
  8
0
100
AcDbLine
 10
22.535014498256373
 20
73.50094333124
 30
0.0
 11
22.339373863322066
 21
73.43572978626193
 31
0.0
  0
LINE
  5
E26
330
A35
100
AcDbEntity
  8
0
100
AcDbLine
 10
24.65259904006544
 20
73.59876364870715
 30
0.0
 11
24.489300081908937
 21
73.66397719368538
 31
0.0
  0
LINE
  5
E27
330
A35
100
AcDbEntity
  8
0
100
AcDbLine
 10
24.489300081908937
 20
73.66397719368538
 30
0.0
 11
24.294189638397228
 21
73.69631887046299
 31
0.0
  0
LINE
  5
E28
330
A35
100
AcDbEntity
  8
0
100
AcDbLine
 10
24.294189638397228
 20
73.69631887046299
 30
0.0
 11
24.066207326685202
 21
73.79413918793014
 31
0.0
  0
LINE
  5
E29
330
A35
100
AcDbEntity
  8
0
100
AcDbLine
 10
24.066207326685202
 20
73.79413918793014
 30
0.0
 11
23.870566691750895
 21
73.79413918793014
 31
0.0
  0
LINE
  5
E2A
330
A35
100
AcDbEntity
  8
0
100
AcDbLine
 10
23.870566691750895
 20
73.79413918793014
 30
0.0
 11
23.642584380038812
 21
73.82674596041929
 31
0.0
  0
LINE
  5
E2B
330
A35
100
AcDbEntity
  8
0
100
AcDbLine
 10
23.642584380038812
 20
73.82674596041929
 30
0.0
 11
23.414602068326758
 21
73.82674596041929
 31
0.0
  0
LINE
  5
E2C
330
A35
100
AcDbEntity
  8
0
100
AcDbLine
 10
23.414602068326758
 20
73.82674596041929
 30
0.0
 11
23.186619756614732
 21
73.79413918793014
 31
0.0
  0
LINE
  5
E2D
330
A35
100
AcDbEntity
  8
0
100
AcDbLine
 10
23.186619756614732
 20
73.79413918793014
 30
0.0
 11
22.925765576702304
 21
73.79413918793014
 31
0.0
  0
LINE
  5
E2E
330
A35
100
AcDbEntity
  8
0
100
AcDbLine
 10
22.925765576702304
 20
73.79413918793014
 30
0.0
 11
22.730655133190652
 21
73.69631887046299
 31
0.0
  0
LINE
  5
E2F
330
A35
100
AcDbEntity
  8
0
100
AcDbLine
 10
22.730655133190652
 20
73.69631887046299
 30
0.0
 11
22.535014498256373
 21
73.66397719368538
 31
0.0
  0
LINE
  5
E30
330
A35
100
AcDbEntity
  8
0
100
AcDbLine
 10
22.535014498256373
 20
73.66397719368538
 30
0.0
 11
22.339373863322066
 21
73.59876364870715
 31
0.0
  0
LINE
  5
E31
330
A35
100
AcDbEntity
  8
0
100
AcDbLine
 10
8.006709136550484
 20
78.3871874817942
 30
0.0
 11
7.973837268350081
 21
78.3871874817942
 31
0.0
  0
LINE
  5
E32
330
A35
100
AcDbEntity
  8
0
100
AcDbLine
 10
7.973837268350081
 20
78.3871874817942
 30
0.0
 11
7.941495591572391
 21
78.3871874817942
 31
0.0
  0
LINE
  5
E33
330
A35
100
AcDbEntity
  8
0
100
AcDbLine
 10
36.347031248048296
 20
74.18515536208753
 30
0.0
 11
36.3793729248261
 21
74.18515536208753
 31
0.0
  0
LINE
  5
E34
330
A35
100
AcDbEntity
  8
0
100
AcDbLine
 10
21.557871706430063
 20
72.3933734494575
 30
0.0
 11
21.52499983822969
 21
72.3933734494575
 31
0.0
  0
LINE
  5
E35
330
A35
100
AcDbEntity
  8
0
100
AcDbLine
 10
21.52499983822969
 20
72.3933734494575
 30
0.0
 11
21.492658161452
 21
72.3933734494575
 31
0.0
  0
LINE
  5
E36
330
A35
100
AcDbEntity
  8
0
100
AcDbLine
 10
21.492658161452
 20
72.3933734494575
 30
0.0
 11
21.460316484674195
 21
72.42598022194665
 31
0.0
  0
LINE
  5
E37
330
A35
100
AcDbEntity
  8
0
100
AcDbLine
 10
21.460316484674195
 20
72.42598022194665
 30
0.0
 11
21.427444616473878
 21
72.42598022194665
 31
0.0
  0
LINE
  5
E38
330
A35
100
AcDbEntity
  8
0
100
AcDbLine
 10
21.427444616473878
 20
72.42598022194665
 30
0.0
 11
21.362231071495785
 21
72.42598022194665
 31
0.0
  0
LINE
  5
E39
330
A35
100
AcDbEntity
  8
0
100
AcDbLine
 10
21.362231071495785
 20
72.42598022194665
 30
0.0
 11
21.32988939471798
 21
72.45858699443573
 31
0.0
  0
LINE
  5
E3A
330
A35
100
AcDbEntity
  8
0
100
AcDbLine
 10
21.32988939471798
 20
72.45858699443573
 30
0.0
 11
21.297017526517692
 21
72.45858699443573
 31
0.0
  0
LINE
  5
E3B
330
A35
100
AcDbEntity
  8
0
100
AcDbLine
 10
21.297017526517692
 20
72.45858699443573
 30
0.0
 11
21.264675849739888
 21
72.45858699443573
 31
0.0
  0
LINE
  5
E3C
330
A35
100
AcDbEntity
  8
0
100
AcDbLine
 10
21.264675849739888
 20
72.45858699443573
 30
0.0
 11
21.23180398153957
 21
72.45858699443573
 31
0.0
  0
LINE
  5
E3D
330
A35
100
AcDbEntity
  8
0
100
AcDbLine
 10
32.24228925438632
 20
74.08733504462037
 30
0.0
 11
32.20994757760849
 21
74.15254858959838
 31
0.0
  0
LINE
  5
E3E
330
A35
100
AcDbEntity
  8
0
100
AcDbLine
 10
32.20994757760849
 20
74.15254858959838
 30
0.0
 11
32.14473403263045
 21
74.15254858959838
 31
0.0
  0
LINE
  5
E3F
330
A35
100
AcDbEntity
  8
0
100
AcDbLine
 10
32.14473403263045
 20
74.15254858959838
 30
0.0
 11
32.11186216443008
 21
74.15254858959838
 31
0.0
  0
LINE
  5
E40
330
A35
100
AcDbEntity
  8
0
100
AcDbLine
 10
32.11186216443008
 20
74.15254858959838
 30
0.0
 11
32.07952048765239
 21
74.15254858959838
 31
0.0
  0
LINE
  5
E41
330
A35
100
AcDbEntity
  8
0
100
AcDbLine
 10
32.24228925438632
 20
74.3479241288214
 30
0.0
 11
32.20994757760849
 21
74.3479241288214
 31
0.0
  0
LINE
  5
E42
330
A35
100
AcDbEntity
  8
0
100
AcDbLine
 10
32.20994757760849
 20
74.3479241288214
 30
0.0
 11
32.14473403263045
 21
74.38053090131052
 31
0.0
  0
LINE
  5
E43
330
A35
100
AcDbEntity
  8
0
100
AcDbLine
 10
32.14473403263045
 20
74.38053090131052
 30
0.0
 11
32.11186216443008
 21
74.38053090131052
 31
0.0
  0
LINE
  5
E44
330
A35
100
AcDbEntity
  8
0
100
AcDbLine
 10
32.11186216443008
 20
74.38053090131052
 30
0.0
 11
32.07952048765239
 21
74.38053090131052
 31
0.0
  0
LINE
  5
E45
330
A35
100
AcDbEntity
  8
0
100
AcDbLine
 10
21.557871706430063
 20
72.58874898868049
 30
0.0
 11
21.52499983822969
 21
72.62135576116964
 31
0.0
  0
LINE
  5
E46
330
A35
100
AcDbEntity
  8
0
100
AcDbLine
 10
21.52499983822969
 20
72.62135576116964
 30
0.0
 11
21.460316484674195
 21
72.62135576116964
 31
0.0
  0
LINE
  5
E47
330
A35
100
AcDbEntity
  8
0
100
AcDbLine
 10
21.460316484674195
 20
72.62135576116964
 30
0.0
 11
21.460316484674195
 21
72.65396253365873
 31
0.0
  0
LINE
  5
E48
330
A35
100
AcDbEntity
  8
0
100
AcDbLine
 10
21.460316484674195
 20
72.65396253365873
 30
0.0
 11
21.427444616473878
 21
72.65396253365873
 31
0.0
  0
LINE
  5
E49
330
A35
100
AcDbEntity
  8
0
100
AcDbLine
 10
21.427444616473878
 20
72.65396253365873
 30
0.0
 11
21.362231071495785
 21
72.65396253365873
 31
0.0
  0
LINE
  5
E4A
330
A35
100
AcDbEntity
  8
0
100
AcDbLine
 10
21.362231071495785
 20
72.65396253365873
 30
0.0
 11
21.32988939471798
 21
72.65396253365873
 31
0.0
  0
LINE
  5
E4B
330
A35
100
AcDbEntity
  8
0
100
AcDbLine
 10
21.32988939471798
 20
72.65396253365873
 30
0.0
 11
21.297017526517692
 21
72.65396253365873
 31
0.0
  0
LINE
  5
E4C
330
A35
100
AcDbEntity
  8
0
100
AcDbLine
 10
21.297017526517692
 20
72.65396253365873
 30
0.0
 11
21.264675849739888
 21
72.65396253365873
 31
0.0
  0
LINE
  5
E4D
330
A35
100
AcDbEntity
  8
0
100
AcDbLine
 10
42.04764942369462
 20
65.94359479369703
 30
0.0
 11
41.42838584211404
 21
66.23679065038709
 31
0.0
  0
LINE
  5
E4E
330
A35
100
AcDbEntity
  8
0
100
AcDbLine
 10
41.42838584211404
 20
66.23679065038709
 30
0.0
 11
40.74443890697796
 21
66.56259327956636
 31
0.0
  0
LINE
  5
E4F
330
A35
100
AcDbEntity
  8
0
100
AcDbLine
 10
40.74443890697796
 20
66.56259327956636
 30
0.0
 11
39.995278426863706
 21
66.82318236376742
 31
0.0
  0
LINE
  5
E50
330
A35
100
AcDbEntity
  8
0
100
AcDbLine
 10
39.995278426863706
 20
66.82318236376742
 30
0.0
 11
39.31133149172754
 21
67.05116467547953
 31
0.0
  0
LINE
  5
E51
330
A35
100
AcDbEntity
  8
0
100
AcDbLine
 10
39.31133149172754
 20
67.05116467547953
 30
0.0
 11
38.52929914341297
 21
67.31175375968061
 31
0.0
  0
LINE
  5
E52
330
A35
100
AcDbEntity
  8
0
100
AcDbLine
 10
38.52929914341297
 20
67.31175375968061
 30
0.0
 11
37.74779698652094
 21
67.53973607139258
 31
0.0
  0
LINE
  5
E53
330
A35
100
AcDbEntity
  8
0
100
AcDbLine
 10
37.74779698652094
 20
67.53973607139258
 30
0.0
 11
36.96576463820645
 21
67.7351116106156
 31
0.0
  0
LINE
  5
E54
330
A35
100
AcDbEntity
  8
0
100
AcDbLine
 10
36.96576463820645
 20
67.7351116106156
 30
0.0
 11
36.15139061311399
 21
67.89814547306082
 31
0.0
  0
LINE
  5
E55
330
A35
100
AcDbEntity
  8
0
100
AcDbLine
 10
36.15139061311399
 20
67.89814547306082
 30
0.0
 11
35.27180304304363
 21
68.02830746730578
 31
0.0
  0
LINE
  5
E56
330
A35
100
AcDbEntity
  8
0
100
AcDbLine
 10
35.27180304304363
 20
68.02830746730578
 30
0.0
 11
34.45742901795131
 21
68.191341329751
 31
0.0
  0
LINE
  5
E57
330
A35
100
AcDbEntity
  8
0
100
AcDbLine
 10
34.45742901795131
 20
68.191341329751
 30
0.0
 11
33.61071331608119
 21
68.32150332399593
 31
0.0
  0
LINE
  5
E58
330
A35
100
AcDbEntity
  8
0
100
AcDbLine
 10
33.61071331608119
 20
68.32150332399593
 30
0.0
 11
32.6982538778104
 21
68.38671686897399
 31
0.0
  0
LINE
  5
E59
330
A35
100
AcDbEntity
  8
0
100
AcDbLine
 10
32.6982538778104
 20
68.38671686897399
 30
0.0
 11
31.85153817594025
 21
68.48453718644114
 31
0.0
  0
LINE
  5
E5A
330
A35
100
AcDbEntity
  8
0
100
AcDbLine
 10
31.85153817594025
 20
68.48453718644114
 30
0.0
 11
30.939608929092117
 21
68.51687886321895
 31
0.0
  0
LINE
  5
E5B
330
A35
100
AcDbEntity
  8
0
100
AcDbLine
 10
30.939608929092117
 20
68.51687886321895
 30
0.0
 11
30.060021359021704
 21
68.54948563570792
 31
0.0
  0
LINE
  5
E5C
330
A35
100
AcDbEntity
  8
0
100
AcDbLine
 10
30.060021359021704
 20
68.54948563570792
 30
0.0
 11
29.147561920750917
 21
68.54948563570792
 31
0.0
  0
LINE
  5
E5D
330
A35
100
AcDbEntity
  8
0
100
AcDbLine
 10
29.147561920750917
 20
68.54948563570792
 30
0.0
 11
28.235632673902728
 21
68.54948563570792
 31
0.0
  0
LINE
  5
E5E
330
A35
100
AcDbEntity
  8
0
100
AcDbLine
 10
28.235632673902728
 20
68.54948563570792
 30
0.0
 11
27.356045103832287
 21
68.51687886321895
 31
0.0
  0
LINE
  5
E5F
330
A35
100
AcDbEntity
  8
0
100
AcDbLine
 10
27.356045103832287
 20
68.51687886321895
 30
0.0
 11
26.476457533761817
 21
68.41932364146311
 31
0.0
  0
LINE
  5
E60
330
A35
100
AcDbEntity
  8
0
100
AcDbLine
 10
26.476457533761817
 20
68.41932364146311
 30
0.0
 11
25.596869963691432
 21
68.3541100964849
 31
0.0
  0
LINE
  5
E61
330
A35
100
AcDbEntity
  8
0
100
AcDbLine
 10
25.596869963691432
 20
68.3541100964849
 30
0.0
 11
24.750154261821308
 21
68.22368300652877
 31
0.0
  0
LINE
  5
E62
330
A35
100
AcDbEntity
  8
0
100
AcDbLine
 10
24.750154261821308
 20
68.22368300652877
 30
0.0
 11
23.870566691750895
 21
68.12612778477293
 31
0.0
  0
LINE
  5
E63
330
A35
100
AcDbEntity
  8
0
100
AcDbLine
 10
23.870566691750895
 20
68.12612778477293
 30
0.0
 11
23.056192666658518
 21
67.963359018039
 31
0.0
  0
LINE
  5
E64
330
A35
100
AcDbEntity
  8
0
100
AcDbLine
 10
23.056192666658518
 20
67.963359018039
 30
0.0
 11
22.241818641566198
 21
67.7677183831047
 31
0.0
  0
LINE
  5
E65
330
A35
100
AcDbEntity
  8
0
100
AcDbLine
 10
22.241818641566198
 20
67.7677183831047
 30
0.0
 11
21.427444616473878
 21
67.60494961637065
 31
0.0
  0
LINE
  5
E66
330
A35
100
AcDbEntity
  8
0
100
AcDbLine
 10
21.427444616473878
 20
67.60494961637065
 30
0.0
 11
20.645942459581875
 21
67.37696730465868
 31
0.0
  0
LINE
  5
E67
330
A35
100
AcDbEntity
  8
0
100
AcDbLine
 10
20.645942459581875
 20
67.37696730465868
 30
0.0
 11
19.863910111267273
 21
67.14898499294657
 31
0.0
  0
LINE
  5
E68
330
A35
100
AcDbEntity
  8
0
100
AcDbLine
 10
19.863910111267273
 20
67.14898499294657
 30
0.0
 11
19.114749631153046
 21
66.92073758552328
 31
0.0
  0
LINE
  5
E69
330
A35
100
AcDbEntity
  8
0
100
AcDbLine
 10
19.114749631153046
 20
66.92073758552328
 30
0.0
 11
18.397930827816538
 21
66.62754172883311
 31
0.0
  0
LINE
  5
E6A
330
A35
100
AcDbEntity
  8
0
100
AcDbLine
 10
18.397930827816538
 20
66.62754172883311
 30
0.0
 11
17.713983892680375
 21
66.36695264463202
 31
0.0
  0
LINE
  5
E6B
330
A35
100
AcDbEntity
  8
0
100
AcDbLine
 10
17.713983892680375
 20
66.36695264463202
 30
0.0
 11
17.03003695754427
 21
66.04141511116407
 31
0.0
  0
LINE
  5
E6C
330
A35
100
AcDbEntity
  8
0
100
AcDbLine
 10
17.03003695754427
 20
66.04141511116407
 30
0.0
 11
16.41077337596363
 21
65.74821925447404
 31
0.0
  0
LINE
  5
E6D
330
A35
100
AcDbEntity
  8
0
100
AcDbLine
 10
16.41077337596363
 20
65.74821925447404
 30
0.0
 11
15.824381662583335
 21
65.3898098528058
 31
0.0
  0
LINE
  5
E6E
330
A35
100
AcDbEntity
  8
0
100
AcDbLine
 10
15.824381662583335
 20
65.3898098528058
 30
0.0
 11
15.270861817403386
 21
65.03140045113744
 31
0.0
  0
LINE
  5
E6F
330
A35
100
AcDbEntity
  8
0
100
AcDbLine
 10
15.270861817403386
 20
65.03140045113744
 30
0.0
 11
14.716811780800839
 21
64.67325614518049
 31
0.0
  0
LINE
  5
E70
330
A35
100
AcDbEntity
  8
0
100
AcDbLine
 10
14.716811780800839
 20
64.67325614518049
 30
0.0
 11
14.260847157376787
 21
64.2822399710233
 31
0.0
  0
LINE
  5
E71
330
A35
100
AcDbEntity
  8
0
100
AcDbLine
 10
14.260847157376787
 20
64.2822399710233
 30
0.0
 11
13.837754402153024
 21
63.92383056935509
 31
0.0
  0
LINE
  5
E72
330
A35
100
AcDbEntity
  8
0
100
AcDbLine
 10
13.837754402153024
 20
63.92383056935509
 30
0.0
 11
13.414131455506691
 21
63.50047271841996
 31
0.0
  0
LINE
  5
E73
330
A35
100
AcDbEntity
  8
0
100
AcDbLine
 10
13.414131455506691
 20
63.50047271841996
 30
0.0
 11
13.055722053838394
 21
63.10945654426263
 31
0.0
  0
LINE
  5
E74
330
A35
100
AcDbEntity
  8
0
100
AcDbLine
 10
13.055722053838394
 20
63.10945654426263
 30
0.0
 11
12.697312652170183
 21
62.68609869332764
 31
0.0
  0
LINE
  5
E75
330
A35
100
AcDbEntity
  8
0
100
AcDbLine
 10
12.697312652170183
 20
62.68609869332764
 30
0.0
 11
12.436988663680353
 21
62.29508251917031
 31
0.0
  0
LINE
  5
E76
330
A35
100
AcDbEntity
  8
0
100
AcDbLine
 10
12.436988663680353
 20
62.29508251917031
 30
0.0
 11
12.176134483768038
 21
61.871724668235316
 31
0.0
  0
LINE
  5
E77
330
A35
100
AcDbEntity
  8
0
100
AcDbLine
 10
12.176134483768038
 20
61.871724668235316
 30
0.0
 11
11.948152172055927
 21
61.38315327232212
 31
0.0
  0
LINE
  5
E78
330
A35
100
AcDbEntity
  8
0
100
AcDbLine
 10
11.948152172055927
 20
61.38315327232212
 30
0.0
 11
11.850596950300115
 21
60.95953032567584
 31
0.0
  0
LINE
  5
E79
330
A35
100
AcDbEntity
  8
0
100
AcDbLine
 10
11.850596950300115
 20
60.95953032567584
 30
0.0
 11
11.720169860343901
 21
60.53617247474071
 31
0.0
  0
LINE
  5
E7A
330
A35
100
AcDbEntity
  8
0
100
AcDbLine
 10
11.720169860343901
 20
60.53617247474071
 30
0.0
 11
11.65495631536578
 21
60.079942755605316
 31
0.0
  0
LINE
  5
E7B
330
A35
100
AcDbEntity
  8
0
100
AcDbLine
 10
11.65495631536578
 20
60.079942755605316
 30
0.0
 11
11.62261463858809
 21
59.623978132181236
 31
0.0
  0
LINE
  5
E7C
330
A35
100
AcDbEntity
  8
0
100
AcDbLine
 10
21.492658161452
 20
71.87219528105538
 30
0.0
 11
21.427444616473878
 21
71.87219528105538
 31
0.0
  0
LINE
  5
E7D
330
A35
100
AcDbEntity
  8
0
100
AcDbLine
 10
21.427444616473878
 20
71.87219528105538
 30
0.0
 11
21.362231071495785
 21
71.90480205354447
 31
0.0
  0
LINE
  5
E7E
330
A35
100
AcDbEntity
  8
0
100
AcDbLine
 10
21.362231071495785
 20
71.90480205354447
 30
0.0
 11
21.32988939471798
 21
71.90480205354447
 31
0.0
  0
LINE
  5
E7F
330
A35
100
AcDbEntity
  8
0
100
AcDbLine
 10
21.32988939471798
 20
71.90480205354447
 30
0.0
 11
21.297017526517692
 21
71.93740882603339
 31
0.0
  0
LINE
  5
E80
330
A35
100
AcDbEntity
  8
0
100
AcDbLine
 10
21.297017526517692
 20
71.93740882603339
 30
0.0
 11
21.264675849739888
 21
71.93740882603339
 31
0.0
  0
LINE
  5
E81
330
A35
100
AcDbEntity
  8
0
100
AcDbLine
 10
21.264675849739888
 20
71.93740882603339
 30
0.0
 11
21.23180398153957
 21
71.93740882603339
 31
0.0
  0
LINE
  5
E82
330
A35
100
AcDbEntity
  8
0
100
AcDbLine
 10
21.23180398153957
 20
71.93740882603339
 30
0.0
 11
21.167120627984076
 21
71.93740882603339
 31
0.0
  0
LINE
  5
E83
330
A35
100
AcDbEntity
  8
0
100
AcDbLine
 10
21.167120627984076
 20
71.93740882603339
 30
0.0
 11
21.134248759783702
 21
72.00262237101163
 31
0.0
  0
LINE
  5
E84
330
A35
100
AcDbEntity
  8
0
100
AcDbLine
 10
21.134248759783702
 20
72.00262237101163
 30
0.0
 11
21.101907083005955
 21
72.00262237101163
 31
0.0
  0
LINE
  5
E85
330
A35
100
AcDbEntity
  8
0
100
AcDbLine
 10
4.977195347893144
 20
76.40029512565246
 30
0.0
 11
10.319404121871287
 21
73.69631887046299
 31
0.0
  0
LINE
  5
E86
330
A35
100
AcDbEntity
  8
0
100
AcDbLine
 10
8.006709136550484
 20
78.28936716432705
 30
0.0
 11
13.707327312196838
 21
75.42288723811495
 31
0.0
  0
LINE
  5
E87
330
A35
100
AcDbEntity
  8
0
100
AcDbLine
 10
13.707327312196838
 20
75.55331432807105
 30
0.0
 11
8.006709136550484
 21
78.3871874817942
 31
0.0
  0
LINE
  5
E88
330
A35
100
AcDbEntity
  8
0
100
AcDbLine
 10
21.492658161452
 20
71.87219528105538
 30
0.0
 11
21.88340923989793
 21
71.67681974183233
 31
0.0
  0
LINE
  5
E89
330
A35
100
AcDbEntity
  8
0
100
AcDbLine
 10
21.557871706430063
 20
72.3933734494575
 30
0.0
 11
22.274690509766543
 21
72.03522914350054
 31
0.0
  0
LINE
  5
E8A
330
A35
100
AcDbEntity
  8
0
100
AcDbLine
 10
21.557871706430063
 20
72.58874898868049
 30
0.0
 11
22.274690509766543
 21
72.23060468272357
 31
0.0
  0
LINE
  5
E8B
330
A35
100
AcDbEntity
  8
0
100
AcDbLine
 10
21.557871706430063
 20
73.20774747454999
 30
0.0
 11
21.492658161452
 21
73.24035424703891
 31
0.0
  0
LINE
  5
E8C
330
A35
100
AcDbEntity
  8
0
100
AcDbLine
 10
21.68829879638625
 20
73.24035424703891
 30
0.0
 11
21.492658161452
 21
73.37078133699521
 31
0.0
  0
LINE
  5
E8D
330
A35
100
AcDbEntity
  8
0
100
AcDbLine
 10
25.140905340267295
 20
73.20774747454999
 30
0.0
 11
24.65259904006544
 21
73.43572978626193
 31
0.0
  0
LINE
  5
E8E
330
A35
100
AcDbEntity
  8
0
100
AcDbLine
 10
25.238990753445734
 20
73.27296101952805
 30
0.0
 11
24.65259904006544
 21
73.59876364870715
 31
0.0
  0
LINE
  5
E8F
330
A35
100
AcDbEntity
  8
0
100
AcDbLine
 10
38.52929914341297
 20
68.94050180986525
 30
0.0
 11
38.56217101161329
 21
68.90789503737614
 31
0.0
  0
LINE
  5
E90
330
A35
100
AcDbEntity
  8
0
100
AcDbLine
 10
40.907207673711895
 20
69.75487583495757
 30
0.0
 11
32.24228925438632
 21
74.08733504462037
 31
0.0
  0
LINE
  5
E91
330
A35
100
AcDbEntity
  8
0
100
AcDbLine
 10
40.907207673711895
 20
69.98285814666968
 30
0.0
 11
32.24228925438632
 21
74.3479241288214
 31
0.0
  0
LINE
  5
E92
330
A35
100
AcDbEntity
  8
0
100
AcDbLine
 10
35.59787076793404
 20
74.57590644053354
 30
0.0
 11
36.347031248048296
 21
74.18515536208753
 31
0.0
  0
LINE
  5
E93
330
A35
100
AcDbEntity
  8
0
100
AcDbLine
 10
35.727767666467656
 20
74.60851321302246
 30
0.0
 11
36.444586469804136
 21
74.21749703886533
 31
0.0
  0
LINE
  5
E94
330
A35
100
AcDbEntity
  8
0
100
AcDbLine
 10
31.623555864228308
 20
69.59210706822364
 30
0.0
 11
31.55834231925013
 21
69.59210706822364
 31
0.0
  0
LINE
  5
E95
330
A35
100
AcDbEntity
  8
0
100
AcDbLine
 10
32.14473403263045
 20
69.29891121153346
 30
0.0
 11
32.11186216443008
 21
69.29891121153346
 31
0.0
  0
LINE
  5
E96
330
A35
100
AcDbEntity
  8
0
100
AcDbLine
 10
32.11186216443008
 20
69.29891121153346
 30
0.0
 11
31.526000642472468
 21
69.65705551749042
 31
0.0
  0
LINE
  5
E97
330
A35
100
AcDbEntity
  8
0
100
AcDbLine
 10
32.14473403263045
 20
69.29891121153346
 30
0.0
 11
31.623555864228308
 21
69.59210706822364
 31
0.0
  0
LINE
  5
E98
330
A35
100
AcDbEntity
  8
0
100
AcDbLine
 10
31.688769409206373
 20
69.72226906246843
 30
0.0
 11
31.721111085984177
 21
69.72226906246843
 31
0.0
  0
LINE
  5
E99
330
A35
100
AcDbEntity
  8
0
100
AcDbLine
 10
11.524529225409594
 20
72.42598022194665
 30
0.0
 11
11.752511537121649
 21
72.29555313199035
 31
0.0
  0
LINE
  5
E9A
330
A35
100
AcDbEntity
  8
0
100
AcDbLine
 10
14.912452415735146
 20
74.15254858959838
 30
0.0
 11
15.173306595647574
 21
74.02212149964231
 31
0.0
  0
LINE
  5
E9B
330
A35
100
AcDbEntity
  8
0
100
AcDbLine
 10
15.173306595647574
 20
74.15254858959838
 30
0.0
 11
14.977665960713267
 21
74.25010381135425
 31
0.0
  0
LINE
  5
E9C
330
A35
100
AcDbEntity
  8
0
100
AcDbLine
 10
41.265617075380106
 20
62.816260687572594
 30
0.0
 11
40.64688368522215
 21
63.23988363421887
 31
0.0
  0
LINE
  5
E9D
330
A35
100
AcDbEntity
  8
0
100
AcDbLine
 10
40.64688368522215
 20
63.23988363421887
 30
0.0
 11
39.9300648818855
 21
63.630634712664914
 31
0.0
  0
LINE
  5
E9E
330
A35
100
AcDbEntity
  8
0
100
AcDbLine
 10
39.9300648818855
 20
63.630634712664914
 30
0.0
 11
39.180904401771244
 21
64.0216508868221
 31
0.0
  0
LINE
  5
E9F
330
A35
100
AcDbEntity
  8
0
100
AcDbLine
 10
39.180904401771244
 20
64.0216508868221
 30
0.0
 11
38.398872053456785
 21
64.31484674351228
 31
0.0
  0
LINE
  5
EA0
330
A35
100
AcDbEntity
  8
0
100
AcDbLine
 10
38.398872053456785
 20
64.31484674351228
 30
0.0
 11
37.58449802836441
 21
64.64064937269154
 31
0.0
  0
LINE
  5
EA1
330
A35
100
AcDbEntity
  8
0
100
AcDbLine
 10
37.58449802836441
 20
64.64064937269154
 30
0.0
 11
36.70491045829394
 21
64.96618690615938
 31
0.0
  0
LINE
  5
EA2
330
A35
100
AcDbEntity
  8
0
100
AcDbLine
 10
36.70491045829394
 20
64.96618690615938
 30
0.0
 11
35.76063953466809
 21
65.19443431358278
 31
0.0
  0
LINE
  5
EA3
330
A35
100
AcDbEntity
  8
0
100
AcDbLine
 10
35.76063953466809
 20
65.19443431358278
 30
0.0
 11
34.815838419619496
 21
65.3898098528058
 31
0.0
  0
LINE
  5
EA4
330
A35
100
AcDbEntity
  8
0
100
AcDbLine
 10
34.815838419619496
 20
65.3898098528058
 30
0.0
 11
33.8386956277933
 21
65.58518539202868
 31
0.0
  0
LINE
  5
EA5
330
A35
100
AcDbEntity
  8
0
100
AcDbLine
 10
33.8386956277933
 20
65.58518539202868
 30
0.0
 11
32.82868096776667
 21
65.74821925447404
 31
0.0
  0
LINE
  5
EA6
330
A35
100
AcDbEntity
  8
0
100
AcDbLine
 10
32.82868096776667
 20
65.74821925447404
 30
0.0
 11
31.818666307740045
 21
65.81316770374079
 31
0.0
  0
LINE
  5
EA7
330
A35
100
AcDbEntity
  8
0
100
AcDbLine
 10
31.818666307740045
 20
65.81316770374079
 30
0.0
 11
30.74396829415784
 21
65.87838124871885
 31
0.0
  0
LINE
  5
EA8
330
A35
100
AcDbEntity
  8
0
100
AcDbLine
 10
30.74396829415784
 20
65.87838124871885
 30
0.0
 11
29.733953634131183
 21
65.94359479369703
 31
0.0
  0
LINE
  5
EA9
330
A35
100
AcDbEntity
  8
0
100
AcDbLine
 10
29.733953634131183
 20
65.94359479369703
 30
0.0
 11
28.69159729732678
 21
65.87838124871885
 31
0.0
  0
LINE
  5
EAA
330
A35
100
AcDbEntity
  8
0
100
AcDbLine
 10
28.69159729732678
 20
65.87838124871885
 30
0.0
 11
27.616899283744686
 21
65.84577447622988
 31
0.0
  0
LINE
  5
EAB
330
A35
100
AcDbEntity
  8
0
100
AcDbLine
 10
27.616899283744686
 20
65.84577447622988
 30
0.0
 11
26.606884623718003
 21
65.7805609312517
 31
0.0
  0
LINE
  5
EAC
330
A35
100
AcDbEntity
  8
0
100
AcDbLine
 10
26.606884623718003
 20
65.7805609312517
 30
0.0
 11
25.596869963691432
 21
65.65039893700688
 31
0.0
  0
LINE
  5
EAD
330
A35
100
AcDbEntity
  8
0
100
AcDbLine
 10
25.596869963691432
 20
65.65039893700688
 30
0.0
 11
24.587385495087346
 21
65.48763017027295
 31
0.0
  0
LINE
  5
EAE
330
A35
100
AcDbEntity
  8
0
100
AcDbLine
 10
24.587385495087346
 20
65.48763017027295
 30
0.0
 11
23.642584380038812
 21
65.29198953533864
 31
0.0
  0
LINE
  5
EAF
330
A35
100
AcDbEntity
  8
0
100
AcDbLine
 10
23.642584380038812
 20
65.29198953533864
 30
0.0
 11
22.66544158821253
 21
65.06400722362653
 31
0.0
  0
LINE
  5
EB0
330
A35
100
AcDbEntity
  8
0
100
AcDbLine
 10
22.66544158821253
 20
65.06400722362653
 30
0.0
 11
21.753512341364313
 21
64.80341813942545
 31
0.0
  0
LINE
  5
EB1
330
A35
100
AcDbEntity
  8
0
100
AcDbLine
 10
21.753512341364313
 20
64.80341813942545
 30
0.0
 11
20.906266448071648
 21
64.5102222827353
 31
0.0
  0
LINE
  5
EB2
330
A35
100
AcDbEntity
  8
0
100
AcDbLine
 10
20.906266448071648
 20
64.5102222827353
 30
0.0
 11
20.091892422979328
 21
64.18441965355615
 31
0.0
  0
LINE
  5
EB3
330
A35
100
AcDbEntity
  8
0
100
AcDbLine
 10
20.091892422979328
 20
64.18441965355615
 30
0.0
 11
19.3427319428651
 21
63.82627534759922
 31
0.0
  0
LINE
  5
EB4
330
A35
100
AcDbEntity
  8
0
100
AcDbLine
 10
19.3427319428651
 20
63.82627534759922
 30
0.0
 11
18.62591313952862
 21
63.43525917344189
 31
0.0
  0
LINE
  5
EB5
330
A35
100
AcDbEntity
  8
0
100
AcDbLine
 10
18.62591313952862
 20
63.43525917344189
 30
0.0
 11
17.974307881170205
 21
63.04450809499588
 31
0.0
  0
LINE
  5
EB6
330
A35
100
AcDbEntity
  8
0
100
AcDbLine
 10
17.974307881170205
 20
63.04450809499588
 30
0.0
 11
17.38844635921251
 21
62.62088514834957
 31
0.0
  0
LINE
  5
EB7
330
A35
100
AcDbEntity
  8
0
100
AcDbLine
 10
38.56217101161329
 20
68.90789503737614
 30
0.0
 11
38.59451268839109
 21
68.87528826488719
 31
0.0
  0
LINE
  5
EB8
330
A35
100
AcDbEntity
  8
0
100
AcDbLine
 10
31.688769409206373
 20
69.16848412157717
 30
0.0
 11
31.297488139337702
 21
69.4616799782674
 31
0.0
  0
LINE
  5
EB9
330
A35
100
AcDbEntity
  8
0
100
AcDbLine
 10
31.460787097494233
 20
69.65705551749042
 30
0.0
 11
31.88387985271808
 21
69.33125288831127
 31
0.0
  0
LINE
  5
EBA
330
A35
100
AcDbEntity
  8
0
100
AcDbLine
 10
31.721111085984177
 20
69.72226906246843
 30
0.0
 11
31.85153817594025
 21
69.59210706822364
 31
0.0
  0
LINE
  5
EBB
330
A35
100
AcDbEntity
  8
0
100
AcDbLine
 10
32.275161122586724
 20
69.16848412157717
 30
0.0
 11
32.14473403263045
 21
69.29891121153346
 31
0.0
  0
LINE
  5
EBC
330
A35
100
AcDbEntity
  8
0
100
AcDbLine
 10
31.818666307740045
 20
84.7394109157988
 30
0.0
 11
31.753982954184437
 21
84.7394109157988
 31
0.0
  0
LINE
  5
EBD
330
A35
100
AcDbEntity
  8
0
100
AcDbLine
 10
31.753982954184437
 20
84.7394109157988
 30
0.0
 11
31.721111085984177
 21
84.7394109157988
 31
0.0
  0
LINE
  5
EBE
330
A35
100
AcDbEntity
  8
0
100
AcDbLine
 10
38.59451268839109
 20
68.87528826488719
 30
0.0
 11
38.6597262333691
 21
68.87528826488719
 31
0.0
  0
LINE
  5
EBF
330
A35
100
AcDbEntity
  8
0
100
AcDbLine
 10
28.822024387282994
 20
84.93478645502182
 30
0.0
 11
28.789682710505247
 21
84.93478645502182
 31
0.0
  0
LINE
  5
EC0
330
A35
100
AcDbEntity
  8
0
100
AcDbLine
 10
28.789682710505247
 20
84.93478645502182
 30
0.0
 11
28.7568108423049
 21
84.93478645502182
 31
0.0
  0
LINE
  5
EC1
330
A35
100
AcDbEntity
  8
0
100
AcDbLine
 10
28.7568108423049
 20
84.93478645502182
 30
0.0
 11
28.7568108423049
 21
84.90217968253285
 31
0.0
  0
LINE
  5
EC2
330
A35
100
AcDbEntity
  8
0
100
AcDbLine
 10
28.7568108423049
 20
84.90217968253285
 30
0.0
 11
28.724469165527182
 21
84.90217968253285
 31
0.0
  0
LINE
  5
EC3
330
A35
100
AcDbEntity
  8
0
100
AcDbLine
 10
28.724469165527182
 20
84.90217968253285
 30
0.0
 11
28.724469165527182
 21
84.83696613755464
 31
0.0
  0
LINE
  5
EC4
330
A35
100
AcDbEntity
  8
0
100
AcDbLine
 10
28.724469165527182
 20
84.83696613755464
 30
0.0
 11
28.724469165527182
 21
84.8043593650657
 31
0.0
  0
LINE
  5
EC5
330
A35
100
AcDbEntity
  8
0
100
AcDbLine
 10
36.80299587147235
 20
82.0683065288099
 30
0.0
 11
36.770124003272144
 21
82.0683065288099
 31
0.0
  0
LINE
  5
EC6
330
A35
100
AcDbEntity
  8
0
100
AcDbLine
 10
36.770124003272144
 20
82.0683065288099
 30
0.0
 11
36.770124003272144
 21
82.03569975632075
 31
0.0
  0
LINE
  5
EC7
330
A35
100
AcDbEntity
  8
0
100
AcDbLine
 10
36.770124003272144
 20
80.79770278458201
 30
0.0
 11
36.73778232649434
 21
80.8303095570711
 31
0.0
  0
LINE
  5
EC8
330
A35
100
AcDbEntity
  8
0
100
AcDbLine
 10
36.73778232649434
 20
80.8303095570711
 30
0.0
 11
36.70491045829394
 21
80.8303095570711
 31
0.0
  0
LINE
  5
EC9
330
A35
100
AcDbEntity
  8
0
100
AcDbLine
 10
36.70491045829394
 20
80.8303095570711
 30
0.0
 11
36.64022710473844
 21
80.8303095570711
 31
0.0
  0
LINE
  5
ECA
330
A35
100
AcDbEntity
  8
0
100
AcDbLine
 10
36.64022710473844
 20
80.8303095570711
 30
0.0
 11
36.60735523653804
 21
80.8303095570711
 31
0.0
  0
LINE
  5
ECB
330
A35
100
AcDbEntity
  8
0
100
AcDbLine
 10
36.60735523653804
 20
80.8303095570711
 30
0.0
 11
36.57501355976041
 21
80.8303095570711
 31
0.0
  0
LINE
  5
ECC
330
A35
100
AcDbEntity
  8
0
100
AcDbLine
 10
36.57501355976041
 20
80.8303095570711
 30
0.0
 11
36.54214169156003
 21
80.8303095570711
 31
0.0
  0
LINE
  5
ECD
330
A35
100
AcDbEntity
  8
0
100
AcDbLine
 10
36.54214169156003
 20
80.8303095570711
 30
0.0
 11
36.54214169156003
 21
80.79770278458201
 31
0.0
  0
LINE
  5
ECE
330
A35
100
AcDbEntity
  8
0
100
AcDbLine
 10
31.330360007538133
 20
84.77201768828789
 30
0.0
 11
31.297488139337702
 21
84.77201768828789
 31
0.0
  0
LINE
  5
ECF
330
A35
100
AcDbEntity
  8
0
100
AcDbLine
 10
31.330360007538133
 20
84.93478645502182
 30
0.0
 11
31.297488139337702
 21
84.93478645502182
 31
0.0
  0
LINE
  5
ED0
330
A35
100
AcDbEntity
  8
0
100
AcDbLine
 10
31.91675172091834
 20
84.70680414330982
 30
0.0
 11
31.88387985271808
 21
84.70680414330982
 31
0.0
  0
LINE
  5
ED1
330
A35
100
AcDbEntity
  8
0
100
AcDbLine
 10
31.88387985271808
 20
84.70680414330982
 30
0.0
 11
31.88387985271808
 21
84.7394109157988
 31
0.0
  0
LINE
  5
ED2
330
A35
100
AcDbEntity
  8
0
100
AcDbLine
 10
31.88387985271808
 20
84.7394109157988
 30
0.0
 11
31.85153817594025
 21
84.7394109157988
 31
0.0
  0
LINE
  5
ED3
330
A35
100
AcDbEntity
  8
0
100
AcDbLine
 10
36.50980001478237
 20
80.89552310204917
 30
0.0
 11
36.64022710473844
 21
80.8303095570711
 31
0.0
  0
LINE
  5
ED4
330
A35
100
AcDbEntity
  8
0
100
AcDbLine
 10
31.330360007538133
 20
84.77201768828789
 30
0.0
 11
31.427915229294
 21
84.7394109157988
 31
0.0
  0
LINE
  5
ED5
330
A35
100
AcDbEntity
  8
0
100
AcDbLine
 10
40.64688368522215
 20
80.14636262193491
 30
0.0
 11
36.80299587147235
 21
82.06804143309861
 31
0.0
  0
LINE
  5
ED6
330
A35
100
AcDbEntity
  8
0
100
AcDbLine
 10
31.330360007538133
 20
84.93478645502182
 30
0.0
 11
31.721111085984177
 21
84.7394109157988
 31
0.0
  0
LINE
  5
ED7
330
A35
100
AcDbEntity
  8
0
100
AcDbLine
 10
40.38602950530961
 20
80.43955847862509
 30
0.0
 11
36.50980001478237
 21
82.39384406227771
 31
0.0
  0
LINE
  5
ED8
330
A35
100
AcDbEntity
  8
0
100
AcDbLine
 10
31.818666307740045
 20
84.7394109157988
 30
0.0
 11
31.753982954184437
 21
84.7394109157988
 31
0.0
  0
LINE
  5
ED9
330
A35
100
AcDbEntity
  8
0
100
AcDbLine
 10
31.91675172091834
 20
84.70680414330982
 30
0.0
 11
36.444586469804136
 21
82.4264508347668
 31
0.0
  0
LINE
  5
EDA
330
A35
100
AcDbEntity
  8
0
100
AcDbLine
 10
44.072070464322564
 20
64.76702599156437
 30
0.0
 11
57.38139353795739
 21
69.6112234285998
 31
0.0
  0
LINE
  5
EDB
330
A35
100
AcDbEntity
  8
0
100
AcDbLine
 10
3.5
 20
50.0
 30
0.0
 11
14.776083318833201
 21
54.10415868716095
 31
0.0
  0
TEXT
  5
EDC
330
A35
100
AcDbEntity
  8
0
100
AcDbText
 10
0.0
 20
95.0
 30
0.0
 40
3.0
  1
LEDｸﾗｽ60 ﾀﾞｳﾝﾗｲﾄ高気密SB形WPφ100
 11
0.0
 21
95.0
 31
0.0
100
AcDbText
  0
TEXT
  5
EDD
330
A35
100
AcDbEntity
  8
0
100
AcDbText
 10
0.0
 20
10.0
 30
0.0
 40
3.0
  1
三菱 EL-D0406N 1LN
 11
0.0
 21
10.0
 31
0.0
100
AcDbText
  0
TEXT
  5
EDE
330
A35
100
AcDbEntity
  8
0
100
AcDbText
 10
50.0
 20
35.0
 30
0.0
 40
1.5
  1
ダウンライト 昼白色（5000K） Ra82
 11
50.0
 21
35.0
 31
0.0
100
AcDbText
  0
TEXT
  5
EDF
330
A35
100
AcDbEntity
  8
0
100
AcDbText
 10
50.0
 20
32.0
 30
0.0
 40
1.5
  1
本体：アルミダイカスト
 11
50.0
 21
32.0
 31
0.0
100
AcDbText
  0
TEXT
  5
EE0
330
A35
100
AcDbEntity
  8
0
100
AcDbText
 10
50.0
 20
29.0
 30
0.0
 40
1.5
  1
反射板：プラスチック 白色
 11
50.0
 21
29.0
 31
0.0
100
AcDbText
  0
TEXT
  5
EE1
330
A35
100
AcDbEntity
  8
0
100
AcDbText
 10
50.0
 20
26.0
 30
0.0
 40
1.5
  1
光源寿命：40,000時間
 11
50.0
 21
26.0
 31
0.0
100
AcDbText
  0
TEXT
  5
EE2
330
A35
100
AcDbEntity
  8
0
100
AcDbText
 10
50.0
 20
23.0
 30
0.0
 40
1.5
  1
光束：485lm 消費電力：4.1W 消費効率：118.2lm/W
 11
50.0
 21
23.0
 31
0.0
100
AcDbText
  0
TEXT
  5
EE3
330
A35
100
AcDbEntity
  8
0
100
AcDbText
 10
50.0
 20
20.0
 30
0.0
 40
1.5
  1
埋込穴：100
 11
50.0
 21
20.0
 31
0.0
100
AcDbText
  0
TEXT
  5
EE4
330
A35
100
AcDbEntity
  8
0
100
AcDbText
 10
50.0
 20
17.0
 30
0.0
 40
1.5
  1
外部IP43
 11
50.0
 21
17.0
 31
0.0
100
AcDbText
  0
VIEWPORT
  5
45B
102
{ACAD_XDICTIONARY
360
A5E
102
}
330
A31
100
AcDbEntity
 67
1
  8
0
100
AcDbViewport
 10
128.5
 20
97.5
 30
0.0
 40
314.226
 41
222.18
 68
1
 69
1
 12
0.0
 22
0.0
 13
0.0
 23
0.0
 14
10.0
 24
10.0
 15
10.0
 25
10.0
 16
0.0
 26
0.0
 36
0.0
 17
0.0
 27
0.0
 37
0.0
 42
50.0
 43
0.0
 44
0.0
 45
1.0
 50
0.0
 51
0.0
 72
100
 90
32768
  1

281
0
 71
0
 74
0
110
0.0
120
0.0
130
0.0
111
1.0
121
0.0
131
0.0
112
0.0
122
1.0
132
0.0
 79
0
146
0.0
  0
ENDSEC
  0
SECTION
  2
OBJECTS
  0
DICTIONARY
  5
9D2
330
0
100
AcDbDictionary
281
1
  3
ACAD_CIP_PREVIOUS_PRODUCT_INFO
350
A48
  3
ACAD_COLOR
350
A28
  3
ACAD_DETAILVIEWSTYLE
350
A2F
  3
ACAD_GROUP
350
9D3
  3
ACAD_LAYOUT
350
A27
  3
ACAD_MATERIAL
350
9D6
  3
ACAD_MLEADERSTYLE
350
A2B
  3
ACAD_MLINESTYLE
350
A24
  3
ACAD_PLOTSETTINGS
350
A26
  3
ACAD_PLOTSTYLENAME
350
9D4
  3
ACAD_SCALELIST
350
A08
  3
ACAD_SECTIONVIEWSTYLE
350
A2D
  3
ACAD_TABLESTYLE
350
A29
  3
ACAD_VISUALSTYLE
350
9EF
  3
ACDB_RECOMPOSE_DATA
350
A5C
  3
AcDbVariableDictionary
350
A4F
  3
DWGPROPS
350
A5D
  3
EZDXF_META
350
EE7
  0
DICTIONARY
  5
A49
330
A1A
100
AcDbDictionary
280
1
281
1
  3
ADSK_XREC_LAYER_RECONCILED
360
A4A
  0
DICTIONARY
  5
A4B
330
A39
100
AcDbDictionary
280
1
281
1
  3
ADSK_XREC_LAYER_RECONCILED
360
A4C
  0
DICTIONARY
  5
A4D
330
A3D
100
AcDbDictionary
280
1
281
1
  3
ADSK_XREC_LAYER_RECONCILED
360
A4E
  0
DICTIONARY
  5
A5E
330
45B
100
AcDbDictionary
280
1
281
1
  3
ACAD_XREC_ROUNDTRIP
360
A5F
  0
XRECORD
  5
A48
102
{ACAD_REACTORS
330
9D2
102
}
330
9D2
100
AcDbXrecord
280
1
300
ACDLT
300
2019
300
87085ACDLT_2019_0F
  0
DICTIONARY
  5
A28
102
{ACAD_REACTORS
330
9D2
102
}
330
9D2
100
AcDbDictionary
281
1
  0
DICTIONARY
  5
A2F
102
{ACAD_REACTORS
330
9D2
102
}
330
9D2
100
AcDbDictionary
281
1
  3
Imperial24
350
A30
  0
DICTIONARY
  5
9D3
102
{ACAD_REACTORS
330
9D2
102
}
330
9D2
100
AcDbDictionary
281
1
  0
DICTIONARY
  5
A27
102
{ACAD_REACTORS
330
9D2
102
}
330
9D2
100
AcDbDictionary
281
1
  3
Model
350
A38
  3
レイアウト1
350
A34
  0
DICTIONARY
  5
9D6
102
{ACAD_REACTORS
330
9D2
102
}
330
9D2
100
AcDbDictionary
281
1
  3
ByBlock
350
9DF
  3
ByLayer
350
9D7
  3
Global
350
9E7
  0
DICTIONARY
  5
A2B
102
{ACAD_REACTORS
330
9D2
102
}
330
9D2
100
AcDbDictionary
281
1
  3
Standard
350
A2C
  0
DICTIONARY
  5
A24
102
{ACAD_REACTORS
330
9D2
102
}
330
9D2
100
AcDbDictionary
281
1
  3
Standard
350
A25
  0
DICTIONARY
  5
A26
102
{ACAD_REACTORS
330
9D2
102
}
330
9D2
100
AcDbDictionary
281
1
  0
ACDBDICTIONARYWDFLT
  5
9D4
102
{ACAD_REACTORS
330
9D2
102
}
330
9D2
100
AcDbDictionary
281
1
  3
Normal
350
9D5
100
AcDbDictionaryWithDefault
340
9D5
  0
DICTIONARY
  5
A08
102
{ACAD_REACTORS
330
9D2
102
}
330
9D2
100
AcDbDictionary
281
1
  3
A0
350
A09
  3
A1
350
A0A
  3
A2
350
A0B
  3
A3
350
A0C
  3
A4
350
A0D
  3
A5
350
A0E
  3
A6
350
A0F
  3
A7
350
A10
  3
A8
350
A11
  3
A9
350
A12
  3
B0
350
A13
  3
B1
350
A14
  3
B2
350
A15
  3
B3
350
A16
  3
B4
350
A17
  3
B5
350
A18
  3
B6
350
A19
  0
DICTIONARY
  5
A2D
102
{ACAD_REACTORS
330
9D2
102
}
330
9D2
100
AcDbDictionary
281
1
  3
Imperial24
350
A2E
  0
DICTIONARY
  5
A29
102
{ACAD_REACTORS
330
9D2
102
}
330
9D2
100
AcDbDictionary
281
1
  3
Standard
350
A2A
  0
DICTIONARY
  5
9EF
102
{ACAD_REACTORS
330
9D2
102
}
330
9D2
100
AcDbDictionary
281
1
  3
2dWireframe
350
9F5
  3
Basic
350
9F4
  3
Brighten
350
9FB
  3
ColorChange
350
9FF
  3
Conceptual
350
9F8
  3
Dim
350
9FA
  3
EdgeColorOff
350
A07
  3
Facepattern
350
9FE
  3
Flat
350
9F0
  3
FlatWithEdges
350
9F1
  3
Gouraud
350
9F2
  3
GouraudWithEdges
350
9F3
  3
Hidden
350
9F7
  3
JitterOff
350
A05
  3
Linepattern
350
9FD
  3
OverhangOff
350
A06
  3
Realistic
350
9F9
  3
Shaded
350
A04
  3
Shaded with edges
350
A03
  3
Shades of Gray
350
A00
  3
Sketchy
350
A01
  3
Thicken
350
9FC
  3
Wireframe
350
9F6
  3
X-Ray
350
A02
  0
XRECORD
  5
A5C
102
{ACAD_REACTORS
330
9D2
102
}
330
9D2
100
AcDbXrecord
280
1
 90
1
330
A2A
  0
DICTIONARY
  5
A4F
102
{ACAD_REACTORS
330
9D2
102
}
330
9D2
100
AcDbDictionary
281
1
  3
CANNOSCALE
350
A54
  3
CMLEADERSTYLE
350
A51
  3
CTABLESTYLE
350
A50
  3
CVIEWDETAILSTYLE
350
A52
  3
CVIEWSECTIONSTYLE
350
A53
  3
DIMASSOC
350
A57
  3
INDEXCTL
350
A56
  3
SORTENTS
350
A55
  3
XCLIPFRAME
350
A58
  0
XRECORD
  5
A5D
102
{ACAD_REACTORS
330
9D2
102
}
330
9D2
100
AcDbXrecord
280
1
  1
DWGPROPS COOKIE
  2

  3

  4

  6

  7

  8
1992517
  9

300
=
301
=
302
=
303
=
304
=
305
=
306
=
307
=
308
=
309
=
 40
0.0010069560185185
 41
2459044.788842593
 42
2459045.376064815
  1

 90
0
  0
XRECORD
  5
A4A
102
{ACAD_REACTORS
330
A49
102
}
330
A49
100
AcDbXrecord
280
1
290
1
  0
XRECORD
  5
A4C
102
{ACAD_REACTORS
330
A4B
102
}
330
A4B
100
AcDbXrecord
280
1
290
1
  0
XRECORD
  5
A4E
102
{ACAD_REACTORS
330
A4D
102
}
330
A4D
100
AcDbXrecord
280
1
290
1
  0
XRECORD
  5
A5F
102
{ACAD_REACTORS
330
A5E
102
}
330
A5E
100
AcDbXrecord
280
1
102
SHADEPLOT
 70
0
  0
ACDBDETAILVIEWSTYLE
  5
A30
102
{ACAD_XDICTIONARY
360
A97
102
}
102
{ACAD_REACTORS
330
A2F
102
}
330
A2F
100
AcDbModelDocViewStyle
 70
0
  3
Imperial24
290
0
100
AcDbDetailViewStyle
 70
0
 71
0
 90
3
 71
1
340
A1B
 40
0.24
340
0
 40
0.24
300

 40
0.36
280
3
 71
2
340
A22
 90
25
 71
3
340
A1B
 40
0.24
 90
1
 40
0.75
 90
1
300
%<\AcVar ViewType \f "%tc1">% %<\AcVar ViewDetailId>%\PSCALE %<\AcVar ViewScale \f "%sn">%
 71
4
340
A22
 90
25
340
A22
 90
25
280
0
  0
LAYOUT
  5
A38
102
{ACAD_XDICTIONARY
360
A9B
102
}
102
{ACAD_REACTORS
330
A27
102
}
330
A27
100
AcDbPlotSettings
  1

  2
LBP8720
  4

  6

 40
0.0
 41
0.0
 42
0.0
 43
0.0
 44
0.0
 45
0.0
 46
0.0
 47
0.0
 48
0.0
 49
0.0
140
0.0
141
0.0
142
1.0
143
1.0
 70
1712
 72
0
 73
0
 74
0
  7

 75
0
 76
0
 77
2
 78
300
147
1.0
148
0.0
149
0.0
100
AcDbLayout
  1
Model
 70
1
 71
0
 10
0.0
 20
0.0
 11
12.0
 21
9.0
 12
0.0
 22
0.0
 32
0.0
 14
0.0
 24
0.0
 34
0.0
 15
0.0
 25
0.0
 35
0.0
146
0.0
 13
0.0
 23
0.0
 33
0.0
 16
1.0
 26
0.0
 36
0.0
 17
0.0
 27
1.0
 37
0.0
 76
0
330
A35
331
A3A
  0
LAYOUT
  5
A34
102
{ACAD_XDICTIONARY
360
A99
102
}
102
{ACAD_REACTORS
330
A27
102
}
330
A27
100
AcDbPlotSettings
  1

  2
LBP8720
  4

  6

 40
0.0
 41
0.0
 42
0.0
 43
0.0
 44
0.0
 45
0.0
 46
0.0
 47
0.0
 48
0.0
 49
0.0
140
0.0
141
0.0
142
1.0
143
1.0
 70
688
 72
0
 73
0
 74
5
  7

 75
16
 76
0
 77
2
 78
300
147
1.0
148
0.0
149
0.0
100
AcDbLayout
  1
レイアウト1
 70
1
 71
1
 10
-20.0
 20
-7.5
 11
277.0
 21
202.5
 12
0.0
 22
0.0
 32
0.0
 14
1e+20
 24
1e+20
 34
1e+20
 15
-1e+20
 25
-1e+20
 35
-1e+20
146
0.0
 13
0.0
 23
0.0
 33
0.0
 16
1.0
 26
0.0
 36
0.0
 17
0.0
 27
1.0
 37
0.0
 76
0
330
A31
331
45B
  0
MATERIAL
  5
9DF
102
{ACAD_XDICTIONARY
360
9E0
102
}
102
{ACAD_REACTORS
330
9D6
102
}
330
9D6
100
AcDbMaterial
  1
ByBlock
  2

 70
0
 40
1.0
 71
0
 41
1.0
 91
-1023410177
 42
1.0
 72
0
  3

 73
1
 74
1
 75
1
 43
0.0208333333333333
 43
0.0
 43
0.0
 43
0.0
 43
0.0
 43
0.0208333333333333
 43
0.0
 43
0.0
 43
0.0
 43
0.0
 43
1.0
 43
0.0
 43
0.0
 43
0.0
 43
0.0
 43
1.0
 44
0.5
 73
0
 45
1.0
 46
1.0
 77
0
  4

 78
1
 79
1
170
1
 47
0.0208333333333333
 47
0.0
 47
0.0
 47
0.0
 47
0.0
 47
0.0208333333333333
 47
0.0
 47
0.0
 47
0.0
 47
0.0
 47
1.0
 47
0.0
 47
0.0
 47
0.0
 47
0.0
 47
1.0
 48
1.0
171
0
  6

172
1
173
1
174
1
 49
0.0208333333333333
 49
0.0
 49
0.0
 49
0.0
 49
0.0
 49
0.0208333333333333
 49
0.0
 49
0.0
 49
0.0
 49
0.0
 49
1.0
 49
0.0
 49
0.0
 49
0.0
 49
0.0
 49
1.0
140
1.0
141
1.0
175
0
  7

176
1
177
1
178
1
142
0.0208333333333333
142
0.0
142
0.0
142
0.0
142
0.0
142
0.0208333333333333
142
0.0
142
0.0
142
0.0
142
0.0
142
1.0
142
0.0
142
0.0
142
0.0
142
0.0
142
1.0
143
1.0
179
0
  8

270
1
271
1
272
1
144
0.0208333333333333
144
0.0
144
0.0
144
0.0
144
0.0
144
0.0208333333333333
144
0.0
144
0.0
144
0.0
144
0.0
144
1.0
144
0.0
144
0.0
144
0.0
144
0.0
144
1.0
145
1.0
146
1.0
273
1
  9

274
1
275
1
276
1
147
0.0208333333333333
147
0.0
147
0.0
147
0.0
147
0.0
147
0.0208333333333333
147
0.0
147
0.0
147
0.0
147
0.0
147
1.0
147
0.0
147
0.0
147
0.0
147
0.0
147
1.0
 42
1.0
 72
1
  3

 73
1
 74
1
 75
1
 94
63
  0
MATERIAL
  5
9D7
102
{ACAD_XDICTIONARY
360
9D8
102
}
102
{ACAD_REACTORS
330
9D6
102
}
330
9D6
100
AcDbMaterial
  1
ByLayer
  2

 70
0
 40
1.0
 71
0
 41
1.0
 91
-1023410177
 42
1.0
 72
0
  3

 73
1
 74
1
 75
1
 43
0.0208333333333333
 43
0.0
 43
0.0
 43
0.0
 43
0.0
 43
0.0208333333333333
 43
0.0
 43
0.0
 43
0.0
 43
0.0
 43
1.0
 43
0.0
 43
0.0
 43
0.0
 43
0.0
 43
1.0
 44
0.5
 73
0
 45
1.0
 46
1.0
 77
0
  4

 78
1
 79
1
170
1
 47
0.0208333333333333
 47
0.0
 47
0.0
 47
0.0
 47
0.0
 47
0.0208333333333333
 47
0.0
 47
0.0
 47
0.0
 47
0.0
 47
1.0
 47
0.0
 47
0.0
 47
0.0
 47
0.0
 47
1.0
 48
1.0
171
0
  6

172
1
173
1
174
1
 49
0.0208333333333333
 49
0.0
 49
0.0
 49
0.0
 49
0.0
 49
0.0208333333333333
 49
0.0
 49
0.0
 49
0.0
 49
0.0
 49
1.0
 49
0.0
 49
0.0
 49
0.0
 49
0.0
 49
1.0
140
1.0
141
1.0
175
0
  7

176
1
177
1
178
1
142
0.0208333333333333
142
0.0
142
0.0
142
0.0
142
0.0
142
0.0208333333333333
142
0.0
142
0.0
142
0.0
142
0.0
142
1.0
142
0.0
142
0.0
142
0.0
142
0.0
142
1.0
143
1.0
179
0
  8

270
1
271
1
272
1
144
0.0208333333333333
144
0.0
144
0.0
144
0.0
144
0.0
144
0.0208333333333333
144
0.0
144
0.0
144
0.0
144
0.0
144
1.0
144
0.0
144
0.0
144
0.0
144
0.0
144
1.0
145
1.0
146
1.0
273
1
  9

274
1
275
1
276
1
147
0.0208333333333333
147
0.0
147
0.0
147
0.0
147
0.0
147
0.0208333333333333
147
0.0
147
0.0
147
0.0
147
0.0
147
1.0
147
0.0
147
0.0
147
0.0
147
0.0
147
1.0
 42
1.0
 72
1
  3

 73
1
 74
1
 75
1
 94
63
  0
MATERIAL
  5
9E7
102
{ACAD_XDICTIONARY
360
9E8
102
}
102
{ACAD_REACTORS
330
9D6
102
}
330
9D6
100
AcDbMaterial
  1
Global
  2

 70
0
 40
1.0
 71
0
 41
1.0
 91
-1023410177
 42
1.0
 72
0
  3

 73
1
 74
1
 75
1
 43
0.0208333333333333
 43
0.0
 43
0.0
 43
0.0
 43
0.0
 43
0.0208333333333333
 43
0.0
 43
0.0
 43
0.0
 43
0.0
 43
1.0
 43
0.0
 43
0.0
 43
0.0
 43
0.0
 43
1.0
 44
0.5
 73
0
 45
1.0
 46
1.0
 77
0
  4

 78
1
 79
1
170
1
 47
0.0208333333333333
 47
0.0
 47
0.0
 47
0.0
 47
0.0
 47
0.0208333333333333
 47
0.0
 47
0.0
 47
0.0
 47
0.0
 47
1.0
 47
0.0
 47
0.0
 47
0.0
 47
0.0
 47
1.0
 48
1.0
171
0
  6

172
1
173
1
174
1
 49
0.0208333333333333
 49
0.0
 49
0.0
 49
0.0
 49
0.0
 49
0.0208333333333333
 49
0.0
 49
0.0
 49
0.0
 49
0.0
 49
1.0
 49
0.0
 49
0.0
 49
0.0
 49
0.0
 49
1.0
140
1.0
141
1.0
175
0
  7

176
1
177
1
178
1
142
0.0208333333333333
142
0.0
142
0.0
142
0.0
142
0.0
142
0.0208333333333333
142
0.0
142
0.0
142
0.0
142
0.0
142
1.0
142
0.0
142
0.0
142
0.0
142
0.0
142
1.0
143
1.0
179
0
  8

270
1
271
1
272
1
144
0.0208333333333333
144
0.0
144
0.0
144
0.0
144
0.0
144
0.0208333333333333
144
0.0
144
0.0
144
0.0
144
0.0
144
1.0
144
0.0
144
0.0
144
0.0
144
0.0
144
1.0
145
1.0
146
1.0
273
1
  9

274
1
275
1
276
1
147
0.0208333333333333
147
0.0
147
0.0
147
0.0
147
0.0
147
0.0208333333333333
147
0.0
147
0.0
147
0.0
147
0.0
147
1.0
147
0.0
147
0.0
147
0.0
147
0.0
147
1.0
 42
1.0
 72
1
  3

 73
1
 74
1
 75
1
 94
63
  0
MLEADERSTYLE
  5
A2C
102
{ACAD_REACTORS
330
A2B
102
}
330
A2B
100
AcDbMLeaderStyle
179
2
170
2
171
1
172
0
 90
2
 40
0.0
 41
0.0
173
1
 91
-1056964608
340
A20
 92
-2
290
1
 42
0.09
291
1
 43
0.36
  3
Standard
 44
0.18
300

342
A1B
174
1
175
1
176
0
178
6
 93
-1056964608
 45
0.18
292
0
297
0
 46
0.18
293
1
 94
-1056964608
 47
1.0
 49
1.0
140
1.0
294
1
141
0.0
177
0
142
1.0
295
0
296
0
143
0.125
271
0
272
9
273
9
1001
ACAD_MLEADERVER
1070
2
  0
MLINESTYLE
  5
A25
102
{ACAD_REACTORS
330
A24
102
}
330
A24
100
AcDbMlineStyle
  2
STANDARD
 70
0
  3

 62
256
 51
90.0
 52
90.0
 71
2
 49
0.5
 62
256
  6
BYLAYER
 49
-0.5
 62
256
  6
BYLAYER
  0
ACDBPLACEHOLDER
  5
9D5
102
{ACAD_REACTORS
330
9D4
102
}
330
9D4
  0
SCALE
  5
A09
102
{ACAD_REACTORS
330
A08
102
}
330
A08
100
AcDbScale
 70
0
300
1:1
140
1.0
141
1.0
290
1
  0
SCALE
  5
A0A
102
{ACAD_REACTORS
330
A08
102
}
330
A08
100
AcDbScale
 70
0
300
1/128" = 1'-0"
140
0.0078125
141
12.0
290
0
  0
SCALE
  5
A0B
102
{ACAD_REACTORS
330
A08
102
}
330
A08
100
AcDbScale
 70
0
300
1/64" = 1'-0"
140
0.015625
141
12.0
290
0
  0
SCALE
  5
A0C
102
{ACAD_REACTORS
330
A08
102
}
330
A08
100
AcDbScale
 70
0
300
1/32" = 1'-0"
140
0.03125
141
12.0
290
0
  0
SCALE
  5
A0D
102
{ACAD_REACTORS
330
A08
102
}
330
A08
100
AcDbScale
 70
0
300
1/16" = 1'-0"
140
0.0625
141
12.0
290
0
  0
SCALE
  5
A0E
102
{ACAD_REACTORS
330
A08
102
}
330
A08
100
AcDbScale
 70
0
300
3/32" = 1'-0"
140
0.09375
141
12.0
290
0
  0
SCALE
  5
A0F
102
{ACAD_REACTORS
330
A08
102
}
330
A08
100
AcDbScale
 70
0
300
1/8" = 1'-0"
140
0.125
141
12.0
290
0
  0
SCALE
  5
A10
102
{ACAD_REACTORS
330
A08
102
}
330
A08
100
AcDbScale
 70
0
300
3/16" = 1'-0"
140
0.1875
141
12.0
290
0
  0
SCALE
  5
A11
102
{ACAD_REACTORS
330
A08
102
}
330
A08
100
AcDbScale
 70
0
300
1/4" = 1'-0"
140
0.25
141
12.0
290
0
  0
SCALE
  5
A12
102
{ACAD_REACTORS
330
A08
102
}
330
A08
100
AcDbScale
 70
0
300
3/8" = 1'-0"
140
0.375
141
12.0
290
0
  0
SCALE
  5
A13
102
{ACAD_REACTORS
330
A08
102
}
330
A08
100
AcDbScale
 70
0
300
1/2" = 1'-0"
140
0.5
141
12.0
290
0
  0
SCALE
  5
A14
102
{ACAD_REACTORS
330
A08
102
}
330
A08
100
AcDbScale
 70
0
300
3/4" = 1'-0"
140
0.75
141
12.0
290
0
  0
SCALE
  5
A15
102
{ACAD_REACTORS
330
A08
102
}
330
A08
100
AcDbScale
 70
0
300
1" = 1'-0"
140
1.0
141
12.0
290
0
  0
SCALE
  5
A16
102
{ACAD_REACTORS
330
A08
102
}
330
A08
100
AcDbScale
 70
0
300
1-1/2" = 1'-0"
140
1.5
141
12.0
290
0
  0
SCALE
  5
A17
102
{ACAD_REACTORS
330
A08
102
}
330
A08
100
AcDbScale
 70
0
300
3" = 1'-0"
140
3.0
141
12.0
290
0
  0
SCALE
  5
A18
102
{ACAD_REACTORS
330
A08
102
}
330
A08
100
AcDbScale
 70
0
300
6" = 1'-0"
140
6.0
141
12.0
290
0
  0
SCALE
  5
A19
102
{ACAD_REACTORS
330
A08
102
}
330
A08
100
AcDbScale
 70
0
300
1'-0" = 1'-0"
140
12.0
141
12.0
290
0
  0
ACDBSECTIONVIEWSTYLE
  5
A2E
102
{ACAD_XDICTIONARY
360
A95
102
}
102
{ACAD_REACTORS
330
A2D
102
}
330
A2D
100
AcDbModelDocViewStyle
 70
0
  3
Imperial24
290
0
100
AcDbSectionViewStyle
 70
0
 71
0
 90
78
 71
1
340
A1B
 40
0.24
340
0
340
0
 40
0.24
300
I, O, Q, S, X, Z
 40
0.48
 90
3
 40
0.18
 90
1
 71
2
340
A22
 90
25
340
A22
 90
50
 40
0.24
 40
0.0
 40
0.24
 71
3
340
A1B
 40
0.24
 90
1
 40
0.75
 90
1
300
%<\AcVar ViewType \f "%tc1">% %<\AcVar ViewSectionStartId>%-%<\AcVar ViewSectionEndId>%\PSCALE %<\AcVar ViewScale \f "%sn">%
 71
4
300
ANSI31
 40
1.0
 90
0
290
0
290
0
 90
6
 40
0.0
 40
1.570796326794896
 40
0.2617993877991494
 40
1.308996938995747
 40
-0.2617993877991494
 40
1.832595714594046
  0
TABLESTYLE
  5
A2A
102
{ACAD_XDICTIONARY
360
A5A
102
}
102
{ACAD_REACTORS
330
A29
102
}
330
A29
100
AcDbTableStyle
  3
Standard
 70
0
 71
0
 40
0.06
 41
0.06
280
0
281
0
  7
STANDARD
140
0.18
170
2
 62
0
 63
7
283
0
274
-2
284
1
 64
0
275
-2
285
1
 65
0
276
-2
286
1
 66
0
277
-2
287
1
 67
0
278
-2
288
1
 68
0
279
-2
289
1
 69
0
  7
STANDARD
140
0.25
170
5
 62
0
 63
7
283
0
274
-2
284
1
 64
0
275
-2
285
1
 65
0
276
-2
286
1
 66
0
277
-2
287
1
 67
0
278
-2
288
1
 68
0
279
-2
289
1
 69
0
  7
STANDARD
140
0.18
170
5
 62
0
 63
7
283
0
274
-2
284
1
 64
0
275
-2
285
1
 65
0
276
-2
286
1
 66
0
277
-2
287
1
 67
0
278
-2
288
1
 68
0
279
-2
289
1
 69
0
  0
VISUALSTYLE
  5
9F5
102
{ACAD_XDICTIONARY
360
A6D
102
}
102
{ACAD_REACTORS
330
9EF
102
}
330
9EF
100
AcDbVisualStyle
  2
2dWireframe
 70
4
 71
0
 72
2
 73
0
 90
0
 40
-0.6
 41
-30.0
 62
5
 63
7
 74
1
 91
4
 64
7
 65
257
 75
1
175
1
 42
1.0
 92
0
 66
257
 43
1.0
 76
1
 77
6
 78
2
 67
7
 79
5
170
0
171
0
290
0
174
0
 93
1
 44
0.0
173
0
291
0
 45
0.0
1001
ACAD
1000
AcDbSavedByObjectVersion
1070
0
  0
VISUALSTYLE
  5
9F4
102
{ACAD_XDICTIONARY
360
A6B
102
}
102
{ACAD_REACTORS
330
9EF
102
}
330
9EF
100
AcDbVisualStyle
  2
Basic
 70
7
 71
1
 72
0
 73
1
 90
0
 40
-0.6
 41
-30.0
 62
5
 63
7
 74
0
 91
4
 64
7
 65
257
 75
1
175
1
 42
1.0
 92
8
 66
7
 43
1.0
 76
1
 77
6
 78
2
 67
7
 79
5
170
0
171
0
290
0
174
0
 93
1
 44
0.0
173
0
291
1
 45
0.0
1001
ACAD
1000
AcDbSavedByObjectVersion
1070
0
  0
VISUALSTYLE
  5
9FB
102
{ACAD_XDICTIONARY
360
A79
102
}
102
{ACAD_REACTORS
330
9EF
102
}
330
9EF
100
AcDbVisualStyle
  2
Brighten
 70
12
 71
2
 72
2
 73
0
 90
0
 40
-0.6
 41
-30.0
 62
5
 63
7
 74
1
 91
4
 64
7
 65
257
 75
1
175
1
 42
1.0
 92
8
 66
7
 43
1.0
 76
1
 77
6
 78
2
 67
7
 79
5
170
0
171
0
290
0
174
0
 93
1
 44
50.0
173
0
291
1
 45
0.0
1001
ACAD
1000
AcDbSavedByObjectVersion
1070
0
  0
VISUALSTYLE
  5
9FF
102
{ACAD_XDICTIONARY
360
A81
102
}
102
{ACAD_REACTORS
330
9EF
102
}
330
9EF
100
AcDbVisualStyle
  2
ColorChange
 70
16
 71
2
 72
2
 73
3
 90
0
 40
-0.6
 41
-30.0
 62
5
 63
8
 74
1
 91
4
 64
7
 65
257
 75
1
175
1
 42
1.0
 92
8
 66
8
 43
1.0
 76
1
 77
6
 78
2
 67
7
 79
5
170
0
171
0
290
0
174
0
 93
1
 44
0.0
173
0
291
1
 45
0.0
1001
ACAD
1000
AcDbSavedByObjectVersion
1070
0
  0
VISUALSTYLE
  5
9F8
102
{ACAD_XDICTIONARY
360
A73
102
}
102
{ACAD_REACTORS
330
9EF
102
}
330
9EF
100
AcDbVisualStyle
  2
Conceptual
 70
9
 71
3
 72
2
 73
0
 90
0
 40
-0.6
 41
-30.0
 62
5
 63
7
 74
2
 91
2
 64
7
 65
257
 75
1
175
1
 42
179.0
 92
8
 66
7
 43
1.0
 76
1
 77
6
 78
2
 67
7
 79
3
170
0
171
0
290
0
174
0
 93
1
 44
0.0
173
0
291
0
 45
0.0
1001
ACAD
1000
AcDbSavedByObjectVersion
1070
0
  0
VISUALSTYLE
  5
9FA
102
{ACAD_XDICTIONARY
360
A77
102
}
102
{ACAD_REACTORS
330
9EF
102
}
330
9EF
100
AcDbVisualStyle
  2
Dim
 70
11
 71
2
 72
2
 73
0
 90
0
 40
-0.6
 41
-30.0
 62
5
 63
7
 74
1
 91
4
 64
7
 65
257
 75
1
175
1
 42
1.0
 92
8
 66
7
 43
1.0
 76
1
 77
6
 78
2
 67
7
 79
5
170
0
171
0
290
0
174
0
 93
1
 44
-50.0
173
0
291
1
 45
0.0
1001
ACAD
1000
AcDbSavedByObjectVersion
1070
0
  0
VISUALSTYLE
  5
A07
102
{ACAD_XDICTIONARY
360
A91
102
}
102
{ACAD_REACTORS
330
9EF
102
}
330
9EF
100
AcDbVisualStyle
  2
EdgeColorOff
 70
22
 71
2
 72
2
 73
0
 90
0
 40
-0.6
 41
-30.0
 62
5
 63
7
 74
1
 91
4
 64
7
 65
257
 75
1
175
1
 42
1.0
 92
8
 66
7
 43
1.0
 76
1
 77
6
 78
2
 67
7
 79
5
170
0
171
0
290
0
174
0
 93
1
 44
0.0
173
0
291
1
 45
0.0
1001
ACAD
1000
AcDbSavedByObjectVersion
1070
0
  0
VISUALSTYLE
  5
9FE
102
{ACAD_XDICTIONARY
360
A7F
102
}
102
{ACAD_REACTORS
330
9EF
102
}
330
9EF
100
AcDbVisualStyle
  2
Facepattern
 70
15
 71
2
 72
2
 73
0
 90
0
 40
-0.6
 41
-30.0
 62
5
 63
7
 74
1
 91
4
 64
7
 65
257
 75
1
175
1
 42
1.0
 92
8
 66
7
 43
1.0
 76
1
 77
6
 78
2
 67
7
 79
5
170
0
171
0
290
0
174
0
 93
1
 44
0.0
173
0
291
1
 45
0.0
1001
ACAD
1000
AcDbSavedByObjectVersion
1070
0
  0
VISUALSTYLE
  5
9F0
102
{ACAD_XDICTIONARY
360
A63
102
}
102
{ACAD_REACTORS
330
9EF
102
}
330
9EF
100
AcDbVisualStyle
  2
Flat
 70
0
 71
2
 72
1
 73
1
 90
2
 40
-0.6
 41
30.0
 62
5
 63
7
 74
0
 91
0
 64
7
 65
257
 75
1
175
1
 42
1.0
 92
8
 66
7
 43
1.0
 76
1
 77
6
 78
2
 67
7
 79
5
170
0
171
0
290
0
174
0
 93
13
 44
0.0
173
0
291
1
 45
0.0
1001
ACAD
1000
AcDbSavedByObjectVersion
1070
0
  0
VISUALSTYLE
  5
9F1
102
{ACAD_XDICTIONARY
360
A65
102
}
102
{ACAD_REACTORS
330
9EF
102
}
330
9EF
100
AcDbVisualStyle
  2
FlatWithEdges
 70
1
 71
2
 72
1
 73
1
 90
2
 40
-0.6
 41
30.0
 62
5
 63
7
 74
1
 91
0
 64
7
 65
257
 75
1
175
1
 42
1.0
 92
0
 66
257
 43
1.0
 76
1
 77
6
 78
2
 67
7
 79
5
170
0
171
0
290
0
174
0
 93
13
 44
0.0
173
0
291
1
 45
0.0
1001
ACAD
1000
AcDbSavedByObjectVersion
1070
0
  0
VISUALSTYLE
  5
9F2
102
{ACAD_XDICTIONARY
360
A67
102
}
102
{ACAD_REACTORS
330
9EF
102
}
330
9EF
100
AcDbVisualStyle
  2
Gouraud
 70
2
 71
2
 72
2
 73
1
 90
2
 40
-0.6
 41
30.0
 62
5
 63
7
 74
0
 91
0
 64
7
 65
257
 75
1
175
1
 42
1.0
 92
0
 66
7
 43
1.0
 76
1
 77
6
 78
2
 67
7
 79
5
170
0
171
0
290
0
174
0
 93
13
 44
0.0
173
0
291
1
 45
0.0
1001
ACAD
1000
AcDbSavedByObjectVersion
1070
0
  0
VISUALSTYLE
  5
9F3
102
{ACAD_XDICTIONARY
360
A69
102
}
102
{ACAD_REACTORS
330
9EF
102
}
330
9EF
100
AcDbVisualStyle
  2
GouraudWithEdges
 70
3
 71
2
 72
2
 73
1
 90
2
 40
-0.6
 41
30.0
 62
5
 63
7
 74
1
 91
0
 64
7
 65
257
 75
1
175
1
 42
1.0
 92
0
 66
257
 43
1.0
 76
1
 77
6
 78
2
 67
7
 79
5
170
0
171
0
290
0
174
0
 93
13
 44
0.0
173
0
291
1
 45
0.0
1001
ACAD
1000
AcDbSavedByObjectVersion
1070
0
  0
VISUALSTYLE
  5
9F7
102
{ACAD_XDICTIONARY
360
A71
102
}
102
{ACAD_REACTORS
330
9EF
102
}
330
9EF
100
AcDbVisualStyle
  2
Hidden
 70
6
 71
1
 72
2
 73
2
 90
0
 40
-0.6
 41
-30.0
 62
5
 63
7
 74
2
 91
2
 64
7
 65
257
 75
2
175
1
 42
40.0
 92
0
 66
257
 43
1.0
 76
1
 77
6
 78
2
 67
7
 79
3
170
0
171
0
290
0
174
0
 93
1
 44
0.0
173
0
291
0
 45
0.0
1001
ACAD
1000
AcDbSavedByObjectVersion
1070
0
  0
VISUALSTYLE
  5
A05
102
{ACAD_XDICTIONARY
360
A8D
102
}
102
{ACAD_REACTORS
330
9EF
102
}
330
9EF
100
AcDbVisualStyle
  2
JitterOff
 70
20
 71
2
 72
2
 73
0
 90
0
 40
-0.6
 41
-30.0
 62
5
 63
7
 74
1
 91
4
 64
7
 65
257
 75
1
175
1
 42
1.0
 92
10
 66
7
 43
1.0
 76
1
 77
6
 78
2
 67
7
 79
5
170
0
171
0
290
0
174
0
 93
1
 44
0.0
173
0
291
1
 45
0.0
1001
ACAD
1000
AcDbSavedByObjectVersion
1070
0
  0
VISUALSTYLE
  5
9FD
102
{ACAD_XDICTIONARY
360
A7D
102
}
102
{ACAD_REACTORS
330
9EF
102
}
330
9EF
100
AcDbVisualStyle
  2
Linepattern
 70
14
 71
2
 72
2
 73
0
 90
0
 40
-0.6
 41
-30.0
 62
5
 63
7
 74
1
 91
4
 64
7
 65
257
 75
7
175
7
 42
1.0
 92
8
 66
7
 43
1.0
 76
1
 77
6
 78
2
 67
7
 79
5
170
0
171
0
290
0
174
0
 93
1
 44
0.0
173
0
291
1
 45
0.0
1001
ACAD
1000
AcDbSavedByObjectVersion
1070
0
  0
VISUALSTYLE
  5
A06
102
{ACAD_XDICTIONARY
360
A8F
102
}
102
{ACAD_REACTORS
330
9EF
102
}
330
9EF
100
AcDbVisualStyle
  2
OverhangOff
 70
21
 71
2
 72
2
 73
0
 90
0
 40
-0.6
 41
-30.0
 62
5
 63
7
 74
1
 91
4
 64
7
 65
257
 75
1
175
1
 42
1.0
 92
9
 66
7
 43
1.0
 76
1
 77
6
 78
2
 67
7
 79
5
170
0
171
0
290
0
174
0
 93
1
 44
0.0
173
0
291
1
 45
0.0
1001
ACAD
1000
AcDbSavedByObjectVersion
1070
0
  0
VISUALSTYLE
  5
9F9
102
{ACAD_XDICTIONARY
360
A75
102
}
102
{ACAD_REACTORS
330
9EF
102
}
330
9EF
100
AcDbVisualStyle
  2
Realistic
 70
8
 71
2
 72
3
 73
0
 90
2
 40
-0.6
 41
30.0
 62
5
 63
7
 74
0
 91
0
 64
7
 65
257
 75
1
175
1
 42
1.0
 92
8
 66
257
 43
1.0
 76
1
 77
6
 78
2
 67
7
 79
3
170
0
171
0
290
0
174
0
 93
13
 44
0.0
173
0
291
0
 45
0.0
1001
ACAD
1000
AcDbSavedByObjectVersion
1070
0
  0
VISUALSTYLE
  5
A04
102
{ACAD_XDICTIONARY
360
A8B
102
}
102
{ACAD_REACTORS
330
9EF
102
}
330
9EF
100
AcDbVisualStyle
  2
Shaded
 70
27
 71
2
 72
2
 73
1
 90
2
 40
-0.6
 41
30.0
 62
5
 63
7
 74
0
 91
4
 64
7
 65
257
 75
1
175
1
 42
1.0
 92
8
 66
257
 43
1.0
 76
1
 77
6
 78
2
 67
8
 79
3
170
0
171
0
290
0
174
0
 93
5
 44
0.0
173
0
291
0
 45
0.0
1001
ACAD
1000
AcDbSavedByObjectVersion
1070
0
  0
VISUALSTYLE
  5
A03
102
{ACAD_XDICTIONARY
360
A89
102
}
102
{ACAD_REACTORS
330
9EF
102
}
330
9EF
100
AcDbVisualStyle
  2
Shaded with edges
 70
26
 71
2
 72
2
 73
1
 90
2
 40
-0.6
 41
30.0
 62
5
 63
7
 74
1
 91
2
 64
7
 65
257
 75
2
175
1
 42
1.0
 92
8
 66
257
 43
1.0
 76
1
 77
6
 78
2
 67
7
 79
3
170
0
171
0
290
0
174
0
 93
5
 44
0.0
173
0
291
0
 45
0.0
1001
ACAD
1000
AcDbSavedByObjectVersion
1070
0
  0
VISUALSTYLE
  5
A00
102
{ACAD_XDICTIONARY
360
A83
102
}
102
{ACAD_REACTORS
330
9EF
102
}
330
9EF
100
AcDbVisualStyle
  2
Shades of Gray
 70
23
 71
2
 72
2
 73
3
 90
0
 40
-0.6
 41
-30.0
 62
5
 63
7
 74
2
 91
2
 64
7
 65
7
 75
1
175
1
 42
40.0
 92
8
 66
7
 43
1.0
 76
1
 77
6
 78
2
 67
7
 79
3
170
0
171
0
290
0
174
0
 93
1
 44
0.0
173
0
291
0
 45
0.0
1001
ACAD
1000
AcDbSavedByObjectVersion
1070
0
  0
VISUALSTYLE
  5
A01
102
{ACAD_XDICTIONARY
360
A85
102
}
102
{ACAD_REACTORS
330
9EF
102
}
330
9EF
100
AcDbVisualStyle
  2
Sketchy
 70
24
 71
1
 72
2
 73
2
 90
0
 40
-0.6
 41
-30.0
 62
5
 63
7
 74
2
 91
2
 64
7
 65
7
 75
1
175
1
 42
40.0
 92
11
 66
7
 43
1.0
 76
1
 77
6
 78
2
 67
7
 79
6
170
0
171
0
290
0
174
0
 93
1
 44
0.0
173
0
291
0
 45
0.0
1001
ACAD
1000
AcDbSavedByObjectVersion
1070
0
  0
VISUALSTYLE
  5
9FC
102
{ACAD_XDICTIONARY
360
A7B
102
}
102
{ACAD_REACTORS
330
9EF
102
}
330
9EF
100
AcDbVisualStyle
  2
Thicken
 70
13
 71
2
 72
2
 73
0
 90
0
 40
-0.6
 41
-30.0
 62
5
 63
7
 74
1
 91
4
 64
7
 65
257
 75
1
175
1
 42
1.0
 92
12
 66
7
 43
1.0
 76
1
 77
6
 78
2
 67
7
 79
5
170
0
171
0
290
0
174
0
 93
1
 44
0.0
173
0
291
1
 45
0.0
1001
ACAD
1000
AcDbSavedByObjectVersion
1070
0
  0
VISUALSTYLE
  5
9F6
102
{ACAD_XDICTIONARY
360
A6F
102
}
102
{ACAD_REACTORS
330
9EF
102
}
330
9EF
100
AcDbVisualStyle
  2
Wireframe
 70
5
 71
0
 72
2
 73
0
 90
0
 40
-0.6
 41
-30.0
 62
5
 63
7
 74
1
 91
4
 64
7
 65
257
 75
1
175
1
 42
1.0
 92
0
 66
257
 43
1.0
 76
1
 77
6
 78
2
 67
7
 79
3
170
0
171
0
290
0
174
0
 93
1
 44
0.0
173
0
291
0
 45
0.0
1001
ACAD
1000
AcDbSavedByObjectVersion
1070
0
  0
VISUALSTYLE
  5
A02
102
{ACAD_XDICTIONARY
360
A87
102
}
102
{ACAD_REACTORS
330
9EF
102
}
330
9EF
100
AcDbVisualStyle
  2
X-Ray
 70
25
 71
2
 72
2
 73
1
 90
1
 40
0.5
 41
-30.0
 62
5
 63
7
 74
1
 91
0
 64
7
 65
257
 75
1
175
1
 42
1.0
 92
8
 66
7
 43
1.0
 76
1
 77
6
 78
2
 67
7
 79
3
170
0
171
0
290
0
174
0
 93
13
 44
0.0
173
0
291
0
 45
0.0
1001
ACAD
1000
AcDbSavedByObjectVersion
1070
0
  0
DICTIONARYVAR
  5
A54
102
{ACAD_REACTORS
330
A4F
102
}
330
A4F
100
DictionaryVariables
280
0
  1
1:1
  0
DICTIONARYVAR
  5
A51
102
{ACAD_REACTORS
330
A4F
102
}
330
A4F
100
DictionaryVariables
280
0
  1
STANDARD
  0
DICTIONARYVAR
  5
A50
102
{ACAD_REACTORS
330
A4F
102
}
330
A4F
100
DictionaryVariables
280
0
  1
STANDARD
  0
DICTIONARYVAR
  5
A52
102
{ACAD_REACTORS
330
A4F
102
}
330
A4F
100
DictionaryVariables
280
0
  1
Imperial24
  0
DICTIONARYVAR
  5
A53
102
{ACAD_REACTORS
330
A4F
102
}
330
A4F
100
DictionaryVariables
280
0
  1
Imperial24
  0
DICTIONARYVAR
  5
A57
102
{ACAD_REACTORS
330
A4F
102
}
330
A4F
100
DictionaryVariables
280
0
  1
1
  0
DICTIONARYVAR
  5
A56
102
{ACAD_REACTORS
330
A4F
102
}
330
A4F
100
DictionaryVariables
280
0
  1
0
  0
DICTIONARYVAR
  5
A55
102
{ACAD_REACTORS
330
A4F
102
}
330
A4F
100
DictionaryVariables
280
0
  1
127
  0
DICTIONARYVAR
  5
A58
102
{ACAD_REACTORS
330
A4F
102
}
330
A4F
100
DictionaryVariables
280
0
  1
2
  0
DICTIONARY
  5
A97
330
A30
100
AcDbDictionary
280
1
281
1
  3
ACAD_XREC_ROUNDTRIP
360
A98
  0
DICTIONARY
  5
A9B
330
A38
100
AcDbDictionary
280
1
281
1
  3
ACAD_XREC_ROUNDTRIP
360
A9C
  0
DICTIONARY
  5
A99
330
A34
100
AcDbDictionary
280
1
281
1
  3
ACAD_XREC_ROUNDTRIP
360
A9A
  0
DICTIONARY
  5
9E0
330
9DF
100
AcDbDictionary
280
1
281
1
  3
ACAD_XREC_ROUNDTRIP
360
A61
  3
BUMPTILE
360
9E2
  3
DIFFUSETILE
360
9E1
  3
OPACITYTILE
360
9E5
  3
REFLECTIONTILE
360
9E4
  3
REFRACTIONTILE
360
9E6
  3
SPECULARTILE
360
9E3
  0
DICTIONARY
  5
9D8
330
9D7
100
AcDbDictionary
280
1
281
1
  3
ACAD_XREC_ROUNDTRIP
360
A60
  3
BUMPTILE
360
9DA
  3
DIFFUSETILE
360
9D9
  3
OPACITYTILE
360
9DD
  3
REFLECTIONTILE
360
9DC
  3
REFRACTIONTILE
360
9DE
  3
SPECULARTILE
360
9DB
  0
DICTIONARY
  5
9E8
330
9E7
100
AcDbDictionary
280
1
281
1
  3
ACAD_XREC_ROUNDTRIP
360
A62
  3
BUMPTILE
360
9EA
  3
DIFFUSETILE
360
9E9
  3
OPACITYTILE
360
9ED
  3
REFLECTIONTILE
360
9EC
  3
REFRACTIONTILE
360
9EE
  3
SPECULARTILE
360
9EB
  0
DICTIONARY
  5
A95
330
A2E
100
AcDbDictionary
280
1
281
1
  3
ACAD_XREC_ROUNDTRIP
360
A96
  0
DICTIONARY
  5
A5A
330
A2A
100
AcDbDictionary
280
1
281
1
  3
ACAD_ROUNDTRIP_2008_TABLESTYLE_CELLSTYLEMAP
360
A5B
  3
ACAD_XREC_ROUNDTRIP
360
A93
  0
DICTIONARY
  5
A6D
330
9F5
100
AcDbDictionary
280
1
281
1
  3
ACAD_XREC_ROUNDTRIP
360
A6E
  0
DICTIONARY
  5
A6B
330
9F4
100
AcDbDictionary
280
1
281
1
  3
ACAD_XREC_ROUNDTRIP
360
A6C
  0
DICTIONARY
  5
A79
330
9FB
100
AcDbDictionary
280
1
281
1
  3
ACAD_XREC_ROUNDTRIP
360
A7A
  0
DICTIONARY
  5
A81
330
9FF
100
AcDbDictionary
280
1
281
1
  3
ACAD_XREC_ROUNDTRIP
360
A82
  0
DICTIONARY
  5
A73
330
9F8
100
AcDbDictionary
280
1
281
1
  3
ACAD_XREC_ROUNDTRIP
360
A74
  0
DICTIONARY
  5
A77
330
9FA
100
AcDbDictionary
280
1
281
1
  3
ACAD_XREC_ROUNDTRIP
360
A78
  0
DICTIONARY
  5
A91
330
A07
100
AcDbDictionary
280
1
281
1
  3
ACAD_XREC_ROUNDTRIP
360
A92
  0
DICTIONARY
  5
A7F
330
9FE
100
AcDbDictionary
280
1
281
1
  3
ACAD_XREC_ROUNDTRIP
360
A80
  0
DICTIONARY
  5
A63
330
9F0
100
AcDbDictionary
280
1
281
1
  3
ACAD_XREC_ROUNDTRIP
360
A64
  0
DICTIONARY
  5
A65
330
9F1
100
AcDbDictionary
280
1
281
1
  3
ACAD_XREC_ROUNDTRIP
360
A66
  0
DICTIONARY
  5
A67
330
9F2
100
AcDbDictionary
280
1
281
1
  3
ACAD_XREC_ROUNDTRIP
360
A68
  0
DICTIONARY
  5
A69
330
9F3
100
AcDbDictionary
280
1
281
1
  3
ACAD_XREC_ROUNDTRIP
360
A6A
  0
DICTIONARY
  5
A71
330
9F7
100
AcDbDictionary
280
1
281
1
  3
ACAD_XREC_ROUNDTRIP
360
A72
  0
DICTIONARY
  5
A8D
330
A05
100
AcDbDictionary
280
1
281
1
  3
ACAD_XREC_ROUNDTRIP
360
A8E
  0
DICTIONARY
  5
A7D
330
9FD
100
AcDbDictionary
280
1
281
1
  3
ACAD_XREC_ROUNDTRIP
360
A7E
  0
DICTIONARY
  5
A8F
330
A06
100
AcDbDictionary
280
1
281
1
  3
ACAD_XREC_ROUNDTRIP
360
A90
  0
DICTIONARY
  5
A75
330
9F9
100
AcDbDictionary
280
1
281
1
  3
ACAD_XREC_ROUNDTRIP
360
A76
  0
DICTIONARY
  5
A8B
330
A04
100
AcDbDictionary
280
1
281
1
  3
ACAD_XREC_ROUNDTRIP
360
A8C
  0
DICTIONARY
  5
A89
330
A03
100
AcDbDictionary
280
1
281
1
  3
ACAD_XREC_ROUNDTRIP
360
A8A
  0
DICTIONARY
  5
A83
330
A00
100
AcDbDictionary
280
1
281
1
  3
ACAD_XREC_ROUNDTRIP
360
A84
  0
DICTIONARY
  5
A85
330
A01
100
AcDbDictionary
280
1
281
1
  3
ACAD_XREC_ROUNDTRIP
360
A86
  0
DICTIONARY
  5
A7B
330
9FC
100
AcDbDictionary
280
1
281
1
  3
ACAD_XREC_ROUNDTRIP
360
A7C
  0
DICTIONARY
  5
A6F
330
9F6
100
AcDbDictionary
280
1
281
1
  3
ACAD_XREC_ROUNDTRIP
360
A70
  0
DICTIONARY
  5
A87
330
A02
100
AcDbDictionary
280
1
281
1
  3
ACAD_XREC_ROUNDTRIP
360
A88
  0
XRECORD
  5
A98
102
{ACAD_REACTORS
330
A97
102
}
330
A97
100
AcDbXrecord
280
1
102
DISPLAYNAME
  1
Imperial24
102
FLAGS
 90
0
  0
XRECORD
  5
A9C
102
{ACAD_REACTORS
330
A9B
102
}
330
A9B
100
AcDbXrecord
280
1
102
SHADEPLOT
 70
0
102
SHADEPLOTRESLEVEL
 70
2
102
SHADEPLOTCUSTOMDPI
 70
300
  0
XRECORD
  5
A9A
102
{ACAD_REACTORS
330
A99
102
}
330
A99
100
AcDbXrecord
280
1
102
SHADEPLOT
 70
0
102
SHADEPLOTRESLEVEL
 70
2
102
SHADEPLOTCUSTOMDPI
 70
300
  0
XRECORD
  5
A61
102
{ACAD_REACTORS
330
9E0
102
}
330
9E0
100
AcDbXrecord
280
1
102
MATERIAL
148
0.0
149
0.0
149
0.0
 93
0
 94
127
282
0
 72
0
 77
0
171
0
175
0
179
0
273
0
  0
XRECORD
  5
9E2
102
{ACAD_REACTORS
330
9E0
102
}
330
9E0
100
AcDbXrecord
280
1
270
1
271
1
  0
XRECORD
  5
9E1
102
{ACAD_REACTORS
330
9E0
102
}
330
9E0
100
AcDbXrecord
280
1
270
1
271
1
  0
XRECORD
  5
9E5
102
{ACAD_REACTORS
330
9E0
102
}
330
9E0
100
AcDbXrecord
280
1
270
1
271
1
  0
XRECORD
  5
9E4
102
{ACAD_REACTORS
330
9E0
102
}
330
9E0
100
AcDbXrecord
280
1
270
1
271
1
  0
XRECORD
  5
9E6
102
{ACAD_REACTORS
330
9E0
102
}
330
9E0
100
AcDbXrecord
280
1
270
1
271
1
  0
XRECORD
  5
9E3
102
{ACAD_REACTORS
330
9E0
102
}
330
9E0
100
AcDbXrecord
280
1
270
1
271
1
  0
XRECORD
  5
A60
102
{ACAD_REACTORS
330
9D8
102
}
330
9D8
100
AcDbXrecord
280
1
102
MATERIAL
148
0.0
149
0.0
149
0.0
 93
0
 94
127
282
0
 72
0
 77
0
171
0
175
0
179
0
273
0
  0
XRECORD
  5
9DA
102
{ACAD_REACTORS
330
9D8
102
}
330
9D8
100
AcDbXrecord
280
1
270
1
271
1
  0
XRECORD
  5
9D9
102
{ACAD_REACTORS
330
9D8
102
}
330
9D8
100
AcDbXrecord
280
1
270
1
271
1
  0
XRECORD
  5
9DD
102
{ACAD_REACTORS
330
9D8
102
}
330
9D8
100
AcDbXrecord
280
1
270
1
271
1
  0
XRECORD
  5
9DC
102
{ACAD_REACTORS
330
9D8
102
}
330
9D8
100
AcDbXrecord
280
1
270
1
271
1
  0
XRECORD
  5
9DE
102
{ACAD_REACTORS
330
9D8
102
}
330
9D8
100
AcDbXrecord
280
1
270
1
271
1
  0
XRECORD
  5
9DB
102
{ACAD_REACTORS
330
9D8
102
}
330
9D8
100
AcDbXrecord
280
1
270
1
271
1
  0
XRECORD
  5
A62
102
{ACAD_REACTORS
330
9E8
102
}
330
9E8
100
AcDbXrecord
280
1
102
MATERIAL
148
0.0
149
0.0
149
0.0
 93
0
 94
127
282
0
 72
0
 77
0
171
0
175
0
179
0
273
0
  0
XRECORD
  5
9EA
102
{ACAD_REACTORS
330
9E8
102
}
330
9E8
100
AcDbXrecord
280
1
270
1
271
1
  0
XRECORD
  5
9E9
102
{ACAD_REACTORS
330
9E8
102
}
330
9E8
100
AcDbXrecord
280
1
270
1
271
1
  0
XRECORD
  5
9ED
102
{ACAD_REACTORS
330
9E8
102
}
330
9E8
100
AcDbXrecord
280
1
270
1
271
1
  0
XRECORD
  5
9EC
102
{ACAD_REACTORS
330
9E8
102
}
330
9E8
100
AcDbXrecord
280
1
270
1
271
1
  0
XRECORD
  5
9EE
102
{ACAD_REACTORS
330
9E8
102
}
330
9E8
100
AcDbXrecord
280
1
270
1
271
1
  0
XRECORD
  5
9EB
102
{ACAD_REACTORS
330
9E8
102
}
330
9E8
100
AcDbXrecord
280
1
270
1
271
1
  0
XRECORD
  5
A96
102
{ACAD_REACTORS
330
A95
102
}
330
A95
100
AcDbXrecord
280
1
102
DISPLAYNAME
  1
Imperial24
102
FLAGS
 90
0
  0
CELLSTYLEMAP
  5
A5B
102
{ACAD_REACTORS
330
A5A
102
}
330
A5A
100
AcDbCellStyleMap
 90
3
300
CELLSTYLE
  1
TABLEFORMAT_BEGIN
 90
5
170
1
 91
0
 92
32768
 62
257
 93
1
300
CONTENTFORMAT
  1
CONTENTFORMAT_BEGIN
 90
0
 91
0
 92
512
 93
0
300

 40
0.0
140
1.0
 94
5
 62
0
340
A1B
144
0.25
309
CONTENTFORMAT_END
171
0
 94
0
309
TABLEFORMAT_END
  1
CELLSTYLE_BEGIN
 90
1
 91
1
300
_TITLE
309
CELLSTYLE_END
300
CELLSTYLE
  1
TABLEFORMAT_BEGIN
 90
5
170
1
 91
0
 92
0
 62
257
 93
1
300
CONTENTFORMAT
  1
CONTENTFORMAT_BEGIN
 90
0
 91
0
 92
512
 93
0
300

 40
0.0
140
1.0
 94
5
 62
0
340
A1B
144
0.18
309
CONTENTFORMAT_END
171
0
 94
0
309
TABLEFORMAT_END
  1
CELLSTYLE_BEGIN
 90
2
 91
1
300
_HEADER
309
CELLSTYLE_END
300
CELLSTYLE
  1
TABLEFORMAT_BEGIN
 90
5
170
1
 91
0
 92
0
 62
257
 93
1
300
CONTENTFORMAT
  1
CONTENTFORMAT_BEGIN
 90
0
 91
0
 92
512
 93
0
300

 40
0.0
140
1.0
 94
2
 62
0
340
A1B
144
0.18
309
CONTENTFORMAT_END
171
0
 94
0
309
TABLEFORMAT_END
  1
CELLSTYLE_BEGIN
 90
3
 91
2
300
_DATA
309
CELLSTYLE_END
  0
XRECORD
  5
A93
102
{ACAD_REACTORS
330
A5A
102
}
330
A5A
100
AcDbXrecord
280
1
102
ACAD_ROUNDTRIP_PRE2007_TABLESTYLE
 90
512
 91
0
  1

 92
512
 93
0
  2

 94
512
 95
0
  3

  0
XRECORD
  5
A6E
102
{ACAD_REACTORS
330
A6D
102
}
330
A6D
100
AcDbXrecord
280
1
102
RTVSPost2010Prop28
280
1
102
RTVSPost2010PropOp28
 70
1
102
RTVSPost2010Prop29
280
1
102
RTVSPost2010PropOp29
 70
1
102
RTVSPost2010Prop30
280
0
102
RTVSPost2010PropOp30
 70
1
102
RTVSPost2010Prop31
280
0
102
RTVSPost2010PropOp31
 70
1
102
RTVSPost2010Prop32
280
0
102
RTVSPost2010PropOp32
 70
1
102
RTVSPost2010Prop33
280
0
102
RTVSPost2010PropOp33
 70
1
102
RTVSPost2010Prop34
280
0
102
RTVSPost2010PropOp34
 70
1
102
RTVSPost2010Prop35
280
0
102
RTVSPost2010PropOp35
 70
1
102
RTVSPost2010Prop36
280
0
102
RTVSPost2010PropOp36
 70
1
102
RTVSPost2010Prop37
 90
50
102
RTVSPost2010PropOp37
 70
1
102
RTVSPost2010Prop38
140
0.0
102
RTVSPost2010PropOp38
 70
1
102
RTVSPost2010Prop39
140
1.0
102
RTVSPost2010PropOp39
 70
1
102
RTVSPost2010Prop40
 90
0
102
RTVSPost2010PropOp40
 70
1
102
RTVSPost2010Prop41ColorIndex
 90
18
102
RTVSPost2010Prop41ColorRGB
 90
0
102
RTVSPost2010PropOp41
 70
1
102
RTVSPost2010Prop42
 90
50
102
RTVSPost2010PropOp42
 70
1
102
RTVSPost2010Prop43
 90
3
102
RTVSPost2010PropOp43
 70
1
102
RTVSPost2010Prop44ColorIndex
 90
5
102
RTVSPost2010Prop44ColorRGB
 90
255
102
RTVSPost2010PropOp44
 70
1
102
RTVSPost2010Prop45
280
0
102
RTVSPost2010PropOp45
 70
1
102
RTVSPost2010Prop46
 90
50
102
RTVSPost2010PropOp46
 70
1
102
RTVSPost2010Prop47
 90
50
102
RTVSPost2010PropOp47
 70
1
102
RTVSPost2010Prop48
 90
50
102
RTVSPost2010PropOp48
 70
1
102
RTVSPost2010Prop49
280
0
102
RTVSPost2010PropOp49
 70
1
102
RTVSPost2010Prop50
 90
50
102
RTVSPost2010PropOp50
 70
1
102
RTVSPost2010Prop51ColorIndex
 90
256
102
RTVSPost2010Prop51ColorRGB
 90
-16777216
102
RTVSPost2010PropOp51
 70
0
102
RTVSPost2010Prop52
140
1.0
102
RTVSPost2010PropOp52
 70
0
102
RTVSPost2010Prop53
 90
2
102
RTVSPost2010PropOp53
 70
1
102
RTVSPost2010Prop54
  1
strokes_ogs.tif
102
RTVSPost2010PropOp54
 70
1
102
RTVSPost2010Prop55
280
0
102
RTVSPost2010PropOp55
 70
1
102
RTVSPost2010Prop56
140
1.0
102
RTVSPost2010PropOp56
 70
1
102
RTVSPost2010Prop57
140
1.0
102
RTVSPost2010PropOp57
 70
1
102
RTVSPropertyOp0
 70
1
102
RTVSPropertyOp1
 70
1
102
RTVSPropertyOp2
 70
1
102
RTVSPropertyOp3
 70
1
102
RTVSPropertyOp4
 70
1
102
RTVSPropertyOp5
 70
1
102
RTVSPropertyOp6
 70
1
102
RTVSPropertyOp7
 70
1
102
RTVSPropertyOp8
 70
1
102
RTVSPropertyOp9
 70
1
102
RTVSPropertyOp10
 70
1
102
RTVSPropertyOp11
 70
1
102
RTVSPropertyOp12
 70
1
102
RTVSPropertyOp13
 70
1
102
RTVSPropertyOp14
 70
1
102
RTVSPropertyOp15
 70
1
102
RTVSPropertyOp16
 70
1
102
RTVSPropertyOp17
 70
1
102
RTVSPropertyOp18
 70
1
102
RTVSPropertyOp19
 70
1
102
RTVSPropertyOp20
 70
1
102
RTVSPropertyOp21
 70
1
102
RTVSPropertyOp22
 70
1
102
RTVSPropertyOp23
 70
1
102
RTVSPropertyOp24
 70
1
102
RTVSPropertyOp25
 70
1
102
RTVSPropertyOp26
 70
1
102
RTVSPropertyOp27
 70
1
102
RTVSPropertyOp28
 70
1
102
RTVSPropertyOp29
 70
1
102
RTVSPropertyOp30
 70
1
102
RTVSPropertyOp31
 70
1
102
RTVSPropertyOp32
 70
1
102
RTVSPropertyOp33
 70
1
102
RTVSPropertyOp34
 70
1
102
RTVSPropertyOp35
 70
1
102
RTVSPropertyOp36
 70
1
102
RTVSPropertyOp37
 70
1
102
RTVSPropertyOp38
 70
1
102
RTVSPropertyOp39
 70
1
102
RTVSPropertyOp40
 70
1
102
RTVSPropertyOp41
 70
1
102
RTVSPropertyOp42
 70
1
102
RTVSPropertyOp43
 70
1
102
RTVSPropertyOp44
 70
1
102
RTVSPropertyOp45
 70
1
102
RTVSPropertyOp46
 70
1
102
RTVSPropertyOp47
 70
1
102
RTVSPropertyOp48
 70
1
102
RTVSPropertyOp49
 70
1
102
RTVSPropertyOp50
 70
1
102
RTVSPropertyOp51
 70
0
102
RTVSPropertyOp52
 70
0
102
RTVSPropertyOp53
 70
1
102
RTVSPropertyOp54
 70
1
102
RTVSPropertyOp55
 70
1
102
RTVSPropertyOp56
 70
1
102
RTVSPropertyOp57
 70
1
102
RTVSPropertyOp58
 70
1
102
RTVSPropertyOp59
 70
1
102
RTVSPropertyOp60
 70
1
102
RTVSPropertyOp61
 70
1
102
RTVSPropertyOp62
 70
1
  0
XRECORD
  5
A6C
102
{ACAD_REACTORS
330
A6B
102
}
330
A6B
100
AcDbXrecord
280
1
102
RTVSPost2010Prop28
280
0
102
RTVSPost2010PropOp28
 70
1
102
RTVSPost2010Prop29
280
1
102
RTVSPost2010PropOp29
 70
1
102
RTVSPost2010Prop30
280
1
102
RTVSPost2010PropOp30
 70
1
102
RTVSPost2010Prop31
280
0
102
RTVSPost2010PropOp31
 70
1
102
RTVSPost2010Prop32
280
0
102
RTVSPost2010PropOp32
 70
1
102
RTVSPost2010Prop33
280
0
102
RTVSPost2010PropOp33
 70
1
102
RTVSPost2010Prop34
280
0
102
RTVSPost2010PropOp34
 70
1
102
RTVSPost2010Prop35
280
0
102
RTVSPost2010PropOp35
 70
1
102
RTVSPost2010Prop36
280
0
102
RTVSPost2010PropOp36
 70
1
102
RTVSPost2010Prop37
 90
50
102
RTVSPost2010PropOp37
 70
1
102
RTVSPost2010Prop38
140
0.0
102
RTVSPost2010PropOp38
 70
1
102
RTVSPost2010Prop39
140
1.0
102
RTVSPost2010PropOp39
 70
1
102
RTVSPost2010Prop40
 90
0
102
RTVSPost2010PropOp40
 70
1
102
RTVSPost2010Prop41ColorIndex
 90
18
102
RTVSPost2010Prop41ColorRGB
 90
0
102
RTVSPost2010PropOp41
 70
1
102
RTVSPost2010Prop42
 90
50
102
RTVSPost2010PropOp42
 70
1
102
RTVSPost2010Prop43
 90
3
102
RTVSPost2010PropOp43
 70
1
102
RTVSPost2010Prop44ColorIndex
 90
5
102
RTVSPost2010Prop44ColorRGB
 90
255
102
RTVSPost2010PropOp44
 70
1
102
RTVSPost2010Prop45
280
0
102
RTVSPost2010PropOp45
 70
1
102
RTVSPost2010Prop46
 90
50
102
RTVSPost2010PropOp46
 70
1
102
RTVSPost2010Prop47
 90
50
102
RTVSPost2010PropOp47
 70
1
102
RTVSPost2010Prop48
 90
50
102
RTVSPost2010PropOp48
 70
1
102
RTVSPost2010Prop49
280
0
102
RTVSPost2010PropOp49
 70
1
102
RTVSPost2010Prop50
 90
50
102
RTVSPost2010PropOp50
 70
1
102
RTVSPost2010Prop51ColorIndex
 90
256
102
RTVSPost2010Prop51ColorRGB
 90
-16777216
102
RTVSPost2010PropOp51
 70
0
102
RTVSPost2010Prop52
140
1.0
102
RTVSPost2010PropOp52
 70
0
102
RTVSPost2010Prop53
 90
2
102
RTVSPost2010PropOp53
 70
1
102
RTVSPost2010Prop54
  1
strokes_ogs.tif
102
RTVSPost2010PropOp54
 70
1
102
RTVSPost2010Prop55
280
0
102
RTVSPost2010PropOp55
 70
1
102
RTVSPost2010Prop56
140
1.0
102
RTVSPost2010PropOp56
 70
1
102
RTVSPost2010Prop57
140
1.0
102
RTVSPost2010PropOp57
 70
1
102
RTVSPropertyOp0
 70
1
102
RTVSPropertyOp1
 70
1
102
RTVSPropertyOp2
 70
1
102
RTVSPropertyOp3
 70
1
102
RTVSPropertyOp4
 70
1
102
RTVSPropertyOp5
 70
1
102
RTVSPropertyOp6
 70
1
102
RTVSPropertyOp7
 70
1
102
RTVSPropertyOp8
 70
1
102
RTVSPropertyOp9
 70
1
102
RTVSPropertyOp10
 70
1
102
RTVSPropertyOp11
 70
1
102
RTVSPropertyOp12
 70
1
102
RTVSPropertyOp13
 70
1
102
RTVSPropertyOp14
 70
1
102
RTVSPropertyOp15
 70
1
102
RTVSPropertyOp16
 70
1
102
RTVSPropertyOp17
 70
1
102
RTVSPropertyOp18
 70
1
102
RTVSPropertyOp19
 70
1
102
RTVSPropertyOp20
 70
1
102
RTVSPropertyOp21
 70
1
102
RTVSPropertyOp22
 70
1
102
RTVSPropertyOp23
 70
1
102
RTVSPropertyOp24
 70
1
102
RTVSPropertyOp25
 70
1
102
RTVSPropertyOp26
 70
1
102
RTVSPropertyOp27
 70
1
102
RTVSPropertyOp28
 70
1
102
RTVSPropertyOp29
 70
1
102
RTVSPropertyOp30
 70
1
102
RTVSPropertyOp31
 70
1
102
RTVSPropertyOp32
 70
1
102
RTVSPropertyOp33
 70
1
102
RTVSPropertyOp34
 70
1
102
RTVSPropertyOp35
 70
1
102
RTVSPropertyOp36
 70
1
102
RTVSPropertyOp37
 70
1
102
RTVSPropertyOp38
 70
1
102
RTVSPropertyOp39
 70
1
102
RTVSPropertyOp40
 70
1
102
RTVSPropertyOp41
 70
1
102
RTVSPropertyOp42
 70
1
102
RTVSPropertyOp43
 70
1
102
RTVSPropertyOp44
 70
1
102
RTVSPropertyOp45
 70
1
102
RTVSPropertyOp46
 70
1
102
RTVSPropertyOp47
 70
1
102
RTVSPropertyOp48
 70
1
102
RTVSPropertyOp49
 70
1
102
RTVSPropertyOp50
 70
1
102
RTVSPropertyOp51
 70
0
102
RTVSPropertyOp52
 70
0
102
RTVSPropertyOp53
 70
1
102
RTVSPropertyOp54
 70
1
102
RTVSPropertyOp55
 70
1
102
RTVSPropertyOp56
 70
1
102
RTVSPropertyOp57
 70
1
102
RTVSPropertyOp58
 70
1
102
RTVSPropertyOp59
 70
1
102
RTVSPropertyOp60
 70
1
102
RTVSPropertyOp61
 70
1
102
RTVSPropertyOp62
 70
1
  0
XRECORD
  5
A7A
102
{ACAD_REACTORS
330
A79
102
}
330
A79
100
AcDbXrecord
280
1
102
RTVSPost2010Prop28
280
0
102
RTVSPost2010PropOp28
 70
1
102
RTVSPost2010Prop29
280
1
102
RTVSPost2010PropOp29
 70
1
102
RTVSPost2010Prop30
280
1
102
RTVSPost2010PropOp30
 70
1
102
RTVSPost2010Prop31
280
0
102
RTVSPost2010PropOp31
 70
1
102
RTVSPost2010Prop32
280
0
102
RTVSPost2010PropOp32
 70
1
102
RTVSPost2010Prop33
280
0
102
RTVSPost2010PropOp33
 70
1
102
RTVSPost2010Prop34
280
0
102
RTVSPost2010PropOp34
 70
1
102
RTVSPost2010Prop35
280
0
102
RTVSPost2010PropOp35
 70
1
102
RTVSPost2010Prop36
280
0
102
RTVSPost2010PropOp36
 70
1
102
RTVSPost2010Prop37
 90
50
102
RTVSPost2010PropOp37
 70
1
102
RTVSPost2010Prop38
140
0.0
102
RTVSPost2010PropOp38
 70
1
102
RTVSPost2010Prop39
140
1.0
102
RTVSPost2010PropOp39
 70
1
102
RTVSPost2010Prop40
 90
0
102
RTVSPost2010PropOp40
 70
1
102
RTVSPost2010Prop41ColorIndex
 90
18
102
RTVSPost2010Prop41ColorRGB
 90
0
102
RTVSPost2010PropOp41
 70
1
102
RTVSPost2010Prop42
 90
50
102
RTVSPost2010PropOp42
 70
1
102
RTVSPost2010Prop43
 90
3
102
RTVSPost2010PropOp43
 70
1
102
RTVSPost2010Prop44ColorIndex
 90
5
102
RTVSPost2010Prop44ColorRGB
 90
255
102
RTVSPost2010PropOp44
 70
1
102
RTVSPost2010Prop45
280
0
102
RTVSPost2010PropOp45
 70
1
102
RTVSPost2010Prop46
 90
50
102
RTVSPost2010PropOp46
 70
1
102
RTVSPost2010Prop47
 90
50
102
RTVSPost2010PropOp47
 70
1
102
RTVSPost2010Prop48
 90
50
102
RTVSPost2010PropOp48
 70
1
102
RTVSPost2010Prop49
280
0
102
RTVSPost2010PropOp49
 70
1
102
RTVSPost2010Prop50
 90
50
102
RTVSPost2010PropOp50
 70
1
102
RTVSPost2010Prop51ColorIndex
 90
256
102
RTVSPost2010Prop51ColorRGB
 90
-16777216
102
RTVSPost2010PropOp51
 70
0
102
RTVSPost2010Prop52
140
1.0
102
RTVSPost2010PropOp52
 70
0
102
RTVSPost2010Prop53
 90
2
102
RTVSPost2010PropOp53
 70
1
102
RTVSPost2010Prop54
  1
strokes_ogs.tif
102
RTVSPost2010PropOp54
 70
1
102
RTVSPost2010Prop55
280
0
102
RTVSPost2010PropOp55
 70
1
102
RTVSPost2010Prop56
140
1.0
102
RTVSPost2010PropOp56
 70
1
102
RTVSPost2010Prop57
140
1.0
102
RTVSPost2010PropOp57
 70
1
102
RTVSPropertyOp0
 70
1
102
RTVSPropertyOp1
 70
1
102
RTVSPropertyOp2
 70
1
102
RTVSPropertyOp3
 70
1
102
RTVSPropertyOp4
 70
1
102
RTVSPropertyOp5
 70
1
102
RTVSPropertyOp6
 70
1
102
RTVSPropertyOp7
 70
1
102
RTVSPropertyOp8
 70
1
102
RTVSPropertyOp9
 70
1
102
RTVSPropertyOp10
 70
1
102
RTVSPropertyOp11
 70
1
102
RTVSPropertyOp12
 70
1
102
RTVSPropertyOp13
 70
1
102
RTVSPropertyOp14
 70
1
102
RTVSPropertyOp15
 70
1
102
RTVSPropertyOp16
 70
1
102
RTVSPropertyOp17
 70
1
102
RTVSPropertyOp18
 70
1
102
RTVSPropertyOp19
 70
1
102
RTVSPropertyOp20
 70
1
102
RTVSPropertyOp21
 70
1
102
RTVSPropertyOp22
 70
1
102
RTVSPropertyOp23
 70
1
102
RTVSPropertyOp24
 70
1
102
RTVSPropertyOp25
 70
1
102
RTVSPropertyOp26
 70
1
102
RTVSPropertyOp27
 70
1
102
RTVSPropertyOp28
 70
1
102
RTVSPropertyOp29
 70
1
102
RTVSPropertyOp30
 70
1
102
RTVSPropertyOp31
 70
1
102
RTVSPropertyOp32
 70
1
102
RTVSPropertyOp33
 70
1
102
RTVSPropertyOp34
 70
1
102
RTVSPropertyOp35
 70
1
102
RTVSPropertyOp36
 70
1
102
RTVSPropertyOp37
 70
1
102
RTVSPropertyOp38
 70
1
102
RTVSPropertyOp39
 70
1
102
RTVSPropertyOp40
 70
1
102
RTVSPropertyOp41
 70
1
102
RTVSPropertyOp42
 70
1
102
RTVSPropertyOp43
 70
1
102
RTVSPropertyOp44
 70
1
102
RTVSPropertyOp45
 70
1
102
RTVSPropertyOp46
 70
1
102
RTVSPropertyOp47
 70
1
102
RTVSPropertyOp48
 70
1
102
RTVSPropertyOp49
 70
1
102
RTVSPropertyOp50
 70
1
102
RTVSPropertyOp51
 70
0
102
RTVSPropertyOp52
 70
0
102
RTVSPropertyOp53
 70
1
102
RTVSPropertyOp54
 70
1
102
RTVSPropertyOp55
 70
1
102
RTVSPropertyOp56
 70
1
102
RTVSPropertyOp57
 70
1
102
RTVSPropertyOp58
 70
1
102
RTVSPropertyOp59
 70
1
102
RTVSPropertyOp60
 70
1
102
RTVSPropertyOp61
 70
1
102
RTVSPropertyOp62
 70
1
  0
XRECORD
  5
A82
102
{ACAD_REACTORS
330
A81
102
}
330
A81
100
AcDbXrecord
280
1
102
RTVSPost2010Prop28
280
0
102
RTVSPost2010PropOp28
 70
1
102
RTVSPost2010Prop29
280
1
102
RTVSPost2010PropOp29
 70
1
102
RTVSPost2010Prop30
280
1
102
RTVSPost2010PropOp30
 70
1
102
RTVSPost2010Prop31
280
0
102
RTVSPost2010PropOp31
 70
1
102
RTVSPost2010Prop32
280
0
102
RTVSPost2010PropOp32
 70
1
102
RTVSPost2010Prop33
280
0
102
RTVSPost2010PropOp33
 70
1
102
RTVSPost2010Prop34
280
0
102
RTVSPost2010PropOp34
 70
1
102
RTVSPost2010Prop35
280
0
102
RTVSPost2010PropOp35
 70
1
102
RTVSPost2010Prop36
280
0
102
RTVSPost2010PropOp36
 70
1
102
RTVSPost2010Prop37
 90
50
102
RTVSPost2010PropOp37
 70
1
102
RTVSPost2010Prop38
140
0.0
102
RTVSPost2010PropOp38
 70
1
102
RTVSPost2010Prop39
140
1.0
102
RTVSPost2010PropOp39
 70
1
102
RTVSPost2010Prop40
 90
0
102
RTVSPost2010PropOp40
 70
1
102
RTVSPost2010Prop41ColorIndex
 90
18
102
RTVSPost2010Prop41ColorRGB
 90
0
102
RTVSPost2010PropOp41
 70
1
102
RTVSPost2010Prop42
 90
50
102
RTVSPost2010PropOp42
 70
1
102
RTVSPost2010Prop43
 90
3
102
RTVSPost2010PropOp43
 70
1
102
RTVSPost2010Prop44ColorIndex
 90
5
102
RTVSPost2010Prop44ColorRGB
 90
255
102
RTVSPost2010PropOp44
 70
1
102
RTVSPost2010Prop45
280
0
102
RTVSPost2010PropOp45
 70
1
102
RTVSPost2010Prop46
 90
50
102
RTVSPost2010PropOp46
 70
1
102
RTVSPost2010Prop47
 90
50
102
RTVSPost2010PropOp47
 70
1
102
RTVSPost2010Prop48
 90
50
102
RTVSPost2010PropOp48
 70
1
102
RTVSPost2010Prop49
280
0
102
RTVSPost2010PropOp49
 70
1
102
RTVSPost2010Prop50
 90
50
102
RTVSPost2010PropOp50
 70
1
102
RTVSPost2010Prop51ColorIndex
 90
256
102
RTVSPost2010Prop51ColorRGB
 90
-16777216
102
RTVSPost2010PropOp51
 70
0
102
RTVSPost2010Prop52
140
1.0
102
RTVSPost2010PropOp52
 70
0
102
RTVSPost2010Prop53
 90
2
102
RTVSPost2010PropOp53
 70
1
102
RTVSPost2010Prop54
  1
strokes_ogs.tif
102
RTVSPost2010PropOp54
 70
1
102
RTVSPost2010Prop55
280
0
102
RTVSPost2010PropOp55
 70
1
102
RTVSPost2010Prop56
140
1.0
102
RTVSPost2010PropOp56
 70
1
102
RTVSPost2010Prop57
140
1.0
102
RTVSPost2010PropOp57
 70
1
102
RTVSPropertyOp0
 70
1
102
RTVSPropertyOp1
 70
1
102
RTVSPropertyOp2
 70
1
102
RTVSPropertyOp3
 70
1
102
RTVSPropertyOp4
 70
1
102
RTVSPropertyOp5
 70
1
102
RTVSPropertyOp6
 70
1
102
RTVSPropertyOp7
 70
1
102
RTVSPropertyOp8
 70
1
102
RTVSPropertyOp9
 70
1
102
RTVSPropertyOp10
 70
1
102
RTVSPropertyOp11
 70
1
102
RTVSPropertyOp12
 70
1
102
RTVSPropertyOp13
 70
1
102
RTVSPropertyOp14
 70
1
102
RTVSPropertyOp15
 70
1
102
RTVSPropertyOp16
 70
1
102
RTVSPropertyOp17
 70
1
102
RTVSPropertyOp18
 70
1
102
RTVSPropertyOp19
 70
1
102
RTVSPropertyOp20
 70
1
102
RTVSPropertyOp21
 70
1
102
RTVSPropertyOp22
 70
1
102
RTVSPropertyOp23
 70
1
102
RTVSPropertyOp24
 70
1
102
RTVSPropertyOp25
 70
1
102
RTVSPropertyOp26
 70
1
102
RTVSPropertyOp27
 70
1
102
RTVSPropertyOp28
 70
1
102
RTVSPropertyOp29
 70
1
102
RTVSPropertyOp30
 70
1
102
RTVSPropertyOp31
 70
1
102
RTVSPropertyOp32
 70
1
102
RTVSPropertyOp33
 70
1
102
RTVSPropertyOp34
 70
1
102
RTVSPropertyOp35
 70
1
102
RTVSPropertyOp36
 70
1
102
RTVSPropertyOp37
 70
1
102
RTVSPropertyOp38
 70
1
102
RTVSPropertyOp39
 70
1
102
RTVSPropertyOp40
 70
1
102
RTVSPropertyOp41
 70
1
102
RTVSPropertyOp42
 70
1
102
RTVSPropertyOp43
 70
1
102
RTVSPropertyOp44
 70
1
102
RTVSPropertyOp45
 70
1
102
RTVSPropertyOp46
 70
1
102
RTVSPropertyOp47
 70
1
102
RTVSPropertyOp48
 70
1
102
RTVSPropertyOp49
 70
1
102
RTVSPropertyOp50
 70
1
102
RTVSPropertyOp51
 70
0
102
RTVSPropertyOp52
 70
0
102
RTVSPropertyOp53
 70
1
102
RTVSPropertyOp54
 70
1
102
RTVSPropertyOp55
 70
1
102
RTVSPropertyOp56
 70
1
102
RTVSPropertyOp57
 70
1
102
RTVSPropertyOp58
 70
1
102
RTVSPropertyOp59
 70
1
102
RTVSPropertyOp60
 70
1
102
RTVSPropertyOp61
 70
1
102
RTVSPropertyOp62
 70
1
  0
XRECORD
  5
A74
102
{ACAD_REACTORS
330
A73
102
}
330
A73
100
AcDbXrecord
280
1
102
RTVSPost2010Prop28
280
0
102
RTVSPost2010PropOp28
 70
1
102
RTVSPost2010Prop29
280
1
102
RTVSPost2010PropOp29
 70
1
102
RTVSPost2010Prop30
280
1
102
RTVSPost2010PropOp30
 70
1
102
RTVSPost2010Prop31
280
0
102
RTVSPost2010PropOp31
 70
1
102
RTVSPost2010Prop32
280
0
102
RTVSPost2010PropOp32
 70
1
102
RTVSPost2010Prop33
280
0
102
RTVSPost2010PropOp33
 70
1
102
RTVSPost2010Prop34
280
0
102
RTVSPost2010PropOp34
 70
1
102
RTVSPost2010Prop35
280
0
102
RTVSPost2010PropOp35
 70
1
102
RTVSPost2010Prop36
280
0
102
RTVSPost2010PropOp36
 70
1
102
RTVSPost2010Prop37
 90
50
102
RTVSPost2010PropOp37
 70
1
102
RTVSPost2010Prop38
140
0.0
102
RTVSPost2010PropOp38
 70
1
102
RTVSPost2010Prop39
140
1.0
102
RTVSPost2010PropOp39
 70
1
102
RTVSPost2010Prop40
 90
0
102
RTVSPost2010PropOp40
 70
1
102
RTVSPost2010Prop41ColorIndex
 90
18
102
RTVSPost2010Prop41ColorRGB
 90
0
102
RTVSPost2010PropOp41
 70
1
102
RTVSPost2010Prop42
 90
50
102
RTVSPost2010PropOp42
 70
1
102
RTVSPost2010Prop43
 90
3
102
RTVSPost2010PropOp43
 70
1
102
RTVSPost2010Prop44ColorIndex
 90
5
102
RTVSPost2010Prop44ColorRGB
 90
255
102
RTVSPost2010PropOp44
 70
1
102
RTVSPost2010Prop45
280
0
102
RTVSPost2010PropOp45
 70
1
102
RTVSPost2010Prop46
 90
50
102
RTVSPost2010PropOp46
 70
1
102
RTVSPost2010Prop47
 90
50
102
RTVSPost2010PropOp47
 70
1
102
RTVSPost2010Prop48
 90
50
102
RTVSPost2010PropOp48
 70
1
102
RTVSPost2010Prop49
280
0
102
RTVSPost2010PropOp49
 70
1
102
RTVSPost2010Prop50
 90
50
102
RTVSPost2010PropOp50
 70
1
102
RTVSPost2010Prop51ColorIndex
 90
256
102
RTVSPost2010Prop51ColorRGB
 90
-16777216
102
RTVSPost2010PropOp51
 70
0
102
RTVSPost2010Prop52
140
1.0
102
RTVSPost2010PropOp52
 70
0
102
RTVSPost2010Prop53
 90
2
102
RTVSPost2010PropOp53
 70
1
102
RTVSPost2010Prop54
  1
strokes_ogs.tif
102
RTVSPost2010PropOp54
 70
1
102
RTVSPost2010Prop55
280
0
102
RTVSPost2010PropOp55
 70
1
102
RTVSPost2010Prop56
140
1.0
102
RTVSPost2010PropOp56
 70
1
102
RTVSPost2010Prop57
140
1.0
102
RTVSPost2010PropOp57
 70
1
102
RTVSPropertyOp0
 70
1
102
RTVSPropertyOp1
 70
1
102
RTVSPropertyOp2
 70
1
102
RTVSPropertyOp3
 70
1
102
RTVSPropertyOp4
 70
1
102
RTVSPropertyOp5
 70
1
102
RTVSPropertyOp6
 70
1
102
RTVSPropertyOp7
 70
1
102
RTVSPropertyOp8
 70
1
102
RTVSPropertyOp9
 70
1
102
RTVSPropertyOp10
 70
1
102
RTVSPropertyOp11
 70
1
102
RTVSPropertyOp12
 70
1
102
RTVSPropertyOp13
 70
1
102
RTVSPropertyOp14
 70
1
102
RTVSPropertyOp15
 70
1
102
RTVSPropertyOp16
 70
1
102
RTVSPropertyOp17
 70
1
102
RTVSPropertyOp18
 70
1
102
RTVSPropertyOp19
 70
1
102
RTVSPropertyOp20
 70
1
102
RTVSPropertyOp21
 70
1
102
RTVSPropertyOp22
 70
1
102
RTVSPropertyOp23
 70
1
102
RTVSPropertyOp24
 70
1
102
RTVSPropertyOp25
 70
1
102
RTVSPropertyOp26
 70
1
102
RTVSPropertyOp27
 70
1
102
RTVSPropertyOp28
 70
1
102
RTVSPropertyOp29
 70
1
102
RTVSPropertyOp30
 70
1
102
RTVSPropertyOp31
 70
1
102
RTVSPropertyOp32
 70
1
102
RTVSPropertyOp33
 70
1
102
RTVSPropertyOp34
 70
1
102
RTVSPropertyOp35
 70
1
102
RTVSPropertyOp36
 70
1
102
RTVSPropertyOp37
 70
1
102
RTVSPropertyOp38
 70
1
102
RTVSPropertyOp39
 70
1
102
RTVSPropertyOp40
 70
1
102
RTVSPropertyOp41
 70
1
102
RTVSPropertyOp42
 70
1
102
RTVSPropertyOp43
 70
1
102
RTVSPropertyOp44
 70
1
102
RTVSPropertyOp45
 70
1
102
RTVSPropertyOp46
 70
1
102
RTVSPropertyOp47
 70
1
102
RTVSPropertyOp48
 70
1
102
RTVSPropertyOp49
 70
1
102
RTVSPropertyOp50
 70
1
102
RTVSPropertyOp51
 70
0
102
RTVSPropertyOp52
 70
0
102
RTVSPropertyOp53
 70
1
102
RTVSPropertyOp54
 70
1
102
RTVSPropertyOp55
 70
1
102
RTVSPropertyOp56
 70
1
102
RTVSPropertyOp57
 70
1
102
RTVSPropertyOp58
 70
1
102
RTVSPropertyOp59
 70
1
102
RTVSPropertyOp60
 70
1
102
RTVSPropertyOp61
 70
1
102
RTVSPropertyOp62
 70
1
  0
XRECORD
  5
A78
102
{ACAD_REACTORS
330
A77
102
}
330
A77
100
AcDbXrecord
280
1
102
RTVSPost2010Prop28
280
0
102
RTVSPost2010PropOp28
 70
1
102
RTVSPost2010Prop29
280
1
102
RTVSPost2010PropOp29
 70
1
102
RTVSPost2010Prop30
280
1
102
RTVSPost2010PropOp30
 70
1
102
RTVSPost2010Prop31
280
0
102
RTVSPost2010PropOp31
 70
1
102
RTVSPost2010Prop32
280
0
102
RTVSPost2010PropOp32
 70
1
102
RTVSPost2010Prop33
280
0
102
RTVSPost2010PropOp33
 70
1
102
RTVSPost2010Prop34
280
0
102
RTVSPost2010PropOp34
 70
1
102
RTVSPost2010Prop35
280
0
102
RTVSPost2010PropOp35
 70
1
102
RTVSPost2010Prop36
280
0
102
RTVSPost2010PropOp36
 70
1
102
RTVSPost2010Prop37
 90
50
102
RTVSPost2010PropOp37
 70
1
102
RTVSPost2010Prop38
140
0.0
102
RTVSPost2010PropOp38
 70
1
102
RTVSPost2010Prop39
140
1.0
102
RTVSPost2010PropOp39
 70
1
102
RTVSPost2010Prop40
 90
0
102
RTVSPost2010PropOp40
 70
1
102
RTVSPost2010Prop41ColorIndex
 90
18
102
RTVSPost2010Prop41ColorRGB
 90
0
102
RTVSPost2010PropOp41
 70
1
102
RTVSPost2010Prop42
 90
50
102
RTVSPost2010PropOp42
 70
1
102
RTVSPost2010Prop43
 90
3
102
RTVSPost2010PropOp43
 70
1
102
RTVSPost2010Prop44ColorIndex
 90
5
102
RTVSPost2010Prop44ColorRGB
 90
255
102
RTVSPost2010PropOp44
 70
1
102
RTVSPost2010Prop45
280
0
102
RTVSPost2010PropOp45
 70
1
102
RTVSPost2010Prop46
 90
50
102
RTVSPost2010PropOp46
 70
1
102
RTVSPost2010Prop47
 90
50
102
RTVSPost2010PropOp47
 70
1
102
RTVSPost2010Prop48
 90
50
102
RTVSPost2010PropOp48
 70
1
102
RTVSPost2010Prop49
280
0
102
RTVSPost2010PropOp49
 70
1
102
RTVSPost2010Prop50
 90
50
102
RTVSPost2010PropOp50
 70
1
102
RTVSPost2010Prop51ColorIndex
 90
256
102
RTVSPost2010Prop51ColorRGB
 90
-16777216
102
RTVSPost2010PropOp51
 70
0
102
RTVSPost2010Prop52
140
1.0
102
RTVSPost2010PropOp52
 70
0
102
RTVSPost2010Prop53
 90
2
102
RTVSPost2010PropOp53
 70
1
102
RTVSPost2010Prop54
  1
strokes_ogs.tif
102
RTVSPost2010PropOp54
 70
1
102
RTVSPost2010Prop55
280
0
102
RTVSPost2010PropOp55
 70
1
102
RTVSPost2010Prop56
140
1.0
102
RTVSPost2010PropOp56
 70
1
102
RTVSPost2010Prop57
140
1.0
102
RTVSPost2010PropOp57
 70
1
102
RTVSPropertyOp0
 70
1
102
RTVSPropertyOp1
 70
1
102
RTVSPropertyOp2
 70
1
102
RTVSPropertyOp3
 70
1
102
RTVSPropertyOp4
 70
1
102
RTVSPropertyOp5
 70
1
102
RTVSPropertyOp6
 70
1
102
RTVSPropertyOp7
 70
1
102
RTVSPropertyOp8
 70
1
102
RTVSPropertyOp9
 70
1
102
RTVSPropertyOp10
 70
1
102
RTVSPropertyOp11
 70
1
102
RTVSPropertyOp12
 70
1
102
RTVSPropertyOp13
 70
1
102
RTVSPropertyOp14
 70
1
102
RTVSPropertyOp15
 70
1
102
RTVSPropertyOp16
 70
1
102
RTVSPropertyOp17
 70
1
102
RTVSPropertyOp18
 70
1
102
RTVSPropertyOp19
 70
1
102
RTVSPropertyOp20
 70
1
102
RTVSPropertyOp21
 70
1
102
RTVSPropertyOp22
 70
1
102
RTVSPropertyOp23
 70
1
102
RTVSPropertyOp24
 70
1
102
RTVSPropertyOp25
 70
1
102
RTVSPropertyOp26
 70
1
102
RTVSPropertyOp27
 70
1
102
RTVSPropertyOp28
 70
1
102
RTVSPropertyOp29
 70
1
102
RTVSPropertyOp30
 70
1
102
RTVSPropertyOp31
 70
1
102
RTVSPropertyOp32
 70
1
102
RTVSPropertyOp33
 70
1
102
RTVSPropertyOp34
 70
1
102
RTVSPropertyOp35
 70
1
102
RTVSPropertyOp36
 70
1
102
RTVSPropertyOp37
 70
1
102
RTVSPropertyOp38
 70
1
102
RTVSPropertyOp39
 70
1
102
RTVSPropertyOp40
 70
1
102
RTVSPropertyOp41
 70
1
102
RTVSPropertyOp42
 70
1
102
RTVSPropertyOp43
 70
1
102
RTVSPropertyOp44
 70
1
102
RTVSPropertyOp45
 70
1
102
RTVSPropertyOp46
 70
1
102
RTVSPropertyOp47
 70
1
102
RTVSPropertyOp48
 70
1
102
RTVSPropertyOp49
 70
1
102
RTVSPropertyOp50
 70
1
102
RTVSPropertyOp51
 70
0
102
RTVSPropertyOp52
 70
0
102
RTVSPropertyOp53
 70
1
102
RTVSPropertyOp54
 70
1
102
RTVSPropertyOp55
 70
1
102
RTVSPropertyOp56
 70
1
102
RTVSPropertyOp57
 70
1
102
RTVSPropertyOp58
 70
1
102
RTVSPropertyOp59
 70
1
102
RTVSPropertyOp60
 70
1
102
RTVSPropertyOp61
 70
1
102
RTVSPropertyOp62
 70
1
  0
XRECORD
  5
A92
102
{ACAD_REACTORS
330
A91
102
}
330
A91
100
AcDbXrecord
280
1
102
RTVSPost2010Prop28
280
0
102
RTVSPost2010PropOp28
 70
1
102
RTVSPost2010Prop29
280
1
102
RTVSPost2010PropOp29
 70
1
102
RTVSPost2010Prop30
280
1
102
RTVSPost2010PropOp30
 70
1
102
RTVSPost2010Prop31
280
0
102
RTVSPost2010PropOp31
 70
1
102
RTVSPost2010Prop32
280
0
102
RTVSPost2010PropOp32
 70
1
102
RTVSPost2010Prop33
280
0
102
RTVSPost2010PropOp33
 70
1
102
RTVSPost2010Prop34
280
0
102
RTVSPost2010PropOp34
 70
1
102
RTVSPost2010Prop35
280
0
102
RTVSPost2010PropOp35
 70
1
102
RTVSPost2010Prop36
280
0
102
RTVSPost2010PropOp36
 70
1
102
RTVSPost2010Prop37
 90
50
102
RTVSPost2010PropOp37
 70
0
102
RTVSPost2010Prop38
140
0.0
102
RTVSPost2010PropOp38
 70
0
102
RTVSPost2010Prop39
140
1.0
102
RTVSPost2010PropOp39
 70
0
102
RTVSPost2010Prop40
 90
0
102
RTVSPost2010PropOp40
 70
0
102
RTVSPost2010Prop41ColorIndex
 90
18
102
RTVSPost2010Prop41ColorRGB
 90
0
102
RTVSPost2010PropOp41
 70
0
102
RTVSPost2010Prop42
 90
50
102
RTVSPost2010PropOp42
 70
0
102
RTVSPost2010Prop43
 90
3
102
RTVSPost2010PropOp43
 70
0
102
RTVSPost2010Prop44ColorIndex
 90
5
102
RTVSPost2010Prop44ColorRGB
 90
255
102
RTVSPost2010PropOp44
 70
0
102
RTVSPost2010Prop45
280
0
102
RTVSPost2010PropOp45
 70
1
102
RTVSPost2010Prop46
 90
50
102
RTVSPost2010PropOp46
 70
0
102
RTVSPost2010Prop47
 90
50
102
RTVSPost2010PropOp47
 70
0
102
RTVSPost2010Prop48
 90
50
102
RTVSPost2010PropOp48
 70
0
102
RTVSPost2010Prop49
280
0
102
RTVSPost2010PropOp49
 70
1
102
RTVSPost2010Prop50
 90
50
102
RTVSPost2010PropOp50
 70
0
102
RTVSPost2010Prop51ColorIndex
 90
256
102
RTVSPost2010Prop51ColorRGB
 90
-16777216
102
RTVSPost2010PropOp51
 70
0
102
RTVSPost2010Prop52
140
1.0
102
RTVSPost2010PropOp52
 70
0
102
RTVSPost2010Prop53
 90
2
102
RTVSPost2010PropOp53
 70
0
102
RTVSPost2010Prop54
  1
strokes_ogs.tif
102
RTVSPost2010PropOp54
 70
0
102
RTVSPost2010Prop55
280
0
102
RTVSPost2010PropOp55
 70
1
102
RTVSPost2010Prop56
140
1.0
102
RTVSPost2010PropOp56
 70
0
102
RTVSPost2010Prop57
140
1.0
102
RTVSPost2010PropOp57
 70
0
102
RTVSPropertyOp0
 70
0
102
RTVSPropertyOp1
 70
0
102
RTVSPropertyOp2
 70
0
102
RTVSPropertyOp3
 70
0
102
RTVSPropertyOp4
 70
0
102
RTVSPropertyOp5
 70
0
102
RTVSPropertyOp6
 70
0
102
RTVSPropertyOp7
 70
0
102
RTVSPropertyOp8
 70
0
102
RTVSPropertyOp9
 70
0
102
RTVSPropertyOp10
 70
0
102
RTVSPropertyOp11
 70
0
102
RTVSPropertyOp12
 70
0
102
RTVSPropertyOp13
 70
0
102
RTVSPropertyOp14
 70
2
102
RTVSPropertyOp15
 70
0
102
RTVSPropertyOp16
 70
0
102
RTVSPropertyOp17
 70
0
102
RTVSPropertyOp18
 70
0
102
RTVSPropertyOp19
 70
0
102
RTVSPropertyOp20
 70
0
102
RTVSPropertyOp21
 70
0
102
RTVSPropertyOp22
 70
0
102
RTVSPropertyOp23
 70
0
102
RTVSPropertyOp24
 70
0
102
RTVSPropertyOp25
 70
0
102
RTVSPropertyOp26
 70
0
102
RTVSPropertyOp27
 70
0
102
RTVSPropertyOp28
 70
1
102
RTVSPropertyOp29
 70
1
102
RTVSPropertyOp30
 70
1
102
RTVSPropertyOp31
 70
1
102
RTVSPropertyOp32
 70
1
102
RTVSPropertyOp33
 70
1
102
RTVSPropertyOp34
 70
1
102
RTVSPropertyOp35
 70
1
102
RTVSPropertyOp36
 70
1
102
RTVSPropertyOp37
 70
0
102
RTVSPropertyOp38
 70
0
102
RTVSPropertyOp39
 70
0
102
RTVSPropertyOp40
 70
0
102
RTVSPropertyOp41
 70
0
102
RTVSPropertyOp42
 70
0
102
RTVSPropertyOp43
 70
0
102
RTVSPropertyOp44
 70
0
102
RTVSPropertyOp45
 70
1
102
RTVSPropertyOp46
 70
0
102
RTVSPropertyOp47
 70
0
102
RTVSPropertyOp48
 70
0
102
RTVSPropertyOp49
 70
1
102
RTVSPropertyOp50
 70
0
102
RTVSPropertyOp51
 70
0
102
RTVSPropertyOp52
 70
0
102
RTVSPropertyOp53
 70
0
102
RTVSPropertyOp54
 70
0
102
RTVSPropertyOp55
 70
1
102
RTVSPropertyOp56
 70
0
102
RTVSPropertyOp57
 70
0
102
RTVSPropertyOp58
 70
0
102
RTVSPropertyOp59
 70
0
102
RTVSPropertyOp60
 70
0
102
RTVSPropertyOp61
 70
0
102
RTVSPropertyOp62
 70
0
  0
XRECORD
  5
A80
102
{ACAD_REACTORS
330
A7F
102
}
330
A7F
100
AcDbXrecord
280
1
102
RTVSPost2010Prop28
280
0
102
RTVSPost2010PropOp28
 70
1
102
RTVSPost2010Prop29
280
1
102
RTVSPost2010PropOp29
 70
1
102
RTVSPost2010Prop30
280
1
102
RTVSPost2010PropOp30
 70
1
102
RTVSPost2010Prop31
280
0
102
RTVSPost2010PropOp31
 70
1
102
RTVSPost2010Prop32
280
0
102
RTVSPost2010PropOp32
 70
1
102
RTVSPost2010Prop33
280
0
102
RTVSPost2010PropOp33
 70
1
102
RTVSPost2010Prop34
280
0
102
RTVSPost2010PropOp34
 70
1
102
RTVSPost2010Prop35
280
0
102
RTVSPost2010PropOp35
 70
1
102
RTVSPost2010Prop36
280
0
102
RTVSPost2010PropOp36
 70
1
102
RTVSPost2010Prop37
 90
50
102
RTVSPost2010PropOp37
 70
1
102
RTVSPost2010Prop38
140
0.0
102
RTVSPost2010PropOp38
 70
1
102
RTVSPost2010Prop39
140
1.0
102
RTVSPost2010PropOp39
 70
1
102
RTVSPost2010Prop40
 90
0
102
RTVSPost2010PropOp40
 70
1
102
RTVSPost2010Prop41ColorIndex
 90
18
102
RTVSPost2010Prop41ColorRGB
 90
0
102
RTVSPost2010PropOp41
 70
1
102
RTVSPost2010Prop42
 90
50
102
RTVSPost2010PropOp42
 70
1
102
RTVSPost2010Prop43
 90
3
102
RTVSPost2010PropOp43
 70
1
102
RTVSPost2010Prop44ColorIndex
 90
5
102
RTVSPost2010Prop44ColorRGB
 90
255
102
RTVSPost2010PropOp44
 70
1
102
RTVSPost2010Prop45
280
0
102
RTVSPost2010PropOp45
 70
1
102
RTVSPost2010Prop46
 90
50
102
RTVSPost2010PropOp46
 70
1
102
RTVSPost2010Prop47
 90
50
102
RTVSPost2010PropOp47
 70
1
102
RTVSPost2010Prop48
 90
50
102
RTVSPost2010PropOp48
 70
1
102
RTVSPost2010Prop49
280
0
102
RTVSPost2010PropOp49
 70
1
102
RTVSPost2010Prop50
 90
50
102
RTVSPost2010PropOp50
 70
1
102
RTVSPost2010Prop51ColorIndex
 90
256
102
RTVSPost2010Prop51ColorRGB
 90
-16777216
102
RTVSPost2010PropOp51
 70
0
102
RTVSPost2010Prop52
140
1.0
102
RTVSPost2010PropOp52
 70
0
102
RTVSPost2010Prop53
 90
2
102
RTVSPost2010PropOp53
 70
1
102
RTVSPost2010Prop54
  1
strokes_ogs.tif
102
RTVSPost2010PropOp54
 70
1
102
RTVSPost2010Prop55
280
0
102
RTVSPost2010PropOp55
 70
1
102
RTVSPost2010Prop56
140
1.0
102
RTVSPost2010PropOp56
 70
1
102
RTVSPost2010Prop57
140
1.0
102
RTVSPost2010PropOp57
 70
1
102
RTVSPropertyOp0
 70
1
102
RTVSPropertyOp1
 70
1
102
RTVSPropertyOp2
 70
1
102
RTVSPropertyOp3
 70
1
102
RTVSPropertyOp4
 70
1
102
RTVSPropertyOp5
 70
1
102
RTVSPropertyOp6
 70
1
102
RTVSPropertyOp7
 70
1
102
RTVSPropertyOp8
 70
1
102
RTVSPropertyOp9
 70
1
102
RTVSPropertyOp10
 70
1
102
RTVSPropertyOp11
 70
1
102
RTVSPropertyOp12
 70
1
102
RTVSPropertyOp13
 70
1
102
RTVSPropertyOp14
 70
1
102
RTVSPropertyOp15
 70
1
102
RTVSPropertyOp16
 70
1
102
RTVSPropertyOp17
 70
1
102
RTVSPropertyOp18
 70
1
102
RTVSPropertyOp19
 70
1
102
RTVSPropertyOp20
 70
1
102
RTVSPropertyOp21
 70
1
102
RTVSPropertyOp22
 70
1
102
RTVSPropertyOp23
 70
1
102
RTVSPropertyOp24
 70
1
102
RTVSPropertyOp25
 70
1
102
RTVSPropertyOp26
 70
1
102
RTVSPropertyOp27
 70
1
102
RTVSPropertyOp28
 70
1
102
RTVSPropertyOp29
 70
1
102
RTVSPropertyOp30
 70
1
102
RTVSPropertyOp31
 70
1
102
RTVSPropertyOp32
 70
1
102
RTVSPropertyOp33
 70
1
102
RTVSPropertyOp34
 70
1
102
RTVSPropertyOp35
 70
1
102
RTVSPropertyOp36
 70
1
102
RTVSPropertyOp37
 70
1
102
RTVSPropertyOp38
 70
1
102
RTVSPropertyOp39
 70
1
102
RTVSPropertyOp40
 70
1
102
RTVSPropertyOp41
 70
1
102
RTVSPropertyOp42
 70
1
102
RTVSPropertyOp43
 70
1
102
RTVSPropertyOp44
 70
1
102
RTVSPropertyOp45
 70
1
102
RTVSPropertyOp46
 70
1
102
RTVSPropertyOp47
 70
1
102
RTVSPropertyOp48
 70
1
102
RTVSPropertyOp49
 70
1
102
RTVSPropertyOp50
 70
1
102
RTVSPropertyOp51
 70
0
102
RTVSPropertyOp52
 70
0
102
RTVSPropertyOp53
 70
1
102
RTVSPropertyOp54
 70
1
102
RTVSPropertyOp55
 70
1
102
RTVSPropertyOp56
 70
1
102
RTVSPropertyOp57
 70
1
102
RTVSPropertyOp58
 70
1
102
RTVSPropertyOp59
 70
1
102
RTVSPropertyOp60
 70
1
102
RTVSPropertyOp61
 70
1
102
RTVSPropertyOp62
 70
1
  0
XRECORD
  5
A64
102
{ACAD_REACTORS
330
A63
102
}
330
A63
100
AcDbXrecord
280
1
102
RTVSPost2010Prop28
280
0
102
RTVSPost2010PropOp28
 70
1
102
RTVSPost2010Prop29
280
1
102
RTVSPost2010PropOp29
 70
1
102
RTVSPost2010Prop30
280
1
102
RTVSPost2010PropOp30
 70
1
102
RTVSPost2010Prop31
280
0
102
RTVSPost2010PropOp31
 70
1
102
RTVSPost2010Prop32
280
0
102
RTVSPost2010PropOp32
 70
1
102
RTVSPost2010Prop33
280
0
102
RTVSPost2010PropOp33
 70
1
102
RTVSPost2010Prop34
280
0
102
RTVSPost2010PropOp34
 70
1
102
RTVSPost2010Prop35
280
0
102
RTVSPost2010PropOp35
 70
1
102
RTVSPost2010Prop36
280
0
102
RTVSPost2010PropOp36
 70
1
102
RTVSPost2010Prop37
 90
50
102
RTVSPost2010PropOp37
 70
1
102
RTVSPost2010Prop38
140
0.0
102
RTVSPost2010PropOp38
 70
1
102
RTVSPost2010Prop39
140
1.0
102
RTVSPost2010PropOp39
 70
1
102
RTVSPost2010Prop40
 90
0
102
RTVSPost2010PropOp40
 70
1
102
RTVSPost2010Prop41ColorIndex
 90
18
102
RTVSPost2010Prop41ColorRGB
 90
0
102
RTVSPost2010PropOp41
 70
1
102
RTVSPost2010Prop42
 90
50
102
RTVSPost2010PropOp42
 70
1
102
RTVSPost2010Prop43
 90
3
102
RTVSPost2010PropOp43
 70
1
102
RTVSPost2010Prop44ColorIndex
 90
5
102
RTVSPost2010Prop44ColorRGB
 90
255
102
RTVSPost2010PropOp44
 70
1
102
RTVSPost2010Prop45
280
0
102
RTVSPost2010PropOp45
 70
1
102
RTVSPost2010Prop46
 90
50
102
RTVSPost2010PropOp46
 70
1
102
RTVSPost2010Prop47
 90
50
102
RTVSPost2010PropOp47
 70
1
102
RTVSPost2010Prop48
 90
50
102
RTVSPost2010PropOp48
 70
1
102
RTVSPost2010Prop49
280
0
102
RTVSPost2010PropOp49
 70
1
102
RTVSPost2010Prop50
 90
50
102
RTVSPost2010PropOp50
 70
1
102
RTVSPost2010Prop51ColorIndex
 90
256
102
RTVSPost2010Prop51ColorRGB
 90
-16777216
102
RTVSPost2010PropOp51
 70
0
102
RTVSPost2010Prop52
140
1.0
102
RTVSPost2010PropOp52
 70
0
102
RTVSPost2010Prop53
 90
2
102
RTVSPost2010PropOp53
 70
1
102
RTVSPost2010Prop54
  1
strokes_ogs.tif
102
RTVSPost2010PropOp54
 70
1
102
RTVSPost2010Prop55
280
0
102
RTVSPost2010PropOp55
 70
1
102
RTVSPost2010Prop56
140
1.0
102
RTVSPost2010PropOp56
 70
1
102
RTVSPost2010Prop57
140
1.0
102
RTVSPost2010PropOp57
 70
1
102
RTVSPropertyOp0
 70
1
102
RTVSPropertyOp1
 70
1
102
RTVSPropertyOp2
 70
1
102
RTVSPropertyOp3
 70
1
102
RTVSPropertyOp4
 70
1
102
RTVSPropertyOp5
 70
1
102
RTVSPropertyOp6
 70
1
102
RTVSPropertyOp7
 70
1
102
RTVSPropertyOp8
 70
1
102
RTVSPropertyOp9
 70
1
102
RTVSPropertyOp10
 70
1
102
RTVSPropertyOp11
 70
1
102
RTVSPropertyOp12
 70
1
102
RTVSPropertyOp13
 70
1
102
RTVSPropertyOp14
 70
1
102
RTVSPropertyOp15
 70
1
102
RTVSPropertyOp16
 70
1
102
RTVSPropertyOp17
 70
1
102
RTVSPropertyOp18
 70
1
102
RTVSPropertyOp19
 70
1
102
RTVSPropertyOp20
 70
1
102
RTVSPropertyOp21
 70
1
102
RTVSPropertyOp22
 70
1
102
RTVSPropertyOp23
 70
1
102
RTVSPropertyOp24
 70
1
102
RTVSPropertyOp25
 70
1
102
RTVSPropertyOp26
 70
1
102
RTVSPropertyOp27
 70
1
102
RTVSPropertyOp28
 70
1
102
RTVSPropertyOp29
 70
1
102
RTVSPropertyOp30
 70
1
102
RTVSPropertyOp31
 70
1
102
RTVSPropertyOp32
 70
1
102
RTVSPropertyOp33
 70
1
102
RTVSPropertyOp34
 70
1
102
RTVSPropertyOp35
 70
1
102
RTVSPropertyOp36
 70
1
102
RTVSPropertyOp37
 70
1
102
RTVSPropertyOp38
 70
1
102
RTVSPropertyOp39
 70
1
102
RTVSPropertyOp40
 70
1
102
RTVSPropertyOp41
 70
1
102
RTVSPropertyOp42
 70
1
102
RTVSPropertyOp43
 70
1
102
RTVSPropertyOp44
 70
1
102
RTVSPropertyOp45
 70
1
102
RTVSPropertyOp46
 70
1
102
RTVSPropertyOp47
 70
1
102
RTVSPropertyOp48
 70
1
102
RTVSPropertyOp49
 70
1
102
RTVSPropertyOp50
 70
1
102
RTVSPropertyOp51
 70
0
102
RTVSPropertyOp52
 70
0
102
RTVSPropertyOp53
 70
1
102
RTVSPropertyOp54
 70
1
102
RTVSPropertyOp55
 70
1
102
RTVSPropertyOp56
 70
1
102
RTVSPropertyOp57
 70
1
102
RTVSPropertyOp58
 70
1
102
RTVSPropertyOp59
 70
1
102
RTVSPropertyOp60
 70
1
102
RTVSPropertyOp61
 70
1
102
RTVSPropertyOp62
 70
1
  0
XRECORD
  5
A66
102
{ACAD_REACTORS
330
A65
102
}
330
A65
100
AcDbXrecord
280
1
102
RTVSPost2010Prop28
280
0
102
RTVSPost2010PropOp28
 70
1
102
RTVSPost2010Prop29
280
1
102
RTVSPost2010PropOp29
 70
1
102
RTVSPost2010Prop30
280
1
102
RTVSPost2010PropOp30
 70
1
102
RTVSPost2010Prop31
280
0
102
RTVSPost2010PropOp31
 70
1
102
RTVSPost2010Prop32
280
0
102
RTVSPost2010PropOp32
 70
1
102
RTVSPost2010Prop33
280
0
102
RTVSPost2010PropOp33
 70
1
102
RTVSPost2010Prop34
280
0
102
RTVSPost2010PropOp34
 70
1
102
RTVSPost2010Prop35
280
0
102
RTVSPost2010PropOp35
 70
1
102
RTVSPost2010Prop36
280
0
102
RTVSPost2010PropOp36
 70
1
102
RTVSPost2010Prop37
 90
50
102
RTVSPost2010PropOp37
 70
1
102
RTVSPost2010Prop38
140
0.0
102
RTVSPost2010PropOp38
 70
1
102
RTVSPost2010Prop39
140
1.0
102
RTVSPost2010PropOp39
 70
1
102
RTVSPost2010Prop40
 90
0
102
RTVSPost2010PropOp40
 70
1
102
RTVSPost2010Prop41ColorIndex
 90
18
102
RTVSPost2010Prop41ColorRGB
 90
0
102
RTVSPost2010PropOp41
 70
1
102
RTVSPost2010Prop42
 90
50
102
RTVSPost2010PropOp42
 70
1
102
RTVSPost2010Prop43
 90
3
102
RTVSPost2010PropOp43
 70
1
102
RTVSPost2010Prop44ColorIndex
 90
5
102
RTVSPost2010Prop44ColorRGB
 90
255
102
RTVSPost2010PropOp44
 70
1
102
RTVSPost2010Prop45
280
0
102
RTVSPost2010PropOp45
 70
1
102
RTVSPost2010Prop46
 90
50
102
RTVSPost2010PropOp46
 70
1
102
RTVSPost2010Prop47
 90
50
102
RTVSPost2010PropOp47
 70
1
102
RTVSPost2010Prop48
 90
50
102
RTVSPost2010PropOp48
 70
1
102
RTVSPost2010Prop49
280
0
102
RTVSPost2010PropOp49
 70
1
102
RTVSPost2010Prop50
 90
50
102
RTVSPost2010PropOp50
 70
1
102
RTVSPost2010Prop51ColorIndex
 90
256
102
RTVSPost2010Prop51ColorRGB
 90
-16777216
102
RTVSPost2010PropOp51
 70
0
102
RTVSPost2010Prop52
140
1.0
102
RTVSPost2010PropOp52
 70
0
102
RTVSPost2010Prop53
 90
2
102
RTVSPost2010PropOp53
 70
1
102
RTVSPost2010Prop54
  1
strokes_ogs.tif
102
RTVSPost2010PropOp54
 70
1
102
RTVSPost2010Prop55
280
0
102
RTVSPost2010PropOp55
 70
1
102
RTVSPost2010Prop56
140
1.0
102
RTVSPost2010PropOp56
 70
1
102
RTVSPost2010Prop57
140
1.0
102
RTVSPost2010PropOp57
 70
1
102
RTVSPropertyOp0
 70
1
102
RTVSPropertyOp1
 70
1
102
RTVSPropertyOp2
 70
1
102
RTVSPropertyOp3
 70
1
102
RTVSPropertyOp4
 70
1
102
RTVSPropertyOp5
 70
1
102
RTVSPropertyOp6
 70
1
102
RTVSPropertyOp7
 70
1
102
RTVSPropertyOp8
 70
1
102
RTVSPropertyOp9
 70
1
102
RTVSPropertyOp10
 70
1
102
RTVSPropertyOp11
 70
1
102
RTVSPropertyOp12
 70
1
102
RTVSPropertyOp13
 70
1
102
RTVSPropertyOp14
 70
1
102
RTVSPropertyOp15
 70
1
102
RTVSPropertyOp16
 70
1
102
RTVSPropertyOp17
 70
1
102
RTVSPropertyOp18
 70
1
102
RTVSPropertyOp19
 70
1
102
RTVSPropertyOp20
 70
1
102
RTVSPropertyOp21
 70
1
102
RTVSPropertyOp22
 70
1
102
RTVSPropertyOp23
 70
1
102
RTVSPropertyOp24
 70
1
102
RTVSPropertyOp25
 70
1
102
RTVSPropertyOp26
 70
1
102
RTVSPropertyOp27
 70
1
102
RTVSPropertyOp28
 70
1
102
RTVSPropertyOp29
 70
1
102
RTVSPropertyOp30
 70
1
102
RTVSPropertyOp31
 70
1
102
RTVSPropertyOp32
 70
1
102
RTVSPropertyOp33
 70
1
102
RTVSPropertyOp34
 70
1
102
RTVSPropertyOp35
 70
1
102
RTVSPropertyOp36
 70
1
102
RTVSPropertyOp37
 70
1
102
RTVSPropertyOp38
 70
1
102
RTVSPropertyOp39
 70
1
102
RTVSPropertyOp40
 70
1
102
RTVSPropertyOp41
 70
1
102
RTVSPropertyOp42
 70
1
102
RTVSPropertyOp43
 70
1
102
RTVSPropertyOp44
 70
1
102
RTVSPropertyOp45
 70
1
102
RTVSPropertyOp46
 70
1
102
RTVSPropertyOp47
 70
1
102
RTVSPropertyOp48
 70
1
102
RTVSPropertyOp49
 70
1
102
RTVSPropertyOp50
 70
1
102
RTVSPropertyOp51
 70
0
102
RTVSPropertyOp52
 70
0
102
RTVSPropertyOp53
 70
1
102
RTVSPropertyOp54
 70
1
102
RTVSPropertyOp55
 70
1
102
RTVSPropertyOp56
 70
1
102
RTVSPropertyOp57
 70
1
102
RTVSPropertyOp58
 70
1
102
RTVSPropertyOp59
 70
1
102
RTVSPropertyOp60
 70
1
102
RTVSPropertyOp61
 70
1
102
RTVSPropertyOp62
 70
1
  0
XRECORD
  5
A68
102
{ACAD_REACTORS
330
A67
102
}
330
A67
100
AcDbXrecord
280
1
102
RTVSPost2010Prop28
280
0
102
RTVSPost2010PropOp28
 70
1
102
RTVSPost2010Prop29
280
1
102
RTVSPost2010PropOp29
 70
1
102
RTVSPost2010Prop30
280
1
102
RTVSPost2010PropOp30
 70
1
102
RTVSPost2010Prop31
280
0
102
RTVSPost2010PropOp31
 70
1
102
RTVSPost2010Prop32
280
0
102
RTVSPost2010PropOp32
 70
1
102
RTVSPost2010Prop33
280
0
102
RTVSPost2010PropOp33
 70
1
102
RTVSPost2010Prop34
280
0
102
RTVSPost2010PropOp34
 70
1
102
RTVSPost2010Prop35
280
0
102
RTVSPost2010PropOp35
 70
1
102
RTVSPost2010Prop36
280
0
102
RTVSPost2010PropOp36
 70
1
102
RTVSPost2010Prop37
 90
50
102
RTVSPost2010PropOp37
 70
1
102
RTVSPost2010Prop38
140
0.0
102
RTVSPost2010PropOp38
 70
1
102
RTVSPost2010Prop39
140
1.0
102
RTVSPost2010PropOp39
 70
1
102
RTVSPost2010Prop40
 90
0
102
RTVSPost2010PropOp40
 70
1
102
RTVSPost2010Prop41ColorIndex
 90
18
102
RTVSPost2010Prop41ColorRGB
 90
0
102
RTVSPost2010PropOp41
 70
1
102
RTVSPost2010Prop42
 90
50
102
RTVSPost2010PropOp42
 70
1
102
RTVSPost2010Prop43
 90
3
102
RTVSPost2010PropOp43
 70
1
102
RTVSPost2010Prop44ColorIndex
 90
5
102
RTVSPost2010Prop44ColorRGB
 90
255
102
RTVSPost2010PropOp44
 70
1
102
RTVSPost2010Prop45
280
0
102
RTVSPost2010PropOp45
 70
1
102
RTVSPost2010Prop46
 90
50
102
RTVSPost2010PropOp46
 70
1
102
RTVSPost2010Prop47
 90
50
102
RTVSPost2010PropOp47
 70
1
102
RTVSPost2010Prop48
 90
50
102
RTVSPost2010PropOp48
 70
1
102
RTVSPost2010Prop49
280
0
102
RTVSPost2010PropOp49
 70
1
102
RTVSPost2010Prop50
 90
50
102
RTVSPost2010PropOp50
 70
1
102
RTVSPost2010Prop51ColorIndex
 90
256
102
RTVSPost2010Prop51ColorRGB
 90
-16777216
102
RTVSPost2010PropOp51
 70
0
102
RTVSPost2010Prop52
140
1.0
102
RTVSPost2010PropOp52
 70
0
102
RTVSPost2010Prop53
 90
2
102
RTVSPost2010PropOp53
 70
1
102
RTVSPost2010Prop54
  1
strokes_ogs.tif
102
RTVSPost2010PropOp54
 70
1
102
RTVSPost2010Prop55
280
0
102
RTVSPost2010PropOp55
 70
1
102
RTVSPost2010Prop56
140
1.0
102
RTVSPost2010PropOp56
 70
1
102
RTVSPost2010Prop57
140
1.0
102
RTVSPost2010PropOp57
 70
1
102
RTVSPropertyOp0
 70
1
102
RTVSPropertyOp1
 70
1
102
RTVSPropertyOp2
 70
1
102
RTVSPropertyOp3
 70
1
102
RTVSPropertyOp4
 70
1
102
RTVSPropertyOp5
 70
1
102
RTVSPropertyOp6
 70
1
102
RTVSPropertyOp7
 70
1
102
RTVSPropertyOp8
 70
1
102
RTVSPropertyOp9
 70
1
102
RTVSPropertyOp10
 70
1
102
RTVSPropertyOp11
 70
1
102
RTVSPropertyOp12
 70
1
102
RTVSPropertyOp13
 70
1
102
RTVSPropertyOp14
 70
1
102
RTVSPropertyOp15
 70
1
102
RTVSPropertyOp16
 70
1
102
RTVSPropertyOp17
 70
1
102
RTVSPropertyOp18
 70
1
102
RTVSPropertyOp19
 70
1
102
RTVSPropertyOp20
 70
1
102
RTVSPropertyOp21
 70
1
102
RTVSPropertyOp22
 70
1
102
RTVSPropertyOp23
 70
1
102
RTVSPropertyOp24
 70
1
102
RTVSPropertyOp25
 70
1
102
RTVSPropertyOp26
 70
1
102
RTVSPropertyOp27
 70
1
102
RTVSPropertyOp28
 70
1
102
RTVSPropertyOp29
 70
1
102
RTVSPropertyOp30
 70
1
102
RTVSPropertyOp31
 70
1
102
RTVSPropertyOp32
 70
1
102
RTVSPropertyOp33
 70
1
102
RTVSPropertyOp34
 70
1
102
RTVSPropertyOp35
 70
1
102
RTVSPropertyOp36
 70
1
102
RTVSPropertyOp37
 70
1
102
RTVSPropertyOp38
 70
1
102
RTVSPropertyOp39
 70
1
102
RTVSPropertyOp40
 70
1
102
RTVSPropertyOp41
 70
1
102
RTVSPropertyOp42
 70
1
102
RTVSPropertyOp43
 70
1
102
RTVSPropertyOp44
 70
1
102
RTVSPropertyOp45
 70
1
102
RTVSPropertyOp46
 70
1
102
RTVSPropertyOp47
 70
1
102
RTVSPropertyOp48
 70
1
102
RTVSPropertyOp49
 70
1
102
RTVSPropertyOp50
 70
1
102
RTVSPropertyOp51
 70
0
102
RTVSPropertyOp52
 70
0
102
RTVSPropertyOp53
 70
1
102
RTVSPropertyOp54
 70
1
102
RTVSPropertyOp55
 70
1
102
RTVSPropertyOp56
 70
1
102
RTVSPropertyOp57
 70
1
102
RTVSPropertyOp58
 70
1
102
RTVSPropertyOp59
 70
1
102
RTVSPropertyOp60
 70
1
102
RTVSPropertyOp61
 70
1
102
RTVSPropertyOp62
 70
1
  0
XRECORD
  5
A6A
102
{ACAD_REACTORS
330
A69
102
}
330
A69
100
AcDbXrecord
280
1
102
RTVSPost2010Prop28
280
0
102
RTVSPost2010PropOp28
 70
1
102
RTVSPost2010Prop29
280
1
102
RTVSPost2010PropOp29
 70
1
102
RTVSPost2010Prop30
280
1
102
RTVSPost2010PropOp30
 70
1
102
RTVSPost2010Prop31
280
0
102
RTVSPost2010PropOp31
 70
1
102
RTVSPost2010Prop32
280
0
102
RTVSPost2010PropOp32
 70
1
102
RTVSPost2010Prop33
280
0
102
RTVSPost2010PropOp33
 70
1
102
RTVSPost2010Prop34
280
0
102
RTVSPost2010PropOp34
 70
1
102
RTVSPost2010Prop35
280
0
102
RTVSPost2010PropOp35
 70
1
102
RTVSPost2010Prop36
280
0
102
RTVSPost2010PropOp36
 70
1
102
RTVSPost2010Prop37
 90
50
102
RTVSPost2010PropOp37
 70
1
102
RTVSPost2010Prop38
140
0.0
102
RTVSPost2010PropOp38
 70
1
102
RTVSPost2010Prop39
140
1.0
102
RTVSPost2010PropOp39
 70
1
102
RTVSPost2010Prop40
 90
0
102
RTVSPost2010PropOp40
 70
1
102
RTVSPost2010Prop41ColorIndex
 90
18
102
RTVSPost2010Prop41ColorRGB
 90
0
102
RTVSPost2010PropOp41
 70
1
102
RTVSPost2010Prop42
 90
50
102
RTVSPost2010PropOp42
 70
1
102
RTVSPost2010Prop43
 90
3
102
RTVSPost2010PropOp43
 70
1
102
RTVSPost2010Prop44ColorIndex
 90
5
102
RTVSPost2010Prop44ColorRGB
 90
255
102
RTVSPost2010PropOp44
 70
1
102
RTVSPost2010Prop45
280
0
102
RTVSPost2010PropOp45
 70
1
102
RTVSPost2010Prop46
 90
50
102
RTVSPost2010PropOp46
 70
1
102
RTVSPost2010Prop47
 90
50
102
RTVSPost2010PropOp47
 70
1
102
RTVSPost2010Prop48
 90
50
102
RTVSPost2010PropOp48
 70
1
102
RTVSPost2010Prop49
280
0
102
RTVSPost2010PropOp49
 70
1
102
RTVSPost2010Prop50
 90
50
102
RTVSPost2010PropOp50
 70
1
102
RTVSPost2010Prop51ColorIndex
 90
256
102
RTVSPost2010Prop51ColorRGB
 90
-16777216
102
RTVSPost2010PropOp51
 70
0
102
RTVSPost2010Prop52
140
1.0
102
RTVSPost2010PropOp52
 70
0
102
RTVSPost2010Prop53
 90
2
102
RTVSPost2010PropOp53
 70
1
102
RTVSPost2010Prop54
  1
strokes_ogs.tif
102
RTVSPost2010PropOp54
 70
1
102
RTVSPost2010Prop55
280
0
102
RTVSPost2010PropOp55
 70
1
102
RTVSPost2010Prop56
140
1.0
102
RTVSPost2010PropOp56
 70
1
102
RTVSPost2010Prop57
140
1.0
102
RTVSPost2010PropOp57
 70
1
102
RTVSPropertyOp0
 70
1
102
RTVSPropertyOp1
 70
1
102
RTVSPropertyOp2
 70
1
102
RTVSPropertyOp3
 70
1
102
RTVSPropertyOp4
 70
1
102
RTVSPropertyOp5
 70
1
102
RTVSPropertyOp6
 70
1
102
RTVSPropertyOp7
 70
1
102
RTVSPropertyOp8
 70
1
102
RTVSPropertyOp9
 70
1
102
RTVSPropertyOp10
 70
1
102
RTVSPropertyOp11
 70
1
102
RTVSPropertyOp12
 70
1
102
RTVSPropertyOp13
 70
1
102
RTVSPropertyOp14
 70
1
102
RTVSPropertyOp15
 70
1
102
RTVSPropertyOp16
 70
1
102
RTVSPropertyOp17
 70
1
102
RTVSPropertyOp18
 70
1
102
RTVSPropertyOp19
 70
1
102
RTVSPropertyOp20
 70
1
102
RTVSPropertyOp21
 70
1
102
RTVSPropertyOp22
 70
1
102
RTVSPropertyOp23
 70
1
102
RTVSPropertyOp24
 70
1
102
RTVSPropertyOp25
 70
1
102
RTVSPropertyOp26
 70
1
102
RTVSPropertyOp27
 70
1
102
RTVSPropertyOp28
 70
1
102
RTVSPropertyOp29
 70
1
102
RTVSPropertyOp30
 70
1
102
RTVSPropertyOp31
 70
1
102
RTVSPropertyOp32
 70
1
102
RTVSPropertyOp33
 70
1
102
RTVSPropertyOp34
 70
1
102
RTVSPropertyOp35
 70
1
102
RTVSPropertyOp36
 70
1
102
RTVSPropertyOp37
 70
1
102
RTVSPropertyOp38
 70
1
102
RTVSPropertyOp39
 70
1
102
RTVSPropertyOp40
 70
1
102
RTVSPropertyOp41
 70
1
102
RTVSPropertyOp42
 70
1
102
RTVSPropertyOp43
 70
1
102
RTVSPropertyOp44
 70
1
102
RTVSPropertyOp45
 70
1
102
RTVSPropertyOp46
 70
1
102
RTVSPropertyOp47
 70
1
102
RTVSPropertyOp48
 70
1
102
RTVSPropertyOp49
 70
1
102
RTVSPropertyOp50
 70
1
102
RTVSPropertyOp51
 70
0
102
RTVSPropertyOp52
 70
0
102
RTVSPropertyOp53
 70
1
102
RTVSPropertyOp54
 70
1
102
RTVSPropertyOp55
 70
1
102
RTVSPropertyOp56
 70
1
102
RTVSPropertyOp57
 70
1
102
RTVSPropertyOp58
 70
1
102
RTVSPropertyOp59
 70
1
102
RTVSPropertyOp60
 70
1
102
RTVSPropertyOp61
 70
1
102
RTVSPropertyOp62
 70
1
  0
XRECORD
  5
A72
102
{ACAD_REACTORS
330
A71
102
}
330
A71
100
AcDbXrecord
280
1
102
RTVSPost2010Prop28
280
0
102
RTVSPost2010PropOp28
 70
1
102
RTVSPost2010Prop29
280
1
102
RTVSPost2010PropOp29
 70
1
102
RTVSPost2010Prop30
280
1
102
RTVSPost2010PropOp30
 70
1
102
RTVSPost2010Prop31
280
0
102
RTVSPost2010PropOp31
 70
1
102
RTVSPost2010Prop32
280
0
102
RTVSPost2010PropOp32
 70
1
102
RTVSPost2010Prop33
280
0
102
RTVSPost2010PropOp33
 70
1
102
RTVSPost2010Prop34
280
0
102
RTVSPost2010PropOp34
 70
1
102
RTVSPost2010Prop35
280
0
102
RTVSPost2010PropOp35
 70
1
102
RTVSPost2010Prop36
280
0
102
RTVSPost2010PropOp36
 70
1
102
RTVSPost2010Prop37
 90
50
102
RTVSPost2010PropOp37
 70
1
102
RTVSPost2010Prop38
140
0.0
102
RTVSPost2010PropOp38
 70
1
102
RTVSPost2010Prop39
140
1.0
102
RTVSPost2010PropOp39
 70
1
102
RTVSPost2010Prop40
 90
0
102
RTVSPost2010PropOp40
 70
1
102
RTVSPost2010Prop41ColorIndex
 90
18
102
RTVSPost2010Prop41ColorRGB
 90
0
102
RTVSPost2010PropOp41
 70
1
102
RTVSPost2010Prop42
 90
50
102
RTVSPost2010PropOp42
 70
1
102
RTVSPost2010Prop43
 90
3
102
RTVSPost2010PropOp43
 70
1
102
RTVSPost2010Prop44ColorIndex
 90
5
102
RTVSPost2010Prop44ColorRGB
 90
255
102
RTVSPost2010PropOp44
 70
1
102
RTVSPost2010Prop45
280
0
102
RTVSPost2010PropOp45
 70
1
102
RTVSPost2010Prop46
 90
50
102
RTVSPost2010PropOp46
 70
1
102
RTVSPost2010Prop47
 90
50
102
RTVSPost2010PropOp47
 70
1
102
RTVSPost2010Prop48
 90
50
102
RTVSPost2010PropOp48
 70
1
102
RTVSPost2010Prop49
280
0
102
RTVSPost2010PropOp49
 70
1
102
RTVSPost2010Prop50
 90
50
102
RTVSPost2010PropOp50
 70
1
102
RTVSPost2010Prop51ColorIndex
 90
256
102
RTVSPost2010Prop51ColorRGB
 90
-16777216
102
RTVSPost2010PropOp51
 70
0
102
RTVSPost2010Prop52
140
1.0
102
RTVSPost2010PropOp52
 70
0
102
RTVSPost2010Prop53
 90
2
102
RTVSPost2010PropOp53
 70
1
102
RTVSPost2010Prop54
  1
strokes_ogs.tif
102
RTVSPost2010PropOp54
 70
1
102
RTVSPost2010Prop55
280
0
102
RTVSPost2010PropOp55
 70
1
102
RTVSPost2010Prop56
140
1.0
102
RTVSPost2010PropOp56
 70
1
102
RTVSPost2010Prop57
140
1.0
102
RTVSPost2010PropOp57
 70
1
102
RTVSPropertyOp0
 70
1
102
RTVSPropertyOp1
 70
1
102
RTVSPropertyOp2
 70
1
102
RTVSPropertyOp3
 70
1
102
RTVSPropertyOp4
 70
1
102
RTVSPropertyOp5
 70
1
102
RTVSPropertyOp6
 70
1
102
RTVSPropertyOp7
 70
1
102
RTVSPropertyOp8
 70
1
102
RTVSPropertyOp9
 70
1
102
RTVSPropertyOp10
 70
1
102
RTVSPropertyOp11
 70
1
102
RTVSPropertyOp12
 70
1
102
RTVSPropertyOp13
 70
1
102
RTVSPropertyOp14
 70
1
102
RTVSPropertyOp15
 70
1
102
RTVSPropertyOp16
 70
1
102
RTVSPropertyOp17
 70
1
102
RTVSPropertyOp18
 70
1
102
RTVSPropertyOp19
 70
1
102
RTVSPropertyOp20
 70
1
102
RTVSPropertyOp21
 70
1
102
RTVSPropertyOp22
 70
1
102
RTVSPropertyOp23
 70
1
102
RTVSPropertyOp24
 70
1
102
RTVSPropertyOp25
 70
1
102
RTVSPropertyOp26
 70
1
102
RTVSPropertyOp27
 70
1
102
RTVSPropertyOp28
 70
1
102
RTVSPropertyOp29
 70
1
102
RTVSPropertyOp30
 70
1
102
RTVSPropertyOp31
 70
1
102
RTVSPropertyOp32
 70
1
102
RTVSPropertyOp33
 70
1
102
RTVSPropertyOp34
 70
1
102
RTVSPropertyOp35
 70
1
102
RTVSPropertyOp36
 70
1
102
RTVSPropertyOp37
 70
1
102
RTVSPropertyOp38
 70
1
102
RTVSPropertyOp39
 70
1
102
RTVSPropertyOp40
 70
1
102
RTVSPropertyOp41
 70
1
102
RTVSPropertyOp42
 70
1
102
RTVSPropertyOp43
 70
1
102
RTVSPropertyOp44
 70
1
102
RTVSPropertyOp45
 70
1
102
RTVSPropertyOp46
 70
1
102
RTVSPropertyOp47
 70
1
102
RTVSPropertyOp48
 70
1
102
RTVSPropertyOp49
 70
1
102
RTVSPropertyOp50
 70
1
102
RTVSPropertyOp51
 70
0
102
RTVSPropertyOp52
 70
0
102
RTVSPropertyOp53
 70
1
102
RTVSPropertyOp54
 70
1
102
RTVSPropertyOp55
 70
1
102
RTVSPropertyOp56
 70
1
102
RTVSPropertyOp57
 70
1
102
RTVSPropertyOp58
 70
1
102
RTVSPropertyOp59
 70
1
102
RTVSPropertyOp60
 70
1
102
RTVSPropertyOp61
 70
1
102
RTVSPropertyOp62
 70
1
  0
XRECORD
  5
A8E
102
{ACAD_REACTORS
330
A8D
102
}
330
A8D
100
AcDbXrecord
280
1
102
RTVSPost2010Prop28
280
0
102
RTVSPost2010PropOp28
 70
1
102
RTVSPost2010Prop29
280
1
102
RTVSPost2010PropOp29
 70
1
102
RTVSPost2010Prop30
280
1
102
RTVSPost2010PropOp30
 70
1
102
RTVSPost2010Prop31
280
0
102
RTVSPost2010PropOp31
 70
1
102
RTVSPost2010Prop32
280
0
102
RTVSPost2010PropOp32
 70
1
102
RTVSPost2010Prop33
280
0
102
RTVSPost2010PropOp33
 70
1
102
RTVSPost2010Prop34
280
0
102
RTVSPost2010PropOp34
 70
1
102
RTVSPost2010Prop35
280
0
102
RTVSPost2010PropOp35
 70
1
102
RTVSPost2010Prop36
280
0
102
RTVSPost2010PropOp36
 70
1
102
RTVSPost2010Prop37
 90
50
102
RTVSPost2010PropOp37
 70
0
102
RTVSPost2010Prop38
140
0.0
102
RTVSPost2010PropOp38
 70
0
102
RTVSPost2010Prop39
140
1.0
102
RTVSPost2010PropOp39
 70
0
102
RTVSPost2010Prop40
 90
0
102
RTVSPost2010PropOp40
 70
0
102
RTVSPost2010Prop41ColorIndex
 90
18
102
RTVSPost2010Prop41ColorRGB
 90
0
102
RTVSPost2010PropOp41
 70
0
102
RTVSPost2010Prop42
 90
50
102
RTVSPost2010PropOp42
 70
0
102
RTVSPost2010Prop43
 90
3
102
RTVSPost2010PropOp43
 70
0
102
RTVSPost2010Prop44ColorIndex
 90
5
102
RTVSPost2010Prop44ColorRGB
 90
255
102
RTVSPost2010PropOp44
 70
0
102
RTVSPost2010Prop45
280
0
102
RTVSPost2010PropOp45
 70
1
102
RTVSPost2010Prop46
 90
50
102
RTVSPost2010PropOp46
 70
0
102
RTVSPost2010Prop47
 90
50
102
RTVSPost2010PropOp47
 70
0
102
RTVSPost2010Prop48
 90
50
102
RTVSPost2010PropOp48
 70
0
102
RTVSPost2010Prop49
280
0
102
RTVSPost2010PropOp49
 70
1
102
RTVSPost2010Prop50
 90
50
102
RTVSPost2010PropOp50
 70
0
102
RTVSPost2010Prop51ColorIndex
 90
256
102
RTVSPost2010Prop51ColorRGB
 90
-16777216
102
RTVSPost2010PropOp51
 70
0
102
RTVSPost2010Prop52
140
1.0
102
RTVSPost2010PropOp52
 70
0
102
RTVSPost2010Prop53
 90
2
102
RTVSPost2010PropOp53
 70
0
102
RTVSPost2010Prop54
  1
strokes_ogs.tif
102
RTVSPost2010PropOp54
 70
0
102
RTVSPost2010Prop55
280
0
102
RTVSPost2010PropOp55
 70
1
102
RTVSPost2010Prop56
140
1.0
102
RTVSPost2010PropOp56
 70
0
102
RTVSPost2010Prop57
140
1.0
102
RTVSPost2010PropOp57
 70
0
102
RTVSPropertyOp0
 70
0
102
RTVSPropertyOp1
 70
0
102
RTVSPropertyOp2
 70
0
102
RTVSPropertyOp3
 70
0
102
RTVSPropertyOp4
 70
0
102
RTVSPropertyOp5
 70
0
102
RTVSPropertyOp6
 70
0
102
RTVSPropertyOp7
 70
0
102
RTVSPropertyOp8
 70
0
102
RTVSPropertyOp9
 70
0
102
RTVSPropertyOp10
 70
0
102
RTVSPropertyOp11
 70
0
102
RTVSPropertyOp12
 70
0
102
RTVSPropertyOp13
 70
0
102
RTVSPropertyOp14
 70
2
102
RTVSPropertyOp15
 70
0
102
RTVSPropertyOp16
 70
0
102
RTVSPropertyOp17
 70
0
102
RTVSPropertyOp18
 70
0
102
RTVSPropertyOp19
 70
0
102
RTVSPropertyOp20
 70
0
102
RTVSPropertyOp21
 70
0
102
RTVSPropertyOp22
 70
0
102
RTVSPropertyOp23
 70
0
102
RTVSPropertyOp24
 70
0
102
RTVSPropertyOp25
 70
0
102
RTVSPropertyOp26
 70
0
102
RTVSPropertyOp27
 70
0
102
RTVSPropertyOp28
 70
1
102
RTVSPropertyOp29
 70
1
102
RTVSPropertyOp30
 70
1
102
RTVSPropertyOp31
 70
1
102
RTVSPropertyOp32
 70
1
102
RTVSPropertyOp33
 70
1
102
RTVSPropertyOp34
 70
1
102
RTVSPropertyOp35
 70
1
102
RTVSPropertyOp36
 70
1
102
RTVSPropertyOp37
 70
0
102
RTVSPropertyOp38
 70
0
102
RTVSPropertyOp39
 70
0
102
RTVSPropertyOp40
 70
0
102
RTVSPropertyOp41
 70
0
102
RTVSPropertyOp42
 70
0
102
RTVSPropertyOp43
 70
0
102
RTVSPropertyOp44
 70
0
102
RTVSPropertyOp45
 70
1
102
RTVSPropertyOp46
 70
0
102
RTVSPropertyOp47
 70
0
102
RTVSPropertyOp48
 70
0
102
RTVSPropertyOp49
 70
1
102
RTVSPropertyOp50
 70
0
102
RTVSPropertyOp51
 70
0
102
RTVSPropertyOp52
 70
0
102
RTVSPropertyOp53
 70
0
102
RTVSPropertyOp54
 70
0
102
RTVSPropertyOp55
 70
1
102
RTVSPropertyOp56
 70
0
102
RTVSPropertyOp57
 70
0
102
RTVSPropertyOp58
 70
0
102
RTVSPropertyOp59
 70
0
102
RTVSPropertyOp60
 70
0
102
RTVSPropertyOp61
 70
0
102
RTVSPropertyOp62
 70
0
  0
XRECORD
  5
A7E
102
{ACAD_REACTORS
330
A7D
102
}
330
A7D
100
AcDbXrecord
280
1
102
RTVSPost2010Prop28
280
0
102
RTVSPost2010PropOp28
 70
1
102
RTVSPost2010Prop29
280
1
102
RTVSPost2010PropOp29
 70
1
102
RTVSPost2010Prop30
280
1
102
RTVSPost2010PropOp30
 70
1
102
RTVSPost2010Prop31
280
0
102
RTVSPost2010PropOp31
 70
1
102
RTVSPost2010Prop32
280
0
102
RTVSPost2010PropOp32
 70
1
102
RTVSPost2010Prop33
280
0
102
RTVSPost2010PropOp33
 70
1
102
RTVSPost2010Prop34
280
0
102
RTVSPost2010PropOp34
 70
1
102
RTVSPost2010Prop35
280
0
102
RTVSPost2010PropOp35
 70
1
102
RTVSPost2010Prop36
280
0
102
RTVSPost2010PropOp36
 70
1
102
RTVSPost2010Prop37
 90
50
102
RTVSPost2010PropOp37
 70
1
102
RTVSPost2010Prop38
140
0.0
102
RTVSPost2010PropOp38
 70
1
102
RTVSPost2010Prop39
140
1.0
102
RTVSPost2010PropOp39
 70
1
102
RTVSPost2010Prop40
 90
0
102
RTVSPost2010PropOp40
 70
1
102
RTVSPost2010Prop41ColorIndex
 90
18
102
RTVSPost2010Prop41ColorRGB
 90
0
102
RTVSPost2010PropOp41
 70
1
102
RTVSPost2010Prop42
 90
50
102
RTVSPost2010PropOp42
 70
1
102
RTVSPost2010Prop43
 90
3
102
RTVSPost2010PropOp43
 70
1
102
RTVSPost2010Prop44ColorIndex
 90
5
102
RTVSPost2010Prop44ColorRGB
 90
255
102
RTVSPost2010PropOp44
 70
1
102
RTVSPost2010Prop45
280
0
102
RTVSPost2010PropOp45
 70
1
102
RTVSPost2010Prop46
 90
50
102
RTVSPost2010PropOp46
 70
1
102
RTVSPost2010Prop47
 90
50
102
RTVSPost2010PropOp47
 70
1
102
RTVSPost2010Prop48
 90
50
102
RTVSPost2010PropOp48
 70
1
102
RTVSPost2010Prop49
280
0
102
RTVSPost2010PropOp49
 70
1
102
RTVSPost2010Prop50
 90
50
102
RTVSPost2010PropOp50
 70
1
102
RTVSPost2010Prop51ColorIndex
 90
256
102
RTVSPost2010Prop51ColorRGB
 90
-16777216
102
RTVSPost2010PropOp51
 70
0
102
RTVSPost2010Prop52
140
1.0
102
RTVSPost2010PropOp52
 70
0
102
RTVSPost2010Prop53
 90
2
102
RTVSPost2010PropOp53
 70
1
102
RTVSPost2010Prop54
  1
strokes_ogs.tif
102
RTVSPost2010PropOp54
 70
1
102
RTVSPost2010Prop55
280
0
102
RTVSPost2010PropOp55
 70
1
102
RTVSPost2010Prop56
140
1.0
102
RTVSPost2010PropOp56
 70
1
102
RTVSPost2010Prop57
140
1.0
102
RTVSPost2010PropOp57
 70
1
102
RTVSPropertyOp0
 70
1
102
RTVSPropertyOp1
 70
1
102
RTVSPropertyOp2
 70
1
102
RTVSPropertyOp3
 70
1
102
RTVSPropertyOp4
 70
1
102
RTVSPropertyOp5
 70
1
102
RTVSPropertyOp6
 70
1
102
RTVSPropertyOp7
 70
1
102
RTVSPropertyOp8
 70
1
102
RTVSPropertyOp9
 70
1
102
RTVSPropertyOp10
 70
1
102
RTVSPropertyOp11
 70
1
102
RTVSPropertyOp12
 70
1
102
RTVSPropertyOp13
 70
1
102
RTVSPropertyOp14
 70
1
102
RTVSPropertyOp15
 70
1
102
RTVSPropertyOp16
 70
1
102
RTVSPropertyOp17
 70
1
102
RTVSPropertyOp18
 70
1
102
RTVSPropertyOp19
 70
1
102
RTVSPropertyOp20
 70
1
102
RTVSPropertyOp21
 70
1
102
RTVSPropertyOp22
 70
1
102
RTVSPropertyOp23
 70
1
102
RTVSPropertyOp24
 70
1
102
RTVSPropertyOp25
 70
1
102
RTVSPropertyOp26
 70
1
102
RTVSPropertyOp27
 70
1
102
RTVSPropertyOp28
 70
1
102
RTVSPropertyOp29
 70
1
102
RTVSPropertyOp30
 70
1
102
RTVSPropertyOp31
 70
1
102
RTVSPropertyOp32
 70
1
102
RTVSPropertyOp33
 70
1
102
RTVSPropertyOp34
 70
1
102
RTVSPropertyOp35
 70
1
102
RTVSPropertyOp36
 70
1
102
RTVSPropertyOp37
 70
1
102
RTVSPropertyOp38
 70
1
102
RTVSPropertyOp39
 70
1
102
RTVSPropertyOp40
 70
1
102
RTVSPropertyOp41
 70
1
102
RTVSPropertyOp42
 70
1
102
RTVSPropertyOp43
 70
1
102
RTVSPropertyOp44
 70
1
102
RTVSPropertyOp45
 70
1
102
RTVSPropertyOp46
 70
1
102
RTVSPropertyOp47
 70
1
102
RTVSPropertyOp48
 70
1
102
RTVSPropertyOp49
 70
1
102
RTVSPropertyOp50
 70
1
102
RTVSPropertyOp51
 70
0
102
RTVSPropertyOp52
 70
0
102
RTVSPropertyOp53
 70
1
102
RTVSPropertyOp54
 70
1
102
RTVSPropertyOp55
 70
1
102
RTVSPropertyOp56
 70
1
102
RTVSPropertyOp57
 70
1
102
RTVSPropertyOp58
 70
1
102
RTVSPropertyOp59
 70
1
102
RTVSPropertyOp60
 70
1
102
RTVSPropertyOp61
 70
1
102
RTVSPropertyOp62
 70
1
  0
XRECORD
  5
A90
102
{ACAD_REACTORS
330
A8F
102
}
330
A8F
100
AcDbXrecord
280
1
102
RTVSPost2010Prop28
280
0
102
RTVSPost2010PropOp28
 70
1
102
RTVSPost2010Prop29
280
1
102
RTVSPost2010PropOp29
 70
1
102
RTVSPost2010Prop30
280
1
102
RTVSPost2010PropOp30
 70
1
102
RTVSPost2010Prop31
280
0
102
RTVSPost2010PropOp31
 70
1
102
RTVSPost2010Prop32
280
0
102
RTVSPost2010PropOp32
 70
1
102
RTVSPost2010Prop33
280
0
102
RTVSPost2010PropOp33
 70
1
102
RTVSPost2010Prop34
280
0
102
RTVSPost2010PropOp34
 70
1
102
RTVSPost2010Prop35
280
0
102
RTVSPost2010PropOp35
 70
1
102
RTVSPost2010Prop36
280
0
102
RTVSPost2010PropOp36
 70
1
102
RTVSPost2010Prop37
 90
50
102
RTVSPost2010PropOp37
 70
0
102
RTVSPost2010Prop38
140
0.0
102
RTVSPost2010PropOp38
 70
0
102
RTVSPost2010Prop39
140
1.0
102
RTVSPost2010PropOp39
 70
0
102
RTVSPost2010Prop40
 90
0
102
RTVSPost2010PropOp40
 70
0
102
RTVSPost2010Prop41ColorIndex
 90
18
102
RTVSPost2010Prop41ColorRGB
 90
0
102
RTVSPost2010PropOp41
 70
0
102
RTVSPost2010Prop42
 90
50
102
RTVSPost2010PropOp42
 70
0
102
RTVSPost2010Prop43
 90
3
102
RTVSPost2010PropOp43
 70
0
102
RTVSPost2010Prop44ColorIndex
 90
5
102
RTVSPost2010Prop44ColorRGB
 90
255
102
RTVSPost2010PropOp44
 70
0
102
RTVSPost2010Prop45
280
0
102
RTVSPost2010PropOp45
 70
1
102
RTVSPost2010Prop46
 90
50
102
RTVSPost2010PropOp46
 70
0
102
RTVSPost2010Prop47
 90
50
102
RTVSPost2010PropOp47
 70
0
102
RTVSPost2010Prop48
 90
50
102
RTVSPost2010PropOp48
 70
0
102
RTVSPost2010Prop49
280
0
102
RTVSPost2010PropOp49
 70
1
102
RTVSPost2010Prop50
 90
50
102
RTVSPost2010PropOp50
 70
0
102
RTVSPost2010Prop51ColorIndex
 90
256
102
RTVSPost2010Prop51ColorRGB
 90
-16777216
102
RTVSPost2010PropOp51
 70
0
102
RTVSPost2010Prop52
140
1.0
102
RTVSPost2010PropOp52
 70
0
102
RTVSPost2010Prop53
 90
2
102
RTVSPost2010PropOp53
 70
0
102
RTVSPost2010Prop54
  1
strokes_ogs.tif
102
RTVSPost2010PropOp54
 70
0
102
RTVSPost2010Prop55
280
0
102
RTVSPost2010PropOp55
 70
1
102
RTVSPost2010Prop56
140
1.0
102
RTVSPost2010PropOp56
 70
0
102
RTVSPost2010Prop57
140
1.0
102
RTVSPost2010PropOp57
 70
0
102
RTVSPropertyOp0
 70
0
102
RTVSPropertyOp1
 70
0
102
RTVSPropertyOp2
 70
0
102
RTVSPropertyOp3
 70
0
102
RTVSPropertyOp4
 70
0
102
RTVSPropertyOp5
 70
0
102
RTVSPropertyOp6
 70
0
102
RTVSPropertyOp7
 70
0
102
RTVSPropertyOp8
 70
0
102
RTVSPropertyOp9
 70
0
102
RTVSPropertyOp10
 70
0
102
RTVSPropertyOp11
 70
0
102
RTVSPropertyOp12
 70
0
102
RTVSPropertyOp13
 70
0
102
RTVSPropertyOp14
 70
2
102
RTVSPropertyOp15
 70
0
102
RTVSPropertyOp16
 70
0
102
RTVSPropertyOp17
 70
0
102
RTVSPropertyOp18
 70
0
102
RTVSPropertyOp19
 70
0
102
RTVSPropertyOp20
 70
0
102
RTVSPropertyOp21
 70
0
102
RTVSPropertyOp22
 70
0
102
RTVSPropertyOp23
 70
0
102
RTVSPropertyOp24
 70
0
102
RTVSPropertyOp25
 70
0
102
RTVSPropertyOp26
 70
0
102
RTVSPropertyOp27
 70
0
102
RTVSPropertyOp28
 70
1
102
RTVSPropertyOp29
 70
1
102
RTVSPropertyOp30
 70
1
102
RTVSPropertyOp31
 70
1
102
RTVSPropertyOp32
 70
1
102
RTVSPropertyOp33
 70
1
102
RTVSPropertyOp34
 70
1
102
RTVSPropertyOp35
 70
1
102
RTVSPropertyOp36
 70
1
102
RTVSPropertyOp37
 70
0
102
RTVSPropertyOp38
 70
0
102
RTVSPropertyOp39
 70
0
102
RTVSPropertyOp40
 70
0
102
RTVSPropertyOp41
 70
0
102
RTVSPropertyOp42
 70
0
102
RTVSPropertyOp43
 70
0
102
RTVSPropertyOp44
 70
0
102
RTVSPropertyOp45
 70
1
102
RTVSPropertyOp46
 70
0
102
RTVSPropertyOp47
 70
0
102
RTVSPropertyOp48
 70
0
102
RTVSPropertyOp49
 70
1
102
RTVSPropertyOp50
 70
0
102
RTVSPropertyOp51
 70
0
102
RTVSPropertyOp52
 70
0
102
RTVSPropertyOp53
 70
0
102
RTVSPropertyOp54
 70
0
102
RTVSPropertyOp55
 70
1
102
RTVSPropertyOp56
 70
0
102
RTVSPropertyOp57
 70
0
102
RTVSPropertyOp58
 70
0
102
RTVSPropertyOp59
 70
0
102
RTVSPropertyOp60
 70
0
102
RTVSPropertyOp61
 70
0
102
RTVSPropertyOp62
 70
0
  0
XRECORD
  5
A76
102
{ACAD_REACTORS
330
A75
102
}
330
A75
100
AcDbXrecord
280
1
102
RTVSPost2010Prop28
280
0
102
RTVSPost2010PropOp28
 70
1
102
RTVSPost2010Prop29
280
1
102
RTVSPost2010PropOp29
 70
1
102
RTVSPost2010Prop30
280
1
102
RTVSPost2010PropOp30
 70
1
102
RTVSPost2010Prop31
280
0
102
RTVSPost2010PropOp31
 70
1
102
RTVSPost2010Prop32
280
0
102
RTVSPost2010PropOp32
 70
1
102
RTVSPost2010Prop33
280
0
102
RTVSPost2010PropOp33
 70
1
102
RTVSPost2010Prop34
280
0
102
RTVSPost2010PropOp34
 70
1
102
RTVSPost2010Prop35
280
0
102
RTVSPost2010PropOp35
 70
1
102
RTVSPost2010Prop36
280
0
102
RTVSPost2010PropOp36
 70
1
102
RTVSPost2010Prop37
 90
50
102
RTVSPost2010PropOp37
 70
1
102
RTVSPost2010Prop38
140
0.0
102
RTVSPost2010PropOp38
 70
1
102
RTVSPost2010Prop39
140
1.0
102
RTVSPost2010PropOp39
 70
1
102
RTVSPost2010Prop40
 90
0
102
RTVSPost2010PropOp40
 70
1
102
RTVSPost2010Prop41ColorIndex
 90
18
102
RTVSPost2010Prop41ColorRGB
 90
0
102
RTVSPost2010PropOp41
 70
1
102
RTVSPost2010Prop42
 90
50
102
RTVSPost2010PropOp42
 70
1
102
RTVSPost2010Prop43
 90
3
102
RTVSPost2010PropOp43
 70
1
102
RTVSPost2010Prop44ColorIndex
 90
5
102
RTVSPost2010Prop44ColorRGB
 90
255
102
RTVSPost2010PropOp44
 70
1
102
RTVSPost2010Prop45
280
0
102
RTVSPost2010PropOp45
 70
1
102
RTVSPost2010Prop46
 90
50
102
RTVSPost2010PropOp46
 70
1
102
RTVSPost2010Prop47
 90
50
102
RTVSPost2010PropOp47
 70
1
102
RTVSPost2010Prop48
 90
50
102
RTVSPost2010PropOp48
 70
1
102
RTVSPost2010Prop49
280
0
102
RTVSPost2010PropOp49
 70
1
102
RTVSPost2010Prop50
 90
50
102
RTVSPost2010PropOp50
 70
1
102
RTVSPost2010Prop51ColorIndex
 90
256
102
RTVSPost2010Prop51ColorRGB
 90
-16777216
102
RTVSPost2010PropOp51
 70
0
102
RTVSPost2010Prop52
140
1.0
102
RTVSPost2010PropOp52
 70
0
102
RTVSPost2010Prop53
 90
2
102
RTVSPost2010PropOp53
 70
1
102
RTVSPost2010Prop54
  1
strokes_ogs.tif
102
RTVSPost2010PropOp54
 70
1
102
RTVSPost2010Prop55
280
0
102
RTVSPost2010PropOp55
 70
1
102
RTVSPost2010Prop56
140
1.0
102
RTVSPost2010PropOp56
 70
1
102
RTVSPost2010Prop57
140
1.0
102
RTVSPost2010PropOp57
 70
1
102
RTVSPropertyOp0
 70
1
102
RTVSPropertyOp1
 70
1
102
RTVSPropertyOp2
 70
1
102
RTVSPropertyOp3
 70
1
102
RTVSPropertyOp4
 70
1
102
RTVSPropertyOp5
 70
1
102
RTVSPropertyOp6
 70
1
102
RTVSPropertyOp7
 70
1
102
RTVSPropertyOp8
 70
1
102
RTVSPropertyOp9
 70
1
102
RTVSPropertyOp10
 70
1
102
RTVSPropertyOp11
 70
1
102
RTVSPropertyOp12
 70
1
102
RTVSPropertyOp13
 70
1
102
RTVSPropertyOp14
 70
1
102
RTVSPropertyOp15
 70
1
102
RTVSPropertyOp16
 70
1
102
RTVSPropertyOp17
 70
1
102
RTVSPropertyOp18
 70
1
102
RTVSPropertyOp19
 70
1
102
RTVSPropertyOp20
 70
1
102
RTVSPropertyOp21
 70
1
102
RTVSPropertyOp22
 70
1
102
RTVSPropertyOp23
 70
1
102
RTVSPropertyOp24
 70
1
102
RTVSPropertyOp25
 70
1
102
RTVSPropertyOp26
 70
1
102
RTVSPropertyOp27
 70
1
102
RTVSPropertyOp28
 70
1
102
RTVSPropertyOp29
 70
1
102
RTVSPropertyOp30
 70
1
102
RTVSPropertyOp31
 70
1
102
RTVSPropertyOp32
 70
1
102
RTVSPropertyOp33
 70
1
102
RTVSPropertyOp34
 70
1
102
RTVSPropertyOp35
 70
1
102
RTVSPropertyOp36
 70
1
102
RTVSPropertyOp37
 70
1
102
RTVSPropertyOp38
 70
1
102
RTVSPropertyOp39
 70
1
102
RTVSPropertyOp40
 70
1
102
RTVSPropertyOp41
 70
1
102
RTVSPropertyOp42
 70
1
102
RTVSPropertyOp43
 70
1
102
RTVSPropertyOp44
 70
1
102
RTVSPropertyOp45
 70
1
102
RTVSPropertyOp46
 70
1
102
RTVSPropertyOp47
 70
1
102
RTVSPropertyOp48
 70
1
102
RTVSPropertyOp49
 70
1
102
RTVSPropertyOp50
 70
1
102
RTVSPropertyOp51
 70
0
102
RTVSPropertyOp52
 70
0
102
RTVSPropertyOp53
 70
1
102
RTVSPropertyOp54
 70
1
102
RTVSPropertyOp55
 70
1
102
RTVSPropertyOp56
 70
1
102
RTVSPropertyOp57
 70
1
102
RTVSPropertyOp58
 70
1
102
RTVSPropertyOp59
 70
1
102
RTVSPropertyOp60
 70
1
102
RTVSPropertyOp61
 70
1
102
RTVSPropertyOp62
 70
1
  0
XRECORD
  5
A8C
102
{ACAD_REACTORS
330
A8B
102
}
330
A8B
100
AcDbXrecord
280
1
102
RTVSPost2010Prop28
280
0
102
RTVSPost2010PropOp28
 70
1
102
RTVSPost2010Prop29
280
1
102
RTVSPost2010PropOp29
 70
1
102
RTVSPost2010Prop30
280
1
102
RTVSPost2010PropOp30
 70
1
102
RTVSPost2010Prop31
280
0
102
RTVSPost2010PropOp31
 70
1
102
RTVSPost2010Prop32
280
0
102
RTVSPost2010PropOp32
 70
1
102
RTVSPost2010Prop33
280
0
102
RTVSPost2010PropOp33
 70
1
102
RTVSPost2010Prop34
280
0
102
RTVSPost2010PropOp34
 70
1
102
RTVSPost2010Prop35
280
0
102
RTVSPost2010PropOp35
 70
1
102
RTVSPost2010Prop36
280
0
102
RTVSPost2010PropOp36
 70
1
102
RTVSPost2010Prop37
 90
50
102
RTVSPost2010PropOp37
 70
1
102
RTVSPost2010Prop38
140
0.0
102
RTVSPost2010PropOp38
 70
1
102
RTVSPost2010Prop39
140
1.0
102
RTVSPost2010PropOp39
 70
1
102
RTVSPost2010Prop40
 90
0
102
RTVSPost2010PropOp40
 70
1
102
RTVSPost2010Prop41ColorIndex
 90
18
102
RTVSPost2010Prop41ColorRGB
 90
0
102
RTVSPost2010PropOp41
 70
1
102
RTVSPost2010Prop42
 90
50
102
RTVSPost2010PropOp42
 70
1
102
RTVSPost2010Prop43
 90
3
102
RTVSPost2010PropOp43
 70
1
102
RTVSPost2010Prop44ColorIndex
 90
5
102
RTVSPost2010Prop44ColorRGB
 90
255
102
RTVSPost2010PropOp44
 70
1
102
RTVSPost2010Prop45
280
0
102
RTVSPost2010PropOp45
 70
1
102
RTVSPost2010Prop46
 90
50
102
RTVSPost2010PropOp46
 70
1
102
RTVSPost2010Prop47
 90
50
102
RTVSPost2010PropOp47
 70
1
102
RTVSPost2010Prop48
 90
50
102
RTVSPost2010PropOp48
 70
1
102
RTVSPost2010Prop49
280
0
102
RTVSPost2010PropOp49
 70
1
102
RTVSPost2010Prop50
 90
50
102
RTVSPost2010PropOp50
 70
1
102
RTVSPost2010Prop51ColorIndex
 90
256
102
RTVSPost2010Prop51ColorRGB
 90
-16777216
102
RTVSPost2010PropOp51
 70
0
102
RTVSPost2010Prop52
140
1.0
102
RTVSPost2010PropOp52
 70
0
102
RTVSPost2010Prop53
 90
2
102
RTVSPost2010PropOp53
 70
1
102
RTVSPost2010Prop54
  1
strokes_ogs.tif
102
RTVSPost2010PropOp54
 70
1
102
RTVSPost2010Prop55
280
0
102
RTVSPost2010PropOp55
 70
1
102
RTVSPost2010Prop56
140
1.0
102
RTVSPost2010PropOp56
 70
1
102
RTVSPost2010Prop57
140
1.0
102
RTVSPost2010PropOp57
 70
1
102
RTVSPropertyOp0
 70
1
102
RTVSPropertyOp1
 70
1
102
RTVSPropertyOp2
 70
1
102
RTVSPropertyOp3
 70
1
102
RTVSPropertyOp4
 70
1
102
RTVSPropertyOp5
 70
1
102
RTVSPropertyOp6
 70
1
102
RTVSPropertyOp7
 70
1
102
RTVSPropertyOp8
 70
1
102
RTVSPropertyOp9
 70
1
102
RTVSPropertyOp10
 70
1
102
RTVSPropertyOp11
 70
1
102
RTVSPropertyOp12
 70
1
102
RTVSPropertyOp13
 70
1
102
RTVSPropertyOp14
 70
1
102
RTVSPropertyOp15
 70
1
102
RTVSPropertyOp16
 70
1
102
RTVSPropertyOp17
 70
1
102
RTVSPropertyOp18
 70
1
102
RTVSPropertyOp19
 70
1
102
RTVSPropertyOp20
 70
1
102
RTVSPropertyOp21
 70
1
102
RTVSPropertyOp22
 70
1
102
RTVSPropertyOp23
 70
1
102
RTVSPropertyOp24
 70
1
102
RTVSPropertyOp25
 70
1
102
RTVSPropertyOp26
 70
1
102
RTVSPropertyOp27
 70
1
102
RTVSPropertyOp28
 70
1
102
RTVSPropertyOp29
 70
1
102
RTVSPropertyOp30
 70
1
102
RTVSPropertyOp31
 70
1
102
RTVSPropertyOp32
 70
1
102
RTVSPropertyOp33
 70
1
102
RTVSPropertyOp34
 70
1
102
RTVSPropertyOp35
 70
1
102
RTVSPropertyOp36
 70
1
102
RTVSPropertyOp37
 70
1
102
RTVSPropertyOp38
 70
1
102
RTVSPropertyOp39
 70
1
102
RTVSPropertyOp40
 70
1
102
RTVSPropertyOp41
 70
1
102
RTVSPropertyOp42
 70
1
102
RTVSPropertyOp43
 70
1
102
RTVSPropertyOp44
 70
1
102
RTVSPropertyOp45
 70
1
102
RTVSPropertyOp46
 70
1
102
RTVSPropertyOp47
 70
1
102
RTVSPropertyOp48
 70
1
102
RTVSPropertyOp49
 70
1
102
RTVSPropertyOp50
 70
1
102
RTVSPropertyOp51
 70
0
102
RTVSPropertyOp52
 70
0
102
RTVSPropertyOp53
 70
1
102
RTVSPropertyOp54
 70
1
102
RTVSPropertyOp55
 70
1
102
RTVSPropertyOp56
 70
1
102
RTVSPropertyOp57
 70
1
102
RTVSPropertyOp58
 70
1
102
RTVSPropertyOp59
 70
1
102
RTVSPropertyOp60
 70
1
102
RTVSPropertyOp61
 70
1
102
RTVSPropertyOp62
 70
1
  0
XRECORD
  5
A8A
102
{ACAD_REACTORS
330
A89
102
}
330
A89
100
AcDbXrecord
280
1
102
RTVSPost2010Prop28
280
0
102
RTVSPost2010PropOp28
 70
1
102
RTVSPost2010Prop29
280
1
102
RTVSPost2010PropOp29
 70
1
102
RTVSPost2010Prop30
280
1
102
RTVSPost2010PropOp30
 70
1
102
RTVSPost2010Prop31
280
0
102
RTVSPost2010PropOp31
 70
1
102
RTVSPost2010Prop32
280
0
102
RTVSPost2010PropOp32
 70
1
102
RTVSPost2010Prop33
280
0
102
RTVSPost2010PropOp33
 70
1
102
RTVSPost2010Prop34
280
0
102
RTVSPost2010PropOp34
 70
1
102
RTVSPost2010Prop35
280
0
102
RTVSPost2010PropOp35
 70
1
102
RTVSPost2010Prop36
280
0
102
RTVSPost2010PropOp36
 70
1
102
RTVSPost2010Prop37
 90
50
102
RTVSPost2010PropOp37
 70
1
102
RTVSPost2010Prop38
140
0.0
102
RTVSPost2010PropOp38
 70
1
102
RTVSPost2010Prop39
140
1.0
102
RTVSPost2010PropOp39
 70
1
102
RTVSPost2010Prop40
 90
0
102
RTVSPost2010PropOp40
 70
1
102
RTVSPost2010Prop41ColorIndex
 90
18
102
RTVSPost2010Prop41ColorRGB
 90
0
102
RTVSPost2010PropOp41
 70
1
102
RTVSPost2010Prop42
 90
50
102
RTVSPost2010PropOp42
 70
1
102
RTVSPost2010Prop43
 90
3
102
RTVSPost2010PropOp43
 70
1
102
RTVSPost2010Prop44ColorIndex
 90
5
102
RTVSPost2010Prop44ColorRGB
 90
255
102
RTVSPost2010PropOp44
 70
1
102
RTVSPost2010Prop45
280
0
102
RTVSPost2010PropOp45
 70
1
102
RTVSPost2010Prop46
 90
50
102
RTVSPost2010PropOp46
 70
1
102
RTVSPost2010Prop47
 90
50
102
RTVSPost2010PropOp47
 70
1
102
RTVSPost2010Prop48
 90
50
102
RTVSPost2010PropOp48
 70
1
102
RTVSPost2010Prop49
280
0
102
RTVSPost2010PropOp49
 70
1
102
RTVSPost2010Prop50
 90
50
102
RTVSPost2010PropOp50
 70
1
102
RTVSPost2010Prop51ColorIndex
 90
256
102
RTVSPost2010Prop51ColorRGB
 90
-16777216
102
RTVSPost2010PropOp51
 70
0
102
RTVSPost2010Prop52
140
1.0
102
RTVSPost2010PropOp52
 70
0
102
RTVSPost2010Prop53
 90
2
102
RTVSPost2010PropOp53
 70
1
102
RTVSPost2010Prop54
  1
strokes_ogs.tif
102
RTVSPost2010PropOp54
 70
1
102
RTVSPost2010Prop55
280
0
102
RTVSPost2010PropOp55
 70
1
102
RTVSPost2010Prop56
140
1.0
102
RTVSPost2010PropOp56
 70
1
102
RTVSPost2010Prop57
140
1.0
102
RTVSPost2010PropOp57
 70
1
102
RTVSPropertyOp0
 70
1
102
RTVSPropertyOp1
 70
1
102
RTVSPropertyOp2
 70
1
102
RTVSPropertyOp3
 70
1
102
RTVSPropertyOp4
 70
1
102
RTVSPropertyOp5
 70
1
102
RTVSPropertyOp6
 70
1
102
RTVSPropertyOp7
 70
1
102
RTVSPropertyOp8
 70
1
102
RTVSPropertyOp9
 70
1
102
RTVSPropertyOp10
 70
1
102
RTVSPropertyOp11
 70
1
102
RTVSPropertyOp12
 70
1
102
RTVSPropertyOp13
 70
1
102
RTVSPropertyOp14
 70
1
102
RTVSPropertyOp15
 70
1
102
RTVSPropertyOp16
 70
1
102
RTVSPropertyOp17
 70
1
102
RTVSPropertyOp18
 70
1
102
RTVSPropertyOp19
 70
1
102
RTVSPropertyOp20
 70
1
102
RTVSPropertyOp21
 70
1
102
RTVSPropertyOp22
 70
1
102
RTVSPropertyOp23
 70
1
102
RTVSPropertyOp24
 70
1
102
RTVSPropertyOp25
 70
1
102
RTVSPropertyOp26
 70
1
102
RTVSPropertyOp27
 70
1
102
RTVSPropertyOp28
 70
1
102
RTVSPropertyOp29
 70
1
102
RTVSPropertyOp30
 70
1
102
RTVSPropertyOp31
 70
1
102
RTVSPropertyOp32
 70
1
102
RTVSPropertyOp33
 70
1
102
RTVSPropertyOp34
 70
1
102
RTVSPropertyOp35
 70
1
102
RTVSPropertyOp36
 70
1
102
RTVSPropertyOp37
 70
1
102
RTVSPropertyOp38
 70
1
102
RTVSPropertyOp39
 70
1
102
RTVSPropertyOp40
 70
1
102
RTVSPropertyOp41
 70
1
102
RTVSPropertyOp42
 70
1
102
RTVSPropertyOp43
 70
1
102
RTVSPropertyOp44
 70
1
102
RTVSPropertyOp45
 70
1
102
RTVSPropertyOp46
 70
1
102
RTVSPropertyOp47
 70
1
102
RTVSPropertyOp48
 70
1
102
RTVSPropertyOp49
 70
1
102
RTVSPropertyOp50
 70
1
102
RTVSPropertyOp51
 70
0
102
RTVSPropertyOp52
 70
0
102
RTVSPropertyOp53
 70
1
102
RTVSPropertyOp54
 70
1
102
RTVSPropertyOp55
 70
1
102
RTVSPropertyOp56
 70
1
102
RTVSPropertyOp57
 70
1
102
RTVSPropertyOp58
 70
1
102
RTVSPropertyOp59
 70
1
102
RTVSPropertyOp60
 70
1
102
RTVSPropertyOp61
 70
1
102
RTVSPropertyOp62
 70
1
  0
XRECORD
  5
A84
102
{ACAD_REACTORS
330
A83
102
}
330
A83
100
AcDbXrecord
280
1
102
RTVSPost2010Prop28
280
0
102
RTVSPost2010PropOp28
 70
1
102
RTVSPost2010Prop29
280
1
102
RTVSPost2010PropOp29
 70
1
102
RTVSPost2010Prop30
280
1
102
RTVSPost2010PropOp30
 70
1
102
RTVSPost2010Prop31
280
0
102
RTVSPost2010PropOp31
 70
1
102
RTVSPost2010Prop32
280
0
102
RTVSPost2010PropOp32
 70
1
102
RTVSPost2010Prop33
280
0
102
RTVSPost2010PropOp33
 70
1
102
RTVSPost2010Prop34
280
0
102
RTVSPost2010PropOp34
 70
1
102
RTVSPost2010Prop35
280
0
102
RTVSPost2010PropOp35
 70
1
102
RTVSPost2010Prop36
280
0
102
RTVSPost2010PropOp36
 70
1
102
RTVSPost2010Prop37
 90
50
102
RTVSPost2010PropOp37
 70
1
102
RTVSPost2010Prop38
140
0.0
102
RTVSPost2010PropOp38
 70
1
102
RTVSPost2010Prop39
140
1.0
102
RTVSPost2010PropOp39
 70
1
102
RTVSPost2010Prop40
 90
0
102
RTVSPost2010PropOp40
 70
1
102
RTVSPost2010Prop41ColorIndex
 90
18
102
RTVSPost2010Prop41ColorRGB
 90
0
102
RTVSPost2010PropOp41
 70
1
102
RTVSPost2010Prop42
 90
50
102
RTVSPost2010PropOp42
 70
1
102
RTVSPost2010Prop43
 90
3
102
RTVSPost2010PropOp43
 70
1
102
RTVSPost2010Prop44ColorIndex
 90
5
102
RTVSPost2010Prop44ColorRGB
 90
255
102
RTVSPost2010PropOp44
 70
1
102
RTVSPost2010Prop45
280
0
102
RTVSPost2010PropOp45
 70
1
102
RTVSPost2010Prop46
 90
50
102
RTVSPost2010PropOp46
 70
1
102
RTVSPost2010Prop47
 90
50
102
RTVSPost2010PropOp47
 70
1
102
RTVSPost2010Prop48
 90
50
102
RTVSPost2010PropOp48
 70
1
102
RTVSPost2010Prop49
280
0
102
RTVSPost2010PropOp49
 70
1
102
RTVSPost2010Prop50
 90
50
102
RTVSPost2010PropOp50
 70
1
102
RTVSPost2010Prop51ColorIndex
 90
256
102
RTVSPost2010Prop51ColorRGB
 90
-16777216
102
RTVSPost2010PropOp51
 70
0
102
RTVSPost2010Prop52
140
1.0
102
RTVSPost2010PropOp52
 70
0
102
RTVSPost2010Prop53
 90
2
102
RTVSPost2010PropOp53
 70
1
102
RTVSPost2010Prop54
  1
strokes_ogs.tif
102
RTVSPost2010PropOp54
 70
1
102
RTVSPost2010Prop55
280
0
102
RTVSPost2010PropOp55
 70
1
102
RTVSPost2010Prop56
140
1.0
102
RTVSPost2010PropOp56
 70
1
102
RTVSPost2010Prop57
140
1.0
102
RTVSPost2010PropOp57
 70
1
102
RTVSPropertyOp0
 70
1
102
RTVSPropertyOp1
 70
1
102
RTVSPropertyOp2
 70
1
102
RTVSPropertyOp3
 70
1
102
RTVSPropertyOp4
 70
1
102
RTVSPropertyOp5
 70
1
102
RTVSPropertyOp6
 70
1
102
RTVSPropertyOp7
 70
1
102
RTVSPropertyOp8
 70
1
102
RTVSPropertyOp9
 70
1
102
RTVSPropertyOp10
 70
1
102
RTVSPropertyOp11
 70
1
102
RTVSPropertyOp12
 70
1
102
RTVSPropertyOp13
 70
1
102
RTVSPropertyOp14
 70
1
102
RTVSPropertyOp15
 70
1
102
RTVSPropertyOp16
 70
1
102
RTVSPropertyOp17
 70
1
102
RTVSPropertyOp18
 70
1
102
RTVSPropertyOp19
 70
1
102
RTVSPropertyOp20
 70
1
102
RTVSPropertyOp21
 70
1
102
RTVSPropertyOp22
 70
1
102
RTVSPropertyOp23
 70
1
102
RTVSPropertyOp24
 70
1
102
RTVSPropertyOp25
 70
1
102
RTVSPropertyOp26
 70
1
102
RTVSPropertyOp27
 70
1
102
RTVSPropertyOp28
 70
1
102
RTVSPropertyOp29
 70
1
102
RTVSPropertyOp30
 70
1
102
RTVSPropertyOp31
 70
1
102
RTVSPropertyOp32
 70
1
102
RTVSPropertyOp33
 70
1
102
RTVSPropertyOp34
 70
1
102
RTVSPropertyOp35
 70
1
102
RTVSPropertyOp36
 70
1
102
RTVSPropertyOp37
 70
1
102
RTVSPropertyOp38
 70
1
102
RTVSPropertyOp39
 70
1
102
RTVSPropertyOp40
 70
1
102
RTVSPropertyOp41
 70
1
102
RTVSPropertyOp42
 70
1
102
RTVSPropertyOp43
 70
1
102
RTVSPropertyOp44
 70
1
102
RTVSPropertyOp45
 70
1
102
RTVSPropertyOp46
 70
1
102
RTVSPropertyOp47
 70
1
102
RTVSPropertyOp48
 70
1
102
RTVSPropertyOp49
 70
1
102
RTVSPropertyOp50
 70
1
102
RTVSPropertyOp51
 70
0
102
RTVSPropertyOp52
 70
0
102
RTVSPropertyOp53
 70
1
102
RTVSPropertyOp54
 70
1
102
RTVSPropertyOp55
 70
1
102
RTVSPropertyOp56
 70
1
102
RTVSPropertyOp57
 70
1
102
RTVSPropertyOp58
 70
1
102
RTVSPropertyOp59
 70
1
102
RTVSPropertyOp60
 70
1
102
RTVSPropertyOp61
 70
1
102
RTVSPropertyOp62
 70
1
  0
XRECORD
  5
A86
102
{ACAD_REACTORS
330
A85
102
}
330
A85
100
AcDbXrecord
280
1
102
RTVSPost2010Prop28
280
0
102
RTVSPost2010PropOp28
 70
1
102
RTVSPost2010Prop29
280
1
102
RTVSPost2010PropOp29
 70
1
102
RTVSPost2010Prop30
280
1
102
RTVSPost2010PropOp30
 70
1
102
RTVSPost2010Prop31
280
0
102
RTVSPost2010PropOp31
 70
1
102
RTVSPost2010Prop32
280
0
102
RTVSPost2010PropOp32
 70
1
102
RTVSPost2010Prop33
280
0
102
RTVSPost2010PropOp33
 70
1
102
RTVSPost2010Prop34
280
0
102
RTVSPost2010PropOp34
 70
1
102
RTVSPost2010Prop35
280
0
102
RTVSPost2010PropOp35
 70
1
102
RTVSPost2010Prop36
280
0
102
RTVSPost2010PropOp36
 70
1
102
RTVSPost2010Prop37
 90
50
102
RTVSPost2010PropOp37
 70
1
102
RTVSPost2010Prop38
140
0.0
102
RTVSPost2010PropOp38
 70
1
102
RTVSPost2010Prop39
140
1.0
102
RTVSPost2010PropOp39
 70
1
102
RTVSPost2010Prop40
 90
0
102
RTVSPost2010PropOp40
 70
1
102
RTVSPost2010Prop41ColorIndex
 90
18
102
RTVSPost2010Prop41ColorRGB
 90
0
102
RTVSPost2010PropOp41
 70
1
102
RTVSPost2010Prop42
 90
50
102
RTVSPost2010PropOp42
 70
1
102
RTVSPost2010Prop43
 90
3
102
RTVSPost2010PropOp43
 70
1
102
RTVSPost2010Prop44ColorIndex
 90
5
102
RTVSPost2010Prop44ColorRGB
 90
255
102
RTVSPost2010PropOp44
 70
1
102
RTVSPost2010Prop45
280
0
102
RTVSPost2010PropOp45
 70
1
102
RTVSPost2010Prop46
 90
50
102
RTVSPost2010PropOp46
 70
1
102
RTVSPost2010Prop47
 90
50
102
RTVSPost2010PropOp47
 70
1
102
RTVSPost2010Prop48
 90
50
102
RTVSPost2010PropOp48
 70
1
102
RTVSPost2010Prop49
280
0
102
RTVSPost2010PropOp49
 70
1
102
RTVSPost2010Prop50
 90
50
102
RTVSPost2010PropOp50
 70
1
102
RTVSPost2010Prop51ColorIndex
 90
256
102
RTVSPost2010Prop51ColorRGB
 90
-16777216
102
RTVSPost2010PropOp51
 70
0
102
RTVSPost2010Prop52
140
1.0
102
RTVSPost2010PropOp52
 70
0
102
RTVSPost2010Prop53
 90
2
102
RTVSPost2010PropOp53
 70
1
102
RTVSPost2010Prop54
  1
strokes_ogs.tif
102
RTVSPost2010PropOp54
 70
1
102
RTVSPost2010Prop55
280
0
102
RTVSPost2010PropOp55
 70
1
102
RTVSPost2010Prop56
140
1.0
102
RTVSPost2010PropOp56
 70
1
102
RTVSPost2010Prop57
140
1.0
102
RTVSPost2010PropOp57
 70
1
102
RTVSPropertyOp0
 70
1
102
RTVSPropertyOp1
 70
1
102
RTVSPropertyOp2
 70
1
102
RTVSPropertyOp3
 70
1
102
RTVSPropertyOp4
 70
1
102
RTVSPropertyOp5
 70
1
102
RTVSPropertyOp6
 70
1
102
RTVSPropertyOp7
 70
1
102
RTVSPropertyOp8
 70
1
102
RTVSPropertyOp9
 70
1
102
RTVSPropertyOp10
 70
1
102
RTVSPropertyOp11
 70
1
102
RTVSPropertyOp12
 70
1
102
RTVSPropertyOp13
 70
1
102
RTVSPropertyOp14
 70
1
102
RTVSPropertyOp15
 70
1
102
RTVSPropertyOp16
 70
1
102
RTVSPropertyOp17
 70
1
102
RTVSPropertyOp18
 70
1
102
RTVSPropertyOp19
 70
1
102
RTVSPropertyOp20
 70
1
102
RTVSPropertyOp21
 70
1
102
RTVSPropertyOp22
 70
1
102
RTVSPropertyOp23
 70
1
102
RTVSPropertyOp24
 70
1
102
RTVSPropertyOp25
 70
1
102
RTVSPropertyOp26
 70
1
102
RTVSPropertyOp27
 70
1
102
RTVSPropertyOp28
 70
1
102
RTVSPropertyOp29
 70
1
102
RTVSPropertyOp30
 70
1
102
RTVSPropertyOp31
 70
1
102
RTVSPropertyOp32
 70
1
102
RTVSPropertyOp33
 70
1
102
RTVSPropertyOp34
 70
1
102
RTVSPropertyOp35
 70
1
102
RTVSPropertyOp36
 70
1
102
RTVSPropertyOp37
 70
1
102
RTVSPropertyOp38
 70
1
102
RTVSPropertyOp39
 70
1
102
RTVSPropertyOp40
 70
1
102
RTVSPropertyOp41
 70
1
102
RTVSPropertyOp42
 70
1
102
RTVSPropertyOp43
 70
1
102
RTVSPropertyOp44
 70
1
102
RTVSPropertyOp45
 70
1
102
RTVSPropertyOp46
 70
1
102
RTVSPropertyOp47
 70
1
102
RTVSPropertyOp48
 70
1
102
RTVSPropertyOp49
 70
1
102
RTVSPropertyOp50
 70
1
102
RTVSPropertyOp51
 70
0
102
RTVSPropertyOp52
 70
0
102
RTVSPropertyOp53
 70
1
102
RTVSPropertyOp54
 70
1
102
RTVSPropertyOp55
 70
1
102
RTVSPropertyOp56
 70
1
102
RTVSPropertyOp57
 70
1
102
RTVSPropertyOp58
 70
1
102
RTVSPropertyOp59
 70
1
102
RTVSPropertyOp60
 70
1
102
RTVSPropertyOp61
 70
1
102
RTVSPropertyOp62
 70
1
  0
XRECORD
  5
A7C
102
{ACAD_REACTORS
330
A7B
102
}
330
A7B
100
AcDbXrecord
280
1
102
RTVSPost2010Prop28
280
0
102
RTVSPost2010PropOp28
 70
1
102
RTVSPost2010Prop29
280
1
102
RTVSPost2010PropOp29
 70
1
102
RTVSPost2010Prop30
280
1
102
RTVSPost2010PropOp30
 70
1
102
RTVSPost2010Prop31
280
0
102
RTVSPost2010PropOp31
 70
1
102
RTVSPost2010Prop32
280
0
102
RTVSPost2010PropOp32
 70
1
102
RTVSPost2010Prop33
280
0
102
RTVSPost2010PropOp33
 70
1
102
RTVSPost2010Prop34
280
0
102
RTVSPost2010PropOp34
 70
1
102
RTVSPost2010Prop35
280
0
102
RTVSPost2010PropOp35
 70
1
102
RTVSPost2010Prop36
280
0
102
RTVSPost2010PropOp36
 70
1
102
RTVSPost2010Prop37
 90
50
102
RTVSPost2010PropOp37
 70
1
102
RTVSPost2010Prop38
140
0.0
102
RTVSPost2010PropOp38
 70
1
102
RTVSPost2010Prop39
140
1.0
102
RTVSPost2010PropOp39
 70
1
102
RTVSPost2010Prop40
 90
0
102
RTVSPost2010PropOp40
 70
1
102
RTVSPost2010Prop41ColorIndex
 90
18
102
RTVSPost2010Prop41ColorRGB
 90
0
102
RTVSPost2010PropOp41
 70
1
102
RTVSPost2010Prop42
 90
50
102
RTVSPost2010PropOp42
 70
1
102
RTVSPost2010Prop43
 90
3
102
RTVSPost2010PropOp43
 70
1
102
RTVSPost2010Prop44ColorIndex
 90
5
102
RTVSPost2010Prop44ColorRGB
 90
255
102
RTVSPost2010PropOp44
 70
1
102
RTVSPost2010Prop45
280
0
102
RTVSPost2010PropOp45
 70
1
102
RTVSPost2010Prop46
 90
50
102
RTVSPost2010PropOp46
 70
1
102
RTVSPost2010Prop47
 90
50
102
RTVSPost2010PropOp47
 70
1
102
RTVSPost2010Prop48
 90
50
102
RTVSPost2010PropOp48
 70
1
102
RTVSPost2010Prop49
280
0
102
RTVSPost2010PropOp49
 70
1
102
RTVSPost2010Prop50
 90
50
102
RTVSPost2010PropOp50
 70
1
102
RTVSPost2010Prop51ColorIndex
 90
256
102
RTVSPost2010Prop51ColorRGB
 90
-16777216
102
RTVSPost2010PropOp51
 70
0
102
RTVSPost2010Prop52
140
1.0
102
RTVSPost2010PropOp52
 70
0
102
RTVSPost2010Prop53
 90
2
102
RTVSPost2010PropOp53
 70
1
102
RTVSPost2010Prop54
  1
strokes_ogs.tif
102
RTVSPost2010PropOp54
 70
1
102
RTVSPost2010Prop55
280
0
102
RTVSPost2010PropOp55
 70
1
102
RTVSPost2010Prop56
140
1.0
102
RTVSPost2010PropOp56
 70
1
102
RTVSPost2010Prop57
140
1.0
102
RTVSPost2010PropOp57
 70
1
102
RTVSPropertyOp0
 70
1
102
RTVSPropertyOp1
 70
1
102
RTVSPropertyOp2
 70
1
102
RTVSPropertyOp3
 70
1
102
RTVSPropertyOp4
 70
1
102
RTVSPropertyOp5
 70
1
102
RTVSPropertyOp6
 70
1
102
RTVSPropertyOp7
 70
1
102
RTVSPropertyOp8
 70
1
102
RTVSPropertyOp9
 70
1
102
RTVSPropertyOp10
 70
1
102
RTVSPropertyOp11
 70
1
102
RTVSPropertyOp12
 70
1
102
RTVSPropertyOp13
 70
1
102
RTVSPropertyOp14
 70
1
102
RTVSPropertyOp15
 70
1
102
RTVSPropertyOp16
 70
1
102
RTVSPropertyOp17
 70
1
102
RTVSPropertyOp18
 70
1
102
RTVSPropertyOp19
 70
1
102
RTVSPropertyOp20
 70
1
102
RTVSPropertyOp21
 70
1
102
RTVSPropertyOp22
 70
1
102
RTVSPropertyOp23
 70
1
102
RTVSPropertyOp24
 70
1
102
RTVSPropertyOp25
 70
1
102
RTVSPropertyOp26
 70
1
102
RTVSPropertyOp27
 70
1
102
RTVSPropertyOp28
 70
1
102
RTVSPropertyOp29
 70
1
102
RTVSPropertyOp30
 70
1
102
RTVSPropertyOp31
 70
1
102
RTVSPropertyOp32
 70
1
102
RTVSPropertyOp33
 70
1
102
RTVSPropertyOp34
 70
1
102
RTVSPropertyOp35
 70
1
102
RTVSPropertyOp36
 70
1
102
RTVSPropertyOp37
 70
1
102
RTVSPropertyOp38
 70
1
102
RTVSPropertyOp39
 70
1
102
RTVSPropertyOp40
 70
1
102
RTVSPropertyOp41
 70
1
102
RTVSPropertyOp42
 70
1
102
RTVSPropertyOp43
 70
1
102
RTVSPropertyOp44
 70
1
102
RTVSPropertyOp45
 70
1
102
RTVSPropertyOp46
 70
1
102
RTVSPropertyOp47
 70
1
102
RTVSPropertyOp48
 70
1
102
RTVSPropertyOp49
 70
1
102
RTVSPropertyOp50
 70
1
102
RTVSPropertyOp51
 70
0
102
RTVSPropertyOp52
 70
0
102
RTVSPropertyOp53
 70
1
102
RTVSPropertyOp54
 70
1
102
RTVSPropertyOp55
 70
1
102
RTVSPropertyOp56
 70
1
102
RTVSPropertyOp57
 70
1
102
RTVSPropertyOp58
 70
1
102
RTVSPropertyOp59
 70
1
102
RTVSPropertyOp60
 70
1
102
RTVSPropertyOp61
 70
1
102
RTVSPropertyOp62
 70
1
  0
XRECORD
  5
A70
102
{ACAD_REACTORS
330
A6F
102
}
330
A6F
100
AcDbXrecord
280
1
102
RTVSPost2010Prop28
280
0
102
RTVSPost2010PropOp28
 70
1
102
RTVSPost2010Prop29
280
1
102
RTVSPost2010PropOp29
 70
1
102
RTVSPost2010Prop30
280
1
102
RTVSPost2010PropOp30
 70
1
102
RTVSPost2010Prop31
280
0
102
RTVSPost2010PropOp31
 70
1
102
RTVSPost2010Prop32
280
0
102
RTVSPost2010PropOp32
 70
1
102
RTVSPost2010Prop33
280
0
102
RTVSPost2010PropOp33
 70
1
102
RTVSPost2010Prop34
280
0
102
RTVSPost2010PropOp34
 70
1
102
RTVSPost2010Prop35
280
0
102
RTVSPost2010PropOp35
 70
1
102
RTVSPost2010Prop36
280
0
102
RTVSPost2010PropOp36
 70
1
102
RTVSPost2010Prop37
 90
50
102
RTVSPost2010PropOp37
 70
1
102
RTVSPost2010Prop38
140
0.0
102
RTVSPost2010PropOp38
 70
1
102
RTVSPost2010Prop39
140
1.0
102
RTVSPost2010PropOp39
 70
1
102
RTVSPost2010Prop40
 90
0
102
RTVSPost2010PropOp40
 70
1
102
RTVSPost2010Prop41ColorIndex
 90
18
102
RTVSPost2010Prop41ColorRGB
 90
0
102
RTVSPost2010PropOp41
 70
1
102
RTVSPost2010Prop42
 90
50
102
RTVSPost2010PropOp42
 70
1
102
RTVSPost2010Prop43
 90
3
102
RTVSPost2010PropOp43
 70
1
102
RTVSPost2010Prop44ColorIndex
 90
5
102
RTVSPost2010Prop44ColorRGB
 90
255
102
RTVSPost2010PropOp44
 70
1
102
RTVSPost2010Prop45
280
0
102
RTVSPost2010PropOp45
 70
1
102
RTVSPost2010Prop46
 90
50
102
RTVSPost2010PropOp46
 70
1
102
RTVSPost2010Prop47
 90
50
102
RTVSPost2010PropOp47
 70
1
102
RTVSPost2010Prop48
 90
50
102
RTVSPost2010PropOp48
 70
1
102
RTVSPost2010Prop49
280
0
102
RTVSPost2010PropOp49
 70
1
102
RTVSPost2010Prop50
 90
50
102
RTVSPost2010PropOp50
 70
1
102
RTVSPost2010Prop51ColorIndex
 90
256
102
RTVSPost2010Prop51ColorRGB
 90
-16777216
102
RTVSPost2010PropOp51
 70
0
102
RTVSPost2010Prop52
140
1.0
102
RTVSPost2010PropOp52
 70
0
102
RTVSPost2010Prop53
 90
2
102
RTVSPost2010PropOp53
 70
1
102
RTVSPost2010Prop54
  1
strokes_ogs.tif
102
RTVSPost2010PropOp54
 70
1
102
RTVSPost2010Prop55
280
0
102
RTVSPost2010PropOp55
 70
1
102
RTVSPost2010Prop56
140
1.0
102
RTVSPost2010PropOp56
 70
1
102
RTVSPost2010Prop57
140
1.0
102
RTVSPost2010PropOp57
 70
1
102
RTVSPropertyOp0
 70
1
102
RTVSPropertyOp1
 70
1
102
RTVSPropertyOp2
 70
1
102
RTVSPropertyOp3
 70
1
102
RTVSPropertyOp4
 70
1
102
RTVSPropertyOp5
 70
1
102
RTVSPropertyOp6
 70
1
102
RTVSPropertyOp7
 70
1
102
RTVSPropertyOp8
 70
1
102
RTVSPropertyOp9
 70
1
102
RTVSPropertyOp10
 70
1
102
RTVSPropertyOp11
 70
1
102
RTVSPropertyOp12
 70
1
102
RTVSPropertyOp13
 70
1
102
RTVSPropertyOp14
 70
1
102
RTVSPropertyOp15
 70
1
102
RTVSPropertyOp16
 70
1
102
RTVSPropertyOp17
 70
1
102
RTVSPropertyOp18
 70
1
102
RTVSPropertyOp19
 70
1
102
RTVSPropertyOp20
 70
1
102
RTVSPropertyOp21
 70
1
102
RTVSPropertyOp22
 70
1
102
RTVSPropertyOp23
 70
1
102
RTVSPropertyOp24
 70
1
102
RTVSPropertyOp25
 70
1
102
RTVSPropertyOp26
 70
1
102
RTVSPropertyOp27
 70
1
102
RTVSPropertyOp28
 70
1
102
RTVSPropertyOp29
 70
1
102
RTVSPropertyOp30
 70
1
102
RTVSPropertyOp31
 70
1
102
RTVSPropertyOp32
 70
1
102
RTVSPropertyOp33
 70
1
102
RTVSPropertyOp34
 70
1
102
RTVSPropertyOp35
 70
1
102
RTVSPropertyOp36
 70
1
102
RTVSPropertyOp37
 70
1
102
RTVSPropertyOp38
 70
1
102
RTVSPropertyOp39
 70
1
102
RTVSPropertyOp40
 70
1
102
RTVSPropertyOp41
 70
1
102
RTVSPropertyOp42
 70
1
102
RTVSPropertyOp43
 70
1
102
RTVSPropertyOp44
 70
1
102
RTVSPropertyOp45
 70
1
102
RTVSPropertyOp46
 70
1
102
RTVSPropertyOp47
 70
1
102
RTVSPropertyOp48
 70
1
102
RTVSPropertyOp49
 70
1
102
RTVSPropertyOp50
 70
1
102
RTVSPropertyOp51
 70
0
102
RTVSPropertyOp52
 70
0
102
RTVSPropertyOp53
 70
1
102
RTVSPropertyOp54
 70
1
102
RTVSPropertyOp55
 70
1
102
RTVSPropertyOp56
 70
1
102
RTVSPropertyOp57
 70
1
102
RTVSPropertyOp58
 70
1
102
RTVSPropertyOp59
 70
1
102
RTVSPropertyOp60
 70
1
102
RTVSPropertyOp61
 70
1
102
RTVSPropertyOp62
 70
1
  0
XRECORD
  5
A88
102
{ACAD_REACTORS
330
A87
102
}
330
A87
100
AcDbXrecord
280
1
102
RTVSPost2010Prop28
280
0
102
RTVSPost2010PropOp28
 70
1
102
RTVSPost2010Prop29
280
1
102
RTVSPost2010PropOp29
 70
1
102
RTVSPost2010Prop30
280
1
102
RTVSPost2010PropOp30
 70
1
102
RTVSPost2010Prop31
280
0
102
RTVSPost2010PropOp31
 70
1
102
RTVSPost2010Prop32
280
0
102
RTVSPost2010PropOp32
 70
1
102
RTVSPost2010Prop33
280
0
102
RTVSPost2010PropOp33
 70
1
102
RTVSPost2010Prop34
280
0
102
RTVSPost2010PropOp34
 70
1
102
RTVSPost2010Prop35
280
0
102
RTVSPost2010PropOp35
 70
1
102
RTVSPost2010Prop36
280
0
102
RTVSPost2010PropOp36
 70
1
102
RTVSPost2010Prop37
 90
50
102
RTVSPost2010PropOp37
 70
1
102
RTVSPost2010Prop38
140
0.0
102
RTVSPost2010PropOp38
 70
1
102
RTVSPost2010Prop39
140
1.0
102
RTVSPost2010PropOp39
 70
1
102
RTVSPost2010Prop40
 90
0
102
RTVSPost2010PropOp40
 70
1
102
RTVSPost2010Prop41ColorIndex
 90
18
102
RTVSPost2010Prop41ColorRGB
 90
0
102
RTVSPost2010PropOp41
 70
1
102
RTVSPost2010Prop42
 90
50
102
RTVSPost2010PropOp42
 70
1
102
RTVSPost2010Prop43
 90
3
102
RTVSPost2010PropOp43
 70
1
102
RTVSPost2010Prop44ColorIndex
 90
5
102
RTVSPost2010Prop44ColorRGB
 90
255
102
RTVSPost2010PropOp44
 70
1
102
RTVSPost2010Prop45
280
0
102
RTVSPost2010PropOp45
 70
1
102
RTVSPost2010Prop46
 90
50
102
RTVSPost2010PropOp46
 70
1
102
RTVSPost2010Prop47
 90
50
102
RTVSPost2010PropOp47
 70
1
102
RTVSPost2010Prop48
 90
50
102
RTVSPost2010PropOp48
 70
1
102
RTVSPost2010Prop49
280
0
102
RTVSPost2010PropOp49
 70
1
102
RTVSPost2010Prop50
 90
50
102
RTVSPost2010PropOp50
 70
1
102
RTVSPost2010Prop51ColorIndex
 90
256
102
RTVSPost2010Prop51ColorRGB
 90
-16777216
102
RTVSPost2010PropOp51
 70
0
102
RTVSPost2010Prop52
140
1.0
102
RTVSPost2010PropOp52
 70
0
102
RTVSPost2010Prop53
 90
2
102
RTVSPost2010PropOp53
 70
1
102
RTVSPost2010Prop54
  1
strokes_ogs.tif
102
RTVSPost2010PropOp54
 70
1
102
RTVSPost2010Prop55
280
0
102
RTVSPost2010PropOp55
 70
1
102
RTVSPost2010Prop56
140
1.0
102
RTVSPost2010PropOp56
 70
1
102
RTVSPost2010Prop57
140
1.0
102
RTVSPost2010PropOp57
 70
1
102
RTVSPropertyOp0
 70
1
102
RTVSPropertyOp1
 70
1
102
RTVSPropertyOp2
 70
1
102
RTVSPropertyOp3
 70
1
102
RTVSPropertyOp4
 70
1
102
RTVSPropertyOp5
 70
1
102
RTVSPropertyOp6
 70
1
102
RTVSPropertyOp7
 70
1
102
RTVSPropertyOp8
 70
1
102
RTVSPropertyOp9
 70
1
102
RTVSPropertyOp10
 70
1
102
RTVSPropertyOp11
 70
1
102
RTVSPropertyOp12
 70
1
102
RTVSPropertyOp13
 70
1
102
RTVSPropertyOp14
 70
1
102
RTVSPropertyOp15
 70
1
102
RTVSPropertyOp16
 70
1
102
RTVSPropertyOp17
 70
1
102
RTVSPropertyOp18
 70
1
102
RTVSPropertyOp19
 70
1
102
RTVSPropertyOp20
 70
1
102
RTVSPropertyOp21
 70
1
102
RTVSPropertyOp22
 70
1
102
RTVSPropertyOp23
 70
1
102
RTVSPropertyOp24
 70
1
102
RTVSPropertyOp25
 70
1
102
RTVSPropertyOp26
 70
1
102
RTVSPropertyOp27
 70
1
102
RTVSPropertyOp28
 70
1
102
RTVSPropertyOp29
 70
1
102
RTVSPropertyOp30
 70
1
102
RTVSPropertyOp31
 70
1
102
RTVSPropertyOp32
 70
1
102
RTVSPropertyOp33
 70
1
102
RTVSPropertyOp34
 70
1
102
RTVSPropertyOp35
 70
1
102
RTVSPropertyOp36
 70
1
102
RTVSPropertyOp37
 70
1
102
RTVSPropertyOp38
 70
1
102
RTVSPropertyOp39
 70
1
102
RTVSPropertyOp40
 70
1
102
RTVSPropertyOp41
 70
1
102
RTVSPropertyOp42
 70
1
102
RTVSPropertyOp43
 70
1
102
RTVSPropertyOp44
 70
1
102
RTVSPropertyOp45
 70
1
102
RTVSPropertyOp46
 70
1
102
RTVSPropertyOp47
 70
1
102
RTVSPropertyOp48
 70
1
102
RTVSPropertyOp49
 70
1
102
RTVSPropertyOp50
 70
1
102
RTVSPropertyOp51
 70
0
102
RTVSPropertyOp52
 70
0
102
RTVSPropertyOp53
 70
1
102
RTVSPropertyOp54
 70
1
102
RTVSPropertyOp55
 70
1
102
RTVSPropertyOp56
 70
1
102
RTVSPropertyOp57
 70
1
102
RTVSPropertyOp58
 70
1
102
RTVSPropertyOp59
 70
1
102
RTVSPropertyOp60
 70
1
102
RTVSPropertyOp61
 70
1
102
RTVSPropertyOp62
 70
1
  0
DICTIONARY
  5
EE7
330
9D2
100
AcDbDictionary
281
1
  3
WRITTEN_BY_EZDXF
350
EE8
  0
DICTIONARYVAR
  5
EE8
330
EE7
100
DictionaryVariables
280
0
  1
0.16.4 @ 2021-09-16T07:32:26.766084+00:00
  0
ENDSEC
  0
EOF
