  0
SECTION
  2
HEADER
  9
$ACADVER
  1
AC1015
  9
$ACADMAINTVER
 70
6
  9
$DWGCODEPAGE
  3
ANSI_932
  9
$INSBASE
 10
0.0
 20
0.0
 30
0.0
  9
$EXTMIN
 10
0.0
 20
0.0
 30
0.0
  9
$EXTMAX
 10
0.0
 20
0.0
 30
0.0
  9
$LIMMIN
 10
0.0
 20
0.0
  9
$LIMMAX
 10
12.0
 20
9.0
  9
$ORTHOMODE
 70
0
  9
$REGENMODE
 70
1
  9
$FILLMODE
 70
1
  9
$QTEXTMODE
 70
0
  9
$MIRRTEXT
 70
1
  9
$LTSCALE
 40
1.0
  9
$ATTMODE
 70
1
  9
$TEXTSIZE
 40
0.2
  9
$TRACEWID
 40
1.0
  9
$TEXTSTYLE
  7
STANDARD
  9
$CLAYER
  8
__
  9
$CELTYPE
  6
ByLayer
  9
$CECOLOR
 62
256
  9
$CELTSCALE
 40
1.0
  9
$DISPSILH
 70
0
  9
$DIMSCALE
 40
1.0
  9
$DIMASZ
 40
0.18
  9
$DIMEXO
 40
0.0625
  9
$DIMDLI
 40
0.38
  9
$DIMRND
 40
0.0
  9
$DIMDLE
 40
0.0
  9
$DIMEXE
 40
0.18
  9
$DIMTP
 40
0.0
  9
$DIMTM
 40
0.0
  9
$DIMTXT
 40
0.18
  9
$DIMCEN
 40
0.09
  9
$DIMTSZ
 40
0.0
  9
$DIMTOL
 70
0
  9
$DIMLIM
 70
0
  9
$DIMTIH
 70
1
  9
$DIMTOH
 70
1
  9
$DIMSE1
 70
0
  9
$DIMSE2
 70
0
  9
$DIMTAD
 70
0
  9
$DIMZIN
 70
0
  9
$DIMBLK
  1

  9
$DIMASO
 70
1
  9
$DIMSHO
 70
1
  9
$DIMPOST
  1

  9
$DIMAPOST
  1

  9
$DIMALT
 70
0
  9
$DIMALTD
 70
2
  9
$DIMALTF
 40
25.4
  9
$DIMLFAC
 40
1.0
  9
$DIMTOFL
 70
0
  9
$DIMTVP
 40
0.0
  9
$DIMTIX
 70
0
  9
$DIMSOXD
 70
0
  9
$DIMSAH
 70
0
  9
$DIMBLK1
  1

  9
$DIMBLK2
  1

  9
$DIMSTYLE
  2
STANDARD
  9
$DIMCLRD
 70
0
  9
$DIMCLRE
 70
0
  9
$DIMCLRT
 70
0
  9
$DIMTFAC
 40
1.0
  9
$DIMGAP
 40
0.09
  9
$DIMJUST
 70
0
  9
$DIMSD1
 70
0
  9
$DIMSD2
 70
0
  9
$DIMTOLJ
 70
1
  9
$DIMTZIN
 70
0
  9
$DIMALTZ
 70
0
  9
$DIMALTTZ
 70
0
  9
$DIMUPT
 70
0
  9
$DIMDEC
 70
4
  9
$DIMTDEC
 70
4
  9
$DIMALTU
 70
2
  9
$DIMALTTD
 70
2
  9
$DIMTXSTY
  7
STANDARD
  9
$DIMAUNIT
 70
0
  9
$DIMADEC
 70
0
  9
$DIMALTRND
 40
0.0
  9
$DIMAZIN
 70
0
  9
$DIMDSEP
 70
46
  9
$DIMATFIT
 70
3
  9
$DIMFRAC
 70
0
  9
$DIMLDRBLK
  1

  9
$DIMLUNIT
 70
2
  9
$DIMLWD
 70
-2
  9
$DIMLWE
 70
-2
  9
$DIMTMOVE
 70
0
  9
$LUNITS
 70
2
  9
$LUPREC
 70
2
  9
$SKETCHINC
 40
0.1
  9
$FILLETRAD
 40
0.5
  9
$AUNITS
 70
0
  9
$AUPREC
 70
2
  9
$MENU
  1
.
  9
$ELEVATION
 40
0.0
  9
$PELEVATION
 40
0.0
  9
$THICKNESS
 40
0.0
  9
$LIMCHECK
 70
0
  9
$CHAMFERA
 40
0.0
  9
$CHAMFERB
 40
0.0
  9
$CHAMFERC
 40
0.0
  9
$CHAMFERD
 40
0.0
  9
$SKPOLY
 70
0
  9
$TDCREATE
 40
2459474.689201389
  9
$TDUCREATE
 40
2459044.413842593
  9
$TDUPDATE
 40
2459474.689212963
  9
$TDUUPDATE
 40
2459045.001064815
  9
$TDINDWG
 40
0.001006956
  9
$TDUSRTIMER
 40
0.0009953819
  9
$USRTIMER
 70
1
  9
$ANGBASE
 50
0.0
  9
$ANGDIR
 70
0
  9
$PDMODE
 70
1
  9
$PDSIZE
 40
-2.0
  9
$PLINEWID
 40
0.0
  9
$SPLFRAME
 70
0
  9
$SPLINETYPE
 70
6
  9
$SPLINESEGS
 70
8
  9
$HANDSEED
  5
F50
  9
$SURFTAB1
 70
6
  9
$SURFTAB2
 70
6
  9
$SURFTYPE
 70
6
  9
$SURFU
 70
6
  9
$SURFV
 70
6
  9
$UCSBASE
  2

  9
$UCSNAME
  2

  9
$UCSORG
 10
0.0
 20
0.0
 30
0.0
  9
$UCSXDIR
 10
1.0
 20
0.0
 30
0.0
  9
$UCSYDIR
 10
0.0
 20
1.0
 30
0.0
  9
$UCSORTHOREF
  2

  9
$UCSORTHOVIEW
 70
0
  9
$UCSORGTOP
 10
0.0
 20
0.0
 30
0.0
  9
$UCSORGBOTTOM
 10
0.0
 20
0.0
 30
0.0
  9
$UCSORGLEFT
 10
0.0
 20
0.0
 30
0.0
  9
$UCSORGRIGHT
 10
0.0
 20
0.0
 30
0.0
  9
$UCSORGFRONT
 10
0.0
 20
0.0
 30
0.0
  9
$UCSORGBACK
 10
0.0
 20
0.0
 30
0.0
  9
$PUCSBASE
  2

  9
$PUCSNAME
  2

  9
$PUCSORG
 10
0.0
 20
0.0
 30
0.0
  9
$PUCSXDIR
 10
1.0
 20
0.0
 30
0.0
  9
$PUCSYDIR
 10
0.0
 20
1.0
 30
0.0
  9
$PUCSORTHOREF
  2

  9
$PUCSORTHOVIEW
 70
0
  9
$PUCSORGTOP
 10
0.0
 20
0.0
 30
0.0
  9
$PUCSORGBOTTOM
 10
0.0
 20
0.0
 30
0.0
  9
$PUCSORGLEFT
 10
0.0
 20
0.0
 30
0.0
  9
$PUCSORGRIGHT
 10
0.0
 20
0.0
 30
0.0
  9
$PUCSORGFRONT
 10
0.0
 20
0.0
 30
0.0
  9
$PUCSORGBACK
 10
0.0
 20
0.0
 30
0.0
  9
$USERI1
 70
0
  9
$USERI2
 70
0
  9
$USERI3
 70
0
  9
$USERI4
 70
0
  9
$USERI5
 70
0
  9
$USERR1
 40
0.0
  9
$USERR2
 40
0.0
  9
$USERR3
 40
0.0
  9
$USERR4
 40
0.0
  9
$USERR5
 40
0.0
  9
$WORLDVIEW
 70
1
  9
$SHADEDGE
 70
3
  9
$SHADEDIF
 70
70
  9
$TILEMODE
 70
1
  9
$MAXACTVP
 70
64
  9
$PINSBASE
 10
0.0
 20
0.0
 30
0.0
  9
$PLIMCHECK
 70
0
  9
$PEXTMIN
 10
1e+20
 20
1e+20
 30
1e+20
  9
$PEXTMAX
 10
-1e+20
 20
-1e+20
 30
-1e+20
  9
$PLIMMIN
 10
-20.0
 20
-7.5
  9
$PLIMMAX
 10
277.0
 20
202.5
  9
$UNITMODE
 70
0
  9
$VISRETAIN
 70
1
  9
$PLINEGEN
 70
0
  9
$PSLTSCALE
 70
1
  9
$TREEDEPTH
 70
3020
  9
$CMLSTYLE
  2
Standard
  9
$CMLJUST
 70
0
  9
$CMLSCALE
 40
1.0
  9
$PROXYGRAPHICS
 70
1
  9
$MEASUREMENT
 70
0
  9
$CELWEIGHT
370
-1
  9
$ENDCAPS
280
0
  9
$JOINSTYLE
280
0
  9
$LWDISPLAY
290
0
  9
$INSUNITS
 70
0
  9
$HYPERLINKBASE
  1

  9
$STYLESHEET
  1

  9
$XEDIT
290
1
  9
$CEPSNTYPE
380
0
  9
$PSTYLEMODE
290
1
  9
$FINGERPRINTGUID
  2
{5A7602BC-1827-4D35-929E-49BF7BDA4493}
  9
$VERSIONGUID
  2
{4B686CD7-9E8D-427A-B1C7-7D488614C6BD}
  9
$EXTNAMES
290
1
  9
$PSVPSCALE
 40
0.0
  9
$OLESTARTUP
290
0
  0
ENDSEC
  0
SECTION
  2
CLASSES
  0
CLASS
  1
ACDBDICTIONARYWDFLT
  2
AcDbDictionaryWithDefault
  3
ObjectDBX Classes
 90
0
280
0
281
0
  0
CLASS
  1
MATERIAL
  2
AcDbMaterial
  3
ObjectDBX Classes
 90
1153
280
0
281
0
  0
CLASS
  1
VISUALSTYLE
  2
AcDbVisualStyle
  3
ObjectDBX Classes
 90
4095
280
0
281
0
  0
CLASS
  1
SCALE
  2
AcDbScale
  3
ObjectDBX Classes
 90
1153
280
0
281
0
  0
CLASS
  1
TABLESTYLE
  2
AcDbTableStyle
  3
ObjectDBX Classes
 90
4095
280
0
281
0
  0
CLASS
  1
MLEADERSTYLE
  2
AcDbMLeaderStyle
  3
ACDB_MLEADERSTYLE_CLASS
 90
4095
280
0
281
0
  0
CLASS
  1
ACDBSECTIONVIEWSTYLE
  2
AcDbSectionViewStyle
  3
ObjectDBX Classes
 90
1025
280
0
281
0
  0
CLASS
  1
ACDBDETAILVIEWSTYLE
  2
AcDbDetailViewStyle
  3
ObjectDBX Classes
 90
1025
280
0
281
0
  0
CLASS
  1
DICTIONARYVAR
  2
AcDbDictionaryVar
  3
ObjectDBX Classes
 90
0
280
0
281
0
  0
CLASS
  1
CELLSTYLEMAP
  2
AcDbCellStyleMap
  3
ObjectDBX Classes
 90
1152
280
0
281
0
  0
CLASS
  1
ACDBPLACEHOLDER
  2
AcDbPlaceHolder
  3
ObjectDBX Classes
 90
0
280
0
281
0
  0
CLASS
  1
LAYOUT
  2
AcDbLayout
  3
ObjectDBX Classes
 90
0
280
0
281
0
  0
CLASS
  1
SUN
  2
AcDbSun
  3
SCENEOE
 90
1153
280
0
281
0
  0
CLASS
  1
MENTALRAYRENDERSETTINGS
  2
AcDbMentalRayRenderSettings
  3
SCENEOE
 90
1024
280
0
281
0
  0
CLASS
  1
RASTERVARIABLES
  2
AcDbRasterVariables
  3
ISM
 90
0
280
0
281
0
  0
ENDSEC
  0
SECTION
  2
TABLES
  0
TABLE
  2
VPORT
  5
9CE
330
0
100
AcDbSymbolTable
 70
1
  0
VPORT
  5
A3A
330
9CE
100
AcDbSymbolTableRecord
100
AcDbViewportTableRecord
  2
*ACTIVE
 70
0
 10
0.0
 20
0.0
 11
1.0
 21
1.0
 12
50.22649720630994
 22
14.7479721186084
 13
0.0
 23
0.0
 14
0.5
 24
0.5
 15
0.5
 25
0.5
 16
0.0
 26
0.0
 36
1.0
 17
0.0
 27
0.0
 37
0.0
 40
167.9470367482983
 41
2.193641618497109
 42
50.0
 43
0.0
 44
0.0
 50
0.0
 51
0.0
 71
0
 72
1000
 73
1
 74
3
 75
0
 76
0
 77
0
 78
0
281
0
 65
1
110
0.0
120
0.0
130
0.0
111
1.0
121
0.0
131
0.0
112
0.0
122
1.0
132
0.0
 79
0
146
0.0
1001
ACAD_NAV_VCDISPLAY
1070
3
  0
ENDTAB
  0
TABLE
  2
LTYPE
  5
9CB
330
0
100
AcDbSymbolTable
 70
3
  0
LTYPE
  5
A3B
330
9CB
100
AcDbSymbolTableRecord
100
AcDbLinetypeTableRecord
  2
BYBLOCK
 70
0
  3

 72
65
 73
0
 40
0.0
  0
LTYPE
  5
A3C
330
9CB
100
AcDbSymbolTableRecord
100
AcDbLinetypeTableRecord
  2
BYLAYER
 70
0
  3

 72
65
 73
0
 40
0.0
  0
LTYPE
  5
A22
330
9CB
100
AcDbSymbolTableRecord
100
AcDbLinetypeTableRecord
  2
CONTINUOUS
 70
0
  3
Solid line
 72
65
 73
0
 40
0.0
  0
ENDTAB
  0
TABLE
  2
LAYER
  5
9C8
330
0
100
AcDbSymbolTable
 70
4
  0
LAYER
  5
A1A
102
{ACAD_XDICTIONARY
360
A49
102
}
330
9C8
100
AcDbSymbolTableRecord
100
AcDbLayerTableRecord
  2
0
 70
0
 62
7
  6
CONTINUOUS
370
-3
390
9D5
  0
LAYER
  5
A39
102
{ACAD_XDICTIONARY
360
A4B
102
}
330
9C8
100
AcDbSymbolTableRecord
100
AcDbLayerTableRecord
  2
__
 70
0
 62
7
  6
CONTINUOUS
370
-3
390
9D5
  0
LAYER
  5
A3D
102
{ACAD_XDICTIONARY
360
A4D
102
}
330
9C8
100
AcDbSymbolTableRecord
100
AcDbLayerTableRecord
  2
_____1
 70
0
 62
7
  6
CONTINUOUS
370
-3
390
9D5
  0
LAYER
  5
A3E
330
9C8
100
AcDbSymbolTableRecord
100
AcDbLayerTableRecord
  2
DEFPOINTS
 70
0
 62
7
  6
CONTINUOUS
290
0
370
-3
390
9D5
  0
ENDTAB
  0
TABLE
  2
STYLE
  5
9C9
330
0
100
AcDbSymbolTable
 70
2
  0
STYLE
  5
A1B
330
9C9
100
AcDbSymbolTableRecord
100
AcDbTextStyleTableRecord
  2
STANDARD
 70
0
 40
0.0
 41
1.0
 50
0.0
 71
0
 42
0.2
  3
txt
  4
BIGFONT.SHX
  0
STYLE
  5
A1F
330
9C9
100
AcDbSymbolTableRecord
100
AcDbTextStyleTableRecord
  2
Annotative
 70
0
 40
0.0
 41
1.0
 50
0.0
 71
0
 42
0.2
  3
txt
  4

1001
AcadAnnotative
1000
AnnotativeData
1002
{
1070
1
1070
1
1002
}
  0
ENDTAB
  0
TABLE
  2
VIEW
  5
9CC
330
0
100
AcDbSymbolTable
 70
0
  0
ENDTAB
  0
TABLE
  2
UCS
  5
9CD
330
0
100
AcDbSymbolTable
 70
0
  0
ENDTAB
  0
TABLE
  2
APPID
  5
9CF
330
0
100
AcDbSymbolTable
 70
8
  0
APPID
  5
A1C
330
9CF
100
AcDbSymbolTableRecord
100
AcDbRegAppTableRecord
  2
ACAD
 70
0
  0
APPID
  5
A23
330
9CF
100
AcDbSymbolTableRecord
100
AcDbRegAppTableRecord
  2
AcadAnnotative
 70
0
  0
APPID
  5
A3F
330
9CF
100
AcDbSymbolTableRecord
100
AcDbRegAppTableRecord
  2
ACCMTRANSPARENCY
 70
0
  0
APPID
  5
A40
330
9CF
100
AcDbSymbolTableRecord
100
AcDbRegAppTableRecord
  2
ACAECLAYERSTANDARD
 70
0
  0
APPID
  5
A59
330
9CF
100
AcDbSymbolTableRecord
100
AcDbRegAppTableRecord
  2
ACAD_NAV_VCDISPLAY
 70
0
  0
APPID
  5
A94
330
9CF
100
AcDbSymbolTableRecord
100
AcDbRegAppTableRecord
  2
ACAD_MLEADERVER
 70
0
  0
APPID
  5
F4C
330
9CF
100
AcDbSymbolTableRecord
100
AcDbRegAppTableRecord
  2
HATCHBACKGROUNDCOLOR
 70
0
  0
APPID
  5
F4D
330
9CF
100
AcDbSymbolTableRecord
100
AcDbRegAppTableRecord
  2
EZDXF
 70
0
  0
ENDTAB
  0
TABLE
  2
DIMSTYLE
  5
9D0
330
0
100
AcDbSymbolTable
 70
2
100
AcDbDimStyleTable
  0
DIMSTYLE
105
A1D
330
9D0
100
AcDbSymbolTableRecord
100
AcDbDimStyleTableRecord
  2
STANDARD
 70
0
  3

  4

 40
1.0
 41
2.5
 42
0.625
 43
3.75
 44
1.25
 45
0.0
 46
0.0
 47
0.0
 48
0.0
140
2.5
141
2.5
142
0.0
143
0.03937007874
144
1.0
145
0.0
146
1.0
147
0.625
148
0.0
 71
0
 72
0
 73
0
 74
0
 75
0
 76
0
 77
1
 78
8
 79
0
170
0
171
3
172
1
173
0
174
0
175
0
176
0
177
0
178
0
179
0
271
2
272
2
273
2
274
3
275
0
276
0
277
2
278
44
279
2
280
0
281
0
282
0
283
0
284
8
285
0
286
0
288
0
289
3
371
-2
372
-2
  0
DIMSTYLE
105
A1E
330
9D0
100
AcDbSymbolTableRecord
100
AcDbDimStyleTableRecord
  2
Annotative
 70
0
  3

  4

 40
1.0
 41
2.5
 42
0.625
 43
3.75
 44
1.25
 45
0.0
 46
0.0
 47
0.0
 48
0.0
140
2.5
141
2.5
142
0.0
143
0.03937007874
144
1.0
145
0.0
146
1.0
147
0.625
148
0.0
 71
0
 72
0
 73
0
 74
0
 75
0
 76
0
 77
1
 78
8
 79
0
170
0
171
3
172
1
173
0
174
0
175
0
176
0
177
0
178
0
179
0
271
0
272
2
273
2
274
3
275
0
276
0
277
2
278
44
279
0
280
0
281
0
282
0
283
0
284
8
285
0
286
0
288
0
289
3
371
-2
372
-2
1001
AcadAnnotative
1000
AnnotativeData
1002
{
1070
1
1070
1
1002
}
  0
ENDTAB
  0
TABLE
  2
BLOCK_RECORD
  5
9C7
330
0
100
AcDbSymbolTable
 70
4
  0
BLOCK_RECORD
  5
A35
330
9C7
100
AcDbSymbolTableRecord
100
AcDbBlockTableRecord
  2
*Model_Space
340
A38
  0
BLOCK_RECORD
  5
A31
330
9C7
100
AcDbSymbolTableRecord
100
AcDbBlockTableRecord
  2
*Paper_Space
340
A34
  0
BLOCK_RECORD
  5
A43
330
9C7
100
AcDbSymbolTableRecord
100
AcDbBlockTableRecord
  2
$MODEL_SPACE
340
0
  0
BLOCK_RECORD
  5
A44
330
9C7
100
AcDbSymbolTableRecord
100
AcDbBlockTableRecord
  2
$PAPER_SPACE
340
0
  0
ENDTAB
  0
ENDSEC
  0
SECTION
  2
BLOCKS
  0
BLOCK
  5
A36
330
A35
100
AcDbEntity
  8
0
100
AcDbBlockBegin
  2
*Model_Space
 70
0
 10
0.0
 20
0.0
 30
0.0
  3
*Model_Space
  1

  0
ENDBLK
  5
A37
330
A35
100
AcDbEntity
  8
0
100
AcDbBlockEnd
  0
BLOCK
  5
A32
330
A31
100
AcDbEntity
 67
1
  8
0
100
AcDbBlockBegin
  2
*Paper_Space
 70
0
 10
0.0
 20
0.0
 30
0.0
  3
*Paper_Space
  1

  0
ENDBLK
  5
A33
330
A31
100
AcDbEntity
 67
1
  8
0
100
AcDbBlockEnd
  0
BLOCK
  5
470
330
A43
100
AcDbEntity
  8
0
100
AcDbBlockBegin
  2
$MODEL_SPACE
 70
0
 10
0.0
 20
0.0
 30
0.0
  3
$MODEL_SPACE
  1

  0
ENDBLK
  5
21
330
A43
100
AcDbEntity
  8
0
100
AcDbBlockEnd
  0
BLOCK
  5
471
330
A44
100
AcDbEntity
  8
0
100
AcDbBlockBegin
  2
$PAPER_SPACE
 70
0
 10
0.0
 20
0.0
 30
0.0
  3
$PAPER_SPACE
  1

  0
ENDBLK
  5
1D
330
A44
100
AcDbEntity
  8
0
100
AcDbBlockEnd
  0
ENDSEC
  0
SECTION
  2
ENTITIES
  0
LINE
  5
A9D
330
A35
100
AcDbEntity
  8
0
100
AcDbLine
 10
12.709846094319744
 20
77.376931313461
 30
0.0
 11
12.56062289472871
 21
77.35219594613747
 31
0.0
  0
LINE
  5
A9E
330
A35
100
AcDbEntity
  8
0
100
AcDbLine
 10
13.4077078511028
 20
76.70461591965142
 30
0.0
 11
13.233343786363292
 21
76.62959882203094
 31
0.0
  0
LINE
  5
A9F
330
A35
100
AcDbEntity
  8
0
100
AcDbLine
 10
10.39323702023404
 20
77.35219594613747
 30
0.0
 11
10.417972387557569
 21
77.376931313461
 31
0.0
  0
LINE
  5
AA0
330
A35
100
AcDbEntity
  8
0
100
AcDbLine
 10
10.318219922613537
 20
77.32746057881394
 30
0.0
 11
10.39323702023404
 21
77.35219594613747
 31
0.0
  0
LINE
  5
AA1
330
A35
100
AcDbEntity
  8
0
100
AcDbLine
 10
22.725236873392618
 20
70.55078092782136
 30
0.0
 11
22.899600938132153
 21
70.62539252761692
 31
0.0
  0
LINE
  5
AA2
330
A35
100
AcDbEntity
  8
0
100
AcDbLine
 10
22.874865570808595
 20
71.17362558698395
 30
0.0
 11
22.850130203485094
 21
71.1484847218355
 31
0.0
  0
LINE
  5
AA3
330
A35
100
AcDbEntity
  8
0
100
AcDbLine
 10
18.96343355109377
 20
68.45800665312223
 30
0.0
 11
19.835253874791363
 21
68.75685855012924
 31
0.0
  0
LINE
  5
AA4
330
A35
100
AcDbEntity
  8
0
100
AcDbLine
 10
18.96343355109377
 20
68.03426142602271
 30
0.0
 11
19.835253874791363
 21
68.35825418817822
 31
0.0
  0
LINE
  5
AA5
330
A35
100
AcDbEntity
  8
0
100
AcDbLine
 10
19.885130107263365
 20
68.18389012343872
 30
0.0
 11
19.013309783565774
 21
67.88503822643165
 31
0.0
  0
LINE
  5
AA6
330
A35
100
AcDbEntity
  8
0
100
AcDbLine
 10
22.102392214230036
 20
70.17691193319388
 30
0.0
 11
22.22728554432254
 21
70.20205279834238
 31
0.0
  0
LINE
  5
AA7
330
A35
100
AcDbEntity
  8
0
100
AcDbLine
 10
22.899600938132153
 20
71.17362558698395
 30
0.0
 11
22.874865570808595
 21
71.17362558698395
 31
0.0
  0
LINE
  5
AA8
330
A35
100
AcDbEntity
  8
0
100
AcDbLine
 10
31.669302398879864
 20
71.67157691605402
 30
0.0
 11
31.79419572897237
 21
71.69671778120252
 31
0.0
  0
LINE
  5
AA9
330
A35
100
AcDbEntity
  8
0
100
AcDbLine
 10
32.01803052835888
 20
71.47247748399101
 30
0.0
 11
32.11778299330288
 21
71.49721285131449
 31
0.0
  0
LINE
  5
AAA
330
A35
100
AcDbEntity
  8
0
100
AcDbLine
 10
32.14292385845138
 20
71.44774211666746
 30
0.0
 11
32.01803052835888
 21
71.39746038637048
 31
0.0
  0
LINE
  5
AAB
330
A35
100
AcDbEntity
  8
0
100
AcDbLine
 10
24.344795186345237
 20
70.40115223040539
 30
0.0
 11
24.369530553668767
 21
70.40115223040539
 31
0.0
  0
LINE
  5
AAC
330
A35
100
AcDbEntity
  8
0
100
AcDbLine
 10
31.719178631351866
 20
71.69671778120252
 30
0.0
 11
31.744319496500367
 21
71.69671778120252
 31
0.0
  0
LINE
  5
AAD
330
A35
100
AcDbEntity
  8
0
100
AcDbLine
 10
21.454812187743983
 20
66.53959644316257
 30
0.0
 11
22.27675627896957
 21
66.81371297284608
 31
0.0
  0
LINE
  5
AAE
330
A35
100
AcDbEntity
  8
0
100
AcDbLine
 10
22.949477170604126
 20
71.17362558698395
 30
0.0
 11
22.899600938132153
 21
71.17362558698395
 31
0.0
  0
LINE
  5
AAF
330
A35
100
AcDbEntity
  8
0
100
AcDbLine
 10
19.835253874791363
 20
68.75685855012924
 30
0.0
 11
20.757355928785927
 21
69.05611594496125
 31
0.0
  0
LINE
  5
AB0
330
A35
100
AcDbEntity
  8
0
100
AcDbLine
 10
19.835253874791363
 20
68.35825418817822
 30
0.0
 11
20.757355928785927
 21
68.63237071786173
 31
0.0
  0
LINE
  5
AB1
330
A35
100
AcDbEntity
  8
0
100
AcDbLine
 10
20.806826663432958
 20
68.45800665312223
 30
0.0
 11
19.885130107263365
 21
68.18389012343872
 31
0.0
  0
LINE
  5
AB2
330
A35
100
AcDbEntity
  8
0
100
AcDbLine
 10
22.22728554432254
 20
66.24033904833055
 30
0.0
 11
23.0244942682246
 21
66.46498484336706
 31
0.0
  0
LINE
  5
AB3
330
A35
100
AcDbEntity
  8
0
100
AcDbLine
 10
24.96763984550779
 20
70.60025166246842
 30
0.0
 11
25.590484504670343
 21
70.79975659235643
 31
0.0
  0
LINE
  5
AB4
330
A35
100
AcDbEntity
  8
0
100
AcDbLine
 10
22.9746180357526
 20
71.17362558698395
 30
0.0
 11
22.949477170604126
 21
71.17362558698395
 31
0.0
  0
LINE
  5
AB5
330
A35
100
AcDbEntity
  8
0
100
AcDbLine
 10
10.39323702023404
 20
77.376931313461
 30
0.0
 11
10.368096155085539
 21
77.35219594613747
 31
0.0
  0
LINE
  5
AB6
330
A35
100
AcDbEntity
  8
0
100
AcDbLine
 10
10.542460219825074
 20
77.45154291325653
 30
0.0
 11
10.39323702023404
 21
77.376931313461
 31
0.0
  0
LINE
  5
AB7
330
A35
100
AcDbEntity
  8
0
100
AcDbLine
 10
13.083715088947287
 20
78.72237309673011
 30
0.0
 11
12.959227256679782
 21
78.67249686425808
 31
0.0
  0
LINE
  5
AB8
330
A35
100
AcDbEntity
  8
0
100
AcDbLine
 10
13.108855954095759
 20
78.64776149693458
 30
0.0
 11
12.983962624003254
 21
78.57314989713905
 31
0.0
  0
LINE
  5
AB9
330
A35
100
AcDbEntity
  8
0
100
AcDbLine
 10
13.083715088947287
 20
78.72237309673011
 30
0.0
 11
10.542460219825074
 21
77.45154291325653
 31
0.0
  0
LINE
  5
ABA
330
A35
100
AcDbEntity
  8
0
100
AcDbLine
 10
13.083715088947287
 20
78.72237309673011
 30
0.0
 11
10.542460219825074
 21
77.45154291325653
 31
0.0
  0
LINE
  5
ABB
330
A35
100
AcDbEntity
  8
0
100
AcDbLine
 10
10.46784862002957
 20
77.426807545933
 30
0.0
 11
12.36111796484073
 21
78.34850410210257
 31
0.0
  0
LINE
  5
ABC
330
A35
100
AcDbEntity
  8
0
100
AcDbLine
 10
10.542460219825074
 20
77.32746057881394
 30
0.0
 11
12.386258829989231
 21
78.24875163715856
 31
0.0
  0
LINE
  5
ABD
330
A35
100
AcDbEntity
  8
0
100
AcDbLine
 10
13.283220018835266
 20
76.57972258955894
 30
0.0
 11
13.4324432184263
 21
76.67947505450292
 31
0.0
  0
LINE
  5
ABE
330
A35
100
AcDbEntity
  8
0
100
AcDbLine
 10
14.603520936955903
 20
73.71447495828119
 30
0.0
 11
17.144775806078115
 21
74.96016427660626
 31
0.0
  0
LINE
  5
ABF
330
A35
100
AcDbEntity
  8
0
100
AcDbLine
 10
29.177923762229653
 20
80.2673198098872
 30
0.0
 11
19.411914145516818
 21
75.35917413638234
 31
0.0
  0
LINE
  5
AC0
330
A35
100
AcDbEntity
  8
0
100
AcDbLine
 10
19.362037913044787
 20
75.2845625365868
 30
0.0
 11
19.386773280368317
 21
75.33403327123384
 31
0.0
  0
LINE
  5
AC1
330
A35
100
AcDbEntity
  8
0
100
AcDbLine
 10
29.252940859850128
 20
80.2673198098872
 30
0.0
 11
29.32755245964566
 21
80.29205517721073
 31
0.0
  0
LINE
  5
AC2
330
A35
100
AcDbEntity
  8
0
100
AcDbLine
 10
19.386773280368317
 20
75.2845625365868
 30
0.0
 11
29.153188394906152
 21
80.19230271226675
 31
0.0
  0
LINE
  5
AC3
330
A35
100
AcDbEntity
  8
0
100
AcDbLine
 10
29.277676227173657
 20
80.16756734494322
 30
0.0
 11
29.32755245964566
 21
80.19230271226675
 31
0.0
  0
LINE
  5
AC4
330
A35
100
AcDbEntity
  8
0
100
AcDbLine
 10
15.575093725597497
 20
72.24495084056952
 30
0.0
 11
18.116348594719682
 21
73.49064015889468
 31
0.0
  0
LINE
  5
AC5
330
A35
100
AcDbEntity
  8
0
100
AcDbLine
 10
21.554564652687986
 20
72.34470330551355
 30
0.0
 11
19.660889810051856
 21
71.37272501904698
 31
0.0
  0
LINE
  5
AC6
330
A35
100
AcDbEntity
  8
0
100
AcDbLine
 10
21.529423787539514
 20
72.26968620789305
 30
0.0
 11
19.660889810051856
 21
71.34798965172348
 31
0.0
  0
LINE
  5
AC7
330
A35
100
AcDbEntity
  8
0
100
AcDbLine
 10
21.65391161980702
 20
72.24495084056952
 30
0.0
 11
21.604440885160017
 21
72.21980997542107
 31
0.0
  0
LINE
  5
AC8
330
A35
100
AcDbEntity
  8
0
100
AcDbLine
 10
35.13225382417167
 20
78.12466930271606
 30
0.0
 11
35.08278308952464
 21
78.09952843756756
 31
0.0
  0
LINE
  5
AC9
330
A35
100
AcDbEntity
  8
0
100
AcDbLine
 10
35.13225382417167
 20
78.09952843756756
 30
0.0
 11
35.03290685705264
 21
78.07438757241906
 31
0.0
  0
LINE
  5
ACA
330
A35
100
AcDbEntity
  8
0
100
AcDbLine
 10
21.853416549695027
 20
71.04873225689147
 30
0.0
 11
22.102392214230036
 21
71.17362558698395
 31
0.0
  0
LINE
  5
ACB
330
A35
100
AcDbEntity
  8
0
100
AcDbLine
 10
21.853416549695027
 20
70.55078092782136
 30
0.0
 11
24.444547651289213
 21
71.82120561347
 31
0.0
  0
LINE
  5
ACC
330
A35
100
AcDbEntity
  8
0
100
AcDbLine
 10
21.853416549695027
 20
70.45102846287739
 30
0.0
 11
24.444547651289213
 21
71.74659401367452
 31
0.0
  0
LINE
  5
ACD
330
A35
100
AcDbEntity
  8
0
100
AcDbLine
 10
22.301897144118072
 20
70.50090469534942
 30
0.0
 11
23.173717467815663
 21
70.92464992244894
 31
0.0
  0
LINE
  5
ACE
330
A35
100
AcDbEntity
  8
0
100
AcDbLine
 10
16.571807379387565
 20
67.41141676686016
 30
0.0
 11
17.319139870817622
 21
67.7601448963392
 31
0.0
  0
LINE
  5
ACF
330
A35
100
AcDbEntity
  8
0
100
AcDbLine
 10
22.301897144118072
 20
70.1517710680454
 30
0.0
 11
22.27675627896957
 21
70.1517710680454
 31
0.0
  0
LINE
  5
AD0
330
A35
100
AcDbEntity
  8
0
100
AcDbLine
 10
22.301897144118072
 20
70.00254786845437
 30
0.0
 11
22.401649609062048
 21
70.02768873360284
 31
0.0
  0
LINE
  5
AD1
330
A35
100
AcDbEntity
  8
0
100
AcDbLine
 10
16.571807379387565
 20
66.98807703758561
 30
0.0
 11
17.319139870817622
 21
67.33680516706465
 31
0.0
  0
LINE
  5
AD2
330
A35
100
AcDbEntity
  8
0
100
AcDbLine
 10
17.418892335761626
 20
67.18758196747359
 30
0.0
 11
16.671154346506597
 21
66.8384483401696
 31
0.0
  0
LINE
  5
AD3
330
A35
100
AcDbEntity
  8
0
100
AcDbLine
 10
25.042251445303293
 20
70.84963282482843
 30
0.0
 11
28.23149183873656
 21
72.41931490530905
 31
0.0
  0
LINE
  5
AD4
330
A35
100
AcDbEntity
  8
0
100
AcDbLine
 10
10.417972387557569
 20
77.376931313461
 30
0.0
 11
10.46784862002957
 21
77.426807545933
 31
0.0
  0
LINE
  5
AD5
330
A35
100
AcDbEntity
  8
0
100
AcDbLine
 10
22.82498933833662
 20
71.1484847218355
 30
0.0
 11
22.80025397101312
 21
71.09901398718844
 31
0.0
  0
LINE
  5
AD6
330
A35
100
AcDbEntity
  8
0
100
AcDbLine
 10
20.05949417200287
 20
65.36851872463299
 30
0.0
 11
20.757355928785927
 21
65.69291698461348
 31
0.0
  0
LINE
  5
AD7
330
A35
100
AcDbEntity
  8
0
100
AcDbLine
 10
17.319139870817622
 20
67.7601448963392
 30
0.0
 11
18.116348594719682
 21
68.10887302581821
 31
0.0
  0
LINE
  5
AD8
330
A35
100
AcDbEntity
  8
0
100
AcDbLine
 10
17.319139870817622
 20
67.33680516706465
 30
0.0
 11
18.116348594719682
 21
67.71067416169217
 31
0.0
  0
LINE
  5
AD9
330
A35
100
AcDbEntity
  8
0
100
AcDbLine
 10
18.190960194515213
 20
67.56104546427613
 30
0.0
 11
17.418892335761626
 21
67.18758196747359
 31
0.0
  0
LINE
  5
ADA
330
A35
100
AcDbEntity
  8
0
100
AcDbLine
 10
31.694443264028337
 20
71.67157691605402
 30
0.0
 11
31.719178631351866
 21
71.67157691605402
 31
0.0
  0
LINE
  5
ADB
330
A35
100
AcDbEntity
  8
0
100
AcDbLine
 10
19.960147204883867
 20
65.94189264914849
 30
0.0
 11
20.707479696313925
 21
66.24033904833055
 31
0.0
  0
LINE
  5
ADC
330
A35
100
AcDbEntity
  8
0
100
AcDbLine
 10
20.757355928785927
 20
65.69291698461348
 30
0.0
 11
21.479547555067512
 21
65.96662801647201
 31
0.0
  0
LINE
  5
ADD
330
A35
100
AcDbEntity
  8
0
100
AcDbLine
 10
18.116348594719682
 20
68.10887302581821
 30
0.0
 11
18.96343355109377
 21
68.45800665312223
 31
0.0
  0
LINE
  5
ADE
330
A35
100
AcDbEntity
  8
0
100
AcDbLine
 10
18.116348594719682
 20
67.71067416169217
 30
0.0
 11
18.96343355109377
 21
68.03426142602271
 31
0.0
  0
LINE
  5
ADF
330
A35
100
AcDbEntity
  8
0
100
AcDbLine
 10
19.013309783565774
 20
67.88503822643165
 30
0.0
 11
18.190960194515213
 21
67.56104546427613
 31
0.0
  0
LINE
  5
AE0
330
A35
100
AcDbEntity
  8
0
100
AcDbLine
 10
24.369530553668767
 20
70.40115223040539
 30
0.0
 11
24.39467141881724
 21
70.40115223040539
 31
0.0
  0
LINE
  5
AE1
330
A35
100
AcDbEntity
  8
0
100
AcDbLine
 10
22.850130203485094
 20
71.1484847218355
 30
0.0
 11
22.82498933833662
 21
71.1484847218355
 31
0.0
  0
LINE
  5
AE2
330
A35
100
AcDbEntity
  8
0
100
AcDbLine
 10
31.719178631351866
 20
71.67157691605402
 30
0.0
 11
31.719178631351866
 21
71.69671778120252
 31
0.0
  0
LINE
  5
AE3
330
A35
100
AcDbEntity
  8
0
100
AcDbLine
 10
22.27675627896957
 20
69.97740700330587
 30
0.0
 11
22.301897144118072
 21
70.00254786845437
 31
0.0
  0
LINE
  5
AE4
330
A35
100
AcDbEntity
  8
0
100
AcDbLine
 10
33.363472311628016
 20
62.1796838290247
 30
0.0
 11
33.886564505846536
 21
62.3540478937642
 31
0.0
  0
LINE
  5
AE5
330
A35
100
AcDbEntity
  8
0
100
AcDbLine
 10
20.707479696313925
 20
66.24033904833055
 30
0.0
 11
21.454812187743983
 21
66.53959644316257
 31
0.0
  0
LINE
  5
AE6
330
A35
100
AcDbEntity
  8
0
100
AcDbLine
 10
24.39467141881724
 20
70.40115223040539
 30
0.0
 11
24.96763984550779
 21
70.60025166246842
 31
0.0
  0
LINE
  5
AE7
330
A35
100
AcDbEntity
  8
0
100
AcDbLine
 10
33.837093771199534
 20
62.05479049893219
 30
0.0
 11
33.338736944304486
 21
61.880426434192685
 31
0.0
  0
LINE
  5
AE8
330
A35
100
AcDbEntity
  8
0
100
AcDbLine
 10
21.479547555067512
 20
65.96662801647201
 30
0.0
 11
22.22728554432254
 21
66.24033904833055
 31
0.0
  0
LINE
  5
AE9
330
A35
100
AcDbEntity
  8
0
100
AcDbLine
 10
37.150416499075334
 20
54.8547711186651
 30
0.0
 11
36.353207775173274
 21
54.60579545413006
 31
0.0
  0
LINE
  5
AEA
330
A35
100
AcDbEntity
  8
0
100
AcDbLine
 10
32.790503884937465
 20
61.98017889913669
 30
0.0
 11
33.363472311628016
 21
62.1796838290247
 31
0.0
  0
LINE
  5
AEB
330
A35
100
AcDbEntity
  8
0
100
AcDbLine
 10
37.54902086102635
 20
54.43143138939055
 30
0.0
 11
36.70193590465226
 21
54.182455724855515
 31
0.0
  0
LINE
  5
AEC
330
A35
100
AcDbEntity
  8
0
100
AcDbLine
 10
33.338736944304486
 20
61.880426434192685
 30
0.0
 11
32.765768517613935
 21
61.73120323460165
 31
0.0
  0
LINE
  5
AED
330
A35
100
AcDbEntity
  8
0
100
AcDbLine
 10
12.56062289472871
 20
77.35219594613747
 30
0.0
 11
12.460870429784734
 21
77.277178848517
 31
0.0
  0
LINE
  5
AEE
330
A35
100
AcDbEntity
  8
0
100
AcDbLine
 10
13.507460316046803
 20
76.75408665429845
 30
0.0
 11
13.4077078511028
 21
76.70461591965142
 31
0.0
  0
LINE
  5
AEF
330
A35
100
AcDbEntity
  8
0
100
AcDbLine
 10
15.201224730969983
 20
66.56473730831107
 30
0.0
 11
15.849210255281008
 21
66.98807703758561
 31
0.0
  0
LINE
  5
AF0
330
A35
100
AcDbEntity
  8
0
100
AcDbLine
 10
15.201224730969983
 20
66.14099208121152
 30
0.0
 11
15.849210255281008
 21
66.56473730831107
 31
0.0
  0
LINE
  5
AF1
330
A35
100
AcDbEntity
  8
0
100
AcDbLine
 10
15.948962720225012
 20
66.41470311307006
 30
0.0
 11
15.276241828590429
 21
65.99136338379552
 31
0.0
  0
LINE
  5
AF2
330
A35
100
AcDbEntity
  8
0
100
AcDbLine
 10
10.368096155085539
 20
77.35219594613747
 30
0.0
 11
10.318219922613537
 21
77.32746057881394
 31
0.0
  0
LINE
  5
AF3
330
A35
100
AcDbEntity
  8
0
100
AcDbLine
 10
18.83894571882624
 20
64.64592160052644
 30
0.0
 11
19.43664951284032
 21
65.04493146030245
 31
0.0
  0
LINE
  5
AF4
330
A35
100
AcDbEntity
  8
0
100
AcDbLine
 10
22.301897144118072
 20
70.50090469534942
 30
0.0
 11
22.25202091164607
 21
70.45102846287739
 31
0.0
  0
LINE
  5
AF5
330
A35
100
AcDbEntity
  8
0
100
AcDbLine
 10
22.426384976385577
 20
70.02768873360284
 30
0.0
 11
22.401649609062048
 21
70.02768873360284
 31
0.0
  0
LINE
  5
AF6
330
A35
100
AcDbEntity
  8
0
100
AcDbLine
 10
31.669302398879864
 20
71.67157691605402
 30
0.0
 11
31.694443264028337
 21
71.67157691605402
 31
0.0
  0
LINE
  5
AF7
330
A35
100
AcDbEntity
  8
0
100
AcDbLine
 10
15.849210255281008
 20
66.98807703758561
 30
0.0
 11
16.571807379387565
 21
67.41141676686016
 31
0.0
  0
LINE
  5
AF8
330
A35
100
AcDbEntity
  8
0
100
AcDbLine
 10
15.849210255281008
 20
66.56473730831107
 30
0.0
 11
16.571807379387565
 21
66.98807703758561
 31
0.0
  0
LINE
  5
AF9
330
A35
100
AcDbEntity
  8
0
100
AcDbLine
 10
16.671154346506597
 20
66.8384483401696
 30
0.0
 11
15.948962720225012
 21
66.41470311307006
 31
0.0
  0
LINE
  5
AFA
330
A35
100
AcDbEntity
  8
0
100
AcDbLine
 10
19.43664951284032
 20
65.04493146030245
 30
0.0
 11
19.660889810051856
 21
65.11954306009793
 31
0.0
  0
LINE
  5
AFB
330
A35
100
AcDbEntity
  8
0
100
AcDbLine
 10
18.61470542161473
 20
65.24443639019043
 30
0.0
 11
19.262285448100812
 21
65.617494389168
 31
0.0
  0
LINE
  5
AFC
330
A35
100
AcDbEntity
  8
0
100
AcDbLine
 10
22.80025397101312
 20
71.09901398718844
 30
0.0
 11
22.75037773854109
 21
71.09901398718844
 31
0.0
  0
LINE
  5
AFD
330
A35
100
AcDbEntity
  8
0
100
AcDbLine
 10
34.8086665598411
 20
62.50327109335524
 30
0.0
 11
34.360185965418054
 21
62.2794362939687
 31
0.0
  0
LINE
  5
AFE
330
A35
100
AcDbEntity
  8
0
100
AcDbLine
 10
19.660889810051856
 20
65.11954306009793
 30
0.0
 11
20.05949417200287
 21
65.36851872463299
 31
0.0
  0
LINE
  5
AFF
330
A35
100
AcDbEntity
  8
0
100
AcDbLine
 10
25.042251445303293
 20
70.6505333927654
 30
0.0
 11
28.23149183873656
 21
72.26968620789305
 31
0.0
  0
LINE
  5
B00
330
A35
100
AcDbEntity
  8
0
100
AcDbLine
 10
34.33504510026958
 20
72.12005751047707
 30
0.0
 11
34.28516886779761
 21
72.12005751047707
 31
0.0
  0
LINE
  5
B01
330
A35
100
AcDbEntity
  8
0
100
AcDbLine
 10
34.83340192716463
 20
72.26968620789305
 30
0.0
 11
34.933154392108634
 21
72.29442157521655
 31
0.0
  0
LINE
  5
B02
330
A35
100
AcDbEntity
  8
0
100
AcDbLine
 10
34.83340192716463
 20
72.26968620789305
 30
0.0
 11
34.933154392108634
 21
72.29442157521655
 31
0.0
  0
LINE
  5
B03
330
A35
100
AcDbEntity
  8
0
100
AcDbLine
 10
19.262285448100812
 20
65.617494389168
 30
0.0
 11
19.960147204883867
 21
65.94189264914849
 31
0.0
  0
LINE
  5
B04
330
A35
100
AcDbEntity
  8
0
100
AcDbLine
 10
33.886564505846536
 20
62.3540478937642
 30
0.0
 11
34.360185965418054
 21
62.55355282365221
 31
0.0
  0
LINE
  5
B05
330
A35
100
AcDbEntity
  8
0
100
AcDbLine
 10
34.360185965418054
 20
62.2794362939687
 30
0.0
 11
33.837093771199534
 21
62.05479049893219
 31
0.0
  0
LINE
  5
B06
330
A35
100
AcDbEntity
  8
0
100
AcDbLine
 10
38.64548697976045
 20
55.40300417803212
 30
0.0
 11
37.89774899050542
 21
55.10455777885008
 31
0.0
  0
LINE
  5
B07
330
A35
100
AcDbEntity
  8
0
100
AcDbLine
 10
39.068826709034994
 20
55.004805313906076
 30
0.0
 11
38.321494217604936
 21
54.73068878422254
 31
0.0
  0
LINE
  5
B08
330
A35
100
AcDbEntity
  8
0
100
AcDbLine
 10
40.36439225983207
 20
53.45985860074896
 30
0.0
 11
41.18633635105766
 21
53.808586730228
 31
0.0
  0
LINE
  5
B09
330
A35
100
AcDbEntity
  8
0
100
AcDbLine
 10
37.89774899050542
 20
55.10455777885008
 30
0.0
 11
37.150416499075334
 21
54.8547711186651
 31
0.0
  0
LINE
  5
B0A
330
A35
100
AcDbEntity
  8
0
100
AcDbLine
 10
39.49216643830954
 20
53.16060120591695
 30
0.0
 11
40.36439225983207
 21
53.45985860074896
 31
0.0
  0
LINE
  5
B0B
330
A35
100
AcDbEntity
  8
0
100
AcDbLine
 10
38.321494217604936
 20
54.73068878422254
 30
0.0
 11
37.54902086102635
 21
54.43143138939055
 31
0.0
  0
LINE
  5
B0C
330
A35
100
AcDbEntity
  8
0
100
AcDbLine
 10
38.59561074728845
 20
52.86215480673491
 30
0.0
 11
39.49216643830954
 21
53.16060120591695
 31
0.0
  0
LINE
  5
B0D
330
A35
100
AcDbEntity
  8
0
100
AcDbLine
 10
14.030552510265352
 20
65.66777611946497
 30
0.0
 11
14.578380071807402
 21
66.11625671388802
 31
0.0
  0
LINE
  5
B0E
330
A35
100
AcDbEntity
  8
0
100
AcDbLine
 10
14.030552510265352
 20
65.24443639019043
 30
0.0
 11
14.578380071807402
 21
65.717246854112
 31
0.0
  0
LINE
  5
B0F
330
A35
100
AcDbEntity
  8
0
100
AcDbLine
 10
14.703273401899907
 20
65.56802365452097
 30
0.0
 11
14.130304975209356
 21
65.11954306009793
 31
0.0
  0
LINE
  5
B10
330
A35
100
AcDbEntity
  8
0
100
AcDbLine
 10
22.102392214230036
 20
71.17362558698395
 30
0.0
 11
22.576013673801583
 21
71.52235371646299
 31
0.0
  0
LINE
  5
B11
330
A35
100
AcDbEntity
  8
0
100
AcDbLine
 10
22.003045247111032
 20
70.12703570072185
 30
0.0
 11
22.102392214230036
 21
70.17691193319388
 31
0.0
  0
LINE
  5
B12
330
A35
100
AcDbEntity
  8
0
100
AcDbLine
 10
31.56995543176083
 20
71.62210618140699
 30
0.0
 11
31.669302398879864
 21
71.67157691605402
 31
0.0
  0
LINE
  5
B13
330
A35
100
AcDbEntity
  8
0
100
AcDbLine
 10
32.11778299330288
 20
71.49721285131449
 30
0.0
 11
32.16765922577491
 21
71.54749458161146
 31
0.0
  0
LINE
  5
B14
330
A35
100
AcDbEntity
  8
0
100
AcDbLine
 10
32.242270825570415
 20
71.49721285131449
 30
0.0
 11
32.14292385845138
 21
71.44774211666746
 31
0.0
  0
LINE
  5
B15
330
A35
100
AcDbEntity
  8
0
100
AcDbLine
 10
24.0958195218102
 20
66.56473730831107
 30
0.0
 11
24.0958195218102
 21
66.58947267563457
 31
0.0
  0
LINE
  5
B16
330
A35
100
AcDbEntity
  8
0
100
AcDbLine
 10
24.0958195218102
 20
66.58947267563457
 30
0.0
 11
24.14529025645723
 21
66.58947267563457
 31
0.0
  0
LINE
  5
B17
330
A35
100
AcDbEntity
  8
0
100
AcDbLine
 10
24.020802424189725
 20
66.53959644316257
 30
0.0
 11
24.245042721401234
 21
66.71396050790207
 31
0.0
  0
LINE
  5
B18
330
A35
100
AcDbEntity
  8
0
100
AcDbLine
 10
17.468768568233628
 20
64.4715575357869
 30
0.0
 11
18.04173699492418
 21
64.87056739556292
 31
0.0
  0
LINE
  5
B19
330
A35
100
AcDbEntity
  8
0
100
AcDbLine
 10
24.14529025645723
 20
66.58947267563457
 30
0.0
 11
24.170431121605702
 21
66.58947267563457
 31
0.0
  0
LINE
  5
B1A
330
A35
100
AcDbEntity
  8
0
100
AcDbLine
 10
31.669302398879864
 20
71.64684154873049
 30
0.0
 11
31.669302398879864
 21
71.67157691605402
 31
0.0
  0
LINE
  5
B1B
330
A35
100
AcDbEntity
  8
0
100
AcDbLine
 10
14.578380071807402
 20
66.11625671388802
 30
0.0
 11
15.201224730969983
 21
66.56473730831107
 31
0.0
  0
LINE
  5
B1C
330
A35
100
AcDbEntity
  8
0
100
AcDbLine
 10
14.578380071807402
 20
65.717246854112
 30
0.0
 11
15.201224730969983
 21
66.14099208121152
 31
0.0
  0
LINE
  5
B1D
330
A35
100
AcDbEntity
  8
0
100
AcDbLine
 10
15.276241828590429
 20
65.99136338379552
 30
0.0
 11
14.703273401899907
 21
65.56802365452097
 31
0.0
  0
LINE
  5
B1E
330
A35
100
AcDbEntity
  8
0
100
AcDbLine
 10
22.75037773854109
 20
71.09901398718844
 30
0.0
 11
22.725236873392618
 21
71.07387312203994
 31
0.0
  0
LINE
  5
B1F
330
A35
100
AcDbEntity
  8
0
100
AcDbLine
 10
24.170431121605702
 20
66.58947267563457
 30
0.0
 11
24.170431121605702
 21
66.6142080429581
 31
0.0
  0
LINE
  5
B20
330
A35
100
AcDbEntity
  8
0
100
AcDbLine
 10
18.315448026782747
 20
64.2971934710474
 30
0.0
 11
18.83894571882624
 21
64.64592160052644
 31
0.0
  0
LINE
  5
B21
330
A35
100
AcDbEntity
  8
0
100
AcDbLine
 10
24.170431121605702
 20
66.6142080429581
 30
0.0
 11
24.19516648892923
 21
66.6142080429581
 31
0.0
  0
LINE
  5
B22
330
A35
100
AcDbEntity
  8
0
100
AcDbLine
 10
24.19516648892923
 20
66.6142080429581
 30
0.0
 11
24.19516648892923
 21
66.6640842754301
 31
0.0
  0
LINE
  5
B23
330
A35
100
AcDbEntity
  8
0
100
AcDbLine
 10
24.19516648892923
 20
66.6640842754301
 30
0.0
 11
24.220307354077704
 21
66.6640842754301
 31
0.0
  0
LINE
  5
B24
330
A35
100
AcDbEntity
  8
0
100
AcDbLine
 10
24.220307354077704
 20
66.6640842754301
 30
0.0
 11
24.245042721401234
 21
66.6888196427536
 31
0.0
  0
LINE
  5
B25
330
A35
100
AcDbEntity
  8
0
100
AcDbLine
 10
24.245042721401234
 20
66.6888196427536
 30
0.0
 11
24.320059819021736
 21
66.73910137305057
 31
0.0
  0
LINE
  5
B26
330
A35
100
AcDbEntity
  8
0
100
AcDbLine
 10
22.576013673801583
 20
70.45102846287739
 30
0.0
 11
22.725236873392618
 21
70.55078092782136
 31
0.0
  0
LINE
  5
B27
330
A35
100
AcDbEntity
  8
0
100
AcDbLine
 10
24.245042721401234
 20
66.71396050790207
 30
0.0
 11
24.39467141881724
 21
66.81371297284608
 31
0.0
  0
LINE
  5
B28
330
A35
100
AcDbEntity
  8
0
100
AcDbLine
 10
35.18213005664364
 20
62.77738762303875
 30
0.0
 11
34.8086665598411
 21
62.50327109335524
 31
0.0
  0
LINE
  5
B29
330
A35
100
AcDbEntity
  8
0
100
AcDbLine
 10
24.39467141881724
 20
66.81371297284608
 30
0.0
 11
24.444547651289213
 21
66.81371297284608
 31
0.0
  0
LINE
  5
B2A
330
A35
100
AcDbEntity
  8
0
100
AcDbLine
 10
18.04173699492418
 20
64.87056739556292
 30
0.0
 11
18.61470542161473
 21
65.24443639019043
 31
0.0
  0
LINE
  5
B2B
330
A35
100
AcDbEntity
  8
0
100
AcDbLine
 10
34.360185965418054
 20
62.55355282365221
 30
0.0
 11
34.8086665598411
 21
62.80252848818725
 31
0.0
  0
LINE
  5
B2C
330
A35
100
AcDbEntity
  8
0
100
AcDbLine
 10
39.96578789788106
 20
56.076130567491646
 30
0.0
 11
39.317802373570004
 21
55.75173230751116
 31
0.0
  0
LINE
  5
B2D
330
A35
100
AcDbEntity
  8
0
100
AcDbLine
 10
40.439003859627604
 20
55.67712070771563
 30
0.0
 11
39.79142383314152
 21
55.32839257823662
 31
0.0
  0
LINE
  5
B2E
330
A35
100
AcDbEntity
  8
0
100
AcDbLine
 10
42.00868594010822
 20
54.157314859707014
 30
0.0
 11
42.75601843153828
 21
54.50604298918606
 31
0.0
  0
LINE
  5
B2F
330
A35
100
AcDbEntity
  8
0
100
AcDbLine
 10
39.317802373570004
 20
55.75173230751116
 30
0.0
 11
38.64508148193548
 21
55.40300417803212
 31
0.0
  0
LINE
  5
B30
330
A35
100
AcDbEntity
  8
0
100
AcDbLine
 10
39.79142383314152
 20
55.32839257823662
 30
0.0
 11
39.068826709034994
 21
55.004805313906076
 31
0.0
  0
LINE
  5
B31
330
A35
100
AcDbEntity
  8
0
100
AcDbLine
 10
41.18633635105766
 20
53.808586730228
 30
0.0
 11
42.00868594010822
 21
54.157314859707014
 31
0.0
  0
LINE
  5
B32
330
A35
100
AcDbEntity
  8
0
100
AcDbLine
 10
29.177923762229653
 20
80.2673198098872
 30
0.0
 11
29.177923762229653
 21
80.21703807959022
 31
0.0
  0
LINE
  5
B33
330
A35
100
AcDbEntity
  8
0
100
AcDbLine
 10
16.546666514239064
 20
63.62487807723781
 30
0.0
 11
16.99514710866211
 21
64.04821780651235
 31
0.0
  0
LINE
  5
B34
330
A35
100
AcDbEntity
  8
0
100
AcDbLine
 10
17.418892335761626
 20
63.475654877646775
 30
0.0
 11
17.81749669771267
 21
63.87385374177285
 31
0.0
  0
LINE
  5
B35
330
A35
100
AcDbEntity
  8
0
100
AcDbLine
 10
22.700501506069088
 20
71.07387312203994
 30
0.0
 11
22.700501506069088
 21
71.04873225689147
 31
0.0
  0
LINE
  5
B36
330
A35
100
AcDbEntity
  8
0
100
AcDbLine
 10
13.532195683370304
 20
65.19415465989346
 30
0.0
 11
14.030552510265352
 21
65.66777611946497
 31
0.0
  0
LINE
  5
B37
330
A35
100
AcDbEntity
  8
0
100
AcDbLine
 10
13.532195683370304
 20
64.79595579576738
 30
0.0
 11
14.030552510265352
 21
65.24443639019043
 31
0.0
  0
LINE
  5
B38
330
A35
100
AcDbEntity
  8
0
100
AcDbLine
 10
14.130304975209356
 20
65.11954306009793
 30
0.0
 11
13.606807283165836
 21
64.64592160052644
 31
0.0
  0
LINE
  5
B39
330
A35
100
AcDbEntity
  8
0
100
AcDbLine
 10
22.25202091164607
 20
70.45102846287739
 30
0.0
 11
22.22728554432254
 21
70.42588759772892
 31
0.0
  0
LINE
  5
B3A
330
A35
100
AcDbEntity
  8
0
100
AcDbLine
 10
22.426384976385577
 20
70.05242410092637
 30
0.0
 11
22.426384976385577
 21
70.02768873360284
 31
0.0
  0
LINE
  5
B3B
330
A35
100
AcDbEntity
  8
0
100
AcDbLine
 10
23.84643835945019
 20
66.36523237842303
 30
0.0
 11
23.87157922459869
 21
66.38996774574656
 31
0.0
  0
LINE
  5
B3C
330
A35
100
AcDbEntity
  8
0
100
AcDbLine
 10
23.87157922459869
 20
66.38996774574656
 30
0.0
 11
23.89631459192219
 21
66.38996774574656
 31
0.0
  0
LINE
  5
B3D
330
A35
100
AcDbEntity
  8
0
100
AcDbLine
 10
22.650625273597086
 20
70.99926152224441
 30
0.0
 11
22.675360640920616
 21
71.02399688956794
 31
0.0
  0
LINE
  5
B3E
330
A35
100
AcDbEntity
  8
0
100
AcDbLine
 10
22.576013673801583
 20
71.52235371646299
 30
0.0
 11
22.600749041125084
 21
71.54749458161146
 31
0.0
  0
LINE
  5
B3F
330
A35
100
AcDbEntity
  8
0
100
AcDbLine
 10
22.725236873392618
 20
71.07387312203994
 30
0.0
 11
22.700501506069088
 21
71.07387312203994
 31
0.0
  0
LINE
  5
B40
330
A35
100
AcDbEntity
  8
0
100
AcDbLine
 10
23.89631459192219
 20
66.38996774574656
 30
0.0
 11
23.92104995924572
 21
66.41470311307006
 31
0.0
  0
LINE
  5
B41
330
A35
100
AcDbEntity
  8
0
100
AcDbLine
 10
23.92104995924572
 20
66.41470311307006
 30
0.0
 11
23.946190824394222
 21
66.43984397821856
 31
0.0
  0
LINE
  5
B42
330
A35
100
AcDbEntity
  8
0
100
AcDbLine
 10
23.697215159859155
 20
66.24033904833055
 30
0.0
 11
24.020802424189725
 21
66.53959644316257
 31
0.0
  0
LINE
  5
B43
330
A35
100
AcDbEntity
  8
0
100
AcDbLine
 10
23.946190824394222
 20
66.43984397821856
 30
0.0
 11
23.946190824394222
 21
66.46498484336706
 31
0.0
  0
LINE
  5
B44
330
A35
100
AcDbEntity
  8
0
100
AcDbLine
 10
16.99514710866211
 20
64.04821780651235
 30
0.0
 11
17.468768568233628
 21
64.4715575357869
 31
0.0
  0
LINE
  5
B45
330
A35
100
AcDbEntity
  8
0
100
AcDbLine
 10
23.946190824394222
 20
66.46498484336706
 30
0.0
 11
23.996067056866224
 21
66.46498484336706
 31
0.0
  0
LINE
  5
B46
330
A35
100
AcDbEntity
  8
0
100
AcDbLine
 10
17.81749669771267
 20
63.87385374177285
 30
0.0
 11
18.315448026782747
 21
64.2971934710474
 31
0.0
  0
LINE
  5
B47
330
A35
100
AcDbEntity
  8
0
100
AcDbLine
 10
23.996067056866224
 20
66.46498484336706
 30
0.0
 11
24.020802424189725
 21
66.51445557801406
 31
0.0
  0
LINE
  5
B48
330
A35
100
AcDbEntity
  8
0
100
AcDbLine
 10
24.020802424189725
 20
66.51445557801406
 30
0.0
 11
24.045943289338197
 21
66.53959644316257
 31
0.0
  0
LINE
  5
B49
330
A35
100
AcDbEntity
  8
0
100
AcDbLine
 10
35.555999051271215
 20
63.02717428322376
 30
0.0
 11
35.18213005664364
 21
62.77738762303875
 31
0.0
  0
LINE
  5
B4A
330
A35
100
AcDbEntity
  8
0
100
AcDbLine
 10
24.045943289338197
 20
66.53959644316257
 30
0.0
 11
24.0706786566617
 21
66.56473730831107
 31
0.0
  0
LINE
  5
B4B
330
A35
100
AcDbEntity
  8
0
100
AcDbLine
 10
24.0706786566617
 20
66.56473730831107
 30
0.0
 11
24.0958195218102
 21
66.56473730831107
 31
0.0
  0
LINE
  5
B4C
330
A35
100
AcDbEntity
  8
0
100
AcDbLine
 10
41.08698938393863
 20
56.82305756109673
 30
0.0
 11
40.53875632457161
 21
56.42485869697069
 31
0.0
  0
LINE
  5
B4D
330
A35
100
AcDbEntity
  8
0
100
AcDbLine
 10
41.63481694548071
 20
56.42485869697069
 30
0.0
 11
41.08698938393863
 21
56.05098970234317
 31
0.0
  0
LINE
  5
B4E
330
A35
100
AcDbEntity
  8
0
100
AcDbLine
 10
34.8086665598411
 20
62.80252848818725
 30
0.0
 11
35.18213005664364
 21
63.07664501787079
 31
0.0
  0
LINE
  5
B4F
330
A35
100
AcDbEntity
  8
0
100
AcDbLine
 10
43.42873932317286
 20
54.90505284896207
 30
0.0
 11
44.10146021480742
 21
55.32839257823662
 31
0.0
  0
LINE
  5
B50
330
A35
100
AcDbEntity
  8
0
100
AcDbLine
 10
40.53875632457161
 20
56.42485869697069
 30
0.0
 11
39.96578789788106
 21
56.076130567491646
 31
0.0
  0
LINE
  5
B51
330
A35
100
AcDbEntity
  8
0
100
AcDbLine
 10
41.08698938393863
 20
56.05098970234317
 30
0.0
 11
40.439003859627604
 21
55.67712070771563
 31
0.0
  0
LINE
  5
B52
330
A35
100
AcDbEntity
  8
0
100
AcDbLine
 10
42.75601843153828
 20
54.50604298918606
 30
0.0
 11
43.42873932317286
 21
54.90505284896207
 31
0.0
  0
LINE
  5
B53
330
A35
100
AcDbEntity
  8
0
100
AcDbLine
 10
13.4324432184263
 20
76.67947505450292
 30
0.0
 11
13.532195683370304
 21
76.75408665429845
 31
0.0
  0
LINE
  5
B54
330
A35
100
AcDbEntity
  8
0
100
AcDbLine
 10
16.17320301743652
 20
63.176397482814764
 30
0.0
 11
16.546666514239064
 21
63.62487807723781
 31
0.0
  0
LINE
  5
B55
330
A35
100
AcDbEntity
  8
0
100
AcDbLine
 10
17.04502334113411
 20
63.02717428322376
 30
0.0
 11
17.418892335761626
 21
63.475654877646775
 31
0.0
  0
LINE
  5
B56
330
A35
100
AcDbEntity
  8
0
100
AcDbLine
 10
23.59746269491518
 20
66.11625671388802
 30
0.0
 11
23.622198062238652
 21
66.11625671388802
 31
0.0
  0
LINE
  5
B57
330
A35
100
AcDbEntity
  8
0
100
AcDbLine
 10
23.622198062238652
 20
66.11625671388802
 30
0.0
 11
23.647338927387153
 21
66.14099208121152
 31
0.0
  0
LINE
  5
B58
330
A35
100
AcDbEntity
  8
0
100
AcDbLine
 10
23.423098630175645
 20
65.94189264914849
 30
0.0
 11
23.696809662034184
 21
66.24033904833055
 31
0.0
  0
LINE
  5
B59
330
A35
100
AcDbEntity
  8
0
100
AcDbLine
 10
13.083715088947287
 20
64.72134419597188
 30
0.0
 11
13.532195683370304
 21
65.19415465989346
 31
0.0
  0
LINE
  5
B5A
330
A35
100
AcDbEntity
  8
0
100
AcDbLine
 10
13.083715088947287
 20
64.2971934710474
 30
0.0
 11
13.532195683370304
 21
64.79595579576738
 31
0.0
  0
LINE
  5
B5B
330
A35
100
AcDbEntity
  8
0
100
AcDbLine
 10
13.606807283165836
 20
64.64592160052644
 30
0.0
 11
13.208202921214792
 21
64.17311113660486
 31
0.0
  0
LINE
  5
B5C
330
A35
100
AcDbEntity
  8
0
100
AcDbLine
 10
23.647338927387153
 20
66.14099208121152
 30
0.0
 11
23.647338927387153
 21
66.16572744853505
 31
0.0
  0
LINE
  5
B5D
330
A35
100
AcDbEntity
  8
0
100
AcDbLine
 10
23.647338927387153
 20
66.16572744853505
 30
0.0
 11
23.697215159859155
 21
66.21560368100705
 31
0.0
  0
LINE
  5
B5E
330
A35
100
AcDbEntity
  8
0
100
AcDbLine
 10
23.697215159859155
 20
66.21560368100705
 30
0.0
 11
23.721950527182685
 21
66.24033904833055
 31
0.0
  0
LINE
  5
B5F
330
A35
100
AcDbEntity
  8
0
100
AcDbLine
 10
23.721950527182685
 20
66.24033904833055
 30
0.0
 11
23.746685894506186
 21
66.26547991347906
 31
0.0
  0
LINE
  5
B60
330
A35
100
AcDbEntity
  8
0
100
AcDbLine
 10
23.746685894506186
 20
66.26547991347906
 30
0.0
 11
23.771826759654687
 21
66.29062077862753
 31
0.0
  0
LINE
  5
B61
330
A35
100
AcDbEntity
  8
0
100
AcDbLine
 10
34.26043350047408
 20
72.56853810490009
 30
0.0
 11
34.28557436562258
 21
72.59367897004859
 31
0.0
  0
LINE
  5
B62
330
A35
100
AcDbEntity
  8
0
100
AcDbLine
 10
23.771826759654687
 20
66.29062077862753
 30
0.0
 11
23.796562126978188
 21
66.29062077862753
 31
0.0
  0
LINE
  5
B63
330
A35
100
AcDbEntity
  8
0
100
AcDbLine
 10
35.85485094827823
 20
63.3256206824058
 30
0.0
 11
35.555999051271215
 21
63.02717428322376
 31
0.0
  0
LINE
  5
B64
330
A35
100
AcDbEntity
  8
0
100
AcDbLine
 10
23.796562126978188
 20
66.29062077862753
 30
0.0
 11
23.796562126978188
 21
66.31535614595103
 31
0.0
  0
LINE
  5
B65
330
A35
100
AcDbEntity
  8
0
100
AcDbLine
 10
31.644567031556335
 20
71.64684154873049
 30
0.0
 11
31.669302398879864
 21
71.64684154873049
 31
0.0
  0
LINE
  5
B66
330
A35
100
AcDbEntity
  8
0
100
AcDbLine
 10
23.796562126978188
 20
66.31535614595103
 30
0.0
 11
23.84643835945019
 21
66.36523237842303
 31
0.0
  0
LINE
  5
B67
330
A35
100
AcDbEntity
  8
0
100
AcDbLine
 10
45.371884900456024
 20
56.29996536687821
 30
0.0
 11
44.99842140365348
 21
55.97637810254764
 31
0.0
  0
LINE
  5
B68
330
A35
100
AcDbEntity
  8
0
100
AcDbLine
 10
35.18213005664364
 20
63.07664501787079
 30
0.0
 11
35.531263683947685
 21
63.3256206824058
 31
0.0
  0
LINE
  5
B69
330
A35
100
AcDbEntity
  8
0
100
AcDbLine
 10
41.560205345685176
 20
57.196926555724275
 30
0.0
 11
41.08698938393863
 21
56.82305756109673
 31
0.0
  0
LINE
  5
B6A
330
A35
100
AcDbEntity
  8
0
100
AcDbLine
 10
44.72430487396994
 20
55.77687317265966
 30
0.0
 11
45.27213243551202
 21
56.22535376708268
 31
0.0
  0
LINE
  5
B6B
330
A35
100
AcDbEntity
  8
0
100
AcDbLine
 10
44.873933571385976
 20
55.90176650275214
 30
0.0
 11
44.99842140365348
 21
55.97637810254764
 31
0.0
  0
LINE
  5
B6C
330
A35
100
AcDbEntity
  8
0
100
AcDbLine
 10
42.18305000484776
 20
56.84819842624523
 30
0.0
 11
41.63481694548071
 21
56.42485869697069
 31
0.0
  0
LINE
  5
B6D
330
A35
100
AcDbEntity
  8
0
100
AcDbLine
 10
44.10146021480742
 20
55.32839257823662
 30
0.0
 11
44.72430487396994
 21
55.77687317265966
 31
0.0
  0
LINE
  5
B6E
330
A35
100
AcDbEntity
  8
0
100
AcDbLine
 10
12.36111796484073
 20
63.69948967703331
 30
0.0
 11
12.685110726996243
 21
64.19744100610339
 31
0.0
  0
LINE
  5
B6F
330
A35
100
AcDbEntity
  8
0
100
AcDbLine
 10
12.36111796484073
 20
63.3004798172573
 30
0.0
 11
12.685110726996243
 21
63.82438300712582
 31
0.0
  0
LINE
  5
B70
330
A35
100
AcDbEntity
  8
0
100
AcDbLine
 10
12.809598559263776
 20
63.67434881188484
 30
0.0
 11
12.485605797108263
 21
63.15125661766626
 31
0.0
  0
LINE
  5
B71
330
A35
100
AcDbEntity
  8
0
100
AcDbLine
 10
13.556931050693834
 20
76.85383911924245
 30
0.0
 11
13.507460316046803
 21
76.75408665429845
 31
0.0
  0
LINE
  5
B72
330
A35
100
AcDbEntity
  8
0
100
AcDbLine
 10
22.600749041125084
 20
71.54749458161146
 30
0.0
 11
22.650625273597086
 21
71.59696531625849
 31
0.0
  0
LINE
  5
B73
330
A35
100
AcDbEntity
  8
0
100
AcDbLine
 10
15.849210255281008
 20
62.72791688839172
 30
0.0
 11
16.17320301743652
 21
63.176397482814764
 31
0.0
  0
LINE
  5
B74
330
A35
100
AcDbEntity
  8
0
100
AcDbLine
 10
16.7210305789786
 20
62.62816442344774
 30
0.0
 11
17.04502334113411
 21
63.02717428322376
 31
0.0
  0
LINE
  5
B75
330
A35
100
AcDbEntity
  8
0
100
AcDbLine
 10
23.447833997499174
 20
65.91675178399998
 30
0.0
 11
23.472974862647646
 21
65.94189264914849
 31
0.0
  0
LINE
  5
B76
330
A35
100
AcDbEntity
  8
0
100
AcDbLine
 10
23.472974862647646
 20
65.94189264914849
 30
0.0
 11
23.472974862647646
 21
65.96662801647201
 31
0.0
  0
LINE
  5
B77
330
A35
100
AcDbEntity
  8
0
100
AcDbLine
 10
23.472974862647646
 20
65.96662801647201
 30
0.0
 11
23.497710229971176
 21
65.96662801647201
 31
0.0
  0
LINE
  5
B78
330
A35
100
AcDbEntity
  8
0
100
AcDbLine
 10
23.497710229971176
 20
65.96662801647201
 30
0.0
 11
23.497710229971176
 21
65.99136338379552
 31
0.0
  0
LINE
  5
B79
330
A35
100
AcDbEntity
  8
0
100
AcDbLine
 10
12.685110726996243
 20
64.19744100610339
 30
0.0
 11
13.083715088947287
 21
64.72134419597188
 31
0.0
  0
LINE
  5
B7A
330
A35
100
AcDbEntity
  8
0
100
AcDbLine
 10
12.685110726996243
 20
63.82438300712582
 30
0.0
 11
13.083715088947287
 21
64.2971934710474
 31
0.0
  0
LINE
  5
B7B
330
A35
100
AcDbEntity
  8
0
100
AcDbLine
 10
13.208202921214792
 20
64.17311113660486
 30
0.0
 11
12.809598559263776
 21
63.67434881188484
 31
0.0
  0
LINE
  5
B7C
330
A35
100
AcDbEntity
  8
0
100
AcDbLine
 10
23.497710229971176
 20
65.99136338379552
 30
0.0
 11
23.547586462443178
 21
66.01650424894402
 31
0.0
  0
LINE
  5
B7D
330
A35
100
AcDbEntity
  8
0
100
AcDbLine
 10
23.547586462443178
 20
66.01650424894402
 30
0.0
 11
23.57232182976668
 21
66.06597498359105
 31
0.0
  0
LINE
  5
B7E
330
A35
100
AcDbEntity
  8
0
100
AcDbLine
 10
23.57232182976668
 20
66.06597498359105
 30
0.0
 11
23.57232182976668
 21
66.09111584873952
 31
0.0
  0
LINE
  5
B7F
330
A35
100
AcDbEntity
  8
0
100
AcDbLine
 10
23.57232182976668
 20
66.09111584873952
 30
0.0
 11
23.59746269491518
 21
66.11625671388802
 31
0.0
  0
LINE
  5
B80
330
A35
100
AcDbEntity
  8
0
100
AcDbLine
 10
35.531263683947685
 20
63.3256206824058
 30
0.0
 11
35.780239348482695
 21
63.62487807723781
 31
0.0
  0
LINE
  5
B81
330
A35
100
AcDbEntity
  8
0
100
AcDbLine
 10
42.00868594010822
 20
57.62026628499882
 30
0.0
 11
41.560205345685176
 21
57.196926555724275
 31
0.0
  0
LINE
  5
B82
330
A35
100
AcDbEntity
  8
0
100
AcDbLine
 10
45.27253793333699
 20
56.22535376708268
 30
0.0
 11
45.77048926240707
 21
56.6989752266542
 31
0.0
  0
LINE
  5
B83
330
A35
100
AcDbEntity
  8
0
100
AcDbLine
 10
45.895382592499544
 20
56.7987276915982
 30
0.0
 11
45.371884900456024
 21
56.29996536687821
 31
0.0
  0
LINE
  5
B84
330
A35
100
AcDbEntity
  8
0
100
AcDbLine
 10
42.6315305992708
 20
57.271538155519806
 30
0.0
 11
42.18305000484776
 21
56.84819842624523
 31
0.0
  0
LINE
  5
B85
330
A35
100
AcDbEntity
  8
0
100
AcDbLine
 10
12.460870429784734
 20
77.277178848517
 30
0.0
 11
12.386258829989231
 21
77.15309651407446
 31
0.0
  0
LINE
  5
B86
330
A35
100
AcDbEntity
  8
0
100
AcDbLine
 10
12.08700143515722
 20
63.176397482814764
 30
0.0
 11
12.36111796484073
 21
63.69948967703331
 31
0.0
  0
LINE
  5
B87
330
A35
100
AcDbEntity
  8
0
100
AcDbLine
 10
12.08700143515722
 20
62.77738762303875
 30
0.0
 11
12.36111796484073
 21
63.3004798172573
 31
0.0
  0
LINE
  5
B88
330
A35
100
AcDbEntity
  8
0
100
AcDbLine
 10
12.486011294933235
 20
63.15125661766626
 30
0.0
 11
12.211894765249696
 21
62.65330528859624
 31
0.0
  0
LINE
  5
B89
330
A35
100
AcDbEntity
  8
0
100
AcDbLine
 10
15.575093725597497
 20
62.2794362939687
 30
0.0
 11
15.849210255281008
 21
62.72791688839172
 31
0.0
  0
LINE
  5
B8A
330
A35
100
AcDbEntity
  8
0
100
AcDbLine
 10
16.472054914443532
 20
62.1796838290247
 30
0.0
 11
16.7210305789786
 21
62.62816442344774
 31
0.0
  0
LINE
  5
B8B
330
A35
100
AcDbEntity
  8
0
100
AcDbLine
 10
23.32334616523164
 20
65.717246854112
 30
0.0
 11
23.348081532555142
 21
65.767528584409
 31
0.0
  0
LINE
  5
B8C
330
A35
100
AcDbEntity
  8
0
100
AcDbLine
 10
23.348081532555142
 20
65.767528584409
 30
0.0
 11
23.348081532555142
 21
65.79185845390754
 31
0.0
  0
LINE
  5
B8D
330
A35
100
AcDbEntity
  8
0
100
AcDbLine
 10
22.22728554432254
 20
70.42588759772892
 30
0.0
 11
22.20214467917404
 21
70.35127599793339
 31
0.0
  0
LINE
  5
B8E
330
A35
100
AcDbEntity
  8
0
100
AcDbLine
 10
23.348081532555142
 20
65.79185845390754
 30
0.0
 11
23.397957765027144
 21
65.81699931905601
 31
0.0
  0
LINE
  5
B8F
330
A35
100
AcDbEntity
  8
0
100
AcDbLine
 10
22.526137441329553
 20
70.32654063060988
 30
0.0
 11
22.576013673801583
 21
70.45102846287739
 31
0.0
  0
LINE
  5
B90
330
A35
100
AcDbEntity
  8
0
100
AcDbLine
 10
23.397957765027144
 20
65.81699931905601
 30
0.0
 11
23.423098630175645
 21
65.84214018420451
 31
0.0
  0
LINE
  5
B91
330
A35
100
AcDbEntity
  8
0
100
AcDbLine
 10
22.576013673801583
 20
70.89950905730043
 30
0.0
 11
22.650625273597086
 21
70.99926152224441
 31
0.0
  0
LINE
  5
B92
330
A35
100
AcDbEntity
  8
0
100
AcDbLine
 10
23.423098630175645
 20
65.84214018420451
 30
0.0
 11
23.423098630175645
 21
65.86687555152804
 31
0.0
  0
LINE
  5
B93
330
A35
100
AcDbEntity
  8
0
100
AcDbLine
 10
23.198858332964107
 20
65.6426352543165
 30
0.0
 11
23.423098630175645
 21
65.94189264914849
 31
0.0
  0
LINE
  5
B94
330
A35
100
AcDbEntity
  8
0
100
AcDbLine
 10
23.423098630175645
 20
65.86687555152804
 30
0.0
 11
23.447833997499174
 21
65.91675178399998
 31
0.0
  0
LINE
  5
B95
330
A35
100
AcDbEntity
  8
0
100
AcDbLine
 10
35.780239348482695
 20
63.62487807723781
 30
0.0
 11
36.02921501301773
 21
63.92332447641988
 31
0.0
  0
LINE
  5
B96
330
A35
100
AcDbEntity
  8
0
100
AcDbLine
 10
43.37886309070086
 20
58.14335847921737
 30
0.0
 11
43.05487032854535
 21
57.69487788479435
 31
0.0
  0
LINE
  5
B97
330
A35
100
AcDbEntity
  8
0
100
AcDbLine
 10
36.079091245489735
 20
63.62487807723781
 30
0.0
 11
35.85485094827823
 21
63.3256206824058
 31
0.0
  0
LINE
  5
B98
330
A35
100
AcDbEntity
  8
0
100
AcDbLine
 10
42.357414069587264
 20
58.04441700992331
 30
0.0
 11
42.00868594010822
 21
57.62026628499882
 31
0.0
  0
LINE
  5
B99
330
A35
100
AcDbEntity
  8
0
100
AcDbLine
 10
45.77048926240707
 20
56.6989752266542
 30
0.0
 11
46.218969856830086
 21
57.171785690575774
 31
0.0
  0
LINE
  5
B9A
330
A35
100
AcDbEntity
  8
0
100
AcDbLine
 10
46.34345768909759
 20
57.271538155519806
 30
0.0
 11
45.89497709467457
 21
56.7987276915982
 31
0.0
  0
LINE
  5
B9B
330
A35
100
AcDbEntity
  8
0
100
AcDbLine
 10
43.05487032854535
 20
57.69487788479435
 30
0.0
 11
42.6315305992708
 21
57.271538155519806
 31
0.0
  0
LINE
  5
B9C
330
A35
100
AcDbEntity
  8
0
100
AcDbLine
 10
11.887902003094183
 20
62.65330528859624
 30
0.0
 11
12.08700143515722
 21
63.176397482814764
 31
0.0
  0
LINE
  5
B9D
330
A35
100
AcDbEntity
  8
0
100
AcDbLine
 10
11.887902003094183
 20
62.25429542882023
 30
0.0
 11
12.08700143515722
 21
62.77738762303875
 31
0.0
  0
LINE
  5
B9E
330
A35
100
AcDbEntity
  8
0
100
AcDbLine
 10
12.211894765249696
 20
62.65330528859624
 30
0.0
 11
12.012389835361688
 21
62.130213094377666
 31
0.0
  0
LINE
  5
B9F
330
A35
100
AcDbEntity
  8
0
100
AcDbLine
 10
16.272549984555553
 20
61.73120323460165
 30
0.0
 11
16.472054914443532
 21
62.1796838290247
 31
0.0
  0
LINE
  5
BA0
330
A35
100
AcDbEntity
  8
0
100
AcDbLine
 10
15.400729660857962
 20
61.80581483439718
 30
0.0
 11
15.575093725597497
 21
62.2794362939687
 31
0.0
  0
LINE
  5
BA1
330
A35
100
AcDbEntity
  8
0
100
AcDbLine
 10
23.04922963554813
 20
65.34418885513443
 30
0.0
 11
23.198858332964107
 21
65.6426352543165
 31
0.0
  0
LINE
  5
BA2
330
A35
100
AcDbEntity
  8
0
100
AcDbLine
 10
23.24873456543611
 20
65.56802365452097
 30
0.0
 11
23.27346993275964
 21
65.617494389168
 31
0.0
  0
LINE
  5
BA3
330
A35
100
AcDbEntity
  8
0
100
AcDbLine
 10
23.27346993275964
 20
65.617494389168
 30
0.0
 11
23.29820530008314
 21
65.6426352543165
 31
0.0
  0
LINE
  5
BA4
330
A35
100
AcDbEntity
  8
0
100
AcDbLine
 10
23.29820530008314
 20
65.6426352543165
 30
0.0
 11
23.29820530008314
 21
65.66777611946497
 31
0.0
  0
LINE
  5
BA5
330
A35
100
AcDbEntity
  8
0
100
AcDbLine
 10
23.29820530008314
 20
65.66777611946497
 30
0.0
 11
23.32334616523164
 21
65.69291698461348
 31
0.0
  0
LINE
  5
BA6
330
A35
100
AcDbEntity
  8
0
100
AcDbLine
 10
29.177923762229653
 20
80.21703807959022
 30
0.0
 11
29.153188394906152
 21
80.21703807959022
 31
0.0
  0
LINE
  5
BA7
330
A35
100
AcDbEntity
  8
0
100
AcDbLine
 10
34.933154392108634
 20
72.29442157521655
 30
0.0
 11
34.957889759432135
 21
72.34470330551355
 31
0.0
  0
LINE
  5
BA8
330
A35
100
AcDbEntity
  8
0
100
AcDbLine
 10
23.32334616523164
 20
65.69291698461348
 30
0.0
 11
23.32334616523164
 21
65.717246854112
 31
0.0
  0
LINE
  5
BA9
330
A35
100
AcDbEntity
  8
0
100
AcDbLine
 10
36.25345531022927
 20
63.97360620671682
 30
0.0
 11
36.079091245489735
 21
63.62487807723781
 31
0.0
  0
LINE
  5
BAA
330
A35
100
AcDbEntity
  8
0
100
AcDbLine
 10
42.656265966594276
 20
58.49289760434635
 30
0.0
 11
42.357414069587264
 21
58.04441700992331
 31
0.0
  0
LINE
  5
BAB
330
A35
100
AcDbEntity
  8
0
100
AcDbLine
 10
46.218969856830086
 20
57.171785690575774
 30
0.0
 11
46.61757421878116
 21
57.69487788479435
 31
0.0
  0
LINE
  5
BAC
330
A35
100
AcDbEntity
  8
0
100
AcDbLine
 10
46.692591316401604
 20
57.7703004802398
 30
0.0
 11
46.34345768909759
 21
57.271538155519806
 31
0.0
  0
LINE
  5
BAD
330
A35
100
AcDbEntity
  8
0
100
AcDbLine
 10
11.76341417082665
 20
62.130213094377666
 30
0.0
 11
11.887902003094183
 21
62.65330528859624
 31
0.0
  0
LINE
  5
BAE
330
A35
100
AcDbEntity
  8
0
100
AcDbLine
 10
11.76341417082665
 20
61.73120323460165
 30
0.0
 11
11.887902003094183
 21
62.25429542882023
 31
0.0
  0
LINE
  5
BAF
330
A35
100
AcDbEntity
  8
0
100
AcDbLine
 10
12.012389835361688
 20
62.130213094377666
 30
0.0
 11
11.887902003094183
 21
61.60712090015912
 31
0.0
  0
LINE
  5
BB0
330
A35
100
AcDbEntity
  8
0
100
AcDbLine
 10
23.198858332964107
 20
65.41880045492996
 30
0.0
 11
23.198858332964107
 21
65.468271189577
 31
0.0
  0
LINE
  5
BB1
330
A35
100
AcDbEntity
  8
0
100
AcDbLine
 10
21.97790438196256
 20
70.02768873360284
 30
0.0
 11
22.003045247111032
 21
70.12703570072185
 31
0.0
  0
LINE
  5
BB2
330
A35
100
AcDbEntity
  8
0
100
AcDbLine
 10
23.198858332964107
 20
65.468271189577
 30
0.0
 11
23.198858332964107
 21
65.49341205472544
 31
0.0
  0
LINE
  5
BB3
330
A35
100
AcDbEntity
  8
0
100
AcDbLine
 10
31.56995543176083
 20
71.54749458161146
 30
0.0
 11
31.56995543176083
 21
71.62210618140699
 31
0.0
  0
LINE
  5
BB4
330
A35
100
AcDbEntity
  8
0
100
AcDbLine
 10
32.16765922577491
 20
71.54749458161146
 30
0.0
 11
32.16765922577491
 21
71.62210618140699
 31
0.0
  0
LINE
  5
BB5
330
A35
100
AcDbEntity
  8
0
100
AcDbLine
 10
32.267411690718916
 20
71.54749458161146
 30
0.0
 11
32.242270825570415
 21
71.49721285131449
 31
0.0
  0
LINE
  5
BB6
330
A35
100
AcDbEntity
  8
0
100
AcDbLine
 10
23.198858332964107
 20
65.49341205472544
 30
0.0
 11
23.24873456543611
 21
65.51855291987394
 31
0.0
  0
LINE
  5
BB7
330
A35
100
AcDbEntity
  8
0
100
AcDbLine
 10
23.24873456543611
 20
65.51855291987394
 30
0.0
 11
23.24873456543611
 21
65.54288278937247
 31
0.0
  0
LINE
  5
BB8
330
A35
100
AcDbEntity
  8
0
100
AcDbLine
 10
23.24873456543611
 20
65.54288278937247
 30
0.0
 11
23.24873456543611
 21
65.56802365452097
 31
0.0
  0
LINE
  5
BB9
330
A35
100
AcDbEntity
  8
0
100
AcDbLine
 10
36.02921501301773
 20
63.92332447641988
 30
0.0
 11
36.17884371043374
 21
64.27286360154883
 31
0.0
  0
LINE
  5
BBA
330
A35
100
AcDbEntity
  8
0
100
AcDbLine
 10
42.930382496277815
 20
58.94056720311943
 30
0.0
 11
42.656265966594276
 21
58.49289760434635
 31
0.0
  0
LINE
  5
BBB
330
A35
100
AcDbEntity
  8
0
100
AcDbLine
 10
43.67771498770787
 20
58.591839073640415
 30
0.0
 11
43.37886309070086
 21
58.14335847921737
 31
0.0
  0
LINE
  5
BBC
330
A35
100
AcDbEntity
  8
0
100
AcDbLine
 10
46.61757421878116
 20
57.69487788479435
 30
0.0
 11
46.94156698093667
 21
58.19364020951434
 31
0.0
  0
LINE
  5
BBD
330
A35
100
AcDbEntity
  8
0
100
AcDbLine
 10
47.016178580732145
 20
58.293392674458374
 30
0.0
 11
46.692591316401604
 21
57.7703004802398
 31
0.0
  0
LINE
  5
BBE
330
A35
100
AcDbEntity
  8
0
100
AcDbLine
 10
13.532195683370304
 20
76.75408665429845
 30
0.0
 11
13.556931050693834
 21
76.87897998439095
 31
0.0
  0
LINE
  5
BBF
330
A35
100
AcDbEntity
  8
0
100
AcDbLine
 10
21.529423787539514
 20
72.26968620789305
 30
0.0
 11
21.031066960644466
 21
70.27666439813791
 31
0.0
  0
LINE
  5
BC0
330
A35
100
AcDbEntity
  8
0
100
AcDbLine
 10
21.604440885160017
 20
72.21980997542107
 30
0.0
 11
21.080943193116468
 21
70.20205279834238
 31
0.0
  0
LINE
  5
BC1
330
A35
100
AcDbEntity
  8
0
100
AcDbLine
 10
23.148982100492134
 20
65.24443639019043
 30
0.0
 11
23.148982100492134
 21
65.26876625968896
 31
0.0
  0
LINE
  5
BC2
330
A35
100
AcDbEntity
  8
0
100
AcDbLine
 10
22.999353403076128
 20
65.01979059515395
 30
0.0
 11
23.04922963554813
 21
65.34418885513443
 31
0.0
  0
LINE
  5
BC3
330
A35
100
AcDbEntity
  8
0
100
AcDbLine
 10
23.148982100492134
 20
65.26876625968896
 30
0.0
 11
23.148982100492134
 21
65.31904798998596
 31
0.0
  0
LINE
  5
BC4
330
A35
100
AcDbEntity
  8
0
100
AcDbLine
 10
16.148062152288077
 20
61.2332519055316
 30
0.0
 11
16.272549984555553
 21
61.73120323460165
 31
0.0
  0
LINE
  5
BC5
330
A35
100
AcDbEntity
  8
0
100
AcDbLine
 10
29.153188394906152
 20
80.21703807959022
 30
0.0
 11
29.153188394906152
 21
80.19230271226675
 31
0.0
  0
LINE
  5
BC6
330
A35
100
AcDbEntity
  8
0
100
AcDbLine
 10
15.251100963441985
 20
61.33300437047561
 30
0.0
 11
15.400729660857962
 21
61.80581483439718
 31
0.0
  0
LINE
  5
BC7
330
A35
100
AcDbEntity
  8
0
100
AcDbLine
 10
23.148982100492134
 20
65.31904798998596
 30
0.0
 11
23.148982100492134
 21
65.34418885513443
 31
0.0
  0
LINE
  5
BC8
330
A35
100
AcDbEntity
  8
0
100
AcDbLine
 10
23.148982100492134
 20
65.34418885513443
 30
0.0
 11
23.173717467815663
 21
65.36851872463299
 31
0.0
  0
LINE
  5
BC9
330
A35
100
AcDbEntity
  8
0
100
AcDbLine
 10
22.650625273597086
 20
71.59696531625849
 30
0.0
 11
22.650625273597086
 21
71.64684154873049
 31
0.0
  0
LINE
  5
BCA
330
A35
100
AcDbEntity
  8
0
100
AcDbLine
 10
23.173717467815663
 20
65.36851872463299
 30
0.0
 11
23.173717467815663
 21
65.39365958978146
 31
0.0
  0
LINE
  5
BCB
330
A35
100
AcDbEntity
  8
0
100
AcDbLine
 10
23.173717467815663
 20
65.39365958978146
 30
0.0
 11
23.198858332964107
 21
65.41880045492996
 31
0.0
  0
LINE
  5
BCC
330
A35
100
AcDbEntity
  8
0
100
AcDbLine
 10
36.377943142496775
 20
64.27286360154883
 30
0.0
 11
36.25345531022927
 21
63.97360620671682
 31
0.0
  0
LINE
  5
BCD
330
A35
100
AcDbEntity
  8
0
100
AcDbLine
 10
31.644567031556335
 20
71.62210618140699
 30
0.0
 11
31.644567031556335
 21
71.64684154873049
 31
0.0
  0
LINE
  5
BCE
330
A35
100
AcDbEntity
  8
0
100
AcDbLine
 10
43.10474656101735
 20
59.389047797542474
 30
0.0
 11
42.930382496277815
 21
58.94056720311943
 31
0.0
  0
LINE
  5
BCF
330
A35
100
AcDbEntity
  8
0
100
AcDbLine
 10
43.92709615006788
 20
59.06546053321193
 30
0.0
 11
43.67771498770787
 21
58.591839073640415
 31
0.0
  0
LINE
  5
BD0
330
A35
100
AcDbEntity
  8
0
100
AcDbLine
 10
46.94156698093667
 20
58.19364020951434
 30
0.0
 11
47.16580727814818
 21
58.69159153858442
 31
0.0
  0
LINE
  5
BD1
330
A35
100
AcDbEntity
  8
0
100
AcDbLine
 10
47.290295110415684
 20
58.791344003528394
 30
0.0
 11
47.016178580732145
 21
58.293392674458374
 31
0.0
  0
LINE
  5
BD2
330
A35
100
AcDbEntity
  8
0
100
AcDbLine
 10
11.638926338559145
 20
61.1829701752346
 30
0.0
 11
11.663661705882674
 21
61.60712090015912
 31
0.0
  0
LINE
  5
BD3
330
A35
100
AcDbEntity
  8
0
100
AcDbLine
 10
12.410994197312732
 20
77.15309651407446
 30
0.0
 11
12.410994197312732
 21
77.20256724872146
 31
0.0
  0
LINE
  5
BD4
330
A35
100
AcDbEntity
  8
0
100
AcDbLine
 10
16.098185919816046
 20
60.78477131110856
 30
0.0
 11
16.148062152288077
 21
61.2332519055316
 31
0.0
  0
LINE
  5
BD5
330
A35
100
AcDbEntity
  8
0
100
AcDbLine
 10
11.663661705882674
 20
61.60712090015912
 30
0.0
 11
11.76341417082665
 21
62.130213094377666
 31
0.0
  0
LINE
  5
BD6
330
A35
100
AcDbEntity
  8
0
100
AcDbLine
 10
11.663661705882674
 20
61.1829701752346
 30
0.0
 11
11.76341417082665
 21
61.73120323460165
 31
0.0
  0
LINE
  5
BD7
330
A35
100
AcDbEntity
  8
0
100
AcDbLine
 10
11.887902003094183
 20
61.60712090015912
 30
0.0
 11
11.78814953815015
 21
61.058887840792096
 31
0.0
  0
LINE
  5
BD8
330
A35
100
AcDbEntity
  8
0
100
AcDbLine
 10
15.201224730969983
 20
60.85938291090406
 30
0.0
 11
15.251100963441985
 21
61.33300437047561
 31
0.0
  0
LINE
  5
BD9
330
A35
100
AcDbEntity
  8
0
100
AcDbLine
 10
23.123841235343633
 20
65.16901379474496
 30
0.0
 11
23.123841235343633
 21
65.21929552504193
 31
0.0
  0
LINE
  5
BDA
330
A35
100
AcDbEntity
  8
0
100
AcDbLine
 10
22.526137441329553
 20
70.30180526328635
 30
0.0
 11
22.526137441329553
 21
70.32654063060988
 31
0.0
  0
LINE
  5
BDB
330
A35
100
AcDbEntity
  8
0
100
AcDbLine
 10
22.20214467917404
 20
70.35127599793339
 30
0.0
 11
22.15226844670204
 21
70.32654063060988
 31
0.0
  0
LINE
  5
BDC
330
A35
100
AcDbEntity
  8
0
100
AcDbLine
 10
23.123841235343633
 20
65.21929552504193
 30
0.0
 11
23.148982100492134
 21
65.21929552504193
 31
0.0
  0
LINE
  5
BDD
330
A35
100
AcDbEntity
  8
0
100
AcDbLine
 10
23.148982100492134
 20
65.21929552504193
 30
0.0
 11
23.148982100492134
 21
65.24443639019043
 31
0.0
  0
LINE
  5
BDE
330
A35
100
AcDbEntity
  8
0
100
AcDbLine
 10
35.13225382417167
 20
78.12466930271606
 30
0.0
 11
35.13225382417167
 21
78.09952843756756
 31
0.0
  0
LINE
  5
BDF
330
A35
100
AcDbEntity
  8
0
100
AcDbLine
 10
34.26043350047408
 20
72.54380273757658
 30
0.0
 11
34.26043350047408
 21
72.56853810490009
 31
0.0
  0
LINE
  5
BE0
330
A35
100
AcDbEntity
  8
0
100
AcDbLine
 10
36.17884371043374
 20
64.27286360154883
 30
0.0
 11
36.25345531022927
 21
64.5964508658794
 31
0.0
  0
LINE
  5
BE1
330
A35
100
AcDbEntity
  8
0
100
AcDbLine
 10
44.07631934965892
 20
59.53908199278345
 30
0.0
 11
43.92709615006788
 21
59.06546053321193
 31
0.0
  0
LINE
  5
BE2
330
A35
100
AcDbEntity
  8
0
100
AcDbLine
 10
47.16580727814818
 20
58.69159153858442
 30
0.0
 11
47.39004757535966
 21
59.21468373280294
 31
0.0
  0
LINE
  5
BE3
330
A35
100
AcDbEntity
  8
0
100
AcDbLine
 10
47.48980004030369
 20
59.339577062895444
 30
0.0
 11
47.290295110415684
 21
58.791344003528394
 31
0.0
  0
LINE
  5
BE4
330
A35
100
AcDbEntity
  8
0
100
AcDbLine
 10
12.386258829989231
 20
77.15309651407446
 30
0.0
 11
12.386258829989231
 21
77.00306231883349
 31
0.0
  0
LINE
  5
BE5
330
A35
100
AcDbEntity
  8
0
100
AcDbLine
 10
11.638926338559145
 20
61.1829701752346
 30
0.0
 11
11.638926338559145
 21
60.78477131110856
 31
0.0
  0
LINE
  5
BE6
330
A35
100
AcDbEntity
  8
0
100
AcDbLine
 10
16.098185919816046
 20
60.31114985153704
 30
0.0
 11
16.098185919816046
 21
60.78477131110856
 31
0.0
  0
LINE
  5
BE7
330
A35
100
AcDbEntity
  8
0
100
AcDbLine
 10
19.362037913044787
 20
75.2095454389663
 30
0.0
 11
19.362037913044787
 21
71.94569344573753
 31
0.0
  0
LINE
  5
BE8
330
A35
100
AcDbEntity
  8
0
100
AcDbLine
 10
19.386773280368317
 20
71.8459409807935
 30
0.0
 11
19.386773280368317
 21
75.2845625365868
 31
0.0
  0
LINE
  5
BE9
330
A35
100
AcDbEntity
  8
0
100
AcDbLine
 10
21.031066960644466
 20
70.25152353298941
 30
0.0
 11
21.031066960644466
 21
69.10558667960828
 31
0.0
  0
LINE
  5
BEA
330
A35
100
AcDbEntity
  8
0
100
AcDbLine
 10
15.176489363646454
 20
60.38576145133254
 30
0.0
 11
15.201224730969983
 21
60.85938291090406
 31
0.0
  0
LINE
  5
BEB
330
A35
100
AcDbEntity
  8
0
100
AcDbLine
 10
23.099105868020132
 20
64.97031986050692
 30
0.0
 11
23.099105868020132
 21
64.92003813020995
 31
0.0
  0
LINE
  5
BEC
330
A35
100
AcDbEntity
  8
0
100
AcDbLine
 10
11.638926338559145
 20
60.63473711586758
 30
0.0
 11
11.663661705882674
 21
61.1829701752346
 31
0.0
  0
LINE
  5
BED
330
A35
100
AcDbEntity
  8
0
100
AcDbLine
 10
11.78814953815015
 20
61.058887840792096
 30
0.0
 11
11.76341417082665
 21
60.53579564657355
 31
0.0
  0
LINE
  5
BEE
330
A35
100
AcDbEntity
  8
0
100
AcDbLine
 10
22.526137441329553
 20
70.30180526328635
 30
0.0
 11
22.45152584153405
 21
69.45431480908735
 31
0.0
  0
LINE
  5
BEF
330
A35
100
AcDbEntity
  8
0
100
AcDbLine
 10
23.123841235343633
 20
64.97031986050692
 30
0.0
 11
23.123841235343633
 21
65.0700723254509
 31
0.0
  0
LINE
  5
BF0
330
A35
100
AcDbEntity
  8
0
100
AcDbLine
 10
22.9746180357526
 20
64.67106246567491
 30
0.0
 11
22.999353403076128
 21
65.01979059515395
 31
0.0
  0
LINE
  5
BF1
330
A35
100
AcDbEntity
  8
0
100
AcDbLine
 10
23.123841235343633
 20
65.0700723254509
 30
0.0
 11
23.123841235343633
 21
65.09440219494948
 31
0.0
  0
LINE
  5
BF2
330
A35
100
AcDbEntity
  8
0
100
AcDbLine
 10
23.123841235343633
 20
65.09440219494948
 30
0.0
 11
23.123841235343633
 21
65.11954306009793
 31
0.0
  0
LINE
  5
BF3
330
A35
100
AcDbEntity
  8
0
100
AcDbLine
 10
23.123841235343633
 20
65.11954306009793
 30
0.0
 11
23.123841235343633
 21
65.16901379474496
 31
0.0
  0
LINE
  5
BF4
330
A35
100
AcDbEntity
  8
0
100
AcDbLine
 10
36.45296024011725
 20
64.5964508658794
 30
0.0
 11
36.377943142496775
 21
64.27286360154883
 31
0.0
  0
LINE
  5
BF5
330
A35
100
AcDbEntity
  8
0
100
AcDbLine
 10
44.17607181460292
 20
60.01189245670503
 30
0.0
 11
44.07631934965892
 21
59.53908199278345
 31
0.0
  0
LINE
  5
BF6
330
A35
100
AcDbEntity
  8
0
100
AcDbLine
 10
47.39004757535966
 20
59.21468373280294
 30
0.0
 11
47.539676272775694
 21
59.73858692267146
 31
0.0
  0
LINE
  5
BF7
330
A35
100
AcDbEntity
  8
0
100
AcDbLine
 10
47.639023239894726
 20
59.83752839196552
 30
0.0
 11
47.48980004030369
 21
59.339577062895444
 31
0.0
  0
LINE
  5
BF8
330
A35
100
AcDbEntity
  8
0
100
AcDbLine
 10
43.229234393284855
 20
59.86266925711402
 30
0.0
 11
43.10474656101735
 21
59.389047797542474
 31
0.0
  0
LINE
  5
BF9
330
A35
100
AcDbEntity
  8
0
100
AcDbLine
 10
23.099105868020132
 20
64.92003813020995
 30
0.0
 11
23.123841235343633
 21
64.5964508658794
 31
0.0
  0
LINE
  5
BFA
330
A35
100
AcDbEntity
  8
0
100
AcDbLine
 10
11.713537938354676
 20
60.11164492164903
 30
0.0
 11
11.638926338559145
 21
60.63473711586758
 31
0.0
  0
LINE
  5
BFB
330
A35
100
AcDbEntity
  8
0
100
AcDbLine
 10
11.76341417082665
 20
60.53579564657355
 30
0.0
 11
11.813290403298652
 21
60.01189245670503
 31
0.0
  0
LINE
  5
BFC
330
A35
100
AcDbEntity
  8
0
100
AcDbLine
 10
17.742479600092167
 20
67.95964982622718
 30
0.0
 11
17.742479600092167
 21
68.05940229117118
 31
0.0
  0
LINE
  5
BFD
330
A35
100
AcDbEntity
  8
0
100
AcDbLine
 10
20.33361070168641
 20
68.93122261486877
 30
0.0
 11
20.28373446921441
 21
69.30509160949629
 31
0.0
  0
LINE
  5
BFE
330
A35
100
AcDbEntity
  8
0
100
AcDbLine
 10
20.408222301481914
 20
68.93122261486877
 30
0.0
 11
20.358751566834883
 21
69.27995074434781
 31
0.0
  0
LINE
  5
BFF
330
A35
100
AcDbEntity
  8
0
100
AcDbLine
 10
22.15226844670204
 20
70.12703570072185
 30
0.0
 11
22.15226844670204
 21
70.05242410092637
 31
0.0
  0
LINE
  5
C00
330
A35
100
AcDbEntity
  8
0
100
AcDbLine
 10
22.650625273597086
 20
71.64684154873049
 30
0.0
 11
22.650625273597086
 21
71.67157691605402
 31
0.0
  0
LINE
  5
C01
330
A35
100
AcDbEntity
  8
0
100
AcDbLine
 10
21.90329278216703
 20
69.35456234414332
 30
0.0
 11
21.853416549695027
 21
71.24823718677948
 31
0.0
  0
LINE
  5
C02
330
A35
100
AcDbEntity
  8
0
100
AcDbLine
 10
21.080943193116468
 20
69.13072754475678
 30
0.0
 11
21.080943193116468
 21
70.20205279834238
 31
0.0
  0
LINE
  5
C03
330
A35
100
AcDbEntity
  8
0
100
AcDbLine
 10
22.15226844670204
 20
70.17691193319388
 30
0.0
 11
22.15226844670204
 21
70.12703570072185
 31
0.0
  0
LINE
  5
C04
330
A35
100
AcDbEntity
  8
0
100
AcDbLine
 10
22.15226844670204
 20
70.47616932802589
 30
0.0
 11
22.15226844670204
 21
70.32654063060988
 31
0.0
  0
LINE
  5
C05
330
A35
100
AcDbEntity
  8
0
100
AcDbLine
 10
22.27675627896957
 20
70.17691193319388
 30
0.0
 11
22.27675627896957
 21
70.1517710680454
 31
0.0
  0
LINE
  5
C06
330
A35
100
AcDbEntity
  8
0
100
AcDbLine
 10
22.401649609062048
 20
70.02768873360284
 30
0.0
 11
22.401649609062048
 21
70.12703570072185
 31
0.0
  0
LINE
  5
C07
330
A35
100
AcDbEntity
  8
0
100
AcDbLine
 10
22.650625273597086
 20
71.64684154873049
 30
0.0
 11
22.650625273597086
 21
71.74659401367452
 31
0.0
  0
LINE
  5
C08
330
A35
100
AcDbEntity
  8
0
100
AcDbLine
 10
29.153188394906152
 20
72.51906737025308
 30
0.0
 11
29.153188394906152
 21
80.19230271226675
 31
0.0
  0
LINE
  5
C09
330
A35
100
AcDbEntity
  8
0
100
AcDbLine
 10
29.252940859850128
 20
80.16756734494322
 30
0.0
 11
29.252940859850128
 21
80.2673198098872
 31
0.0
  0
LINE
  5
C0A
330
A35
100
AcDbEntity
  8
0
100
AcDbLine
 10
29.252940859850128
 20
72.51906737025308
 30
0.0
 11
29.252940859850128
 21
80.16756734494322
 31
0.0
  0
LINE
  5
C0B
330
A35
100
AcDbEntity
  8
0
100
AcDbLine
 10
29.32755245964566
 20
80.19230271226675
 30
0.0
 11
29.32755245964566
 21
80.29205517721073
 31
0.0
  0
LINE
  5
C0C
330
A35
100
AcDbEntity
  8
0
100
AcDbLine
 10
29.35228782696916
 20
80.19230271226675
 30
0.0
 11
29.35228782696916
 21
80.31679054453423
 31
0.0
  0
LINE
  5
C0D
330
A35
100
AcDbEntity
  8
0
100
AcDbLine
 10
31.071598604865812
 20
80.16756734494322
 30
0.0
 11
31.071598604865812
 21
80.2673198098872
 31
0.0
  0
LINE
  5
C0E
330
A35
100
AcDbEntity
  8
0
100
AcDbLine
 10
31.096333972189313
 20
80.14242647979475
 30
0.0
 11
31.096333972189313
 21
80.2673198098872
 31
0.0
  0
LINE
  5
C0F
330
A35
100
AcDbEntity
  8
0
100
AcDbLine
 10
31.445062101668356
 20
72.41931490530905
 30
0.0
 11
31.445062101668356
 21
80.11728561464625
 31
0.0
  0
LINE
  5
C10
330
A35
100
AcDbEntity
  8
0
100
AcDbLine
 10
31.54481456661236
 20
72.41931490530905
 30
0.0
 11
31.54481456661236
 21
80.06781487999922
 31
0.0
  0
LINE
  5
C11
330
A35
100
AcDbEntity
  8
0
100
AcDbLine
 10
34.26043350047408
 20
71.1484847218355
 30
0.0
 11
34.26043350047408
 21
72.54380273757658
 31
0.0
  0
LINE
  5
C12
330
A35
100
AcDbEntity
  8
0
100
AcDbLine
 10
34.28557436562258
 20
71.09901398718844
 30
0.0
 11
34.28557436562258
 21
72.19507460809757
 31
0.0
  0
LINE
  5
C13
330
A35
100
AcDbEntity
  8
0
100
AcDbLine
 10
34.33504510026958
 20
72.12005751047707
 30
0.0
 11
34.33504510026958
 21
71.09901398718844
 31
0.0
  0
LINE
  5
C14
330
A35
100
AcDbEntity
  8
0
100
AcDbLine
 10
34.933154392108634
 20
70.79975659235643
 30
0.0
 11
34.933154392108634
 21
72.29442157521655
 31
0.0
  0
LINE
  5
C15
330
A35
100
AcDbEntity
  8
0
100
AcDbLine
 10
34.957889759432135
 20
78.34850410210257
 30
0.0
 11
34.957889759432135
 21
72.34470330551355
 31
0.0
  0
LINE
  5
C16
330
A35
100
AcDbEntity
  8
0
100
AcDbLine
 10
35.03290685705264
 20
77.20256724872146
 30
0.0
 11
35.03290685705264
 21
78.07438757241906
 31
0.0
  0
LINE
  5
C17
330
A35
100
AcDbEntity
  8
0
100
AcDbLine
 10
35.13225382417167
 20
70.7251449925609
 30
0.0
 11
35.13225382417167
 21
78.09952843756756
 31
0.0
  0
LINE
  5
C18
330
A35
100
AcDbEntity
  8
0
100
AcDbLine
 10
36.30333154270127
 20
64.89570826071142
 30
0.0
 11
36.30333154270127
 21
64.92003813020995
 31
0.0
  0
LINE
  5
C19
330
A35
100
AcDbEntity
  8
0
100
AcDbLine
 10
36.30333154270127
 20
64.97031986050692
 30
0.0
 11
36.30333154270127
 21
64.94517899535842
 31
0.0
  0
LINE
  5
C1A
330
A35
100
AcDbEntity
  8
0
100
AcDbLine
 10
36.30333154270127
 20
64.94517899535842
 30
0.0
 11
36.30333154270127
 21
64.92003813020995
 31
0.0
  0
LINE
  5
C1B
330
A35
100
AcDbEntity
  8
0
100
AcDbLine
 10
36.30333154270127
 20
64.92003813020995
 30
0.0
 11
36.30333154270127
 21
64.89570826071142
 31
0.0
  0
LINE
  5
C1C
330
A35
100
AcDbEntity
  8
0
100
AcDbLine
 10
44.225948047074894
 20
60.485513916276545
 30
0.0
 11
44.17607181460292
 21
60.01189245670503
 31
0.0
  0
LINE
  5
C1D
330
A35
100
AcDbEntity
  8
0
100
AcDbLine
 10
36.25345531022927
 20
64.5964508658794
 30
0.0
 11
36.30333154270127
 21
64.89570826071142
 31
0.0
  0
LINE
  5
C1E
330
A35
100
AcDbEntity
  8
0
100
AcDbLine
 10
43.27911062575686
 20
60.31114985153704
 30
0.0
 11
43.229234393284855
 21
59.86266925711402
 31
0.0
  0
LINE
  5
C1F
330
A35
100
AcDbEntity
  8
0
100
AcDbLine
 10
47.539676272775694
 20
59.73858692267146
 30
0.0
 11
47.6142878725712
 21
60.286008986388566
 31
0.0
  0
LINE
  5
C20
330
A35
100
AcDbEntity
  8
0
100
AcDbLine
 10
47.73877570483873
 20
60.38576145133254
 30
0.0
 11
47.639023239894726
 21
59.83752839196552
 31
0.0
  0
LINE
  5
C21
330
A35
100
AcDbEntity
  8
0
100
AcDbLine
 10
37.64877332597035
 20
52.6375090116984
 30
0.0
 11
38.59561074728845
 21
52.86215480673491
 31
0.0
  0
LINE
  5
C22
330
A35
100
AcDbEntity
  8
0
100
AcDbLine
 10
11.813290403298652
 20
59.588552727430454
 30
0.0
 11
11.713537938354676
 21
60.11164492164903
 31
0.0
  0
LINE
  5
C23
330
A35
100
AcDbEntity
  8
0
100
AcDbLine
 10
16.148062152288077
 20
59.86266925711402
 30
0.0
 11
16.098185919816046
 21
60.31114985153704
 31
0.0
  0
LINE
  5
C24
330
A35
100
AcDbEntity
  8
0
100
AcDbLine
 10
15.226365596118455
 20
59.88781012226249
 30
0.0
 11
15.176489363646454
 21
60.38576145133254
 31
0.0
  0
LINE
  5
C25
330
A35
100
AcDbEntity
  8
0
100
AcDbLine
 10
36.30333154270127
 20
65.0700723254509
 30
0.0
 11
36.30333154270127
 21
65.04493146030245
 31
0.0
  0
LINE
  5
C26
330
A35
100
AcDbEntity
  8
0
100
AcDbLine
 10
36.30333154270127
 20
65.04493146030245
 30
0.0
 11
36.30333154270127
 21
65.01979059515395
 31
0.0
  0
LINE
  5
C27
330
A35
100
AcDbEntity
  8
0
100
AcDbLine
 10
36.403084007645276
 20
64.92003813020995
 30
0.0
 11
36.45296024011725
 21
64.5964508658794
 31
0.0
  0
LINE
  5
C28
330
A35
100
AcDbEntity
  8
0
100
AcDbLine
 10
47.73877570483873
 20
61.33300437047561
 30
0.0
 11
47.73877570483873
 21
61.1829701752346
 31
0.0
  0
LINE
  5
C29
330
A35
100
AcDbEntity
  8
0
100
AcDbLine
 10
36.30333154270127
 20
65.01979059515395
 30
0.0
 11
36.30333154270127
 21
64.97031986050692
 31
0.0
  0
LINE
  5
C2A
330
A35
100
AcDbEntity
  8
0
100
AcDbLine
 10
37.87301362318186
 20
76.75408665429845
 30
0.0
 11
37.87301362318186
 21
76.85383911924245
 31
0.0
  0
LINE
  5
C2B
330
A35
100
AcDbEntity
  8
0
100
AcDbLine
 10
38.0473776879214
 20
69.25521537702429
 30
0.0
 11
38.0473776879214
 21
76.67947505450292
 31
0.0
  0
LINE
  5
C2C
330
A35
100
AcDbEntity
  8
0
100
AcDbLine
 10
43.27911062575686
 20
60.78477131110856
 30
0.0
 11
43.27911062575686
 21
60.31114985153704
 31
0.0
  0
LINE
  5
C2D
330
A35
100
AcDbEntity
  8
0
100
AcDbLine
 10
47.73877570483873
 20
60.78477131110856
 30
0.0
 11
47.73877570483873
 21
61.1829701752346
 31
0.0
  0
LINE
  5
C2E
330
A35
100
AcDbEntity
  8
0
100
AcDbLine
 10
47.6142878725712
 20
60.286008986388566
 30
0.0
 11
47.6142878725712
 21
60.78477131110856
 31
0.0
  0
LINE
  5
C2F
330
A35
100
AcDbEntity
  8
0
100
AcDbLine
 10
47.73877570483873
 20
60.90885364555109
 30
0.0
 11
47.73877570483873
 21
60.38576145133254
 31
0.0
  0
LINE
  5
C30
330
A35
100
AcDbEntity
  8
0
100
AcDbLine
 10
36.353207775173274
 20
54.60579545413006
 30
0.0
 11
35.555999051271215
 21
54.40629052424205
 31
0.0
  0
LINE
  5
C31
330
A35
100
AcDbEntity
  8
0
100
AcDbLine
 10
36.70193590465226
 20
54.182455724855515
 30
0.0
 11
35.85485094827823
 21
53.98295079496751
 31
0.0
  0
LINE
  5
C32
330
A35
100
AcDbEntity
  8
0
100
AcDbLine
 10
32.242270825570415
 20
61.83095569954568
 30
0.0
 11
32.790503884937465
 21
61.98017889913669
 31
0.0
  0
LINE
  5
C33
330
A35
100
AcDbEntity
  8
0
100
AcDbLine
 10
36.67720053732876
 20
52.41367421231183
 30
0.0
 11
37.64877332597035
 21
52.6375090116984
 31
0.0
  0
LINE
  5
C34
330
A35
100
AcDbEntity
  8
0
100
AcDbLine
 10
32.765768517613935
 20
61.73120323460165
 30
0.0
 11
32.16765922577491
 21
61.581980035010616
 31
0.0
  0
LINE
  5
C35
330
A35
100
AcDbEntity
  8
0
100
AcDbLine
 10
35.555999051271215
 20
54.40629052424205
 30
0.0
 11
34.684178727573624
 21
54.207596590004016
 31
0.0
  0
LINE
  5
C36
330
A35
100
AcDbEntity
  8
0
100
AcDbLine
 10
35.85485094827823
 20
53.98295079496751
 30
0.0
 11
34.983030624580636
 21
53.808586730228
 31
0.0
  0
LINE
  5
C37
330
A35
100
AcDbEntity
  8
0
100
AcDbLine
 10
35.70562774868719
 20
52.21416928242385
 30
0.0
 11
36.67720053732876
 21
52.41367421231183
 31
0.0
  0
LINE
  5
C38
330
A35
100
AcDbEntity
  8
0
100
AcDbLine
 10
34.684178727573624
 20
54.207596590004016
 30
0.0
 11
33.81195290605103
 21
54.05756239476301
 31
0.0
  0
LINE
  5
C39
330
A35
100
AcDbEntity
  8
0
100
AcDbLine
 10
34.983030624580636
 20
53.808586730228
 30
0.0
 11
34.086069435734544
 21
53.60908180033999
 31
0.0
  0
LINE
  5
C3A
330
A35
100
AcDbEntity
  8
0
100
AcDbLine
 10
34.684178727573624
 20
52.06494608283282
 30
0.0
 11
35.70562774868719
 21
52.21416928242385
 31
0.0
  0
LINE
  5
C3B
330
A35
100
AcDbEntity
  8
0
100
AcDbLine
 10
33.66272970646
 20
51.91491188759184
 30
0.0
 11
34.684178727573624
 21
52.06494608283282
 31
0.0
  0
LINE
  5
C3C
330
A35
100
AcDbEntity
  8
0
100
AcDbLine
 10
11.962513602889686
 20
59.06546053321193
 30
0.0
 11
11.813290403298652
 21
59.588552727430454
 31
0.0
  0
LINE
  5
C3D
330
A35
100
AcDbEntity
  8
0
100
AcDbLine
 10
11.937778235566185
 20
59.48880026248648
 30
0.0
 11
12.08700143515722
 21
58.94056720311943
 31
0.0
  0
LINE
  5
C3E
330
A35
100
AcDbEntity
  8
0
100
AcDbLine
 10
16.272549984555553
 20
59.389047797542474
 30
0.0
 11
16.148062152288077
 21
59.86266925711402
 31
0.0
  0
LINE
  5
C3F
330
A35
100
AcDbEntity
  8
0
100
AcDbLine
 10
15.350853428385989
 20
59.414188662690975
 30
0.0
 11
15.226365596118455
 21
59.88781012226249
 31
0.0
  0
LINE
  5
C40
330
A35
100
AcDbEntity
  8
0
100
AcDbLine
 10
12.460870429784734
 20
77.00306231883349
 30
0.0
 11
12.410994197312732
 21
77.15309651407446
 31
0.0
  0
LINE
  5
C41
330
A35
100
AcDbEntity
  8
0
100
AcDbLine
 10
13.556931050693834
 20
76.87897998439095
 30
0.0
 11
13.532195683370304
 21
77.02820318398199
 31
0.0
  0
LINE
  5
C42
330
A35
100
AcDbEntity
  8
0
100
AcDbLine
 10
11.813290403298652
 20
60.01189245670503
 30
0.0
 11
11.937778235566185
 21
59.48880026248648
 31
0.0
  0
LINE
  5
C43
330
A35
100
AcDbEntity
  8
0
100
AcDbLine
 10
22.15226844670204
 20
70.32654063060988
 30
0.0
 11
22.20214467917404
 21
70.27666439813791
 31
0.0
  0
LINE
  5
C44
330
A35
100
AcDbEntity
  8
0
100
AcDbLine
 10
22.426384976385577
 20
70.10230033339838
 30
0.0
 11
22.426384976385577
 21
70.05242410092637
 31
0.0
  0
LINE
  5
C45
330
A35
100
AcDbEntity
  8
0
100
AcDbLine
 10
22.999353403076128
 20
64.34747520134437
 30
0.0
 11
22.9746180357526
 21
64.67106246567491
 31
0.0
  0
LINE
  5
C46
330
A35
100
AcDbEntity
  8
0
100
AcDbLine
 10
47.6142878725712
 20
60.78477131110856
 30
0.0
 11
47.589147007422724
 21
61.33300437047561
 31
0.0
  0
LINE
  5
C47
330
A35
100
AcDbEntity
  8
0
100
AcDbLine
 10
47.71404033751523
 20
61.45708670491814
 30
0.0
 11
47.73877570483873
 21
60.90885364555109
 31
0.0
  0
LINE
  5
C48
330
A35
100
AcDbEntity
  8
0
100
AcDbLine
 10
47.71404033751523
 20
61.880426434192685
 30
0.0
 11
47.73877570483873
 21
61.33300437047561
 31
0.0
  0
LINE
  5
C49
330
A35
100
AcDbEntity
  8
0
100
AcDbLine
 10
44.17607181460292
 20
60.984276240996564
 30
0.0
 11
44.225948047074894
 21
60.485513916276545
 31
0.0
  0
LINE
  5
C4A
330
A35
100
AcDbEntity
  8
0
100
AcDbLine
 10
22.27675627896957
 20
66.81371297284608
 30
0.0
 11
23.123841235343633
 21
67.01281240490911
 31
0.0
  0
LINE
  5
C4B
330
A35
100
AcDbEntity
  8
0
100
AcDbLine
 10
22.9746180357526
 20
71.19836095430747
 30
0.0
 11
22.9746180357526
 21
71.17362558698395
 31
0.0
  0
LINE
  5
C4C
330
A35
100
AcDbEntity
  8
0
100
AcDbLine
 10
24.344795186345237
 20
70.35127599793339
 30
0.0
 11
24.344795186345237
 21
70.40115223040539
 31
0.0
  0
LINE
  5
C4D
330
A35
100
AcDbEntity
  8
0
100
AcDbLine
 10
21.753664084751023
 20
68.70698231765726
 30
0.0
 11
20.806826663432958
 21
68.45800665312223
 31
0.0
  0
LINE
  5
C4E
330
A35
100
AcDbEntity
  8
0
100
AcDbLine
 10
20.757355928785927
 20
68.63237071786173
 30
0.0
 11
21.67905248495549
 21
68.85661101507327
 31
0.0
  0
LINE
  5
C4F
330
A35
100
AcDbEntity
  8
0
100
AcDbLine
 10
20.757355928785927
 20
69.05611594496125
 30
0.0
 11
21.67905248495549
 21
69.27995074434781
 31
0.0
  0
LINE
  5
C50
330
A35
100
AcDbEntity
  8
0
100
AcDbLine
 10
31.744319496500367
 20
71.69671778120252
 30
0.0
 11
31.79419572897237
 21
71.69671778120252
 31
0.0
  0
LINE
  5
C51
330
A35
100
AcDbEntity
  8
0
100
AcDbLine
 10
23.0244942682246
 20
66.46498484336706
 30
0.0
 11
23.87157922459869
 21
66.71396050790207
 31
0.0
  0
LINE
  5
C52
330
A35
100
AcDbEntity
  8
0
100
AcDbLine
 10
25.590484504670343
 20
70.79975659235643
 30
0.0
 11
26.263205396304897
 21
70.94938528977244
 31
0.0
  0
LINE
  5
C53
330
A35
100
AcDbEntity
  8
0
100
AcDbLine
 10
22.999353403076128
 20
71.19836095430747
 30
0.0
 11
22.9746180357526
 21
71.19836095430747
 31
0.0
  0
LINE
  5
C54
330
A35
100
AcDbEntity
  8
0
100
AcDbLine
 10
23.123841235343633
 20
67.01281240490911
 30
0.0
 11
23.996067056866224
 21
67.21231733479712
 31
0.0
  0
LINE
  5
C55
330
A35
100
AcDbEntity
  8
0
100
AcDbLine
 10
22.725236873392618
 20
68.93122261486877
 30
0.0
 11
21.753664084751023
 21
68.70698231765726
 31
0.0
  0
LINE
  5
C56
330
A35
100
AcDbEntity
  8
0
100
AcDbLine
 10
21.67905248495549
 20
68.85661101507327
 30
0.0
 11
22.675360640920616
 21
69.10558667960828
 31
0.0
  0
LINE
  5
C57
330
A35
100
AcDbEntity
  8
0
100
AcDbLine
 10
21.67905248495549
 20
69.27995074434781
 30
0.0
 11
22.675360640920616
 21
69.52892640888282
 31
0.0
  0
LINE
  5
C58
330
A35
100
AcDbEntity
  8
0
100
AcDbLine
 10
24.320059819021736
 20
70.35127599793339
 30
0.0
 11
24.344795186345237
 21
70.35127599793339
 31
0.0
  0
LINE
  5
C59
330
A35
100
AcDbEntity
  8
0
100
AcDbLine
 10
23.87157922459869
 20
66.71396050790207
 30
0.0
 11
24.69352331582428
 21
66.88832457264161
 31
0.0
  0
LINE
  5
C5A
330
A35
100
AcDbEntity
  8
0
100
AcDbLine
 10
26.263205396304897
 20
70.94938528977244
 30
0.0
 11
26.935926287939452
 21
71.07387312203994
 31
0.0
  0
LINE
  5
C5B
330
A35
100
AcDbEntity
  8
0
100
AcDbLine
 10
23.996067056866224
 20
67.21231733479712
 30
0.0
 11
24.89302824571226
 21
67.41141676686016
 31
0.0
  0
LINE
  5
C5C
330
A35
100
AcDbEntity
  8
0
100
AcDbLine
 10
23.721950527182685
 20
69.13072754475678
 30
0.0
 11
22.725236873392618
 21
68.93122261486877
 31
0.0
  0
LINE
  5
C5D
330
A35
100
AcDbEntity
  8
0
100
AcDbLine
 10
22.675360640920616
 20
69.10558667960828
 30
0.0
 11
23.647338927387153
 21
69.27995074434781
 31
0.0
  0
LINE
  5
C5E
330
A35
100
AcDbEntity
  8
0
100
AcDbLine
 10
22.675360640920616
 20
69.52892640888282
 30
0.0
 11
23.647338927387153
 21
69.7036959714473
 31
0.0
  0
LINE
  5
C5F
330
A35
100
AcDbEntity
  8
0
100
AcDbLine
 10
31.79419572897237
 20
71.69671778120252
 30
0.0
 11
31.81893109629587
 21
71.69671778120252
 31
0.0
  0
LINE
  5
C60
330
A35
100
AcDbEntity
  8
0
100
AcDbLine
 10
31.594690799084333
 20
61.75634409975015
 30
0.0
 11
32.242270825570415
 21
61.83095569954568
 31
0.0
  0
LINE
  5
C61
330
A35
100
AcDbEntity
  8
0
100
AcDbLine
 10
24.69352331582428
 20
66.88832457264161
 30
0.0
 11
25.56534363952187
 21
67.03754777223264
 31
0.0
  0
LINE
  5
C62
330
A35
100
AcDbEntity
  8
0
100
AcDbLine
 10
32.16765922577491
 20
61.581980035010616
 30
0.0
 11
31.54481456661236
 21
61.48222757006664
 31
0.0
  0
LINE
  5
C63
330
A35
100
AcDbEntity
  8
0
100
AcDbLine
 10
24.89302824571226
 20
67.41141676686016
 30
0.0
 11
25.76484856940985
 21
67.56104546427613
 31
0.0
  0
LINE
  5
C64
330
A35
100
AcDbEntity
  8
0
100
AcDbLine
 10
33.81195290605103
 20
54.05756239476301
 30
0.0
 11
32.91499171720497
 21
53.957809929819035
 31
0.0
  0
LINE
  5
C65
330
A35
100
AcDbEntity
  8
0
100
AcDbLine
 10
34.086069435734544
 20
53.60908180033999
 30
0.0
 11
33.16437287956501
 21
53.51014033104593
 31
0.0
  0
LINE
  5
C66
330
A35
100
AcDbEntity
  8
0
100
AcDbLine
 10
30.97184613992181
 20
61.65659163480615
 30
0.0
 11
31.594690799084333
 21
61.75634409975015
 31
0.0
  0
LINE
  5
C67
330
A35
100
AcDbEntity
  8
0
100
AcDbLine
 10
31.54481456661236
 20
61.48222757006664
 30
0.0
 11
30.92196990744978
 21
61.38247510512264
 31
0.0
  0
LINE
  5
C68
330
A35
100
AcDbEntity
  8
0
100
AcDbLine
 10
32.91499171720497
 20
53.957809929819035
 30
0.0
 11
32.491651987930425
 21
53.883198330023504
 31
0.0
  0
LINE
  5
C69
330
A35
100
AcDbEntity
  8
0
100
AcDbLine
 10
33.16437287956501
 20
53.51014033104593
 30
0.0
 11
32.192800090923384
 21
53.41038786610193
 31
0.0
  0
LINE
  5
C6A
330
A35
100
AcDbEntity
  8
0
100
AcDbLine
 10
32.61613982019793
 20
51.81597041829781
 30
0.0
 11
33.66272970646
 21
51.91491188759184
 31
0.0
  0
LINE
  5
C6B
330
A35
100
AcDbEntity
  8
0
100
AcDbLine
 10
32.192800090923384
 20
53.41038786610193
 30
0.0
 11
31.24596266960532
 21
53.310635401157924
 31
0.0
  0
LINE
  5
C6C
330
A35
100
AcDbEntity
  8
0
100
AcDbLine
 10
31.54481456661236
 20
51.76568868800081
 30
0.0
 11
32.61613982019793
 21
51.81597041829781
 31
0.0
  0
LINE
  5
C6D
330
A35
100
AcDbEntity
  8
0
100
AcDbLine
 10
31.24596266960532
 20
53.310635401157924
 30
0.0
 11
30.299125248287254
 21
53.28549453600945
 31
0.0
  0
LINE
  5
C6E
330
A35
100
AcDbEntity
  8
0
100
AcDbLine
 10
30.498630178175233
 20
51.71621795335378
 30
0.0
 11
31.54481456661236
 21
51.76568868800081
 31
0.0
  0
LINE
  5
C6F
330
A35
100
AcDbEntity
  8
0
100
AcDbLine
 10
29.427304924589663
 20
51.71621795335378
 30
0.0
 11
30.498630178175233
 21
51.71621795335378
 31
0.0
  0
LINE
  5
C70
330
A35
100
AcDbEntity
  8
0
100
AcDbLine
 10
30.299125248287254
 20
53.28549453600945
 30
0.0
 11
29.32755245964566
 21
53.28549453600945
 31
0.0
  0
LINE
  5
C71
330
A35
100
AcDbEntity
  8
0
100
AcDbLine
 10
28.380715038327594
 20
51.74054782285231
 30
0.0
 11
29.427304924589663
 21
51.71621795335378
 31
0.0
  0
LINE
  5
C72
330
A35
100
AcDbEntity
  8
0
100
AcDbLine
 10
12.510746662256707
 20
58.019276144774835
 30
0.0
 11
12.211894765249696
 21
58.51722747384488
 31
0.0
  0
LINE
  5
C73
330
A35
100
AcDbEntity
  8
0
100
AcDbLine
 10
15.799334022809006
 20
58.49289760434635
 30
0.0
 11
15.525217493125496
 21
58.94056720311943
 31
0.0
  0
LINE
  5
C74
330
A35
100
AcDbEntity
  8
0
100
AcDbLine
 10
12.211894765249696
 20
58.51722747384488
 30
0.0
 11
11.962513602889686
 21
59.06546053321193
 31
0.0
  0
LINE
  5
C75
330
A35
100
AcDbEntity
  8
0
100
AcDbLine
 10
12.08700143515722
 20
58.94056720311943
 30
0.0
 11
12.3363825975172
 21
58.44261587404938
 31
0.0
  0
LINE
  5
C76
330
A35
100
AcDbEntity
  8
0
100
AcDbLine
 10
16.472054914443532
 20
58.94056720311943
 30
0.0
 11
16.272549984555553
 21
59.389047797542474
 31
0.0
  0
LINE
  5
C77
330
A35
100
AcDbEntity
  8
0
100
AcDbLine
 10
15.525217493125496
 20
58.94056720311943
 30
0.0
 11
15.350853428385989
 21
59.414188662690975
 31
0.0
  0
LINE
  5
C78
330
A35
100
AcDbEntity
  8
0
100
AcDbLine
 10
23.099105868020132
 20
64.02307694136385
 30
0.0
 11
22.999353403076128
 21
64.34747520134437
 31
0.0
  0
LINE
  5
C79
330
A35
100
AcDbEntity
  8
0
100
AcDbLine
 10
23.123841235343633
 20
64.5964508658794
 30
0.0
 11
23.24873456543611
 21
64.27286360154883
 31
0.0
  0
LINE
  5
C7A
330
A35
100
AcDbEntity
  8
0
100
AcDbLine
 10
22.15226844670204
 20
70.05242410092637
 30
0.0
 11
22.15226844670204
 21
70.02768873360284
 31
0.0
  0
LINE
  5
C7B
330
A35
100
AcDbEntity
  8
0
100
AcDbLine
 10
36.25345531022927
 20
65.21929552504193
 30
0.0
 11
36.25345531022927
 21
65.19415465989346
 31
0.0
  0
LINE
  5
C7C
330
A35
100
AcDbEntity
  8
0
100
AcDbLine
 10
36.353207775173274
 20
65.24443639019043
 30
0.0
 11
36.403084007645276
 21
64.92003813020995
 31
0.0
  0
LINE
  5
C7D
330
A35
100
AcDbEntity
  8
0
100
AcDbLine
 10
36.25345531022927
 20
65.19415465989346
 30
0.0
 11
36.25345531022927
 21
65.16901379474496
 31
0.0
  0
LINE
  5
C7E
330
A35
100
AcDbEntity
  8
0
100
AcDbLine
 10
36.25345531022927
 20
65.16901379474496
 30
0.0
 11
36.30333154270127
 21
65.16901379474496
 31
0.0
  0
LINE
  5
C7F
330
A35
100
AcDbEntity
  8
0
100
AcDbLine
 10
36.30333154270127
 20
65.16901379474496
 30
0.0
 11
36.30333154270127
 21
65.11954306009793
 31
0.0
  0
LINE
  5
C80
330
A35
100
AcDbEntity
  8
0
100
AcDbLine
 10
36.30333154270127
 20
65.11954306009793
 30
0.0
 11
36.30333154270127
 21
65.09440219494948
 31
0.0
  0
LINE
  5
C81
330
A35
100
AcDbEntity
  8
0
100
AcDbLine
 10
43.229234393284855
 20
61.2332519055316
 30
0.0
 11
43.27911062575686
 21
60.78477131110856
 31
0.0
  0
LINE
  5
C82
330
A35
100
AcDbEntity
  8
0
100
AcDbLine
 10
36.30333154270127
 20
65.09440219494948
 30
0.0
 11
36.30333154270127
 21
65.0700723254509
 31
0.0
  0
LINE
  5
C83
330
A35
100
AcDbEntity
  8
0
100
AcDbLine
 10
23.0244942682246
 20
71.19836095430747
 30
0.0
 11
22.999353403076128
 21
71.19836095430747
 31
0.0
  0
LINE
  5
C84
330
A35
100
AcDbEntity
  8
0
100
AcDbLine
 10
22.899600938132153
 20
70.62539252761692
 30
0.0
 11
23.148982100492134
 21
70.6505333927654
 31
0.0
  0
LINE
  5
C85
330
A35
100
AcDbEntity
  8
0
100
AcDbLine
 10
24.74339954829628
 20
69.27995074434781
 30
0.0
 11
23.721950527182685
 21
69.13072754475678
 31
0.0
  0
LINE
  5
C86
330
A35
100
AcDbEntity
  8
0
100
AcDbLine
 10
23.647338927387153
 20
69.27995074434781
 30
0.0
 11
24.66878794850075
 21
69.45431480908735
 31
0.0
  0
LINE
  5
C87
330
A35
100
AcDbEntity
  8
0
100
AcDbLine
 10
23.647338927387153
 20
69.7036959714473
 30
0.0
 11
24.66878794850075
 21
69.87806003618687
 31
0.0
  0
LINE
  5
C88
330
A35
100
AcDbEntity
  8
0
100
AcDbLine
 10
34.28557436562258
 20
72.59367897004859
 30
0.0
 11
34.33504510026958
 21
72.59367897004859
 31
0.0
  0
LINE
  5
C89
330
A35
100
AcDbEntity
  8
0
100
AcDbLine
 10
35.15739468932014
 20
78.12466930271606
 30
0.0
 11
35.13225382417167
 21
78.12466930271606
 31
0.0
  0
LINE
  5
C8A
330
A35
100
AcDbEntity
  8
0
100
AcDbLine
 10
29.203064627378154
 20
80.2673198098872
 30
0.0
 11
29.177923762229653
 21
80.2673198098872
 31
0.0
  0
LINE
  5
C8B
330
A35
100
AcDbEntity
  8
0
100
AcDbLine
 10
13.108855954095759
 20
76.55498722223538
 30
0.0
 11
13.283220018835266
 21
76.57972258955894
 31
0.0
  0
LINE
  5
C8C
330
A35
100
AcDbEntity
  8
0
100
AcDbLine
 10
22.999353403076128
 20
71.19836095430747
 30
0.0
 11
23.148982100492134
 21
71.19836095430747
 31
0.0
  0
LINE
  5
C8D
330
A35
100
AcDbEntity
  8
0
100
AcDbLine
 10
26.935926287939452
 20
71.07387312203994
 30
0.0
 11
27.633382546897508
 21
71.19836095430747
 31
0.0
  0
LINE
  5
C8E
330
A35
100
AcDbEntity
  8
0
100
AcDbLine
 10
25.56574913734684
 20
67.03754777223264
 30
0.0
 11
26.462304828367934
 21
67.16244110232512
 31
0.0
  0
LINE
  5
C8F
330
A35
100
AcDbEntity
  8
0
100
AcDbLine
 10
25.74011320208635
 20
69.42957944176379
 30
0.0
 11
24.74339954829628
 21
69.27995074434781
 31
0.0
  0
LINE
  5
C90
330
A35
100
AcDbEntity
  8
0
100
AcDbLine
 10
24.66878794850075
 20
69.45431480908735
 30
0.0
 11
25.714972336937848
 21
69.5792081391798
 31
0.0
  0
LINE
  5
C91
330
A35
100
AcDbEntity
  8
0
100
AcDbLine
 10
24.66878794850075
 20
69.87806003618687
 30
0.0
 11
25.714972336937848
 21
70.00254786845437
 31
0.0
  0
LINE
  5
C92
330
A35
100
AcDbEntity
  8
0
100
AcDbLine
 10
22.25202091164607
 20
69.97740700330587
 30
0.0
 11
22.27675627896957
 21
69.97740700330587
 31
0.0
  0
LINE
  5
C93
330
A35
100
AcDbEntity
  8
0
100
AcDbLine
 10
23.04922963554813
 20
71.19836095430747
 30
0.0
 11
23.0244942682246
 21
71.19836095430747
 31
0.0
  0
LINE
  5
C94
330
A35
100
AcDbEntity
  8
0
100
AcDbLine
 10
25.76484856940985
 20
67.56104546427613
 30
0.0
 11
26.736421358051444
 21
67.66039243139517
 31
0.0
  0
LINE
  5
C95
330
A35
100
AcDbEntity
  8
0
100
AcDbLine
 10
31.81893109629587
 20
71.69671778120252
 30
0.0
 11
31.84366646361937
 21
71.69671778120252
 31
0.0
  0
LINE
  5
C96
330
A35
100
AcDbEntity
  8
0
100
AcDbLine
 10
26.462304828367934
 20
67.16244110232512
 30
0.0
 11
27.38440688236247
 21
67.26219356726912
 31
0.0
  0
LINE
  5
C97
330
A35
100
AcDbEntity
  8
0
100
AcDbLine
 10
27.633382546897508
 20
71.19836095430747
 30
0.0
 11
28.355979671004093
 21
71.24823718677948
 31
0.0
  0
LINE
  5
C98
330
A35
100
AcDbEntity
  8
0
100
AcDbLine
 10
32.01803052835888
 20
71.39746038637048
 30
0.0
 11
31.8935426960914
 21
71.37272501904698
 31
0.0
  0
LINE
  5
C99
330
A35
100
AcDbEntity
  8
0
100
AcDbLine
 10
31.8935426960914
 20
71.47247748399101
 30
0.0
 11
32.01803052835888
 21
71.47247748399101
 31
0.0
  0
LINE
  5
C9A
330
A35
100
AcDbEntity
  8
0
100
AcDbLine
 10
31.79419572897237
 20
71.69671778120252
 30
0.0
 11
31.8935426960914
 21
71.74659401367452
 31
0.0
  0
LINE
  5
C9B
330
A35
100
AcDbEntity
  8
0
100
AcDbLine
 10
26.786297590523446
 20
69.52892640888282
 30
0.0
 11
25.74011320208635
 21
69.42957944176379
 31
0.0
  0
LINE
  5
C9C
330
A35
100
AcDbEntity
  8
0
100
AcDbLine
 10
25.714972336937848
 20
69.5792081391798
 30
0.0
 11
26.761562223199917
 21
69.7036959714473
 31
0.0
  0
LINE
  5
C9D
330
A35
100
AcDbEntity
  8
0
100
AcDbLine
 10
25.714972336937848
 20
70.00254786845437
 30
0.0
 11
26.761562223199917
 21
70.10230033339838
 31
0.0
  0
LINE
  5
C9E
330
A35
100
AcDbEntity
  8
0
100
AcDbLine
 10
31.8935426960914
 20
71.69671778120252
 30
0.0
 11
31.8935426960914
 21
71.74659401367452
 31
0.0
  0
LINE
  5
C9F
330
A35
100
AcDbEntity
  8
0
100
AcDbLine
 10
26.736421358051444
 20
67.66039243139517
 30
0.0
 11
27.65811791422101
 21
67.73540952901567
 31
0.0
  0
LINE
  5
CA0
330
A35
100
AcDbEntity
  8
0
100
AcDbLine
 10
24.294918953873236
 20
70.35127599793339
 30
0.0
 11
24.320059819021736
 21
70.35127599793339
 31
0.0
  0
LINE
  5
CA1
330
A35
100
AcDbEntity
  8
0
100
AcDbLine
 10
23.099105868020132
 20
71.19836095430747
 30
0.0
 11
23.04922963554813
 21
71.19836095430747
 31
0.0
  0
LINE
  5
CA2
330
A35
100
AcDbEntity
  8
0
100
AcDbLine
 10
30.349001480759256
 20
61.63145076965765
 30
0.0
 11
30.97184613992181
 21
61.65659163480615
 31
0.0
  0
LINE
  5
CA3
330
A35
100
AcDbEntity
  8
0
100
AcDbLine
 10
31.84366646361937
 20
71.69671778120252
 30
0.0
 11
31.868807328767872
 21
71.69671778120252
 31
0.0
  0
LINE
  5
CA4
330
A35
100
AcDbEntity
  8
0
100
AcDbLine
 10
27.38440688236247
 20
67.26219356726912
 30
0.0
 11
28.30610343853209
 21
67.31166430191615
 31
0.0
  0
LINE
  5
CA5
330
A35
100
AcDbEntity
  8
0
100
AcDbLine
 10
31.868807328767872
 20
71.69671778120252
 30
0.0
 11
31.8935426960914
 21
71.69671778120252
 31
0.0
  0
LINE
  5
CA6
330
A35
100
AcDbEntity
  8
0
100
AcDbLine
 10
27.832887476785515
 20
69.5792081391798
 30
0.0
 11
26.786297590523446
 21
69.52892640888282
 31
0.0
  0
LINE
  5
CA7
330
A35
100
AcDbEntity
  8
0
100
AcDbLine
 10
26.761562223199917
 20
69.7036959714473
 30
0.0
 11
27.832887476785515
 21
69.75357220391933
 31
0.0
  0
LINE
  5
CA8
330
A35
100
AcDbEntity
  8
0
100
AcDbLine
 10
26.761562223199917
 20
70.10230033339838
 30
0.0
 11
27.832887476785515
 21
70.17691193319388
 31
0.0
  0
LINE
  5
CA9
330
A35
100
AcDbEntity
  8
0
100
AcDbLine
 10
30.92196990744978
 20
61.38247510512264
 30
0.0
 11
30.249249015815252
 21
61.357334239974136
 31
0.0
  0
LINE
  5
CAA
330
A35
100
AcDbEntity
  8
0
100
AcDbLine
 10
28.355979671004093
 20
71.24823718677948
 30
0.0
 11
29.10331216243415
 21
71.32284878657498
 31
0.0
  0
LINE
  5
CAB
330
A35
100
AcDbEntity
  8
0
100
AcDbLine
 10
23.148982100492134
 20
71.19836095430747
 30
0.0
 11
23.198858332964107
 21
71.22309632163098
 31
0.0
  0
LINE
  5
CAC
330
A35
100
AcDbEntity
  8
0
100
AcDbLine
 10
27.65811791422101
 20
67.73540952901567
 30
0.0
 11
28.604955335539103
 21
67.78528576148767
 31
0.0
  0
LINE
  5
CAD
330
A35
100
AcDbEntity
  8
0
100
AcDbLine
 10
22.50099657618108
 20
69.82818380371486
 30
0.0
 11
22.401649609062048
 21
69.82818380371486
 31
0.0
  0
LINE
  5
CAE
330
A35
100
AcDbEntity
  8
0
100
AcDbLine
 10
28.903807232546114
 20
69.65381973897533
 30
0.0
 11
27.832887476785515
 21
69.5792081391798
 31
0.0
  0
LINE
  5
CAF
330
A35
100
AcDbEntity
  8
0
100
AcDbLine
 10
27.832887476785515
 20
69.75357220391933
 30
0.0
 11
28.879071865222613
 21
69.80304293856636
 31
0.0
  0
LINE
  5
CB0
330
A35
100
AcDbEntity
  8
0
100
AcDbLine
 10
27.832887476785515
 20
70.17691193319388
 30
0.0
 11
28.879071865222613
 21
70.20205279834238
 31
0.0
  0
LINE
  5
CB1
330
A35
100
AcDbEntity
  8
0
100
AcDbLine
 10
28.30610343853209
 20
67.31166430191615
 30
0.0
 11
29.252940859850128
 21
67.33680516706465
 31
0.0
  0
LINE
  5
CB2
330
A35
100
AcDbEntity
  8
0
100
AcDbLine
 10
29.701421454273174
 20
61.60712090015912
 30
0.0
 11
30.349001480759256
 21
61.63145076965765
 31
0.0
  0
LINE
  5
CB3
330
A35
100
AcDbEntity
  8
0
100
AcDbLine
 10
28.604955335539103
 20
67.78528576148767
 30
0.0
 11
29.576528124180697
 21
67.81042662663617
 31
0.0
  0
LINE
  5
CB4
330
A35
100
AcDbEntity
  8
0
100
AcDbLine
 10
30.249249015815252
 20
61.357334239974136
 30
0.0
 11
29.6264043566527
 21
61.33300437047561
 31
0.0
  0
LINE
  5
CB5
330
A35
100
AcDbEntity
  8
0
100
AcDbLine
 10
29.252940859850128
 20
67.33680516706465
 30
0.0
 11
30.17463741601972
 21
67.33680516706465
 31
0.0
  0
LINE
  5
CB6
330
A35
100
AcDbEntity
  8
0
100
AcDbLine
 10
29.576528124180697
 20
67.81042662663617
 30
0.0
 11
30.523365545498763
 21
67.78528576148767
 31
0.0
  0
LINE
  5
CB7
330
A35
100
AcDbEntity
  8
0
100
AcDbLine
 10
29.05343592996215
 20
61.63145076965765
 30
0.0
 11
29.701421454273174
 21
61.60712090015912
 31
0.0
  0
LINE
  5
CB8
330
A35
100
AcDbEntity
  8
0
100
AcDbLine
 10
29.32755245964566
 20
53.28549453600945
 30
0.0
 11
28.380715038327594
 21
53.310635401157924
 31
0.0
  0
LINE
  5
CB9
330
A35
100
AcDbEntity
  8
0
100
AcDbLine
 10
29.6264043566527
 20
61.33300437047561
 30
0.0
 11
28.978824330166617
 21
61.357334239974136
 31
0.0
  0
LINE
  5
CBA
330
A35
100
AcDbEntity
  8
0
100
AcDbLine
 10
27.309389784741995
 20
51.79082955314931
 30
0.0
 11
28.380715038327594
 21
51.74054782285231
 31
0.0
  0
LINE
  5
CBB
330
A35
100
AcDbEntity
  8
0
100
AcDbLine
 10
28.380715038327594
 20
53.310635401157924
 30
0.0
 11
27.409142249686
 21
53.38524700095343
 31
0.0
  0
LINE
  5
CBC
330
A35
100
AcDbEntity
  8
0
100
AcDbLine
 10
28.405855903476066
 20
61.65659163480615
 30
0.0
 11
29.05343592996215
 21
61.63145076965765
 31
0.0
  0
LINE
  5
CBD
330
A35
100
AcDbEntity
  8
0
100
AcDbLine
 10
28.978824330166617
 20
61.357334239974136
 30
0.0
 11
28.30610343853209
 21
61.43194583976967
 31
0.0
  0
LINE
  5
CBE
330
A35
100
AcDbEntity
  8
0
100
AcDbLine
 10
26.263205396304897
 20
51.86544115294481
 30
0.0
 11
27.309389784741995
 21
51.79082955314931
 31
0.0
  0
LINE
  5
CBF
330
A35
100
AcDbEntity
  8
0
100
AcDbLine
 10
27.409142249686
 20
53.38524700095343
 30
0.0
 11
26.487445693516406
 21
53.45985860074896
 31
0.0
  0
LINE
  5
CC0
330
A35
100
AcDbEntity
  8
0
100
AcDbLine
 10
25.2417563751913
 20
51.965193617888815
 30
0.0
 11
26.263205396304897
 21
51.86544115294481
 31
0.0
  0
LINE
  5
CC1
330
A35
100
AcDbEntity
  8
0
100
AcDbLine
 10
26.487445693516406
 20
53.45985860074896
 30
0.0
 11
25.56574913734684
 21
53.58475193084146
 31
0.0
  0
LINE
  5
CC2
330
A35
100
AcDbEntity
  8
0
100
AcDbLine
 10
24.220307354077704
 20
52.11441681747985
 30
0.0
 11
25.2417563751913
 21
51.965193617888815
 31
0.0
  0
LINE
  5
CC3
330
A35
100
AcDbEntity
  8
0
100
AcDbLine
 10
25.56574913734684
 20
53.58475193084146
 30
0.0
 11
24.643647083352278
 21
53.73397513043247
 31
0.0
  0
LINE
  5
CC4
330
A35
100
AcDbEntity
  8
0
100
AcDbLine
 10
23.198858332964107
 20
52.31392174736786
 30
0.0
 11
24.220307354077704
 21
52.11441681747985
 31
0.0
  0
LINE
  5
CC5
330
A35
100
AcDbEntity
  8
0
100
AcDbLine
 10
24.643647083352278
 20
53.73397513043247
 30
0.0
 11
23.746685894506186
 21
53.908339195171976
 31
0.0
  0
LINE
  5
CC6
330
A35
100
AcDbEntity
  8
0
100
AcDbLine
 10
22.22728554432254
 20
52.513426677255865
 30
0.0
 11
23.198858332964107
 21
52.31392174736786
 31
0.0
  0
LINE
  5
CC7
330
A35
100
AcDbEntity
  8
0
100
AcDbLine
 10
23.746685894506186
 20
53.908339195171976
 30
0.0
 11
22.899600938132153
 21
54.132984990208485
 31
0.0
  0
LINE
  5
CC8
330
A35
100
AcDbEntity
  8
0
100
AcDbLine
 10
21.255307257856003
 20
52.762402341790875
 30
0.0
 11
22.22728554432254
 21
52.513426677255865
 31
0.0
  0
LINE
  5
CC9
330
A35
100
AcDbEntity
  8
0
100
AcDbLine
 10
20.358751566834883
 20
53.01137800632591
 30
0.0
 11
21.255307257856003
 21
52.762402341790875
 31
0.0
  0
LINE
  5
CCA
330
A35
100
AcDbEntity
  8
0
100
AcDbLine
 10
13.756435980581813
 20
56.54894103141322
 30
0.0
 11
13.283220018835266
 21
57.02256249098477
 31
0.0
  0
LINE
  5
CCB
330
A35
100
AcDbEntity
  8
0
100
AcDbLine
 10
13.4077078511028
 20
56.94795089118924
 30
0.0
 11
13.880923812849346
 21
56.44918856646922
 31
0.0
  0
LINE
  5
CCC
330
A35
100
AcDbEntity
  8
0
100
AcDbLine
 10
13.283220018835266
 20
57.02256249098477
 30
0.0
 11
12.859474791735778
 21
57.496183950556286
 31
0.0
  0
LINE
  5
CCD
330
A35
100
AcDbEntity
  8
0
100
AcDbLine
 10
12.983962624003254
 20
57.42157235076078
 30
0.0
 11
13.4077078511028
 21
56.94795089118924
 31
0.0
  0
LINE
  5
CCE
330
A35
100
AcDbEntity
  8
0
100
AcDbLine
 10
16.44691404929509
 20
57.57079555035179
 30
0.0
 11
16.098185919816046
 21
58.019276144774835
 31
0.0
  0
LINE
  5
CCF
330
A35
100
AcDbEntity
  8
0
100
AcDbLine
 10
17.04502334113411
 20
58.04441700992331
 30
0.0
 11
16.7210305789786
 21
58.49289760434635
 31
0.0
  0
LINE
  5
CD0
330
A35
100
AcDbEntity
  8
0
100
AcDbLine
 10
12.859474791735778
 20
57.496183950556286
 30
0.0
 11
12.510746662256707
 21
58.019276144774835
 31
0.0
  0
LINE
  5
CD1
330
A35
100
AcDbEntity
  8
0
100
AcDbLine
 10
12.63523449452424
 20
57.91952367983083
 30
0.0
 11
12.983962624003254
 21
57.42157235076078
 31
0.0
  0
LINE
  5
CD2
330
A35
100
AcDbEntity
  8
0
100
AcDbLine
 10
16.098185919816046
 20
58.019276144774835
 30
0.0
 11
15.799334022809006
 21
58.49289760434635
 31
0.0
  0
LINE
  5
CD3
330
A35
100
AcDbEntity
  8
0
100
AcDbLine
 10
12.3363825975172
 20
58.44261587404938
 30
0.0
 11
12.63523449452424
 21
57.91952367983083
 31
0.0
  0
LINE
  5
CD4
330
A35
100
AcDbEntity
  8
0
100
AcDbLine
 10
16.7210305789786
 20
58.49289760434635
 30
0.0
 11
16.472054914443532
 21
58.94056720311943
 31
0.0
  0
LINE
  5
CD5
330
A35
100
AcDbEntity
  8
0
100
AcDbLine
 10
22.15226844670204
 20
70.02768873360284
 30
0.0
 11
22.15226844670204
 21
70.00254786845437
 31
0.0
  0
LINE
  5
CD6
330
A35
100
AcDbEntity
  8
0
100
AcDbLine
 10
10.318219922613537
 20
77.32746057881394
 30
0.0
 11
10.368096155085539
 21
77.22770811386997
 31
0.0
  0
LINE
  5
CD7
330
A35
100
AcDbEntity
  8
0
100
AcDbLine
 10
23.27346993275964
 20
63.724630542181814
 30
0.0
 11
23.099105868020132
 21
64.02307694136385
 31
0.0
  0
LINE
  5
CD8
330
A35
100
AcDbEntity
  8
0
100
AcDbLine
 10
23.24873456543611
 20
64.27286360154883
 30
0.0
 11
23.397957765027144
 21
63.92332447641988
 31
0.0
  0
LINE
  5
CD9
330
A35
100
AcDbEntity
  8
0
100
AcDbLine
 10
12.386258829989231
 20
77.00306231883349
 30
0.0
 11
12.460870429784734
 21
76.87897998439095
 31
0.0
  0
LINE
  5
CDA
330
A35
100
AcDbEntity
  8
0
100
AcDbLine
 10
36.22871994290574
 20
65.56802365452097
 30
0.0
 11
36.353207775173274
 21
65.24443639019043
 31
0.0
  0
LINE
  5
CDB
330
A35
100
AcDbEntity
  8
0
100
AcDbLine
 10
36.17884371043374
 20
65.51855291987394
 30
0.0
 11
36.17884371043374
 21
65.49341205472544
 31
0.0
  0
LINE
  5
CDC
330
A35
100
AcDbEntity
  8
0
100
AcDbLine
 10
22.003045247111032
 20
69.95267163598234
 30
0.0
 11
21.97790438196256
 21
70.02768873360284
 31
0.0
  0
LINE
  5
CDD
330
A35
100
AcDbEntity
  8
0
100
AcDbLine
 10
31.56995543176083
 20
71.49721285131449
 30
0.0
 11
31.56995543176083
 21
71.54749458161146
 31
0.0
  0
LINE
  5
CDE
330
A35
100
AcDbEntity
  8
0
100
AcDbLine
 10
31.644567031556335
 20
71.62210618140699
 30
0.0
 11
31.669302398879864
 21
71.54749458161146
 31
0.0
  0
LINE
  5
CDF
330
A35
100
AcDbEntity
  8
0
100
AcDbLine
 10
32.242270825570415
 20
71.62210618140699
 30
0.0
 11
32.267411690718916
 21
71.54749458161146
 31
0.0
  0
LINE
  5
CE0
330
A35
100
AcDbEntity
  8
0
100
AcDbLine
 10
36.17884371043374
 20
65.49341205472544
 30
0.0
 11
36.20357907775727
 21
65.468271189577
 31
0.0
  0
LINE
  5
CE1
330
A35
100
AcDbEntity
  8
0
100
AcDbLine
 10
32.16765922577491
 20
71.64684154873049
 30
0.0
 11
32.16765922577491
 21
71.62210618140699
 31
0.0
  0
LINE
  5
CE2
330
A35
100
AcDbEntity
  8
0
100
AcDbLine
 10
22.650625273597086
 20
71.67157691605402
 30
0.0
 11
22.650625273597086
 21
71.69671778120252
 31
0.0
  0
LINE
  5
CE3
330
A35
100
AcDbEntity
  8
0
100
AcDbLine
 10
36.20357907775727
 20
65.468271189577
 30
0.0
 11
36.20357907775727
 21
65.41880045492996
 31
0.0
  0
LINE
  5
CE4
330
A35
100
AcDbEntity
  8
0
100
AcDbLine
 10
36.20357907775727
 20
65.41880045492996
 30
0.0
 11
36.20357907775727
 21
65.39365958978146
 31
0.0
  0
LINE
  5
CE5
330
A35
100
AcDbEntity
  8
0
100
AcDbLine
 10
36.20357907775727
 20
65.39365958978146
 30
0.0
 11
36.22871994290574
 21
65.36851872463299
 31
0.0
  0
LINE
  5
CE6
330
A35
100
AcDbEntity
  8
0
100
AcDbLine
 10
43.95183151739138
 20
61.93070816448966
 30
0.0
 11
44.10146021480742
 21
61.45708670491814
 31
0.0
  0
LINE
  5
CE7
330
A35
100
AcDbEntity
  8
0
100
AcDbLine
 10
36.22871994290574
 20
65.36851872463299
 30
0.0
 11
36.22871994290574
 21
65.31904798998596
 31
0.0
  0
LINE
  5
CE8
330
A35
100
AcDbEntity
  8
0
100
AcDbLine
 10
36.22871994290574
 20
65.31904798998596
 30
0.0
 11
36.22871994290574
 21
65.26876625968896
 31
0.0
  0
LINE
  5
CE9
330
A35
100
AcDbEntity
  8
0
100
AcDbLine
 10
43.10474656101735
 20
61.73120323460165
 30
0.0
 11
43.229234393284855
 21
61.2332519055316
 31
0.0
  0
LINE
  5
CEA
330
A35
100
AcDbEntity
  8
0
100
AcDbLine
 10
36.22871994290574
 20
65.26876625968896
 30
0.0
 11
36.25345531022927
 21
65.24443639019043
 31
0.0
  0
LINE
  5
CEB
330
A35
100
AcDbEntity
  8
0
100
AcDbLine
 10
36.25345531022927
 20
65.24443639019043
 30
0.0
 11
36.25345531022927
 21
65.21929552504193
 31
0.0
  0
LINE
  5
CEC
330
A35
100
AcDbEntity
  8
0
100
AcDbLine
 10
47.589147007422724
 20
61.33300437047561
 30
0.0
 11
47.46465917515522
 21
61.880426434192685
 31
0.0
  0
LINE
  5
CED
330
A35
100
AcDbEntity
  8
0
100
AcDbLine
 10
47.589147007422724
 20
61.98017889913669
 30
0.0
 11
47.71404033751523
 21
61.45708670491814
 31
0.0
  0
LINE
  5
CEE
330
A35
100
AcDbEntity
  8
0
100
AcDbLine
 10
47.589147007422724
 20
62.40432962406118
 30
0.0
 11
47.71404033751523
 21
61.880426434192685
 31
0.0
  0
LINE
  5
CEF
330
A35
100
AcDbEntity
  8
0
100
AcDbLine
 10
44.10146021480742
 20
61.45708670491814
 30
0.0
 11
44.17607181460292
 21
60.984276240996564
 31
0.0
  0
LINE
  5
CF0
330
A35
100
AcDbEntity
  8
0
100
AcDbLine
 10
13.233343786363292
 20
76.62959882203094
 30
0.0
 11
13.058979721623757
 21
76.62959882203094
 31
0.0
  0
LINE
  5
CF1
330
A35
100
AcDbEntity
  8
0
100
AcDbLine
 10
12.934086391531253
 20
77.426807545933
 30
0.0
 11
12.709846094319744
 21
77.376931313461
 31
0.0
  0
LINE
  5
CF2
330
A35
100
AcDbEntity
  8
0
100
AcDbLine
 10
24.245042721401234
 20
70.35127599793339
 30
0.0
 11
24.294918953873236
 21
70.35127599793339
 31
0.0
  0
LINE
  5
CF3
330
A35
100
AcDbEntity
  8
0
100
AcDbLine
 10
29.10331216243415
 20
71.32284878657498
 30
0.0
 11
29.800768421392206
 21
71.32284878657498
 31
0.0
  0
LINE
  5
CF4
330
A35
100
AcDbEntity
  8
0
100
AcDbLine
 10
29.950397118808183
 20
69.65381973897533
 30
0.0
 11
28.903807232546114
 21
69.65381973897533
 31
0.0
  0
LINE
  5
CF5
330
A35
100
AcDbEntity
  8
0
100
AcDbLine
 10
28.879071865222613
 20
69.80304293856636
 30
0.0
 11
29.950397118808183
 21
69.82818380371486
 31
0.0
  0
LINE
  5
CF6
330
A35
100
AcDbEntity
  8
0
100
AcDbLine
 10
28.879071865222613
 20
70.20205279834238
 30
0.0
 11
29.950397118808183
 21
70.20205279834238
 31
0.0
  0
LINE
  5
CF7
330
A35
100
AcDbEntity
  8
0
100
AcDbLine
 10
31.8935426960914
 20
71.74659401367452
 30
0.0
 11
31.943418928563403
 21
71.74659401367452
 31
0.0
  0
LINE
  5
CF8
330
A35
100
AcDbEntity
  8
0
100
AcDbLine
 10
23.148982100492134
 20
70.6505333927654
 30
0.0
 11
23.348081532555142
 21
70.6505333927654
 31
0.0
  0
LINE
  5
CF9
330
A35
100
AcDbEntity
  8
0
100
AcDbLine
 10
24.220307354077704
 20
70.35127599793339
 30
0.0
 11
24.245042721401234
 21
70.35127599793339
 31
0.0
  0
LINE
  5
CFA
330
A35
100
AcDbEntity
  8
0
100
AcDbLine
 10
31.04645773971731
 20
69.60394350650333
 30
0.0
 11
29.950397118808183
 21
69.65381973897533
 31
0.0
  0
LINE
  5
CFB
330
A35
100
AcDbEntity
  8
0
100
AcDbLine
 10
29.950397118808183
 20
69.82818380371486
 30
0.0
 11
31.04645773971731
 21
69.80304293856636
 31
0.0
  0
LINE
  5
CFC
330
A35
100
AcDbEntity
  8
0
100
AcDbLine
 10
29.950397118808183
 20
70.20205279834238
 30
0.0
 11
31.04645773971731
 21
70.20205279834238
 31
0.0
  0
LINE
  5
CFD
330
A35
100
AcDbEntity
  8
0
100
AcDbLine
 10
29.252940859850128
 20
80.16756734494322
 30
0.0
 11
31.445062101668356
 21
80.11728561464625
 31
0.0
  0
LINE
  5
CFE
330
A35
100
AcDbEntity
  8
0
100
AcDbLine
 10
29.35228782696916
 20
80.19230271226675
 30
0.0
 11
31.071598604865812
 21
80.16756734494322
 31
0.0
  0
LINE
  5
CFF
330
A35
100
AcDbEntity
  8
0
100
AcDbLine
 10
29.35228782696916
 20
80.31679054453423
 30
0.0
 11
31.071598604865812
 21
80.2673198098872
 31
0.0
  0
LINE
  5
D00
330
A35
100
AcDbEntity
  8
0
100
AcDbLine
 10
29.800768421392206
 20
71.32284878657498
 30
0.0
 11
30.523365545498763
 21
71.29811341925148
 31
0.0
  0
LINE
  5
D01
330
A35
100
AcDbEntity
  8
0
100
AcDbLine
 10
30.17463741601972
 20
67.33680516706465
 30
0.0
 11
31.096333972189313
 21
67.31166430191615
 31
0.0
  0
LINE
  5
D02
330
A35
100
AcDbEntity
  8
0
100
AcDbLine
 10
24.19516648892923
 20
70.35127599793339
 30
0.0
 11
24.220307354077704
 21
70.35127599793339
 31
0.0
  0
LINE
  5
D03
330
A35
100
AcDbEntity
  8
0
100
AcDbLine
 10
30.523365545498763
 20
67.78528576148767
 30
0.0
 11
31.494938334140357
 21
67.7601448963392
 31
0.0
  0
LINE
  5
D04
330
A35
100
AcDbEntity
  8
0
100
AcDbLine
 10
32.09304762597938
 20
69.55406727403133
 30
0.0
 11
31.04645773971731
 21
69.60394350650333
 31
0.0
  0
LINE
  5
D05
330
A35
100
AcDbEntity
  8
0
100
AcDbLine
 10
31.04645773971731
 20
69.80304293856636
 30
0.0
 11
32.11778299330288
 21
69.72843133877086
 31
0.0
  0
LINE
  5
D06
330
A35
100
AcDbEntity
  8
0
100
AcDbLine
 10
31.04645773971731
 20
70.20205279834238
 30
0.0
 11
32.11778299330288
 21
70.1517710680454
 31
0.0
  0
LINE
  5
D07
330
A35
100
AcDbEntity
  8
0
100
AcDbLine
 10
31.096333972189313
 20
67.31166430191615
 30
0.0
 11
32.01803052835888
 21
67.26219356726912
 31
0.0
  0
LINE
  5
D08
330
A35
100
AcDbEntity
  8
0
100
AcDbLine
 10
30.523365545498763
 20
71.29811341925148
 30
0.0
 11
31.27069803692882
 21
71.24823718677948
 31
0.0
  0
LINE
  5
D09
330
A35
100
AcDbEntity
  8
0
100
AcDbLine
 10
31.494938334140357
 20
67.7601448963392
 30
0.0
 11
32.44177575545842
 21
67.66039243139517
 31
0.0
  0
LINE
  5
D0A
330
A35
100
AcDbEntity
  8
0
100
AcDbLine
 10
33.13923201441648
 20
69.45431480908735
 30
0.0
 11
32.09304762597938
 21
69.55406727403133
 31
0.0
  0
LINE
  5
D0B
330
A35
100
AcDbEntity
  8
0
100
AcDbLine
 10
32.11778299330288
 20
69.72843133877086
 30
0.0
 11
33.16437287956501
 21
69.65381973897533
 31
0.0
  0
LINE
  5
D0C
330
A35
100
AcDbEntity
  8
0
100
AcDbLine
 10
32.11778299330288
 20
70.1517710680454
 30
0.0
 11
33.16437287956501
 21
70.05242410092637
 31
0.0
  0
LINE
  5
D0D
330
A35
100
AcDbEntity
  8
0
100
AcDbLine
 10
31.943418928563403
 20
71.74659401367452
 30
0.0
 11
31.968559793711904
 21
71.69671778120252
 31
0.0
  0
LINE
  5
D0E
330
A35
100
AcDbEntity
  8
0
100
AcDbLine
 10
22.401649609062048
 20
69.82818380371486
 30
0.0
 11
22.25202091164607
 21
69.82818380371486
 31
0.0
  0
LINE
  5
D0F
330
A35
100
AcDbEntity
  8
0
100
AcDbLine
 10
31.8935426960914
 20
71.37272501904698
 30
0.0
 11
31.79419572897237
 21
71.39746038637048
 31
0.0
  0
LINE
  5
D10
330
A35
100
AcDbEntity
  8
0
100
AcDbLine
 10
31.81893109629587
 20
71.47247748399101
 30
0.0
 11
31.8935426960914
 21
71.47247748399101
 31
0.0
  0
LINE
  5
D11
330
A35
100
AcDbEntity
  8
0
100
AcDbLine
 10
31.8935426960914
 20
71.74659401367452
 30
0.0
 11
32.01803052835888
 21
71.69671778120252
 31
0.0
  0
LINE
  5
D12
330
A35
100
AcDbEntity
  8
0
100
AcDbLine
 10
12.934086391531253
 20
76.57972258955894
 30
0.0
 11
13.108855954095759
 21
76.55498722223538
 31
0.0
  0
LINE
  5
D13
330
A35
100
AcDbEntity
  8
0
100
AcDbLine
 10
32.01803052835888
 20
67.26219356726912
 30
0.0
 11
32.91499171720497
 21
67.16244110232512
 31
0.0
  0
LINE
  5
D14
330
A35
100
AcDbEntity
  8
0
100
AcDbLine
 10
34.185821900678576
 20
69.35456234414332
 30
0.0
 11
33.13923201441648
 21
69.45431480908735
 31
0.0
  0
LINE
  5
D15
330
A35
100
AcDbEntity
  8
0
100
AcDbLine
 10
33.16437287956501
 20
69.65381973897533
 30
0.0
 11
34.21055726800208
 21
69.52892640888282
 31
0.0
  0
LINE
  5
D16
330
A35
100
AcDbEntity
  8
0
100
AcDbLine
 10
33.16437287956501
 20
70.05242410092637
 30
0.0
 11
34.21055726800208
 21
69.95267163598234
 31
0.0
  0
LINE
  5
D17
330
A35
100
AcDbEntity
  8
0
100
AcDbLine
 10
32.44177575545842
 20
67.66039243139517
 30
0.0
 11
33.363472311628016
 21
67.58578083159966
 31
0.0
  0
LINE
  5
D18
330
A35
100
AcDbEntity
  8
0
100
AcDbLine
 10
31.27069803692882
 20
71.24823718677948
 30
0.0
 11
31.968559793711904
 21
71.17362558698395
 31
0.0
  0
LINE
  5
D19
330
A35
100
AcDbEntity
  8
0
100
AcDbLine
 10
27.783011244313514
 20
61.75634409975015
 30
0.0
 11
28.405855903476066
 21
61.65659163480615
 31
0.0
  0
LINE
  5
D1A
330
A35
100
AcDbEntity
  8
0
100
AcDbLine
 10
28.30610343853209
 20
61.43194583976967
 30
0.0
 11
27.68325877936951
 21
61.50736843521511
 31
0.0
  0
LINE
  5
D1B
330
A35
100
AcDbEntity
  8
0
100
AcDbLine
 10
32.91499171720497
 20
67.16244110232512
 30
0.0
 11
33.81195290605103
 21
67.03754777223264
 31
0.0
  0
LINE
  5
D1C
330
A35
100
AcDbEntity
  8
0
100
AcDbLine
 10
24.170431121605702
 20
70.35127599793339
 30
0.0
 11
24.19516648892923
 21
70.35127599793339
 31
0.0
  0
LINE
  5
D1D
330
A35
100
AcDbEntity
  8
0
100
AcDbLine
 10
35.18213005664364
 20
69.20533914455228
 30
0.0
 11
34.185821900678576
 21
69.35456234414332
 31
0.0
  0
LINE
  5
D1E
330
A35
100
AcDbEntity
  8
0
100
AcDbLine
 10
34.21055726800208
 20
69.52892640888282
 30
0.0
 11
35.232006289115645
 21
69.37970320929182
 31
0.0
  0
LINE
  5
D1F
330
A35
100
AcDbEntity
  8
0
100
AcDbLine
 10
34.21055726800208
 20
69.95267163598234
 30
0.0
 11
35.232006289115645
 21
69.80304293856636
 31
0.0
  0
LINE
  5
D20
330
A35
100
AcDbEntity
  8
0
100
AcDbLine
 10
33.363472311628016
 20
67.58578083159966
 30
0.0
 11
34.28516886779761
 21
67.43655763200866
 31
0.0
  0
LINE
  5
D21
330
A35
100
AcDbEntity
  8
0
100
AcDbLine
 10
31.968559793711904
 20
71.69671778120252
 30
0.0
 11
31.993295161035377
 21
71.69671778120252
 31
0.0
  0
LINE
  5
D22
330
A35
100
AcDbEntity
  8
0
100
AcDbLine
 10
22.22728554432254
 20
69.97740700330587
 30
0.0
 11
22.25202091164607
 21
69.97740700330587
 31
0.0
  0
LINE
  5
D23
330
A35
100
AcDbEntity
  8
0
100
AcDbLine
 10
31.968559793711904
 20
71.17362558698395
 30
0.0
 11
32.69075141999346
 21
71.04873225689147
 31
0.0
  0
LINE
  5
D24
330
A35
100
AcDbEntity
  8
0
100
AcDbLine
 10
23.348081532555142
 20
70.6505333927654
 30
0.0
 11
23.59746269491518
 21
70.62539252761692
 31
0.0
  0
LINE
  5
D25
330
A35
100
AcDbEntity
  8
0
100
AcDbLine
 10
36.17884371043374
 20
69.05611594496125
 30
0.0
 11
35.18213005664364
 21
69.20533914455228
 31
0.0
  0
LINE
  5
D26
330
A35
100
AcDbEntity
  8
0
100
AcDbLine
 10
35.232006289115645
 20
69.37970320929182
 30
0.0
 11
36.22871994290574
 21
69.20533914455228
 31
0.0
  0
LINE
  5
D27
330
A35
100
AcDbEntity
  8
0
100
AcDbLine
 10
35.232006289115645
 20
69.80304293856636
 30
0.0
 11
36.22871994290574
 21
69.60394350650333
 31
0.0
  0
LINE
  5
D28
330
A35
100
AcDbEntity
  8
0
100
AcDbLine
 10
33.81195290605103
 20
67.03754777223264
 30
0.0
 11
34.684178727573624
 21
66.88832457264161
 31
0.0
  0
LINE
  5
D29
330
A35
100
AcDbEntity
  8
0
100
AcDbLine
 10
27.184901952474462
 20
61.83095569954568
 30
0.0
 11
27.783011244313514
 21
61.75634409975015
 31
0.0
  0
LINE
  5
D2A
330
A35
100
AcDbEntity
  8
0
100
AcDbLine
 10
27.68325877936951
 20
61.50736843521511
 30
0.0
 11
27.085149487530487
 21
61.60712090015912
 31
0.0
  0
LINE
  5
D2B
330
A35
100
AcDbEntity
  8
0
100
AcDbLine
 10
34.28557436562258
 20
67.43655763200866
 30
0.0
 11
35.18213005664364
 21
67.28692893459262
 31
0.0
  0
LINE
  5
D2C
330
A35
100
AcDbEntity
  8
0
100
AcDbLine
 10
34.684178727573624
 20
66.88832457264161
 30
0.0
 11
35.555999051271215
 21
66.71396050790207
 31
0.0
  0
LINE
  5
D2D
330
A35
100
AcDbEntity
  8
0
100
AcDbLine
 10
26.58719815846041
 20
61.98017889913669
 30
0.0
 11
27.184901952474462
 21
61.83095569954568
 31
0.0
  0
LINE
  5
D2E
330
A35
100
AcDbEntity
  8
0
100
AcDbLine
 10
27.085149487530487
 20
61.60712090015912
 30
0.0
 11
26.487445693516406
 21
61.75634409975015
 31
0.0
  0
LINE
  5
D2F
330
A35
100
AcDbEntity
  8
0
100
AcDbLine
 10
22.899600938132153
 20
54.132984990208485
 30
0.0
 11
22.077656846906535
 21
54.35681978959502
 31
0.0
  0
LINE
  5
D30
330
A35
100
AcDbEntity
  8
0
100
AcDbLine
 10
26.03896509909339
 20
62.1796838290247
 30
0.0
 11
26.58719815846041
 21
61.98017889913669
 31
0.0
  0
LINE
  5
D31
330
A35
100
AcDbEntity
  8
0
100
AcDbLine
 10
26.487445693516406
 20
61.75634409975015
 30
0.0
 11
25.914477266825855
 21
61.93070816448966
 31
0.0
  0
LINE
  5
D32
330
A35
100
AcDbEntity
  8
0
100
AcDbLine
 10
19.46179037798882
 20
53.310635401157924
 30
0.0
 11
20.358751566834883
 21
53.01137800632591
 31
0.0
  0
LINE
  5
D33
330
A35
100
AcDbEntity
  8
0
100
AcDbLine
 10
22.077656846906535
 20
54.35681978959502
 30
0.0
 11
21.255307257856003
 21
54.63093631927856
 31
0.0
  0
LINE
  5
D34
330
A35
100
AcDbEntity
  8
0
100
AcDbLine
 10
18.61470542161473
 20
53.60908180033999
 30
0.0
 11
19.46179037798882
 21
53.310635401157924
 31
0.0
  0
LINE
  5
D35
330
A35
100
AcDbEntity
  8
0
100
AcDbLine
 10
25.51587290487484
 20
62.3540478937642
 30
0.0
 11
26.03896509909339
 21
62.1796838290247
 31
0.0
  0
LINE
  5
D36
330
A35
100
AcDbEntity
  8
0
100
AcDbLine
 10
25.914477266825855
 20
61.93070816448966
 30
0.0
 11
25.416120439930836
 21
62.105072229229194
 31
0.0
  0
LINE
  5
D37
330
A35
100
AcDbEntity
  8
0
100
AcDbLine
 10
21.255307257856003
 20
54.63093631927856
 30
0.0
 11
20.483239399102388
 21
54.930193714110544
 31
0.0
  0
LINE
  5
D38
330
A35
100
AcDbEntity
  8
0
100
AcDbLine
 10
17.79235583256417
 20
53.98295079496751
 30
0.0
 11
18.61470542161473
 21
53.60908180033999
 31
0.0
  0
LINE
  5
D39
330
A35
100
AcDbEntity
  8
0
100
AcDbLine
 10
20.483239399102388
 20
54.930193714110544
 30
0.0
 11
19.76064227499583
 21
55.253780978441085
 31
0.0
  0
LINE
  5
D3A
330
A35
100
AcDbEntity
  8
0
100
AcDbLine
 10
17.02028797381061
 20
54.33167892444652
 30
0.0
 11
17.79235583256417
 21
53.98295079496751
 31
0.0
  0
LINE
  5
D3B
330
A35
100
AcDbEntity
  8
0
100
AcDbLine
 10
19.76064227499583
 20
55.253780978441085
 30
0.0
 11
19.087921383361305
 21
55.60250910792013
 31
0.0
  0
LINE
  5
D3C
330
A35
100
AcDbEntity
  8
0
100
AcDbLine
 10
16.297690849704054
 20
54.73068878422254
 30
0.0
 11
17.02028797381061
 21
54.33167892444652
 31
0.0
  0
LINE
  5
D3D
330
A35
100
AcDbEntity
  8
0
100
AcDbLine
 10
20.05949417200287
 20
55.75173230751116
 30
0.0
 11
19.43664951284032
 21
56.076130567491646
 31
0.0
  0
LINE
  5
D3E
330
A35
100
AcDbEntity
  8
0
100
AcDbLine
 10
19.087921383361305
 20
55.60250910792013
 30
0.0
 11
18.465076724198752
 21
55.95123723739917
 31
0.0
  0
LINE
  5
D3F
330
A35
100
AcDbEntity
  8
0
100
AcDbLine
 10
15.6249699580695
 20
55.10455777885008
 30
0.0
 11
16.297690849704054
 21
54.73068878422254
 31
0.0
  0
LINE
  5
D40
330
A35
100
AcDbEntity
  8
0
100
AcDbLine
 10
19.43664951284032
 20
56.076130567491646
 30
0.0
 11
18.83894571882624
 21
56.42485869697069
 31
0.0
  0
LINE
  5
D41
330
A35
100
AcDbEntity
  8
0
100
AcDbLine
 10
18.465076724198752
 20
55.95123723739917
 30
0.0
 11
17.892108297508173
 21
56.350247097175185
 31
0.0
  0
LINE
  5
D42
330
A35
100
AcDbEntity
  8
0
100
AcDbLine
 10
14.977389931583417
 20
55.5530383732731
 30
0.0
 11
15.6249699580695
 21
55.10455777885008
 31
0.0
  0
LINE
  5
D43
330
A35
100
AcDbEntity
  8
0
100
AcDbLine
 10
18.83894571882624
 20
56.42485869697069
 30
0.0
 11
18.315448026782747
 21
56.82305756109673
 31
0.0
  0
LINE
  5
D44
330
A35
100
AcDbEntity
  8
0
100
AcDbLine
 10
17.892108297508173
 20
56.350247097175185
 30
0.0
 11
17.343875238141123
 21
56.72330509615276
 31
0.0
  0
LINE
  5
D45
330
A35
100
AcDbEntity
  8
0
100
AcDbLine
 10
14.404016007067895
 20
56.00151896769614
 30
0.0
 11
14.976984433758446
 21
55.5530383732731
 31
0.0
  0
LINE
  5
D46
330
A35
100
AcDbEntity
  8
0
100
AcDbLine
 10
14.429156872216396
 20
55.97637810254764
 30
0.0
 11
14.503768472011927
 21
55.90176650275214
 31
0.0
  0
LINE
  5
D47
330
A35
100
AcDbEntity
  8
0
100
AcDbLine
 10
14.429156872216396
 20
55.97637810254764
 30
0.0
 11
14.304669039948863
 21
56.076130567491646
 31
0.0
  0
LINE
  5
D48
330
A35
100
AcDbEntity
  8
0
100
AcDbLine
 10
18.315448026782747
 20
56.82305756109673
 30
0.0
 11
17.81749669771267
 21
57.196926555724275
 31
0.0
  0
LINE
  5
D49
330
A35
100
AcDbEntity
  8
0
100
AcDbLine
 10
24.0958195218102
 20
62.82766935333572
 30
0.0
 11
23.771826759654687
 21
63.12611575251782
 31
0.0
  0
LINE
  5
D4A
330
A35
100
AcDbEntity
  8
0
100
AcDbLine
 10
17.343875238141123
 20
56.72330509615276
 30
0.0
 11
16.870659276394576
 21
57.147455821077244
 31
0.0
  0
LINE
  5
D4B
330
A35
100
AcDbEntity
  8
0
100
AcDbLine
 10
14.304669039948863
 20
56.076130567491646
 30
0.0
 11
13.756435980581813
 21
56.54894103141322
 31
0.0
  0
LINE
  5
D4C
330
A35
100
AcDbEntity
  8
0
100
AcDbLine
 10
13.880923812849346
 20
56.44918856646922
 30
0.0
 11
14.404016007067895
 21
56.00151896769614
 31
0.0
  0
LINE
  5
D4D
330
A35
100
AcDbEntity
  8
0
100
AcDbLine
 10
17.81749669771267
 20
57.196926555724275
 30
0.0
 11
17.418892335761626
 21
57.62026628499882
 31
0.0
  0
LINE
  5
D4E
330
A35
100
AcDbEntity
  8
0
100
AcDbLine
 10
16.870659276394576
 20
57.147455821077244
 30
0.0
 11
16.44691404929509
 21
57.57079555035179
 31
0.0
  0
LINE
  5
D4F
330
A35
100
AcDbEntity
  8
0
100
AcDbLine
 10
15.32611806106246
 20
72.51906737025308
 30
0.0
 11
15.475341260653494
 21
72.36943867283705
 31
0.0
  0
LINE
  5
D50
330
A35
100
AcDbEntity
  8
0
100
AcDbLine
 10
17.867372930184672
 20
73.78949205590166
 30
0.0
 11
18.016596129775706
 21
73.61512799116215
 31
0.0
  0
LINE
  5
D51
330
A35
100
AcDbEntity
  8
0
100
AcDbLine
 10
18.04173699492418
 20
73.68973959095769
 30
0.0
 11
17.892108297508173
 21
73.86410365569722
 31
0.0
  0
LINE
  5
D52
330
A35
100
AcDbEntity
  8
0
100
AcDbLine
 10
23.771826759654687
 20
63.12611575251782
 30
0.0
 11
23.472974862647646
 21
63.40023228220133
 31
0.0
  0
LINE
  5
D53
330
A35
100
AcDbEntity
  8
0
100
AcDbLine
 10
12.460870429784734
 20
76.87897998439095
 30
0.0
 11
12.56062289472871
 21
76.72935128697492
 31
0.0
  0
LINE
  5
D54
330
A35
100
AcDbEntity
  8
0
100
AcDbLine
 10
23.59746269491518
 20
63.62487807723781
 30
0.0
 11
23.87157922459869
 21
63.3256206824058
 31
0.0
  0
LINE
  5
D55
330
A35
100
AcDbEntity
  8
0
100
AcDbLine
 10
17.418892335761626
 20
57.62026628499882
 30
0.0
 11
17.04502334113411
 21
58.04441700992331
 31
0.0
  0
LINE
  5
D56
330
A35
100
AcDbEntity
  8
0
100
AcDbLine
 10
22.650625273597086
 20
71.69671778120252
 30
0.0
 11
22.600749041125084
 21
71.77132938099803
 31
0.0
  0
LINE
  5
D57
330
A35
100
AcDbEntity
  8
0
100
AcDbLine
 10
23.472974862647646
 20
63.40023228220133
 30
0.0
 11
23.27346993275964
 21
63.724630542181814
 31
0.0
  0
LINE
  5
D58
330
A35
100
AcDbEntity
  8
0
100
AcDbLine
 10
23.397957765027144
 20
63.92332447641988
 30
0.0
 11
23.59746269491518
 21
63.62487807723781
 31
0.0
  0
LINE
  5
D59
330
A35
100
AcDbEntity
  8
0
100
AcDbLine
 10
12.535482029580265
 20
76.87897998439095
 30
0.0
 11
12.460870429784734
 21
77.00306231883349
 31
0.0
  0
LINE
  5
D5A
330
A35
100
AcDbEntity
  8
0
100
AcDbLine
 10
13.532195683370304
 20
77.02820318398199
 30
0.0
 11
13.4324432184263
 21
77.17783188139796
 31
0.0
  0
LINE
  5
D5B
330
A35
100
AcDbEntity
  8
0
100
AcDbLine
 10
36.004479645694204
 20
65.84214018420451
 30
0.0
 11
36.004479645694204
 21
65.81699931905601
 31
0.0
  0
LINE
  5
D5C
330
A35
100
AcDbEntity
  8
0
100
AcDbLine
 10
36.004479645694204
 20
65.81699931905601
 30
0.0
 11
36.02921501301773
 21
65.79185845390754
 31
0.0
  0
LINE
  5
D5D
330
A35
100
AcDbEntity
  8
0
100
AcDbLine
 10
36.02921501301773
 20
65.86687555152804
 30
0.0
 11
36.22871994290574
 21
65.56802365452097
 31
0.0
  0
LINE
  5
D5E
330
A35
100
AcDbEntity
  8
0
100
AcDbLine
 10
36.02921501301773
 20
65.79185845390754
 30
0.0
 11
36.054355878166206
 21
65.767528584409
 31
0.0
  0
LINE
  5
D5F
330
A35
100
AcDbEntity
  8
0
100
AcDbLine
 10
22.20214467917404
 20
70.27666439813791
 30
0.0
 11
22.22728554432254
 21
70.25152353298941
 31
0.0
  0
LINE
  5
D60
330
A35
100
AcDbEntity
  8
0
100
AcDbLine
 10
36.054355878166206
 20
65.767528584409
 30
0.0
 11
36.054355878166206
 21
65.717246854112
 31
0.0
  0
LINE
  5
D61
330
A35
100
AcDbEntity
  8
0
100
AcDbLine
 10
36.054355878166206
 20
65.717246854112
 30
0.0
 11
36.079091245489735
 21
65.69291698461348
 31
0.0
  0
LINE
  5
D62
330
A35
100
AcDbEntity
  8
0
100
AcDbLine
 10
42.656265966594276
 20
62.62816442344774
 30
0.0
 11
42.930382496277815
 21
62.1796838290247
 31
0.0
  0
LINE
  5
D63
330
A35
100
AcDbEntity
  8
0
100
AcDbLine
 10
36.079091245489735
 20
65.69291698461348
 30
0.0
 11
36.079091245489735
 21
65.66777611946497
 31
0.0
  0
LINE
  5
D64
330
A35
100
AcDbEntity
  8
0
100
AcDbLine
 10
36.079091245489735
 20
65.66777611946497
 30
0.0
 11
36.12896747796174
 21
65.66777611946497
 31
0.0
  0
LINE
  5
D65
330
A35
100
AcDbEntity
  8
0
100
AcDbLine
 10
36.12896747796174
 20
65.66777611946497
 30
0.0
 11
36.12896747796174
 21
65.6426352543165
 31
0.0
  0
LINE
  5
D66
330
A35
100
AcDbEntity
  8
0
100
AcDbLine
 10
36.12896747796174
 20
65.6426352543165
 30
0.0
 11
36.15410834311024
 21
65.617494389168
 31
0.0
  0
LINE
  5
D67
330
A35
100
AcDbEntity
  8
0
100
AcDbLine
 10
36.15410834311024
 20
65.617494389168
 30
0.0
 11
36.15410834311024
 21
65.54288278937247
 31
0.0
  0
LINE
  5
D68
330
A35
100
AcDbEntity
  8
0
100
AcDbLine
 10
36.15410834311024
 20
65.54288278937247
 30
0.0
 11
36.17884371043374
 21
65.51855291987394
 31
0.0
  0
LINE
  5
D69
330
A35
100
AcDbEntity
  8
0
100
AcDbLine
 10
43.7275912201799
 20
62.379188758912704
 30
0.0
 11
43.95183151739138
 21
61.93070816448966
 31
0.0
  0
LINE
  5
D6A
330
A35
100
AcDbEntity
  8
0
100
AcDbLine
 10
47.290295110415684
 20
62.379188758912704
 30
0.0
 11
47.041319445880674
 21
62.927421818279754
 31
0.0
  0
LINE
  5
D6B
330
A35
100
AcDbEntity
  8
0
100
AcDbLine
 10
47.16580727814818
 20
63.02717428322376
 30
0.0
 11
47.41478294268322
 21
62.50327109335524
 31
0.0
  0
LINE
  5
D6C
330
A35
100
AcDbEntity
  8
0
100
AcDbLine
 10
47.16580727814818
 20
63.4505140124983
 30
0.0
 11
47.41478294268322
 21
62.927421818279754
 31
0.0
  0
LINE
  5
D6D
330
A35
100
AcDbEntity
  8
0
100
AcDbLine
 10
42.930382496277815
 20
62.1796838290247
 30
0.0
 11
43.10474656101735
 21
61.73120323460165
 31
0.0
  0
LINE
  5
D6E
330
A35
100
AcDbEntity
  8
0
100
AcDbLine
 10
47.46465917515522
 20
61.880426434192685
 30
0.0
 11
47.290295110415684
 21
62.379188758912704
 31
0.0
  0
LINE
  5
D6F
330
A35
100
AcDbEntity
  8
0
100
AcDbLine
 10
47.41478294268322
 20
62.50327109335524
 30
0.0
 11
47.589147007422724
 21
61.98017889913669
 31
0.0
  0
LINE
  5
D70
330
A35
100
AcDbEntity
  8
0
100
AcDbLine
 10
47.41478294268322
 20
62.927421818279754
 30
0.0
 11
47.589147007422724
 21
62.40432962406118
 31
0.0
  0
LINE
  5
D71
330
A35
100
AcDbEntity
  8
0
100
AcDbLine
 10
31.993295161035377
 20
71.69671778120252
 30
0.0
 11
32.01803052835888
 21
71.69671778120252
 31
0.0
  0
LINE
  5
D72
330
A35
100
AcDbEntity
  8
0
100
AcDbLine
 10
32.69075141999346
 20
71.04873225689147
 30
0.0
 11
33.338736944304486
 21
70.89950905730043
 31
0.0
  0
LINE
  5
D73
330
A35
100
AcDbEntity
  8
0
100
AcDbLine
 10
37.150416499075334
 20
68.83147014992477
 30
0.0
 11
36.17884371043374
 21
69.05611594496125
 31
0.0
  0
LINE
  5
D74
330
A35
100
AcDbEntity
  8
0
100
AcDbLine
 10
36.22871994290574
 20
69.20533914455228
 30
0.0
 11
37.22502809887084
 21
68.98109884734077
 31
0.0
  0
LINE
  5
D75
330
A35
100
AcDbEntity
  8
0
100
AcDbLine
 10
36.22871994290574
 20
69.60394350650333
 30
0.0
 11
37.22502809887084
 21
69.40484407444032
 31
0.0
  0
LINE
  5
D76
330
A35
100
AcDbEntity
  8
0
100
AcDbLine
 10
13.058979721623757
 20
76.62959882203094
 30
0.0
 11
12.859474791735778
 21
76.67947505450292
 31
0.0
  0
LINE
  5
D77
330
A35
100
AcDbEntity
  8
0
100
AcDbLine
 10
13.108855954095759
 20
77.35219594613747
 30
0.0
 11
12.934086391531253
 21
77.426807545933
 31
0.0
  0
LINE
  5
D78
330
A35
100
AcDbEntity
  8
0
100
AcDbLine
 10
24.14529025645723
 20
70.40115223040539
 30
0.0
 11
24.170431121605702
 21
70.35127599793339
 31
0.0
  0
LINE
  5
D79
330
A35
100
AcDbEntity
  8
0
100
AcDbLine
 10
35.18213005664364
 20
67.28692893459262
 30
0.0
 11
36.079091245489735
 21
67.06268863738114
 31
0.0
  0
LINE
  5
D7A
330
A35
100
AcDbEntity
  8
0
100
AcDbLine
 10
32.01803052835888
 20
71.69671778120252
 30
0.0
 11
32.04317139350738
 21
71.69671778120252
 31
0.0
  0
LINE
  5
D7B
330
A35
100
AcDbEntity
  8
0
100
AcDbLine
 10
38.1219892877169
 20
68.60763535053823
 30
0.0
 11
37.150416499075334
 21
68.83147014992477
 31
0.0
  0
LINE
  5
D7C
330
A35
100
AcDbEntity
  8
0
100
AcDbLine
 10
37.22502809887084
 20
68.98109884734077
 30
0.0
 11
38.17186552018893
 21
68.75685855012924
 31
0.0
  0
LINE
  5
D7D
330
A35
100
AcDbEntity
  8
0
100
AcDbLine
 10
37.22502809887084
 20
69.40484407444032
 30
0.0
 11
38.17186552018893
 21
69.15546291208028
 31
0.0
  0
LINE
  5
D7E
330
A35
100
AcDbEntity
  8
0
100
AcDbLine
 10
35.555999051271215
 20
66.71396050790207
 30
0.0
 11
36.353207775173274
 21
66.46498484336706
 31
0.0
  0
LINE
  5
D7F
330
A35
100
AcDbEntity
  8
0
100
AcDbLine
 10
24.0958195218102
 20
70.40115223040539
 30
0.0
 11
24.14529025645723
 21
70.40115223040539
 31
0.0
  0
LINE
  5
D80
330
A35
100
AcDbEntity
  8
0
100
AcDbLine
 10
33.338736944304486
 20
70.89950905730043
 30
0.0
 11
33.98631697079054
 21
70.74988035988443
 31
0.0
  0
LINE
  5
D81
330
A35
100
AcDbEntity
  8
0
100
AcDbLine
 10
36.079091245489735
 20
67.06268863738114
 30
0.0
 11
36.9261762018638
 21
66.8631837074931
 31
0.0
  0
LINE
  5
D82
330
A35
100
AcDbEntity
  8
0
100
AcDbLine
 10
39.044091341711464
 20
68.33351882085469
 30
0.0
 11
38.1219892877169
 21
68.60763535053823
 31
0.0
  0
LINE
  5
D83
330
A35
100
AcDbEntity
  8
0
100
AcDbLine
 10
38.17186552018893
 20
68.75685855012924
 30
0.0
 11
39.09356207635847
 21
68.48274202044573
 31
0.0
  0
LINE
  5
D84
330
A35
100
AcDbEntity
  8
0
100
AcDbLine
 10
38.17186552018893
 20
69.15546291208028
 30
0.0
 11
39.09356207635847
 21
68.90608174972027
 31
0.0
  0
LINE
  5
D85
330
A35
100
AcDbEntity
  8
0
100
AcDbLine
 10
36.353207775173274
 20
66.46498484336706
 30
0.0
 11
37.150416499075334
 21
66.24033904833055
 31
0.0
  0
LINE
  5
D86
330
A35
100
AcDbEntity
  8
0
100
AcDbLine
 10
32.04317139350738
 20
71.69671778120252
 30
0.0
 11
32.09304762597938
 21
71.69671778120252
 31
0.0
  0
LINE
  5
D87
330
A35
100
AcDbEntity
  8
0
100
AcDbLine
 10
36.9261762018638
 20
66.8631837074931
 30
0.0
 11
37.723384925765885
 21
66.58947267563457
 31
0.0
  0
LINE
  5
D88
330
A35
100
AcDbEntity
  8
0
100
AcDbLine
 10
33.98631697079054
 20
70.74988035988443
 30
0.0
 11
34.58442626262959
 21
70.55078092782136
 31
0.0
  0
LINE
  5
D89
330
A35
100
AcDbEntity
  8
0
100
AcDbLine
 10
39.940647032732585
 20
68.03426142602271
 30
0.0
 11
39.044091341711464
 21
68.33351882085469
 31
0.0
  0
LINE
  5
D8A
330
A35
100
AcDbEntity
  8
0
100
AcDbLine
 10
39.09356207635847
 20
68.48274202044573
 30
0.0
 11
39.99052326520456
 21
68.20862549076222
 31
0.0
  0
LINE
  5
D8B
330
A35
100
AcDbEntity
  8
0
100
AcDbLine
 10
39.09356207635847
 20
68.90608174972027
 30
0.0
 11
39.99052326520456
 21
68.60763535053823
 31
0.0
  0
LINE
  5
D8C
330
A35
100
AcDbEntity
  8
0
100
AcDbLine
 10
22.25202091164607
 20
69.82818380371486
 30
0.0
 11
22.102392214230036
 21
69.87806003618687
 31
0.0
  0
LINE
  5
D8D
330
A35
100
AcDbEntity
  8
0
100
AcDbLine
 10
31.79419572897237
 20
71.39746038637048
 30
0.0
 11
31.669302398879864
 21
71.44774211666746
 31
0.0
  0
LINE
  5
D8E
330
A35
100
AcDbEntity
  8
0
100
AcDbLine
 10
31.719178631351866
 20
71.49721285131449
 30
0.0
 11
31.81893109629587
 21
71.47247748399101
 31
0.0
  0
LINE
  5
D8F
330
A35
100
AcDbEntity
  8
0
100
AcDbLine
 10
32.01803052835888
 20
71.69671778120252
 30
0.0
 11
32.14292385845138
 21
71.67157691605402
 31
0.0
  0
LINE
  5
D90
330
A35
100
AcDbEntity
  8
0
100
AcDbLine
 10
12.759722326791774
 20
76.62959882203094
 30
0.0
 11
12.934086391531253
 21
76.57972258955894
 31
0.0
  0
LINE
  5
D91
330
A35
100
AcDbEntity
  8
0
100
AcDbLine
 10
37.150416499075334
 20
66.24033904833055
 30
0.0
 11
37.89774899050542
 21
65.96662801647201
 31
0.0
  0
LINE
  5
D92
330
A35
100
AcDbEntity
  8
0
100
AcDbLine
 10
37.723384925765885
 20
66.58947267563457
 30
0.0
 11
38.545734514816445
 21
66.31535614595103
 31
0.0
  0
LINE
  5
D93
330
A35
100
AcDbEntity
  8
0
100
AcDbLine
 10
23.59746269491518
 20
70.62539252761692
 30
0.0
 11
23.771826759654687
 21
70.55078092782136
 31
0.0
  0
LINE
  5
D94
330
A35
100
AcDbEntity
  8
0
100
AcDbLine
 10
40.78773198910662
 20
67.73540952901567
 30
0.0
 11
39.940647032732585
 21
68.03426142602271
 31
0.0
  0
LINE
  5
D95
330
A35
100
AcDbEntity
  8
0
100
AcDbLine
 10
39.99052326520456
 20
68.20862549076222
 30
0.0
 11
40.86274908672712
 21
67.88503822643165
 31
0.0
  0
LINE
  5
D96
330
A35
100
AcDbEntity
  8
0
100
AcDbLine
 10
39.99052326520456
 20
68.60763535053823
 30
0.0
 11
40.86274908672712
 21
68.30837795570622
 31
0.0
  0
LINE
  5
D97
330
A35
100
AcDbEntity
  8
0
100
AcDbLine
 10
34.33504510026958
 20
72.59367897004859
 30
0.0
 11
34.360185965418054
 21
72.59367897004859
 31
0.0
  0
LINE
  5
D98
330
A35
100
AcDbEntity
  8
0
100
AcDbLine
 10
34.58442626262959
 20
70.55078092782136
 30
0.0
 11
35.18213005664364
 21
70.32654063060988
 31
0.0
  0
LINE
  5
D99
330
A35
100
AcDbEntity
  8
0
100
AcDbLine
 10
32.09304762597938
 20
71.69671778120252
 30
0.0
 11
32.09304762597938
 21
71.67157691605402
 31
0.0
  0
LINE
  5
D9A
330
A35
100
AcDbEntity
  8
0
100
AcDbLine
 10
37.89774899050542
 20
65.96662801647201
 30
0.0
 11
38.64548697976045
 21
65.69291698461348
 31
0.0
  0
LINE
  5
D9B
330
A35
100
AcDbEntity
  8
0
100
AcDbLine
 10
38.545734514816445
 20
66.31535614595103
 30
0.0
 11
39.2431907737745
 21
66.01650424894402
 31
0.0
  0
LINE
  5
D9C
330
A35
100
AcDbEntity
  8
0
100
AcDbLine
 10
41.61008157815718
 20
67.36194603221313
 30
0.0
 11
40.78773198910662
 21
67.73540952901567
 31
0.0
  0
LINE
  5
D9D
330
A35
100
AcDbEntity
  8
0
100
AcDbLine
 10
40.86274908672712
 20
67.88503822643165
 30
0.0
 11
41.68469317795271
 21
67.51116923180413
 31
0.0
  0
LINE
  5
D9E
330
A35
100
AcDbEntity
  8
0
100
AcDbLine
 10
40.86274908672712
 20
68.30837795570622
 30
0.0
 11
41.68469317795271
 21
67.93450896107868
 31
0.0
  0
LINE
  5
D9F
330
A35
100
AcDbEntity
  8
0
100
AcDbLine
 10
32.09304762597938
 20
71.67157691605402
 30
0.0
 11
32.11778299330288
 21
71.67157691605402
 31
0.0
  0
LINE
  5
DA0
330
A35
100
AcDbEntity
  8
0
100
AcDbLine
 10
24.0706786566617
 20
70.40115223040539
 30
0.0
 11
24.0958195218102
 21
70.40115223040539
 31
0.0
  0
LINE
  5
DA1
330
A35
100
AcDbEntity
  8
0
100
AcDbLine
 10
25.042251445303293
 20
62.55355282365221
 30
0.0
 11
25.51587290487484
 21
62.3540478937642
 31
0.0
  0
LINE
  5
DA2
330
A35
100
AcDbEntity
  8
0
100
AcDbLine
 10
25.416120439930836
 20
62.105072229229194
 30
0.0
 11
24.94290447818426
 21
62.32890702861573
 31
0.0
  0
LINE
  5
DA3
330
A35
100
AcDbEntity
  8
0
100
AcDbLine
 10
35.18213005664364
 20
70.32654063060988
 30
0.0
 11
35.73036311601069
 21
70.05242410092637
 31
0.0
  0
LINE
  5
DA4
330
A35
100
AcDbEntity
  8
0
100
AcDbLine
 10
12.859474791735778
 20
76.67947505450292
 30
0.0
 11
12.685110726996243
 21
76.75408665429845
 31
0.0
  0
LINE
  5
DA5
330
A35
100
AcDbEntity
  8
0
100
AcDbLine
 10
13.283220018835266
 20
77.277178848517
 30
0.0
 11
13.108855954095759
 21
77.35219594613747
 31
0.0
  0
LINE
  5
DA6
330
A35
100
AcDbEntity
  8
0
100
AcDbLine
 10
38.64548697976045
 20
65.69291698461348
 30
0.0
 11
39.317802373570004
 21
65.36851872463299
 31
0.0
  0
LINE
  5
DA7
330
A35
100
AcDbEntity
  8
0
100
AcDbLine
 10
39.2431907737745
 20
66.01650424894402
 30
0.0
 11
39.96578789788106
 21
65.69291698461348
 31
0.0
  0
LINE
  5
DA8
330
A35
100
AcDbEntity
  8
0
100
AcDbLine
 10
42.357414069587264
 20
67.01281240490911
 30
0.0
 11
41.61008157815718
 21
67.36194603221313
 31
0.0
  0
LINE
  5
DA9
330
A35
100
AcDbEntity
  8
0
100
AcDbLine
 10
41.68469317795271
 20
67.51116923180413
 30
0.0
 11
42.45716653453127
 21
67.16244110232512
 31
0.0
  0
LINE
  5
DAA
330
A35
100
AcDbEntity
  8
0
100
AcDbLine
 10
41.68469317795271
 20
67.93450896107868
 30
0.0
 11
42.45716653453127
 21
67.58578083159966
 31
0.0
  0
LINE
  5
DAB
330
A35
100
AcDbEntity
  8
0
100
AcDbLine
 10
22.22728554432254
 20
69.97740700330587
 30
0.0
 11
22.50099657618108
 21
69.85332466886337
 31
0.0
  0
LINE
  5
DAC
330
A35
100
AcDbEntity
  8
0
100
AcDbLine
 10
22.401649609062048
 20
70.12703570072185
 30
0.0
 11
22.301897144118072
 21
70.1517710680454
 31
0.0
  0
LINE
  5
DAD
330
A35
100
AcDbEntity
  8
0
100
AcDbLine
 10
23.771826759654687
 20
70.55078092782136
 30
0.0
 11
24.0706786566617
 21
70.40115223040539
 31
0.0
  0
LINE
  5
DAE
330
A35
100
AcDbEntity
  8
0
100
AcDbLine
 10
23.84643835945019
 20
70.92464992244894
 30
0.0
 11
24.344795186345237
 21
70.6505333927654
 31
0.0
  0
LINE
  5
DAF
330
A35
100
AcDbEntity
  8
0
100
AcDbLine
 10
23.84643835945019
 20
71.07387312203994
 30
0.0
 11
24.344795186345237
 21
70.84963282482843
 31
0.0
  0
LINE
  5
DB0
330
A35
100
AcDbEntity
  8
0
100
AcDbLine
 10
22.526137441329553
 20
71.82120561347
 30
0.0
 11
21.65391161980702
 21
72.24495084056952
 31
0.0
  0
LINE
  5
DB1
330
A35
100
AcDbEntity
  8
0
100
AcDbLine
 10
22.526137441329553
 20
71.920958078414
 30
0.0
 11
21.65391161980702
 21
72.34470330551355
 31
0.0
  0
LINE
  5
DB2
330
A35
100
AcDbEntity
  8
0
100
AcDbLine
 10
26.462304828367934
 20
71.54749458161146
 30
0.0
 11
26.138717564037364
 21
71.74659401367452
 31
0.0
  0
LINE
  5
DB3
330
A35
100
AcDbEntity
  8
0
100
AcDbLine
 10
26.58719815846041
 20
71.62210618140699
 30
0.0
 11
26.138717564037364
 21
71.82120561347
 31
0.0
  0
LINE
  5
DB4
330
A35
100
AcDbEntity
  8
0
100
AcDbLine
 10
37.57416172617485
 20
69.30509160949629
 30
0.0
 11
31.79419572897237
 21
72.21980997542107
 31
0.0
  0
LINE
  5
DB5
330
A35
100
AcDbEntity
  8
0
100
AcDbLine
 10
38.1970063853374
 20
69.15546291208028
 30
0.0
 11
31.79419572897237
 21
72.39417404016058
 31
0.0
  0
LINE
  5
DB6
330
A35
100
AcDbEntity
  8
0
100
AcDbLine
 10
34.26043350047408
 20
72.54380273757658
 30
0.0
 11
34.83340192716463
 21
72.26968620789305
 31
0.0
  0
LINE
  5
DB7
330
A35
100
AcDbEntity
  8
0
100
AcDbLine
 10
34.360185965418054
 20
72.59367897004859
 30
0.0
 11
34.933154392108634
 21
72.29442157521655
 31
0.0
  0
LINE
  5
DB8
330
A35
100
AcDbEntity
  8
0
100
AcDbLine
 10
22.20214467917404
 20
70.00254786845437
 30
0.0
 11
22.22728554432254
 21
69.97740700330587
 31
0.0
  0
LINE
  5
DB9
330
A35
100
AcDbEntity
  8
0
100
AcDbLine
 10
43.10474656101735
 20
66.6142080429581
 30
0.0
 11
42.357414069587264
 21
67.01281240490911
 31
0.0
  0
LINE
  5
DBA
330
A35
100
AcDbEntity
  8
0
100
AcDbLine
 10
42.45716653453127
 20
67.16244110232512
 30
0.0
 11
43.204499025961326
 21
66.76383674037407
 31
0.0
  0
LINE
  5
DBB
330
A35
100
AcDbEntity
  8
0
100
AcDbLine
 10
42.45716653453127
 20
67.58578083159966
 30
0.0
 11
43.204499025961326
 21
67.18758196747359
 31
0.0
  0
LINE
  5
DBC
330
A35
100
AcDbEntity
  8
0
100
AcDbLine
 10
38.1970063853374
 20
69.15546291208028
 30
0.0
 11
38.246477119984434
 21
69.13072754475678
 31
0.0
  0
LINE
  5
DBD
330
A35
100
AcDbEntity
  8
0
100
AcDbLine
 10
39.96578789788106
 20
65.69291698461348
 30
0.0
 11
40.63850878951558
 21
65.34418885513443
 31
0.0
  0
LINE
  5
DBE
330
A35
100
AcDbEntity
  8
0
100
AcDbLine
 10
39.317802373570004
 20
65.36851872463299
 30
0.0
 11
39.96578789788106
 21
65.04493146030245
 31
0.0
  0
LINE
  5
DBF
330
A35
100
AcDbEntity
  8
0
100
AcDbLine
 10
35.73036311601069
 20
70.05242410092637
 30
0.0
 11
36.20357907775727
 21
69.80304293856636
 31
0.0
  0
LINE
  5
DC0
330
A35
100
AcDbEntity
  8
0
100
AcDbLine
 10
24.94290447818426
 20
62.32890702861573
 30
0.0
 11
24.494423883761215
 21
62.57869368880071
 31
0.0
  0
LINE
  5
DC1
330
A35
100
AcDbEntity
  8
0
100
AcDbLine
 10
24.618911716028748
 20
62.80252848818725
 30
0.0
 11
25.042251445303293
 21
62.55355282365221
 31
0.0
  0
LINE
  5
DC2
330
A35
100
AcDbEntity
  8
0
100
AcDbLine
 10
32.11778299330288
 20
71.67157691605402
 30
0.0
 11
32.14292385845138
 21
71.67157691605402
 31
0.0
  0
LINE
  5
DC3
330
A35
100
AcDbEntity
  8
0
100
AcDbLine
 10
39.96578789788106
 20
65.04493146030245
 30
0.0
 11
39.96578789788106
 21
65.01979059515395
 31
0.0
  0
LINE
  5
DC4
330
A35
100
AcDbEntity
  8
0
100
AcDbLine
 10
34.957889759432135
 20
66.81371297284608
 30
0.0
 11
34.983030624580636
 21
66.81371297284608
 31
0.0
  0
LINE
  5
DC5
330
A35
100
AcDbEntity
  8
0
100
AcDbLine
 10
22.576013673801583
 20
71.79647024614653
 30
0.0
 11
22.526137441329553
 21
71.82120561347
 31
0.0
  0
LINE
  5
DC6
330
A35
100
AcDbEntity
  8
0
100
AcDbLine
 10
43.80260831780038
 20
66.21560368100705
 30
0.0
 11
43.10474656101735
 21
66.6142080429581
 31
0.0
  0
LINE
  5
DC7
330
A35
100
AcDbEntity
  8
0
100
AcDbLine
 10
34.983030624580636
 20
66.81371297284608
 30
0.0
 11
35.007765991904165
 21
66.76383674037407
 31
0.0
  0
LINE
  5
DC8
330
A35
100
AcDbEntity
  8
0
100
AcDbLine
 10
22.25202091164607
 20
70.17691193319388
 30
0.0
 11
22.301897144118072
 21
70.1517710680454
 31
0.0
  0
LINE
  5
DC9
330
A35
100
AcDbEntity
  8
0
100
AcDbLine
 10
22.401649609062048
 20
70.12703570072185
 30
0.0
 11
22.426384976385577
 21
70.12703570072185
 31
0.0
  0
LINE
  5
DCA
330
A35
100
AcDbEntity
  8
0
100
AcDbLine
 10
40.63850878951558
 20
65.34418885513443
 30
0.0
 11
41.23621258352969
 21
64.97031986050692
 31
0.0
  0
LINE
  5
DCB
330
A35
100
AcDbEntity
  8
0
100
AcDbLine
 10
12.56062289472871
 20
76.72935128697492
 30
0.0
 11
12.759722326791774
 21
76.62959882203094
 31
0.0
  0
LINE
  5
DCC
330
A35
100
AcDbEntity
  8
0
100
AcDbLine
 10
39.96578789788106
 20
65.01979059515395
 30
0.0
 11
40.53875632457161
 21
64.64592160052644
 31
0.0
  0
LINE
  5
DCD
330
A35
100
AcDbEntity
  8
0
100
AcDbLine
 10
35.007765991904165
 20
66.76383674037407
 30
0.0
 11
35.03290685705264
 21
66.76383674037407
 31
0.0
  0
LINE
  5
DCE
330
A35
100
AcDbEntity
  8
0
100
AcDbLine
 10
35.03290685705264
 20
66.76383674037407
 30
0.0
 11
35.03290685705264
 21
66.73910137305057
 31
0.0
  0
LINE
  5
DCF
330
A35
100
AcDbEntity
  8
0
100
AcDbLine
 10
36.20357907775727
 20
69.80304293856636
 30
0.0
 11
36.652059672180286
 21
69.52892640888282
 31
0.0
  0
LINE
  5
DD0
330
A35
100
AcDbEntity
  8
0
100
AcDbLine
 10
35.03290685705264
 20
66.73910137305057
 30
0.0
 11
35.08278308952464
 21
66.73910137305057
 31
0.0
  0
LINE
  5
DD1
330
A35
100
AcDbEntity
  8
0
100
AcDbLine
 10
34.983030624580636
 20
66.81371297284608
 30
0.0
 11
35.10751845684817
 21
66.73910137305057
 31
0.0
  0
LINE
  5
DD2
330
A35
100
AcDbEntity
  8
0
100
AcDbLine
 10
32.14292385845138
 20
71.67157691605402
 30
0.0
 11
32.14292385845138
 21
71.64684154873049
 31
0.0
  0
LINE
  5
DD3
330
A35
100
AcDbEntity
  8
0
100
AcDbLine
 10
35.08278308952464
 20
66.73910137305057
 30
0.0
 11
35.10751845684817
 21
66.71396050790207
 31
0.0
  0
LINE
  5
DD4
330
A35
100
AcDbEntity
  8
0
100
AcDbLine
 10
24.494423883761215
 20
62.57869368880071
 30
0.0
 11
24.0958195218102
 21
62.82766935333572
 31
0.0
  0
LINE
  5
DD5
330
A35
100
AcDbEntity
  8
0
100
AcDbLine
 10
24.220307354077704
 20
63.07664501787079
 30
0.0
 11
24.618911716028748
 21
62.80252848818725
 31
0.0
  0
LINE
  5
DD6
330
A35
100
AcDbEntity
  8
0
100
AcDbLine
 10
41.23621258352969
 20
64.97031986050692
 30
0.0
 11
41.78444564289671
 21
64.5713100007309
 31
0.0
  0
LINE
  5
DD7
330
A35
100
AcDbEntity
  8
0
100
AcDbLine
 10
35.10751845684817
 20
66.71396050790207
 30
0.0
 11
35.13225382417167
 21
66.6888196427536
 31
0.0
  0
LINE
  5
DD8
330
A35
100
AcDbEntity
  8
0
100
AcDbLine
 10
40.53875632457161
 20
64.64592160052644
 30
0.0
 11
41.08698938393863
 21
64.2971934710474
 31
0.0
  0
LINE
  5
DD9
330
A35
100
AcDbEntity
  8
0
100
AcDbLine
 10
35.13225382417167
 20
66.6888196427536
 30
0.0
 11
35.15739468932014
 21
66.6888196427536
 31
0.0
  0
LINE
  5
DDA
330
A35
100
AcDbEntity
  8
0
100
AcDbLine
 10
35.15739468932014
 20
66.6888196427536
 30
0.0
 11
35.18213005664364
 21
66.6640842754301
 31
0.0
  0
LINE
  5
DDB
330
A35
100
AcDbEntity
  8
0
100
AcDbLine
 10
35.10751845684817
 20
66.73910137305057
 30
0.0
 11
35.45624658632718
 21
66.46498484336706
 31
0.0
  0
LINE
  5
DDC
330
A35
100
AcDbEntity
  8
0
100
AcDbLine
 10
22.102392214230036
 20
69.87806003618687
 30
0.0
 11
22.003045247111032
 21
69.95267163598234
 31
0.0
  0
LINE
  5
DDD
330
A35
100
AcDbEntity
  8
0
100
AcDbLine
 10
31.669302398879864
 20
71.44774211666746
 30
0.0
 11
31.56995543176083
 21
71.49721285131449
 31
0.0
  0
LINE
  5
DDE
330
A35
100
AcDbEntity
  8
0
100
AcDbLine
 10
31.669302398879864
 20
71.54749458161146
 30
0.0
 11
31.719178631351866
 21
71.49721285131449
 31
0.0
  0
LINE
  5
DDF
330
A35
100
AcDbEntity
  8
0
100
AcDbLine
 10
32.14292385845138
 20
71.67157691605402
 30
0.0
 11
32.242270825570415
 21
71.62210618140699
 31
0.0
  0
LINE
  5
DE0
330
A35
100
AcDbEntity
  8
0
100
AcDbLine
 10
35.18213005664364
 20
66.6640842754301
 30
0.0
 11
35.232006289115645
 21
66.6142080429581
 31
0.0
  0
LINE
  5
DE1
330
A35
100
AcDbEntity
  8
0
100
AcDbLine
 10
35.232006289115645
 20
66.6142080429581
 30
0.0
 11
35.257147154264146
 21
66.6142080429581
 31
0.0
  0
LINE
  5
DE2
330
A35
100
AcDbEntity
  8
0
100
AcDbLine
 10
35.257147154264146
 20
66.6142080429581
 30
0.0
 11
35.257147154264146
 21
66.58947267563457
 31
0.0
  0
LINE
  5
DE3
330
A35
100
AcDbEntity
  8
0
100
AcDbLine
 10
35.257147154264146
 20
66.58947267563457
 30
0.0
 11
35.28188252158765
 21
66.58947267563457
 31
0.0
  0
LINE
  5
DE4
330
A35
100
AcDbEntity
  8
0
100
AcDbLine
 10
12.685110726996243
 20
76.75408665429845
 30
0.0
 11
12.535482029580265
 21
76.87897998439095
 31
0.0
  0
LINE
  5
DE5
330
A35
100
AcDbEntity
  8
0
100
AcDbLine
 10
13.4324432184263
 20
77.17783188139796
 30
0.0
 11
13.283220018835266
 21
77.277178848517
 31
0.0
  0
LINE
  5
DE6
330
A35
100
AcDbEntity
  8
0
100
AcDbLine
 10
35.28188252158765
 20
66.58947267563457
 30
0.0
 11
35.30702338673615
 21
66.56473730831107
 31
0.0
  0
LINE
  5
DE7
330
A35
100
AcDbEntity
  8
0
100
AcDbLine
 10
41.78444564289671
 20
64.5713100007309
 30
0.0
 11
42.30753783711529
 21
64.17311113660486
 31
0.0
  0
LINE
  5
DE8
330
A35
100
AcDbEntity
  8
0
100
AcDbLine
 10
35.30702338673615
 20
66.56473730831107
 30
0.0
 11
35.33175875405968
 21
66.53959644316257
 31
0.0
  0
LINE
  5
DE9
330
A35
100
AcDbEntity
  8
0
100
AcDbLine
 10
35.33175875405968
 20
66.53959644316257
 30
0.0
 11
35.38163498653168
 21
66.51445557801406
 31
0.0
  0
LINE
  5
DEA
330
A35
100
AcDbEntity
  8
0
100
AcDbLine
 10
41.08698938393863
 20
64.2971934710474
 30
0.0
 11
41.560205345685176
 21
63.87385374177285
 31
0.0
  0
LINE
  5
DEB
330
A35
100
AcDbEntity
  8
0
100
AcDbLine
 10
35.38163498653168
 20
66.51445557801406
 30
0.0
 11
35.40637035385518
 21
66.51445557801406
 31
0.0
  0
LINE
  5
DEC
330
A35
100
AcDbEntity
  8
0
100
AcDbLine
 10
23.87157922459869
 20
63.3256206824058
 30
0.0
 11
24.220307354077704
 21
63.07664501787079
 31
0.0
  0
LINE
  5
DED
330
A35
100
AcDbEntity
  8
0
100
AcDbLine
 10
35.40637035385518
 20
66.51445557801406
 30
0.0
 11
35.43151121900368
 21
66.46498484336706
 31
0.0
  0
LINE
  5
DEE
330
A35
100
AcDbEntity
  8
0
100
AcDbLine
 10
35.43151121900368
 20
66.46498484336706
 30
0.0
 11
35.45624658632718
 21
66.43984397821856
 31
0.0
  0
LINE
  5
DEF
330
A35
100
AcDbEntity
  8
0
100
AcDbLine
 10
22.600749041125084
 20
71.77132938099803
 30
0.0
 11
22.576013673801583
 21
71.79647024614653
 31
0.0
  0
LINE
  5
DF0
330
A35
100
AcDbEntity
  8
0
100
AcDbLine
 10
35.45624658632718
 20
66.43984397821856
 30
0.0
 11
35.481387451475655
 21
66.41470311307006
 31
0.0
  0
LINE
  5
DF1
330
A35
100
AcDbEntity
  8
0
100
AcDbLine
 10
35.481387451475655
 20
66.41470311307006
 30
0.0
 11
35.531263683947685
 21
66.38996774574656
 31
0.0
  0
LINE
  5
DF2
330
A35
100
AcDbEntity
  8
0
100
AcDbLine
 10
35.531263683947685
 20
66.38996774574656
 30
0.0
 11
35.555999051271215
 21
66.36523237842303
 31
0.0
  0
LINE
  5
DF3
330
A35
100
AcDbEntity
  8
0
100
AcDbLine
 10
10.592336452297047
 20
77.35219594613747
 30
0.0
 11
14.603520936955903
 21
73.71447495828119
 31
0.0
  0
LINE
  5
DF4
330
A35
100
AcDbEntity
  8
0
100
AcDbLine
 10
13.108855954095759
 20
78.64776149693458
 30
0.0
 11
17.144775806078115
 21
74.96016427660626
 31
0.0
  0
LINE
  5
DF5
330
A35
100
AcDbEntity
  8
0
100
AcDbLine
 10
17.169511173401645
 20
75.0599167415503
 30
0.0
 11
13.133591321419289
 21
78.69723223158161
 31
0.0
  0
LINE
  5
DF6
330
A35
100
AcDbEntity
  8
0
100
AcDbLine
 10
35.555999051271215
 20
66.36523237842303
 30
0.0
 11
35.58073441859469
 21
66.31535614595103
 31
0.0
  0
LINE
  5
DF7
330
A35
100
AcDbEntity
  8
0
100
AcDbLine
 10
32.14292385845138
 20
71.64684154873049
 30
0.0
 11
32.16765922577491
 21
71.64684154873049
 31
0.0
  0
LINE
  5
DF8
330
A35
100
AcDbEntity
  8
0
100
AcDbLine
 10
35.45624658632718
 20
66.46498484336706
 30
0.0
 11
35.780239348482695
 21
66.16572744853505
 31
0.0
  0
LINE
  5
DF9
330
A35
100
AcDbEntity
  8
0
100
AcDbLine
 10
22.22728554432254
 20
70.25152353298941
 30
0.0
 11
22.25202091164607
 21
70.17691193319388
 31
0.0
  0
LINE
  5
DFA
330
A35
100
AcDbEntity
  8
0
100
AcDbLine
 10
22.426384976385577
 20
70.12703570072185
 30
0.0
 11
22.426384976385577
 21
70.10230033339838
 31
0.0
  0
LINE
  5
DFB
330
A35
100
AcDbEntity
  8
0
100
AcDbLine
 10
35.58073441859469
 20
66.31535614595103
 30
0.0
 11
35.60587528374319
 21
66.29062077862753
 31
0.0
  0
LINE
  5
DFC
330
A35
100
AcDbEntity
  8
0
100
AcDbLine
 10
42.30753783711529
 20
64.17311113660486
 30
0.0
 11
42.75601843153828
 21
63.74896041168034
 31
0.0
  0
LINE
  5
DFD
330
A35
100
AcDbEntity
  8
0
100
AcDbLine
 10
35.60587528374319
 20
66.29062077862753
 30
0.0
 11
35.63061065106669
 21
66.29062077862753
 31
0.0
  0
LINE
  5
DFE
330
A35
100
AcDbEntity
  8
0
100
AcDbLine
 10
41.560205345685176
 20
63.87385374177285
 30
0.0
 11
42.00868594010822
 21
63.475654877646775
 31
0.0
  0
LINE
  5
DFF
330
A35
100
AcDbEntity
  8
0
100
AcDbLine
 10
35.63061065106669
 20
66.29062077862753
 30
0.0
 11
35.63061065106669
 21
66.26547991347906
 31
0.0
  0
LINE
  5
E00
330
A35
100
AcDbEntity
  8
0
100
AcDbLine
 10
35.63061065106669
 20
66.26547991347906
 30
0.0
 11
35.68048688353869
 21
66.24033904833055
 31
0.0
  0
LINE
  5
E01
330
A35
100
AcDbEntity
  8
0
100
AcDbLine
 10
22.15226844670204
 20
70.00254786845437
 30
0.0
 11
22.20214467917404
 21
70.00254786845437
 31
0.0
  0
LINE
  5
E02
330
A35
100
AcDbEntity
  8
0
100
AcDbLine
 10
46.01987042476708
 20
64.42208680113987
 30
0.0
 11
45.52151359787203
 21
64.89570826071142
 31
0.0
  0
LINE
  5
E03
330
A35
100
AcDbEntity
  8
0
100
AcDbLine
 10
45.621266062816034
 20
65.04493146030245
 30
0.0
 11
46.09448202456258
 21
64.5713100007309
 31
0.0
  0
LINE
  5
E04
330
A35
100
AcDbEntity
  8
0
100
AcDbLine
 10
45.621266062816034
 20
65.41880045492996
 30
0.0
 11
46.09448202456258
 21
64.94517899535842
 31
0.0
  0
LINE
  5
E05
330
A35
100
AcDbEntity
  8
0
100
AcDbLine
 10
35.68048688353869
 20
66.24033904833055
 30
0.0
 11
35.70562774868719
 21
66.21560368100705
 31
0.0
  0
LINE
  5
E06
330
A35
100
AcDbEntity
  8
0
100
AcDbLine
 10
35.70562774868719
 20
66.21560368100705
 30
0.0
 11
35.73036311601069
 21
66.16572744853505
 31
0.0
  0
LINE
  5
E07
330
A35
100
AcDbEntity
  8
0
100
AcDbLine
 10
35.73036311601069
 20
66.16572744853505
 30
0.0
 11
35.75509848333422
 21
66.14099208121152
 31
0.0
  0
LINE
  5
E08
330
A35
100
AcDbEntity
  8
0
100
AcDbLine
 10
42.75601843153828
 20
63.74896041168034
 30
0.0
 11
43.12988742616582
 21
63.3004798172573
 31
0.0
  0
LINE
  5
E09
330
A35
100
AcDbEntity
  8
0
100
AcDbLine
 10
35.75509848333422
 20
66.14099208121152
 30
0.0
 11
35.780239348482695
 21
66.11625671388802
 31
0.0
  0
LINE
  5
E0A
330
A35
100
AcDbEntity
  8
0
100
AcDbLine
 10
42.00868594010822
 20
63.475654877646775
 30
0.0
 11
42.357414069587264
 21
63.02717428322376
 31
0.0
  0
LINE
  5
E0B
330
A35
100
AcDbEntity
  8
0
100
AcDbLine
 10
34.33504510026958
 20
72.12005751047707
 30
0.0
 11
34.28516886779761
 21
72.19507460809757
 31
0.0
  0
LINE
  5
E0C
330
A35
100
AcDbEntity
  8
0
100
AcDbLine
 10
35.780239348482695
 20
66.11625671388802
 30
0.0
 11
35.830115580954725
 21
66.09111584873952
 31
0.0
  0
LINE
  5
E0D
330
A35
100
AcDbEntity
  8
0
100
AcDbLine
 10
46.39333392156962
 20
63.92332447641988
 30
0.0
 11
46.01987042476708
 21
64.42208680113987
 31
0.0
  0
LINE
  5
E0E
330
A35
100
AcDbEntity
  8
0
100
AcDbLine
 10
46.09448202456258
 20
64.5713100007309
 30
0.0
 11
46.517821753837126
 21
64.04821780651235
 31
0.0
  0
LINE
  5
E0F
330
A35
100
AcDbEntity
  8
0
100
AcDbLine
 10
46.09448202456258
 20
64.94517899535842
 30
0.0
 11
46.517821753837126
 21
64.4715575357869
 31
0.0
  0
LINE
  5
E10
330
A35
100
AcDbEntity
  8
0
100
AcDbLine
 10
35.780239348482695
 20
66.16572744853505
 30
0.0
 11
36.02921501301773
 21
65.86687555152804
 31
0.0
  0
LINE
  5
E11
330
A35
100
AcDbEntity
  8
0
100
AcDbLine
 10
35.830115580954725
 20
66.09111584873952
 30
0.0
 11
35.830115580954725
 21
66.06597498359105
 31
0.0
  0
LINE
  5
E12
330
A35
100
AcDbEntity
  8
0
100
AcDbLine
 10
35.830115580954725
 20
66.06597498359105
 30
0.0
 11
35.85485094827823
 21
66.06597498359105
 31
0.0
  0
LINE
  5
E13
330
A35
100
AcDbEntity
  8
0
100
AcDbLine
 10
35.85485094827823
 20
66.06597498359105
 30
0.0
 11
35.87999181342673
 21
66.01650424894402
 31
0.0
  0
LINE
  5
E14
330
A35
100
AcDbEntity
  8
0
100
AcDbLine
 10
35.87999181342673
 20
66.01650424894402
 30
0.0
 11
35.87999181342673
 21
65.99136338379552
 31
0.0
  0
LINE
  5
E15
330
A35
100
AcDbEntity
  8
0
100
AcDbLine
 10
35.87999181342673
 20
65.99136338379552
 30
0.0
 11
35.9047271807502
 21
65.96662801647201
 31
0.0
  0
LINE
  5
E16
330
A35
100
AcDbEntity
  8
0
100
AcDbLine
 10
35.9047271807502
 20
65.96662801647201
 30
0.0
 11
35.9047271807502
 21
65.94189264914849
 31
0.0
  0
LINE
  5
E17
330
A35
100
AcDbEntity
  8
0
100
AcDbLine
 10
43.12988742616582
 20
63.3004798172573
 30
0.0
 11
43.478615555644865
 21
62.85281021848422
 31
0.0
  0
LINE
  5
E18
330
A35
100
AcDbEntity
  8
0
100
AcDbLine
 10
35.9047271807502
 20
65.94189264914849
 30
0.0
 11
35.92986804589873
 21
65.94189264914849
 31
0.0
  0
LINE
  5
E19
330
A35
100
AcDbEntity
  8
0
100
AcDbLine
 10
35.92986804589873
 20
65.94189264914849
 30
0.0
 11
35.97933878054576
 21
65.91675178399998
 31
0.0
  0
LINE
  5
E1A
330
A35
100
AcDbEntity
  8
0
100
AcDbLine
 10
42.357414069587264
 20
63.02717428322376
 30
0.0
 11
42.656265966594276
 21
62.62816442344774
 31
0.0
  0
LINE
  5
E1B
330
A35
100
AcDbEntity
  8
0
100
AcDbLine
 10
46.767202916197135
 20
63.4253731473498
 30
0.0
 11
46.39333392156962
 21
63.92332447641988
 31
0.0
  0
LINE
  5
E1C
330
A35
100
AcDbEntity
  8
0
100
AcDbLine
 10
46.518227251662125
 20
64.04821780651235
 30
0.0
 11
46.86695538114114
 21
63.55026647744228
 31
0.0
  0
LINE
  5
E1D
330
A35
100
AcDbEntity
  8
0
100
AcDbLine
 10
46.518227251662125
 20
64.4715575357869
 30
0.0
 11
46.86695538114114
 21
63.97360620671682
 31
0.0
  0
LINE
  5
E1E
330
A35
100
AcDbEntity
  8
0
100
AcDbLine
 10
35.97933878054576
 20
65.91675178399998
 30
0.0
 11
35.97933878054576
 21
65.86687555152804
 31
0.0
  0
LINE
  5
E1F
330
A35
100
AcDbEntity
  8
0
100
AcDbLine
 10
35.97933878054576
 20
65.86687555152804
 30
0.0
 11
36.004479645694204
 21
65.84214018420451
 31
0.0
  0
LINE
  5
E20
330
A35
100
AcDbEntity
  8
0
100
AcDbLine
 10
43.478615555644865
 20
62.85281021848422
 30
0.0
 11
43.7275912201799
 21
62.379188758912704
 31
0.0
  0
LINE
  5
E21
330
A35
100
AcDbEntity
  8
0
100
AcDbLine
 10
47.041319445880674
 20
62.927421818279754
 30
0.0
 11
46.767202916197135
 21
63.4253731473498
 31
0.0
  0
LINE
  5
E22
330
A35
100
AcDbEntity
  8
0
100
AcDbLine
 10
46.86695538114114
 20
63.55026647744228
 30
0.0
 11
47.16580727814818
 21
63.02717428322376
 31
0.0
  0
LINE
  5
E23
330
A35
100
AcDbEntity
  8
0
100
AcDbLine
 10
46.86695538114114
 20
63.97360620671682
 30
0.0
 11
47.16580727814818
 21
63.4505140124983
 31
0.0
  0
LINE
  5
E24
330
A35
100
AcDbEntity
  8
0
100
AcDbLine
 10
29.252940859850128
 20
80.2673198098872
 30
0.0
 11
29.203064627378154
 21
80.2673198098872
 31
0.0
  0
LINE
  5
E25
330
A35
100
AcDbEntity
  8
0
100
AcDbLine
 10
34.957889759432135
 20
77.277178848517
 30
0.0
 11
35.03290685705264
 21
77.20256724872146
 31
0.0
  0
LINE
  5
E26
330
A35
100
AcDbEntity
  8
0
100
AcDbLine
 10
29.153188394906152
 20
80.19230271226675
 30
0.0
 11
29.203064627378154
 21
80.16756734494322
 31
0.0
  0
LINE
  5
E27
330
A35
100
AcDbEntity
  8
0
100
AcDbLine
 10
31.096333972189313
 20
80.14242647979475
 30
0.0
 11
31.19608643713329
 21
80.11728561464625
 31
0.0
  0
LINE
  5
E28
330
A35
100
AcDbEntity
  8
0
100
AcDbLine
 10
38.02264232059787
 20
76.70461591965142
 30
0.0
 11
35.15739468932014
 21
78.12466930271606
 31
0.0
  0
LINE
  5
E29
330
A35
100
AcDbEntity
  8
0
100
AcDbLine
 10
31.096333972189313
 20
80.2673198098872
 30
0.0
 11
31.370450501872824
 21
80.11728561464625
 31
0.0
  0
LINE
  5
E2A
330
A35
100
AcDbEntity
  8
0
100
AcDbLine
 10
37.84787275803339
 20
76.90371535171445
 30
0.0
 11
34.957889759432135
 21
78.37364496725107
 31
0.0
  0
LINE
  5
E2B
330
A35
100
AcDbEntity
  8
0
100
AcDbLine
 10
31.445062101668356
 20
80.11728561464625
 30
0.0
 11
31.420326734344826
 21
80.11728561464625
 31
0.0
  0
LINE
  5
E2C
330
A35
100
AcDbEntity
  8
0
100
AcDbLine
 10
31.54481456661236
 20
80.06781487999922
 30
0.0
 11
34.933154392108634
 21
78.39878583239957
 31
0.0
  0
LINE
  5
E2D
330
A35
100
AcDbEntity
  8
0
100
AcDbLine
 10
43.204499025961326
 20
66.76383674037407
 30
0.0
 11
43.87721991759588
 21
66.36523237842303
 31
0.0
  0
LINE
  5
E2E
330
A35
100
AcDbEntity
  8
0
100
AcDbLine
 10
43.204499025961326
 20
67.18758196747359
 30
0.0
 11
43.87721991759588
 21
66.76383674037407
 31
0.0
  0
LINE
  5
E2F
330
A35
100
AcDbEntity
  8
0
100
AcDbLine
 10
44.42545297696293
 20
65.79185845390754
 30
0.0
 11
43.80260831780038
 21
66.21560368100705
 31
0.0
  0
LINE
  5
E30
330
A35
100
AcDbEntity
  8
0
100
AcDbLine
 10
43.87721991759588
 20
66.36523237842303
 30
0.0
 11
44.52479994408196
 21
65.94189264914849
 31
0.0
  0
LINE
  5
E31
330
A35
100
AcDbEntity
  8
0
100
AcDbLine
 10
43.87721991759588
 20
66.76383674037407
 30
0.0
 11
44.52479994408196
 21
66.36523237842303
 31
0.0
  0
LINE
  5
E32
330
A35
100
AcDbEntity
  8
0
100
AcDbLine
 10
44.99842140365348
 20
65.34418885513443
 30
0.0
 11
44.42545297696293
 21
65.79185845390754
 31
0.0
  0
LINE
  5
E33
330
A35
100
AcDbEntity
  8
0
100
AcDbLine
 10
44.52479994408196
 20
65.94189264914849
 30
0.0
 11
45.122909235920986
 21
65.49341205472544
 31
0.0
  0
LINE
  5
E34
330
A35
100
AcDbEntity
  8
0
100
AcDbLine
 10
44.52479994408196
 20
66.36523237842303
 30
0.0
 11
45.122909235920986
 21
65.91675178399998
 31
0.0
  0
LINE
  5
E35
330
A35
100
AcDbEntity
  8
0
100
AcDbLine
 10
45.52151359787203
 20
64.89570826071142
 30
0.0
 11
44.99842140365348
 21
65.34418885513443
 31
0.0
  0
LINE
  5
E36
330
A35
100
AcDbEntity
  8
0
100
AcDbLine
 10
45.122909235920986
 20
65.49341205472544
 30
0.0
 11
45.621266062816034
 21
65.04493146030245
 31
0.0
  0
LINE
  5
E37
330
A35
100
AcDbEntity
  8
0
100
AcDbLine
 10
45.122909235920986
 20
65.91675178399998
 30
0.0
 11
45.621266062816034
 21
65.41880045492996
 31
0.0
  0
LINE
  5
E38
330
A35
100
AcDbEntity
  8
0
100
AcDbLine
 10
31.669302398879864
 20
72.24495084056952
 30
0.0
 11
31.096333972189313
 21
72.29442157521655
 31
0.0
  0
LINE
  5
E39
330
A35
100
AcDbEntity
  8
0
100
AcDbLine
 10
31.096333972189313
 20
72.29442157521655
 30
0.0
 11
30.548506410647263
 21
72.34470330551355
 31
0.0
  0
LINE
  5
E3A
330
A35
100
AcDbEntity
  8
0
100
AcDbLine
 10
30.548506410647263
 20
72.34470330551355
 30
0.0
 11
30.025008718603743
 21
72.34470330551355
 31
0.0
  0
LINE
  5
E3B
330
A35
100
AcDbEntity
  8
0
100
AcDbLine
 10
30.025008718603743
 20
72.34470330551355
 30
0.0
 11
29.452040291913164
 21
72.34470330551355
 31
0.0
  0
LINE
  5
E3C
330
A35
100
AcDbEntity
  8
0
100
AcDbLine
 10
29.452040291913164
 20
72.34470330551355
 30
0.0
 11
28.903807232546114
 21
72.34470330551355
 31
0.0
  0
LINE
  5
E3D
330
A35
100
AcDbEntity
  8
0
100
AcDbLine
 10
28.903807232546114
 20
72.34470330551355
 30
0.0
 11
28.380715038327594
 21
72.29442157521655
 31
0.0
  0
LINE
  5
E3E
330
A35
100
AcDbEntity
  8
0
100
AcDbLine
 10
31.669302398879864
 20
72.41931490530905
 30
0.0
 11
31.096333972189313
 21
72.44405027263258
 31
0.0
  0
LINE
  5
E3F
330
A35
100
AcDbEntity
  8
0
100
AcDbLine
 10
31.096333972189313
 20
72.44405027263258
 30
0.0
 11
30.548506410647263
 21
72.49392650510458
 31
0.0
  0
LINE
  5
E40
330
A35
100
AcDbEntity
  8
0
100
AcDbLine
 10
30.548506410647263
 20
72.49392650510458
 30
0.0
 11
30.025008718603743
 21
72.51906737025308
 31
0.0
  0
LINE
  5
E41
330
A35
100
AcDbEntity
  8
0
100
AcDbLine
 10
30.025008718603743
 20
72.51906737025308
 30
0.0
 11
29.452040291913164
 21
72.51906737025308
 31
0.0
  0
LINE
  5
E42
330
A35
100
AcDbEntity
  8
0
100
AcDbLine
 10
29.452040291913164
 20
72.51906737025308
 30
0.0
 11
28.903807232546114
 21
72.49392650510458
 31
0.0
  0
LINE
  5
E43
330
A35
100
AcDbEntity
  8
0
100
AcDbLine
 10
28.903807232546114
 20
72.49392650510458
 30
0.0
 11
28.380715038327594
 21
72.44405027263258
 31
0.0
  0
LINE
  5
E44
330
A35
100
AcDbEntity
  8
0
100
AcDbLine
 10
20.358751566834883
 20
69.30509160949629
 30
0.0
 11
20.134511269623346
 21
70.12703570072185
 31
0.0
  0
LINE
  5
E45
330
A35
100
AcDbEntity
  8
0
100
AcDbLine
 10
20.134511269623346
 20
70.12703570072185
 30
0.0
 11
19.860394739939835
 21
70.89950905730043
 31
0.0
  0
LINE
  5
E46
330
A35
100
AcDbEntity
  8
0
100
AcDbLine
 10
19.860394739939835
 20
70.89950905730043
 30
0.0
 11
19.51166661046082
 21
71.64684154873049
 31
0.0
  0
LINE
  5
E47
330
A35
100
AcDbEntity
  8
0
100
AcDbLine
 10
19.51166661046082
 20
71.64684154873049
 30
0.0
 11
19.087921383361305
 21
72.39417404016058
 31
0.0
  0
LINE
  5
E48
330
A35
100
AcDbEntity
  8
0
100
AcDbLine
 10
19.087921383361305
 20
72.39417404016058
 30
0.0
 11
18.564829189142728
 21
73.0421595644716
 31
0.0
  0
LINE
  5
E49
330
A35
100
AcDbEntity
  8
0
100
AcDbLine
 10
18.564829189142728
 20
73.0421595644716
 30
0.0
 11
18.04173699492418
 21
73.68973959095769
 31
0.0
  0
LINE
  5
E4A
330
A35
100
AcDbEntity
  8
0
100
AcDbLine
 10
20.28373446921441
 20
69.30509160949629
 30
0.0
 11
20.05949417200287
 21
70.12703570072185
 31
0.0
  0
LINE
  5
E4B
330
A35
100
AcDbEntity
  8
0
100
AcDbLine
 10
20.05949417200287
 20
70.12703570072185
 30
0.0
 11
19.810518507467833
 21
70.89950905730043
 31
0.0
  0
LINE
  5
E4C
330
A35
100
AcDbEntity
  8
0
100
AcDbLine
 10
19.810518507467833
 20
70.89950905730043
 30
0.0
 11
19.43664951284032
 21
71.62210618140699
 31
0.0
  0
LINE
  5
E4D
330
A35
100
AcDbEntity
  8
0
100
AcDbLine
 10
19.43664951284032
 20
71.62210618140699
 30
0.0
 11
19.013309783565774
 21
72.34470330551355
 31
0.0
  0
LINE
  5
E4E
330
A35
100
AcDbEntity
  8
0
100
AcDbLine
 10
19.013309783565774
 20
72.34470330551355
 30
0.0
 11
18.539688323994227
 21
72.9922833319996
 31
0.0
  0
LINE
  5
E4F
330
A35
100
AcDbEntity
  8
0
100
AcDbLine
 10
18.539688323994227
 20
72.9922833319996
 30
0.0
 11
18.016596129775706
 21
73.61512799116215
 31
0.0
  0
LINE
  5
E50
330
A35
100
AcDbEntity
  8
0
100
AcDbLine
 10
17.742479600092167
 20
68.05940229117118
 30
0.0
 11
17.51823930288066
 21
68.83147014992477
 31
0.0
  0
LINE
  5
E51
330
A35
100
AcDbEntity
  8
0
100
AcDbLine
 10
17.51823930288066
 20
68.83147014992477
 30
0.0
 11
17.26926363834562
 21
69.60394350650333
 31
0.0
  0
LINE
  5
E52
330
A35
100
AcDbEntity
  8
0
100
AcDbLine
 10
17.26926363834562
 20
69.60394350650333
 30
0.0
 11
16.895394643718106
 21
70.35127599793339
 31
0.0
  0
LINE
  5
E53
330
A35
100
AcDbEntity
  8
0
100
AcDbLine
 10
16.895394643718106
 20
70.35127599793339
 30
0.0
 11
16.472054914443532
 21
71.07387312203994
 31
0.0
  0
LINE
  5
E54
330
A35
100
AcDbEntity
  8
0
100
AcDbLine
 10
16.472054914443532
 20
71.07387312203994
 30
0.0
 11
15.998838952697014
 21
71.74659401367452
 31
0.0
  0
LINE
  5
E55
330
A35
100
AcDbEntity
  8
0
100
AcDbLine
 10
15.998838952697014
 20
71.74659401367452
 30
0.0
 11
15.475341260653494
 21
72.36943867283705
 31
0.0
  0
LINE
  5
E56
330
A35
100
AcDbEntity
  8
0
100
AcDbLine
 10
17.219387405873647
 20
74.81094107701526
 30
0.0
 11
17.319139870817622
 21
74.63657701227575
 31
0.0
  0
LINE
  5
E57
330
A35
100
AcDbEntity
  8
0
100
AcDbLine
 10
17.319139870817622
 20
74.63657701227575
 30
0.0
 11
17.369016103289624
 21
74.46221294753624
 31
0.0
  0
LINE
  5
E58
330
A35
100
AcDbEntity
  8
0
100
AcDbLine
 10
17.369016103289624
 20
74.46221294753624
 30
0.0
 11
17.493503935557158
 21
74.28784888279671
 31
0.0
  0
LINE
  5
E59
330
A35
100
AcDbEntity
  8
0
100
AcDbLine
 10
17.493503935557158
 20
74.28784888279671
 30
0.0
 11
17.59325640050116
 21
74.08834395290873
 31
0.0
  0
LINE
  5
E5A
330
A35
100
AcDbEntity
  8
0
100
AcDbLine
 10
17.59325640050116
 20
74.08834395290873
 30
0.0
 11
17.717744232768666
 21
73.93912075331767
 31
0.0
  0
LINE
  5
E5B
330
A35
100
AcDbEntity
  8
0
100
AcDbLine
 10
17.717744232768666
 20
73.93912075331767
 30
0.0
 11
17.867372930184672
 21
73.78949205590166
 31
0.0
  0
LINE
  5
E5C
330
A35
100
AcDbEntity
  8
0
100
AcDbLine
 10
14.703273401899907
 20
73.56525175869015
 30
0.0
 11
14.753149634371908
 21
73.34101146147864
 31
0.0
  0
LINE
  5
E5D
330
A35
100
AcDbEntity
  8
0
100
AcDbLine
 10
14.753149634371908
 20
73.34101146147864
 30
0.0
 11
14.82776123416744
 21
73.16664739673914
 31
0.0
  0
LINE
  5
E5E
330
A35
100
AcDbEntity
  8
0
100
AcDbLine
 10
14.82776123416744
 20
73.16664739673914
 30
0.0
 11
14.927513699111444
 21
72.9922833319996
 31
0.0
  0
LINE
  5
E5F
330
A35
100
AcDbEntity
  8
0
100
AcDbLine
 10
14.927513699111444
 20
72.9922833319996
 30
0.0
 11
15.052001531378949
 21
72.8426546345836
 31
0.0
  0
LINE
  5
E60
330
A35
100
AcDbEntity
  8
0
100
AcDbLine
 10
15.052001531378949
 20
72.8426546345836
 30
0.0
 11
15.176489363646454
 21
72.66829056984409
 31
0.0
  0
LINE
  5
E61
330
A35
100
AcDbEntity
  8
0
100
AcDbLine
 10
15.176489363646454
 20
72.66829056984409
 30
0.0
 11
15.32611806106246
 21
72.51906737025308
 31
0.0
  0
LINE
  5
E62
330
A35
100
AcDbEntity
  8
0
100
AcDbLine
 10
17.29399900566912
 20
74.83608194216376
 30
0.0
 11
17.343875238141123
 21
74.63657701227575
 31
0.0
  0
LINE
  5
E63
330
A35
100
AcDbEntity
  8
0
100
AcDbLine
 10
17.343875238141123
 20
74.63657701227575
 30
0.0
 11
17.443627703085156
 21
74.48694831485975
 31
0.0
  0
LINE
  5
E64
330
A35
100
AcDbEntity
  8
0
100
AcDbLine
 10
17.443627703085156
 20
74.48694831485975
 30
0.0
 11
17.51823930288066
 21
74.31258425012021
 31
0.0
  0
LINE
  5
E65
330
A35
100
AcDbEntity
  8
0
100
AcDbLine
 10
17.51823930288066
 20
74.31258425012021
 30
0.0
 11
17.643132632973163
 21
74.16295555270423
 31
0.0
  0
LINE
  5
E66
330
A35
100
AcDbEntity
  8
0
100
AcDbLine
 10
17.643132632973163
 20
74.16295555270423
 30
0.0
 11
17.767620465240668
 21
74.0137323531132
 31
0.0
  0
LINE
  5
E67
330
A35
100
AcDbEntity
  8
0
100
AcDbLine
 10
17.767620465240668
 20
74.0137323531132
 30
0.0
 11
17.892108297508173
 21
73.86410365569722
 31
0.0
  0
LINE
  5
E68
330
A35
100
AcDbEntity
  8
0
100
AcDbLine
 10
17.29399900566912
 20
74.83608194216376
 30
0.0
 11
17.29399900566912
 21
74.88555267681079
 31
0.0
  0
LINE
  5
E69
330
A35
100
AcDbEntity
  8
0
100
AcDbLine
 10
17.29399900566912
 20
74.88555267681079
 30
0.0
 11
17.26926363834562
 21
74.91069354195929
 31
0.0
  0
LINE
  5
E6A
330
A35
100
AcDbEntity
  8
0
100
AcDbLine
 10
17.26926363834562
 20
74.91069354195929
 30
0.0
 11
17.219387405873647
 21
74.93542890928279
 31
0.0
  0
LINE
  5
E6B
330
A35
100
AcDbEntity
  8
0
100
AcDbLine
 10
17.219387405873647
 20
74.93542890928279
 30
0.0
 11
17.219387405873647
 21
74.9853051417548
 31
0.0
  0
LINE
  5
E6C
330
A35
100
AcDbEntity
  8
0
100
AcDbLine
 10
17.219387405873647
 20
74.9853051417548
 30
0.0
 11
17.194652038550117
 21
75.0351813742268
 31
0.0
  0
LINE
  5
E6D
330
A35
100
AcDbEntity
  8
0
100
AcDbLine
 10
17.194652038550117
 20
75.0351813742268
 30
0.0
 11
17.169511173401645
 21
75.0599167415503
 31
0.0
  0
LINE
  5
E6E
330
A35
100
AcDbEntity
  8
0
100
AcDbLine
 10
21.853416549695027
 20
71.24823718677948
 30
0.0
 11
21.828275684546526
 21
71.29811341925148
 31
0.0
  0
LINE
  5
E6F
330
A35
100
AcDbEntity
  8
0
100
AcDbLine
 10
21.828275684546526
 20
71.29811341925148
 30
0.0
 11
21.803540317223025
 21
71.32284878657498
 31
0.0
  0
LINE
  5
E70
330
A35
100
AcDbEntity
  8
0
100
AcDbLine
 10
21.803540317223025
 20
71.32284878657498
 30
0.0
 11
21.803540317223025
 21
71.37272501904698
 31
0.0
  0
LINE
  5
E71
330
A35
100
AcDbEntity
  8
0
100
AcDbLine
 10
21.803540317223025
 20
71.37272501904698
 30
0.0
 11
21.778804949899495
 21
71.39746038637048
 31
0.0
  0
LINE
  5
E72
330
A35
100
AcDbEntity
  8
0
100
AcDbLine
 10
21.778804949899495
 20
71.39746038637048
 30
0.0
 11
21.753664084751023
 21
71.44774211666746
 31
0.0
  0
LINE
  5
E73
330
A35
100
AcDbEntity
  8
0
100
AcDbLine
 10
21.753664084751023
 20
71.44774211666746
 30
0.0
 11
21.703787852278992
 21
71.47247748399101
 31
0.0
  0
LINE
  5
E74
330
A35
100
AcDbEntity
  8
0
100
AcDbLine
 10
21.703787852278992
 20
71.47247748399101
 30
0.0
 11
21.67905248495549
 21
71.49721285131449
 31
0.0
  0
LINE
  5
E75
330
A35
100
AcDbEntity
  8
0
100
AcDbLine
 10
21.67905248495549
 20
71.49721285131449
 30
0.0
 11
21.629176252483518
 21
71.49721285131449
 31
0.0
  0
LINE
  5
E76
330
A35
100
AcDbEntity
  8
0
100
AcDbLine
 10
21.629176252483518
 20
71.49721285131449
 30
0.0
 11
21.604440885160017
 21
71.52235371646299
 31
0.0
  0
LINE
  5
E77
330
A35
100
AcDbEntity
  8
0
100
AcDbLine
 10
21.604440885160017
 20
71.52235371646299
 30
0.0
 11
21.554564652687986
 21
71.54749458161146
 31
0.0
  0
LINE
  5
E78
330
A35
100
AcDbEntity
  8
0
100
AcDbLine
 10
21.554564652687986
 20
71.54749458161146
 30
0.0
 11
21.504688420215984
 21
71.54749458161146
 31
0.0
  0
LINE
  5
E79
330
A35
100
AcDbEntity
  8
0
100
AcDbLine
 10
21.504688420215984
 20
71.54749458161146
 30
0.0
 11
21.479547555067512
 21
71.54749458161146
 31
0.0
  0
LINE
  5
E7A
330
A35
100
AcDbEntity
  8
0
100
AcDbLine
 10
21.479547555067512
 20
71.54749458161146
 30
0.0
 11
21.454812187743983
 21
71.54749458161146
 31
0.0
  0
LINE
  5
E7B
330
A35
100
AcDbEntity
  8
0
100
AcDbLine
 10
17.219387405873647
 20
74.81094107701526
 30
0.0
 11
17.219387405873647
 21
74.83608194216376
 31
0.0
  0
LINE
  5
E7C
330
A35
100
AcDbEntity
  8
0
100
AcDbLine
 10
17.219387405873647
 20
74.83608194216376
 30
0.0
 11
17.194652038550117
 21
74.88555267681079
 31
0.0
  0
LINE
  5
E7D
330
A35
100
AcDbEntity
  8
0
100
AcDbLine
 10
17.194652038550117
 20
74.88555267681079
 30
0.0
 11
17.194652038550117
 21
74.91069354195929
 31
0.0
  0
LINE
  5
E7E
330
A35
100
AcDbEntity
  8
0
100
AcDbLine
 10
17.194652038550117
 20
74.91069354195929
 30
0.0
 11
17.169511173401645
 21
74.93542890928279
 31
0.0
  0
LINE
  5
E7F
330
A35
100
AcDbEntity
  8
0
100
AcDbLine
 10
17.169511173401645
 20
74.93542890928279
 30
0.0
 11
17.169511173401645
 21
74.96016427660626
 31
0.0
  0
LINE
  5
E80
330
A35
100
AcDbEntity
  8
0
100
AcDbLine
 10
17.169511173401645
 20
74.96016427660626
 30
0.0
 11
17.144775806078115
 21
74.96016427660626
 31
0.0
  0
LINE
  5
E81
330
A35
100
AcDbEntity
  8
0
100
AcDbLine
 10
14.703273401899907
 20
73.56525175869015
 30
0.0
 11
14.703273401899907
 21
73.59039262383865
 31
0.0
  0
LINE
  5
E82
330
A35
100
AcDbEntity
  8
0
100
AcDbLine
 10
14.703273401899907
 20
73.59039262383865
 30
0.0
 11
14.653397169427905
 21
73.61512799116215
 31
0.0
  0
LINE
  5
E83
330
A35
100
AcDbEntity
  8
0
100
AcDbLine
 10
14.653397169427905
 20
73.61512799116215
 30
0.0
 11
14.628256304279404
 21
73.63986335848568
 31
0.0
  0
LINE
  5
E84
330
A35
100
AcDbEntity
  8
0
100
AcDbLine
 10
14.628256304279404
 20
73.63986335848568
 30
0.0
 11
14.603520936955903
 21
73.68973959095769
 31
0.0
  0
LINE
  5
E85
330
A35
100
AcDbEntity
  8
0
100
AcDbLine
 10
14.603520936955903
 20
73.68973959095769
 30
0.0
 11
14.603520936955903
 21
73.71447495828119
 31
0.0
  0
LINE
  5
E86
330
A35
100
AcDbEntity
  8
0
100
AcDbLine
 10
20.358751566834883
 20
69.27995074434781
 30
0.0
 11
20.358751566834883
 21
69.30509160949629
 31
0.0
  0
LINE
  5
E87
330
A35
100
AcDbEntity
  8
0
100
AcDbLine
 10
21.65391161980702
 20
72.34470330551355
 30
0.0
 11
21.629176252483518
 21
72.34470330551355
 31
0.0
  0
LINE
  5
E88
330
A35
100
AcDbEntity
  8
0
100
AcDbLine
 10
21.629176252483518
 20
72.34470330551355
 30
0.0
 11
21.629176252483518
 21
72.36943867283705
 31
0.0
  0
LINE
  5
E89
330
A35
100
AcDbEntity
  8
0
100
AcDbLine
 10
21.629176252483518
 20
72.36943867283705
 30
0.0
 11
21.604440885160017
 21
72.36943867283705
 31
0.0
  0
LINE
  5
E8A
330
A35
100
AcDbEntity
  8
0
100
AcDbLine
 10
21.604440885160017
 20
72.36943867283705
 30
0.0
 11
21.604440885160017
 21
72.34470330551355
 31
0.0
  0
LINE
  5
E8B
330
A35
100
AcDbEntity
  8
0
100
AcDbLine
 10
21.604440885160017
 20
72.34470330551355
 30
0.0
 11
21.554564652687986
 21
72.34470330551355
 31
0.0
  0
LINE
  5
E8C
330
A35
100
AcDbEntity
  8
0
100
AcDbLine
 10
21.554564652687986
 20
72.34470330551355
 30
0.0
 11
21.529423787539514
 21
72.34470330551355
 31
0.0
  0
LINE
  5
E8D
330
A35
100
AcDbEntity
  8
0
100
AcDbLine
 10
21.529423787539514
 20
72.34470330551355
 30
0.0
 11
21.529423787539514
 21
72.29442157521655
 31
0.0
  0
LINE
  5
E8E
330
A35
100
AcDbEntity
  8
0
100
AcDbLine
 10
21.529423787539514
 20
72.29442157521655
 30
0.0
 11
21.529423787539514
 21
72.26968620789305
 31
0.0
  0
LINE
  5
E8F
330
A35
100
AcDbEntity
  8
0
100
AcDbLine
 10
21.031066960644466
 20
70.27666439813791
 30
0.0
 11
21.031066960644466
 21
70.25152353298941
 31
0.0
  0
LINE
  5
E90
330
A35
100
AcDbEntity
  8
0
100
AcDbLine
 10
19.411914145516818
 20
75.35917413638234
 30
0.0
 11
19.386773280368317
 21
75.35917413638234
 31
0.0
  0
LINE
  5
E91
330
A35
100
AcDbEntity
  8
0
100
AcDbLine
 10
19.386773280368317
 20
75.35917413638234
 30
0.0
 11
19.386773280368317
 21
75.33403327123384
 31
0.0
  0
LINE
  5
E92
330
A35
100
AcDbEntity
  8
0
100
AcDbLine
 10
19.386773280368317
 20
75.33403327123384
 30
0.0
 11
19.386773280368317
 21
75.2845625365868
 31
0.0
  0
LINE
  5
E93
330
A35
100
AcDbEntity
  8
0
100
AcDbLine
 10
19.386773280368317
 20
75.2594216714383
 30
0.0
 11
19.386773280368317
 21
75.2342808062898
 31
0.0
  0
LINE
  5
E94
330
A35
100
AcDbEntity
  8
0
100
AcDbLine
 10
19.386773280368317
 20
75.2342808062898
 30
0.0
 11
19.362037913044787
 21
75.2342808062898
 31
0.0
  0
LINE
  5
E95
330
A35
100
AcDbEntity
  8
0
100
AcDbLine
 10
19.362037913044787
 20
75.2342808062898
 30
0.0
 11
19.362037913044787
 21
75.2095454389663
 31
0.0
  0
LINE
  5
E96
330
A35
100
AcDbEntity
  8
0
100
AcDbLine
 10
12.36111796484073
 20
78.34850410210257
 30
0.0
 11
12.959227256679782
 21
78.67249686425808
 31
0.0
  0
LINE
  5
E97
330
A35
100
AcDbEntity
  8
0
100
AcDbLine
 10
12.983962624003254
 20
78.57314989713905
 30
0.0
 11
12.386258829989231
 21
78.24875163715856
 31
0.0
  0
LINE
  5
E98
330
A35
100
AcDbEntity
  8
0
100
AcDbLine
 10
10.368096155085539
 20
77.22770811386997
 30
0.0
 11
10.39323702023404
 21
77.277178848517
 31
0.0
  0
LINE
  5
E99
330
A35
100
AcDbEntity
  8
0
100
AcDbLine
 10
10.39323702023404
 20
77.277178848517
 30
0.0
 11
10.417972387557569
 21
77.277178848517
 31
0.0
  0
LINE
  5
E9A
330
A35
100
AcDbEntity
  8
0
100
AcDbLine
 10
10.417972387557569
 20
77.277178848517
 30
0.0
 11
10.44270775488107
 21
77.277178848517
 31
0.0
  0
LINE
  5
E9B
330
A35
100
AcDbEntity
  8
0
100
AcDbLine
 10
10.44270775488107
 20
77.277178848517
 30
0.0
 11
10.46784862002957
 21
77.3023197136655
 31
0.0
  0
LINE
  5
E9C
330
A35
100
AcDbEntity
  8
0
100
AcDbLine
 10
10.46784862002957
 20
77.3023197136655
 30
0.0
 11
10.517724852501544
 21
77.3023197136655
 31
0.0
  0
LINE
  5
E9D
330
A35
100
AcDbEntity
  8
0
100
AcDbLine
 10
10.517724852501544
 20
77.3023197136655
 30
0.0
 11
10.542460219825074
 21
77.32746057881394
 31
0.0
  0
LINE
  5
E9E
330
A35
100
AcDbEntity
  8
0
100
AcDbLine
 10
13.133591321419289
 20
78.69723223158161
 30
0.0
 11
13.133591321419289
 21
78.72237309673011
 31
0.0
  0
LINE
  5
E9F
330
A35
100
AcDbEntity
  8
0
100
AcDbLine
 10
13.133591321419289
 20
78.72237309673011
 30
0.0
 11
13.108450456270788
 21
78.72237309673011
 31
0.0
  0
LINE
  5
EA0
330
A35
100
AcDbEntity
  8
0
100
AcDbLine
 10
13.108450456270788
 20
78.72237309673011
 30
0.0
 11
13.083715088947287
 21
78.72237309673011
 31
0.0
  0
LINE
  5
EA1
330
A35
100
AcDbEntity
  8
0
100
AcDbLine
 10
20.05949417200287
 20
55.75173230751116
 30
0.0
 11
20.632462598693422
 21
55.47761577782765
 31
0.0
  0
LINE
  5
EA2
330
A35
100
AcDbEntity
  8
0
100
AcDbLine
 10
20.632462598693422
 20
55.47761577782765
 30
0.0
 11
21.180695658060472
 21
55.22864011329261
 31
0.0
  0
LINE
  5
EA3
330
A35
100
AcDbEntity
  8
0
100
AcDbLine
 10
21.180695658060472
 20
55.22864011329261
 30
0.0
 11
21.753664084751023
 21
55.029135183404605
 31
0.0
  0
LINE
  5
EA4
330
A35
100
AcDbEntity
  8
0
100
AcDbLine
 10
21.753664084751023
 20
55.029135183404605
 30
0.0
 11
22.351773376590074
 21
54.80530038401807
 31
0.0
  0
LINE
  5
EA5
330
A35
100
AcDbEntity
  8
0
100
AcDbLine
 10
22.351773376590074
 20
54.80530038401807
 30
0.0
 11
22.899600938132153
 21
54.63093631927856
 31
0.0
  0
LINE
  5
EA6
330
A35
100
AcDbEntity
  8
0
100
AcDbLine
 10
22.899600938132153
 20
54.63093631927856
 30
0.0
 11
23.497710229971176
 21
54.48171311968753
 31
0.0
  0
LINE
  5
EA7
330
A35
100
AcDbEntity
  8
0
100
AcDbLine
 10
26.138717564037364
 20
71.74659401367452
 30
0.0
 11
25.96435349929783
 21
71.79647024614653
 31
0.0
  0
LINE
  5
EA8
330
A35
100
AcDbEntity
  8
0
100
AcDbLine
 10
25.96435349929783
 20
71.79647024614653
 30
0.0
 11
25.76484856940985
 21
71.8459409807935
 31
0.0
  0
LINE
  5
EA9
330
A35
100
AcDbEntity
  8
0
100
AcDbLine
 10
25.76484856940985
 20
71.8459409807935
 30
0.0
 11
25.56574913734684
 21
71.8962227110905
 31
0.0
  0
LINE
  5
EAA
330
A35
100
AcDbEntity
  8
0
100
AcDbLine
 10
25.56574913734684
 20
71.8962227110905
 30
0.0
 11
25.390979574782335
 21
71.920958078414
 31
0.0
  0
LINE
  5
EAB
330
A35
100
AcDbEntity
  8
0
100
AcDbLine
 10
25.390979574782335
 20
71.920958078414
 30
0.0
 11
25.191880142719327
 21
71.920958078414
 31
0.0
  0
LINE
  5
EAC
330
A35
100
AcDbEntity
  8
0
100
AcDbLine
 10
25.191880142719327
 20
71.920958078414
 30
0.0
 11
24.99237521283129
 21
71.8962227110905
 31
0.0
  0
LINE
  5
EAD
330
A35
100
AcDbEntity
  8
0
100
AcDbLine
 10
24.99237521283129
 20
71.8962227110905
 30
0.0
 11
24.793275780768283
 21
71.8459409807935
 31
0.0
  0
LINE
  5
EAE
330
A35
100
AcDbEntity
  8
0
100
AcDbLine
 10
24.793275780768283
 20
71.8459409807935
 30
0.0
 11
24.618911716028748
 21
71.79647024614653
 31
0.0
  0
LINE
  5
EAF
330
A35
100
AcDbEntity
  8
0
100
AcDbLine
 10
24.618911716028748
 20
71.79647024614653
 30
0.0
 11
24.444547651289213
 21
71.74659401367452
 31
0.0
  0
LINE
  5
EB0
330
A35
100
AcDbEntity
  8
0
100
AcDbLine
 10
26.138717564037364
 20
71.82120561347
 30
0.0
 11
25.96435349929783
 21
71.8962227110905
 31
0.0
  0
LINE
  5
EB1
330
A35
100
AcDbEntity
  8
0
100
AcDbLine
 10
25.96435349929783
 20
71.8962227110905
 30
0.0
 11
25.76484856940985
 21
71.94569344573753
 31
0.0
  0
LINE
  5
EB2
330
A35
100
AcDbEntity
  8
0
100
AcDbLine
 10
25.76484856940985
 20
71.94569344573753
 30
0.0
 11
25.56574913734684
 21
71.97083431088603
 31
0.0
  0
LINE
  5
EB3
330
A35
100
AcDbEntity
  8
0
100
AcDbLine
 10
25.56574913734684
 20
71.97083431088603
 30
0.0
 11
25.390979574782335
 21
71.99556967820956
 31
0.0
  0
LINE
  5
EB4
330
A35
100
AcDbEntity
  8
0
100
AcDbLine
 10
25.390979574782335
 20
71.99556967820956
 30
0.0
 11
25.191880142719327
 21
71.99556967820956
 31
0.0
  0
LINE
  5
EB5
330
A35
100
AcDbEntity
  8
0
100
AcDbLine
 10
25.191880142719327
 20
71.99556967820956
 30
0.0
 11
24.99237521283129
 21
71.97083431088603
 31
0.0
  0
LINE
  5
EB6
330
A35
100
AcDbEntity
  8
0
100
AcDbLine
 10
24.99237521283129
 20
71.97083431088603
 30
0.0
 11
24.793275780768283
 21
71.94569344573753
 31
0.0
  0
LINE
  5
EB7
330
A35
100
AcDbEntity
  8
0
100
AcDbLine
 10
24.793275780768283
 20
71.94569344573753
 30
0.0
 11
24.618911716028748
 21
71.8962227110905
 31
0.0
  0
LINE
  5
EB8
330
A35
100
AcDbEntity
  8
0
100
AcDbLine
 10
24.618911716028748
 20
71.8962227110905
 30
0.0
 11
24.444547651289213
 21
71.82120561347
 31
0.0
  0
LINE
  5
EB9
330
A35
100
AcDbEntity
  8
0
100
AcDbLine
 10
23.198858332964107
 20
71.22309632163098
 30
0.0
 11
23.173717467815663
 21
71.22309632163098
 31
0.0
  0
LINE
  5
EBA
330
A35
100
AcDbEntity
  8
0
100
AcDbLine
 10
23.173717467815663
 20
71.22309632163098
 30
0.0
 11
23.148982100492134
 21
71.19836095430747
 31
0.0
  0
LINE
  5
EBB
330
A35
100
AcDbEntity
  8
0
100
AcDbLine
 10
23.148982100492134
 20
71.19836095430747
 30
0.0
 11
23.099105868020132
 21
71.19836095430747
 31
0.0
  0
LINE
  5
EBC
330
A35
100
AcDbEntity
  8
0
100
AcDbLine
 10
23.099105868020132
 20
71.19836095430747
 30
0.0
 11
23.04922963554813
 21
71.19836095430747
 31
0.0
  0
LINE
  5
EBD
330
A35
100
AcDbEntity
  8
0
100
AcDbLine
 10
23.04922963554813
 20
71.19836095430747
 30
0.0
 11
23.0244942682246
 21
71.19836095430747
 31
0.0
  0
LINE
  5
EBE
330
A35
100
AcDbEntity
  8
0
100
AcDbLine
 10
23.0244942682246
 20
71.19836095430747
 30
0.0
 11
22.999353403076128
 21
71.19836095430747
 31
0.0
  0
LINE
  5
EBF
330
A35
100
AcDbEntity
  8
0
100
AcDbLine
 10
24.344795186345237
 20
70.6505333927654
 30
0.0
 11
24.444547651289213
 21
70.62539252761692
 31
0.0
  0
LINE
  5
EC0
330
A35
100
AcDbEntity
  8
0
100
AcDbLine
 10
24.444547651289213
 20
70.62539252761692
 30
0.0
 11
24.494423883761215
 21
70.62539252761692
 31
0.0
  0
LINE
  5
EC1
330
A35
100
AcDbEntity
  8
0
100
AcDbLine
 10
24.494423883761215
 20
70.62539252761692
 30
0.0
 11
24.593770850880247
 21
70.60025166246842
 31
0.0
  0
LINE
  5
EC2
330
A35
100
AcDbEntity
  8
0
100
AcDbLine
 10
24.593770850880247
 20
70.60025166246842
 30
0.0
 11
24.643647083352278
 21
70.60025166246842
 31
0.0
  0
LINE
  5
EC3
330
A35
100
AcDbEntity
  8
0
100
AcDbLine
 10
24.643647083352278
 20
70.60025166246842
 30
0.0
 11
24.74339954829628
 21
70.60025166246842
 31
0.0
  0
LINE
  5
EC4
330
A35
100
AcDbEntity
  8
0
100
AcDbLine
 10
24.74339954829628
 20
70.60025166246842
 30
0.0
 11
24.818011148091784
 21
70.60025166246842
 31
0.0
  0
LINE
  5
EC5
330
A35
100
AcDbEntity
  8
0
100
AcDbLine
 10
24.818011148091784
 20
70.60025166246842
 30
0.0
 11
24.89302824571226
 21
70.62539252761692
 31
0.0
  0
LINE
  5
EC6
330
A35
100
AcDbEntity
  8
0
100
AcDbLine
 10
24.89302824571226
 20
70.62539252761692
 30
0.0
 11
24.96763984550779
 21
70.62539252761692
 31
0.0
  0
LINE
  5
EC7
330
A35
100
AcDbEntity
  8
0
100
AcDbLine
 10
24.96763984550779
 20
70.62539252761692
 30
0.0
 11
25.042251445303293
 21
70.6505333927654
 31
0.0
  0
LINE
  5
EC8
330
A35
100
AcDbEntity
  8
0
100
AcDbLine
 10
24.344795186345237
 20
70.84963282482843
 30
0.0
 11
24.444547651289213
 21
70.79975659235643
 31
0.0
  0
LINE
  5
EC9
330
A35
100
AcDbEntity
  8
0
100
AcDbLine
 10
24.444547651289213
 20
70.79975659235643
 30
0.0
 11
24.494423883761215
 21
70.77461572720793
 31
0.0
  0
LINE
  5
ECA
330
A35
100
AcDbEntity
  8
0
100
AcDbLine
 10
24.494423883761215
 20
70.77461572720793
 30
0.0
 11
24.593770850880247
 21
70.77461572720793
 31
0.0
  0
LINE
  5
ECB
330
A35
100
AcDbEntity
  8
0
100
AcDbLine
 10
24.593770850880247
 20
70.77461572720793
 30
0.0
 11
24.643647083352278
 21
70.74988035988443
 31
0.0
  0
LINE
  5
ECC
330
A35
100
AcDbEntity
  8
0
100
AcDbLine
 10
24.643647083352278
 20
70.74988035988443
 30
0.0
 11
24.74339954829628
 21
70.74988035988443
 31
0.0
  0
LINE
  5
ECD
330
A35
100
AcDbEntity
  8
0
100
AcDbLine
 10
24.74339954829628
 20
70.74988035988443
 30
0.0
 11
24.818011148091784
 21
70.77461572720793
 31
0.0
  0
LINE
  5
ECE
330
A35
100
AcDbEntity
  8
0
100
AcDbLine
 10
24.818011148091784
 20
70.77461572720793
 30
0.0
 11
24.89302824571226
 21
70.77461572720793
 31
0.0
  0
LINE
  5
ECF
330
A35
100
AcDbEntity
  8
0
100
AcDbLine
 10
24.89302824571226
 20
70.77461572720793
 30
0.0
 11
24.96763984550779
 21
70.79975659235643
 31
0.0
  0
LINE
  5
ED0
330
A35
100
AcDbEntity
  8
0
100
AcDbLine
 10
24.96763984550779
 20
70.79975659235643
 30
0.0
 11
25.042251445303293
 21
70.84963282482843
 31
0.0
  0
LINE
  5
ED1
330
A35
100
AcDbEntity
  8
0
100
AcDbLine
 10
23.84643835945019
 20
70.92464992244894
 30
0.0
 11
23.771826759654687
 21
70.94938528977244
 31
0.0
  0
LINE
  5
ED2
330
A35
100
AcDbEntity
  8
0
100
AcDbLine
 10
23.771826759654687
 20
70.94938528977244
 30
0.0
 11
23.697215159859155
 21
70.94938528977244
 31
0.0
  0
LINE
  5
ED3
330
A35
100
AcDbEntity
  8
0
100
AcDbLine
 10
23.697215159859155
 20
70.94938528977244
 30
0.0
 11
23.622198062238652
 21
70.99926152224441
 31
0.0
  0
LINE
  5
ED4
330
A35
100
AcDbEntity
  8
0
100
AcDbLine
 10
23.622198062238652
 20
70.99926152224441
 30
0.0
 11
23.547586462443178
 21
70.99926152224441
 31
0.0
  0
LINE
  5
ED5
330
A35
100
AcDbEntity
  8
0
100
AcDbLine
 10
23.547586462443178
 20
70.99926152224441
 30
0.0
 11
23.472974862647646
 21
70.99926152224441
 31
0.0
  0
LINE
  5
ED6
330
A35
100
AcDbEntity
  8
0
100
AcDbLine
 10
23.472974862647646
 20
70.99926152224441
 30
0.0
 11
23.397957765027144
 21
70.99926152224441
 31
0.0
  0
LINE
  5
ED7
330
A35
100
AcDbEntity
  8
0
100
AcDbLine
 10
23.397957765027144
 20
70.99926152224441
 30
0.0
 11
23.32334616523164
 21
70.94938528977244
 31
0.0
  0
LINE
  5
ED8
330
A35
100
AcDbEntity
  8
0
100
AcDbLine
 10
23.32334616523164
 20
70.94938528977244
 30
0.0
 11
23.24873456543611
 21
70.94938528977244
 31
0.0
  0
LINE
  5
ED9
330
A35
100
AcDbEntity
  8
0
100
AcDbLine
 10
23.24873456543611
 20
70.94938528977244
 30
0.0
 11
23.173717467815663
 21
70.92464992244894
 31
0.0
  0
LINE
  5
EDA
330
A35
100
AcDbEntity
  8
0
100
AcDbLine
 10
23.84643835945019
 20
71.07387312203994
 30
0.0
 11
23.771826759654687
 21
71.09901398718844
 31
0.0
  0
LINE
  5
EDB
330
A35
100
AcDbEntity
  8
0
100
AcDbLine
 10
23.771826759654687
 20
71.09901398718844
 30
0.0
 11
23.697215159859155
 21
71.1484847218355
 31
0.0
  0
LINE
  5
EDC
330
A35
100
AcDbEntity
  8
0
100
AcDbLine
 10
23.697215159859155
 20
71.1484847218355
 30
0.0
 11
23.622198062238652
 21
71.1484847218355
 31
0.0
  0
LINE
  5
EDD
330
A35
100
AcDbEntity
  8
0
100
AcDbLine
 10
23.622198062238652
 20
71.1484847218355
 30
0.0
 11
23.547586462443178
 21
71.17362558698395
 31
0.0
  0
LINE
  5
EDE
330
A35
100
AcDbEntity
  8
0
100
AcDbLine
 10
23.547586462443178
 20
71.17362558698395
 30
0.0
 11
23.472974862647646
 21
71.17362558698395
 31
0.0
  0
LINE
  5
EDF
330
A35
100
AcDbEntity
  8
0
100
AcDbLine
 10
23.472974862647646
 20
71.17362558698395
 30
0.0
 11
23.397957765027144
 21
71.1484847218355
 31
0.0
  0
LINE
  5
EE0
330
A35
100
AcDbEntity
  8
0
100
AcDbLine
 10
23.397957765027144
 20
71.1484847218355
 30
0.0
 11
23.32334616523164
 21
71.1484847218355
 31
0.0
  0
LINE
  5
EE1
330
A35
100
AcDbEntity
  8
0
100
AcDbLine
 10
23.32334616523164
 20
71.1484847218355
 30
0.0
 11
23.24873456543611
 21
71.09901398718844
 31
0.0
  0
LINE
  5
EE2
330
A35
100
AcDbEntity
  8
0
100
AcDbLine
 10
23.24873456543611
 20
71.09901398718844
 30
0.0
 11
23.173717467815663
 21
71.07387312203994
 31
0.0
  0
LINE
  5
EE3
330
A35
100
AcDbEntity
  8
0
100
AcDbLine
 10
21.97790438196256
 20
70.10230033339838
 30
0.0
 11
22.003045247111032
 21
70.05242410092637
 31
0.0
  0
LINE
  5
EE4
330
A35
100
AcDbEntity
  8
0
100
AcDbLine
 10
22.003045247111032
 20
70.05242410092637
 30
0.0
 11
22.052515981758063
 21
70.02768873360284
 31
0.0
  0
LINE
  5
EE5
330
A35
100
AcDbEntity
  8
0
100
AcDbLine
 10
22.052515981758063
 20
70.02768873360284
 30
0.0
 11
22.077656846906535
 21
70.00254786845437
 31
0.0
  0
LINE
  5
EE6
330
A35
100
AcDbEntity
  8
0
100
AcDbLine
 10
22.077656846906535
 20
70.00254786845437
 30
0.0
 11
22.102392214230036
 21
69.97740700330587
 31
0.0
  0
LINE
  5
EE7
330
A35
100
AcDbEntity
  8
0
100
AcDbLine
 10
22.102392214230036
 20
69.97740700330587
 30
0.0
 11
22.127533079378537
 21
69.97740700330587
 31
0.0
  0
LINE
  5
EE8
330
A35
100
AcDbEntity
  8
0
100
AcDbLine
 10
22.127533079378537
 20
69.97740700330587
 30
0.0
 11
22.15226844670204
 21
69.95267163598234
 31
0.0
  0
LINE
  5
EE9
330
A35
100
AcDbEntity
  8
0
100
AcDbLine
 10
22.15226844670204
 20
69.95267163598234
 30
0.0
 11
22.22728554432254
 21
69.95267163598234
 31
0.0
  0
LINE
  5
EEA
330
A35
100
AcDbEntity
  8
0
100
AcDbLine
 10
22.22728554432254
 20
69.95267163598234
 30
0.0
 11
22.25202091164607
 21
69.95267163598234
 31
0.0
  0
LINE
  5
EEB
330
A35
100
AcDbEntity
  8
0
100
AcDbLine
 10
22.25202091164607
 20
69.95267163598234
 30
0.0
 11
22.27675627896957
 21
69.90279540351034
 31
0.0
  0
LINE
  5
EEC
330
A35
100
AcDbEntity
  8
0
100
AcDbLine
 10
22.27675627896957
 20
69.90279540351034
 30
0.0
 11
22.301897144118072
 21
69.90279540351034
 31
0.0
  0
LINE
  5
EED
330
A35
100
AcDbEntity
  8
0
100
AcDbLine
 10
28.380715038327594
 20
72.29442157521655
 30
0.0
 11
28.355979671004093
 21
72.29442157521655
 31
0.0
  0
LINE
  5
EEE
330
A35
100
AcDbEntity
  8
0
100
AcDbLine
 10
28.355979671004093
 20
72.29442157521655
 30
0.0
 11
28.30610343853209
 21
72.29442157521655
 31
0.0
  0
LINE
  5
EEF
330
A35
100
AcDbEntity
  8
0
100
AcDbLine
 10
28.30610343853209
 20
72.29442157521655
 30
0.0
 11
28.28096257338359
 21
72.29442157521655
 31
0.0
  0
LINE
  5
EF0
330
A35
100
AcDbEntity
  8
0
100
AcDbLine
 10
28.28096257338359
 20
72.29442157521655
 30
0.0
 11
28.25622720606006
 21
72.26968620789305
 31
0.0
  0
LINE
  5
EF1
330
A35
100
AcDbEntity
  8
0
100
AcDbLine
 10
28.25622720606006
 20
72.26968620789305
 30
0.0
 11
28.23149183873656
 21
72.26968620789305
 31
0.0
  0
LINE
  5
EF2
330
A35
100
AcDbEntity
  8
0
100
AcDbLine
 10
28.380715038327594
 20
72.44405027263258
 30
0.0
 11
28.355979671004093
 21
72.44405027263258
 31
0.0
  0
LINE
  5
EF3
330
A35
100
AcDbEntity
  8
0
100
AcDbLine
 10
28.355979671004093
 20
72.44405027263258
 30
0.0
 11
28.30610343853209
 21
72.44405027263258
 31
0.0
  0
LINE
  5
EF4
330
A35
100
AcDbEntity
  8
0
100
AcDbLine
 10
28.30610343853209
 20
72.44405027263258
 30
0.0
 11
28.28096257338359
 21
72.44405027263258
 31
0.0
  0
LINE
  5
EF5
330
A35
100
AcDbEntity
  8
0
100
AcDbLine
 10
28.28096257338359
 20
72.44405027263258
 30
0.0
 11
28.25622720606006
 21
72.44405027263258
 31
0.0
  0
LINE
  5
EF6
330
A35
100
AcDbEntity
  8
0
100
AcDbLine
 10
28.25622720606006
 20
72.44405027263258
 30
0.0
 11
28.23149183873656
 21
72.41931490530905
 31
0.0
  0
LINE
  5
EF7
330
A35
100
AcDbEntity
  8
0
100
AcDbLine
 10
31.79419572897237
 20
72.21980997542107
 30
0.0
 11
31.744319496500367
 21
72.21980997542107
 31
0.0
  0
LINE
  5
EF8
330
A35
100
AcDbEntity
  8
0
100
AcDbLine
 10
31.744319496500367
 20
72.21980997542107
 30
0.0
 11
31.719178631351866
 21
72.24495084056952
 31
0.0
  0
LINE
  5
EF9
330
A35
100
AcDbEntity
  8
0
100
AcDbLine
 10
31.719178631351866
 20
72.24495084056952
 30
0.0
 11
31.694443264028337
 21
72.24495084056952
 31
0.0
  0
LINE
  5
EFA
330
A35
100
AcDbEntity
  8
0
100
AcDbLine
 10
31.694443264028337
 20
72.24495084056952
 30
0.0
 11
31.669302398879864
 21
72.24495084056952
 31
0.0
  0
LINE
  5
EFB
330
A35
100
AcDbEntity
  8
0
100
AcDbLine
 10
31.79419572897237
 20
72.39417404016058
 30
0.0
 11
31.744319496500367
 21
72.39417404016058
 31
0.0
  0
LINE
  5
EFC
330
A35
100
AcDbEntity
  8
0
100
AcDbLine
 10
31.744319496500367
 20
72.39417404016058
 30
0.0
 11
31.719178631351866
 21
72.39417404016058
 31
0.0
  0
LINE
  5
EFD
330
A35
100
AcDbEntity
  8
0
100
AcDbLine
 10
31.719178631351866
 20
72.39417404016058
 30
0.0
 11
31.694443264028337
 21
72.41931490530905
 31
0.0
  0
LINE
  5
EFE
330
A35
100
AcDbEntity
  8
0
100
AcDbLine
 10
31.694443264028337
 20
72.41931490530905
 30
0.0
 11
31.669302398879864
 21
72.41931490530905
 31
0.0
  0
LINE
  5
EFF
330
A35
100
AcDbEntity
  8
0
100
AcDbLine
 10
31.719178631351866
 20
71.69671778120252
 30
0.0
 11
31.744319496500367
 21
71.67157691605402
 31
0.0
  0
LINE
  5
F00
330
A35
100
AcDbEntity
  8
0
100
AcDbLine
 10
31.744319496500367
 20
71.67157691605402
 30
0.0
 11
31.79419572897237
 21
71.67157691605402
 31
0.0
  0
LINE
  5
F01
330
A35
100
AcDbEntity
  8
0
100
AcDbLine
 10
31.79419572897237
 20
71.67157691605402
 30
0.0
 11
31.81893109629587
 21
71.64684154873049
 31
0.0
  0
LINE
  5
F02
330
A35
100
AcDbEntity
  8
0
100
AcDbLine
 10
31.81893109629587
 20
71.64684154873049
 30
0.0
 11
31.84366646361937
 21
71.64684154873049
 31
0.0
  0
LINE
  5
F03
330
A35
100
AcDbEntity
  8
0
100
AcDbLine
 10
31.84366646361937
 20
71.64684154873049
 30
0.0
 11
31.8935426960914
 21
71.64684154873049
 31
0.0
  0
LINE
  5
F04
330
A35
100
AcDbEntity
  8
0
100
AcDbLine
 10
31.8935426960914
 20
71.64684154873049
 30
0.0
 11
31.943418928563403
 21
71.64684154873049
 31
0.0
  0
LINE
  5
F05
330
A35
100
AcDbEntity
  8
0
100
AcDbLine
 10
31.943418928563403
 20
71.64684154873049
 30
0.0
 11
31.968559793711904
 21
71.64684154873049
 31
0.0
  0
LINE
  5
F06
330
A35
100
AcDbEntity
  8
0
100
AcDbLine
 10
31.968559793711904
 20
71.64684154873049
 30
0.0
 11
31.993295161035377
 21
71.64684154873049
 31
0.0
  0
LINE
  5
F07
330
A35
100
AcDbEntity
  8
0
100
AcDbLine
 10
31.993295161035377
 20
71.64684154873049
 30
0.0
 11
32.01803052835888
 21
71.67157691605402
 31
0.0
  0
LINE
  5
F08
330
A35
100
AcDbEntity
  8
0
100
AcDbLine
 10
32.01803052835888
 20
71.67157691605402
 30
0.0
 11
32.04317139350738
 21
71.67157691605402
 31
0.0
  0
LINE
  5
F09
330
A35
100
AcDbEntity
  8
0
100
AcDbLine
 10
32.04317139350738
 20
71.67157691605402
 30
0.0
 11
32.09304762597938
 21
71.69671778120252
 31
0.0
  0
LINE
  5
F0A
330
A35
100
AcDbEntity
  8
0
100
AcDbLine
 10
22.301897144118072
 20
70.6505333927654
 30
0.0
 11
22.27675627896957
 21
70.6505333927654
 31
0.0
  0
LINE
  5
F0B
330
A35
100
AcDbEntity
  8
0
100
AcDbLine
 10
22.27675627896957
 20
70.6505333927654
 30
0.0
 11
22.25202091164607
 21
70.62539252761692
 31
0.0
  0
LINE
  5
F0C
330
A35
100
AcDbEntity
  8
0
100
AcDbLine
 10
22.25202091164607
 20
70.62539252761692
 30
0.0
 11
22.22728554432254
 21
70.60025166246842
 31
0.0
  0
LINE
  5
F0D
330
A35
100
AcDbEntity
  8
0
100
AcDbLine
 10
22.22728554432254
 20
70.60025166246842
 30
0.0
 11
22.22728554432254
 21
70.57551629514492
 31
0.0
  0
LINE
  5
F0E
330
A35
100
AcDbEntity
  8
0
100
AcDbLine
 10
22.22728554432254
 20
70.57551629514492
 30
0.0
 11
22.20214467917404
 21
70.57551629514492
 31
0.0
  0
LINE
  5
F0F
330
A35
100
AcDbEntity
  8
0
100
AcDbLine
 10
22.20214467917404
 20
70.57551629514492
 30
0.0
 11
22.20214467917404
 21
70.55078092782136
 31
0.0
  0
LINE
  5
F10
330
A35
100
AcDbEntity
  8
0
100
AcDbLine
 10
22.20214467917404
 20
70.55078092782136
 30
0.0
 11
22.20214467917404
 21
70.50090469534942
 31
0.0
  0
LINE
  5
F11
330
A35
100
AcDbEntity
  8
0
100
AcDbLine
 10
22.20214467917404
 20
70.50090469534942
 30
0.0
 11
22.15226844670204
 21
70.47616932802589
 31
0.0
  0
LINE
  5
F12
330
A35
100
AcDbEntity
  8
0
100
AcDbLine
 10
35.13225382417167
 20
77.17783188139796
 30
0.0
 11
35.10751845684817
 21
77.20256724872146
 31
0.0
  0
LINE
  5
F13
330
A35
100
AcDbEntity
  8
0
100
AcDbLine
 10
35.10751845684817
 20
77.20256724872146
 30
0.0
 11
35.08278308952464
 21
77.20256724872146
 31
0.0
  0
LINE
  5
F14
330
A35
100
AcDbEntity
  8
0
100
AcDbLine
 10
35.08278308952464
 20
77.20256724872146
 30
0.0
 11
35.03290685705264
 21
77.20256724872146
 31
0.0
  0
LINE
  5
F15
330
A35
100
AcDbEntity
  8
0
100
AcDbLine
 10
35.03290685705264
 20
77.20256724872146
 30
0.0
 11
35.007765991904165
 21
77.20256724872146
 31
0.0
  0
LINE
  5
F16
330
A35
100
AcDbEntity
  8
0
100
AcDbLine
 10
35.007765991904165
 20
77.20256724872146
 30
0.0
 11
34.983030624580636
 21
77.20256724872146
 31
0.0
  0
LINE
  5
F17
330
A35
100
AcDbEntity
  8
0
100
AcDbLine
 10
34.983030624580636
 20
77.20256724872146
 30
0.0
 11
34.957889759432135
 21
77.17783188139796
 31
0.0
  0
LINE
  5
F18
330
A35
100
AcDbEntity
  8
0
100
AcDbLine
 10
22.650625273597086
 20
71.74659401367452
 30
0.0
 11
22.650625273597086
 21
71.77132938099803
 31
0.0
  0
LINE
  5
F19
330
A35
100
AcDbEntity
  8
0
100
AcDbLine
 10
22.650625273597086
 20
71.77132938099803
 30
0.0
 11
22.650625273597086
 21
71.79647024614653
 31
0.0
  0
LINE
  5
F1A
330
A35
100
AcDbEntity
  8
0
100
AcDbLine
 10
22.650625273597086
 20
71.79647024614653
 30
0.0
 11
22.600749041125084
 21
71.82120561347
 31
0.0
  0
LINE
  5
F1B
330
A35
100
AcDbEntity
  8
0
100
AcDbLine
 10
22.600749041125084
 20
71.82120561347
 30
0.0
 11
22.600749041125084
 21
71.8459409807935
 31
0.0
  0
LINE
  5
F1C
330
A35
100
AcDbEntity
  8
0
100
AcDbLine
 10
22.600749041125084
 20
71.8459409807935
 30
0.0
 11
22.576013673801583
 21
71.8459409807935
 31
0.0
  0
LINE
  5
F1D
330
A35
100
AcDbEntity
  8
0
100
AcDbLine
 10
22.576013673801583
 20
71.8459409807935
 30
0.0
 11
22.576013673801583
 21
71.8962227110905
 31
0.0
  0
LINE
  5
F1E
330
A35
100
AcDbEntity
  8
0
100
AcDbLine
 10
22.576013673801583
 20
71.8962227110905
 30
0.0
 11
22.550872808653082
 21
71.8962227110905
 31
0.0
  0
LINE
  5
F1F
330
A35
100
AcDbEntity
  8
0
100
AcDbLine
 10
22.550872808653082
 20
71.8962227110905
 30
0.0
 11
22.526137441329553
 21
71.8962227110905
 31
0.0
  0
LINE
  5
F20
330
A35
100
AcDbEntity
  8
0
100
AcDbLine
 10
22.526137441329553
 20
71.8962227110905
 30
0.0
 11
22.526137441329553
 21
71.920958078414
 31
0.0
  0
LINE
  5
F21
330
A35
100
AcDbEntity
  8
0
100
AcDbLine
 10
37.87301362318186
 20
76.85383911924245
 30
0.0
 11
37.87301362318186
 21
76.87897998439095
 31
0.0
  0
LINE
  5
F22
330
A35
100
AcDbEntity
  8
0
100
AcDbLine
 10
37.87301362318186
 20
76.87897998439095
 30
0.0
 11
37.84787275803339
 21
76.90371535171445
 31
0.0
  0
LINE
  5
F23
330
A35
100
AcDbEntity
  8
0
100
AcDbLine
 10
38.0473776879214
 20
76.67947505450292
 30
0.0
 11
38.022236822772896
 21
76.67947505450292
 31
0.0
  0
LINE
  5
F24
330
A35
100
AcDbEntity
  8
0
100
AcDbLine
 10
38.022236822772896
 20
76.67947505450292
 30
0.0
 11
38.022236822772896
 21
76.70461591965142
 31
0.0
  0
LINE
  5
F25
330
A35
100
AcDbEntity
  8
0
100
AcDbLine
 10
34.28557436562258
 20
72.19507460809757
 30
0.0
 11
34.28557436562258
 21
72.21980997542107
 31
0.0
  0
LINE
  5
F26
330
A35
100
AcDbEntity
  8
0
100
AcDbLine
 10
34.28557436562258
 20
72.21980997542107
 30
0.0
 11
34.26043350047408
 21
72.21980997542107
 31
0.0
  0
LINE
  5
F27
330
A35
100
AcDbEntity
  8
0
100
AcDbLine
 10
23.497710229971176
 20
54.48171311968753
 30
0.0
 11
24.96763984550779
 21
54.157314859707014
 31
0.0
  0
LINE
  5
F28
330
A35
100
AcDbEntity
  8
0
100
AcDbLine
 10
24.96763984550779
 20
54.157314859707014
 30
0.0
 11
26.462304828367934
 21
53.957809929819035
 31
0.0
  0
LINE
  5
F29
330
A35
100
AcDbEntity
  8
0
100
AcDbLine
 10
26.462304828367934
 20
53.957809929819035
 30
0.0
 11
27.98211067637655
 21
53.808586730228
 31
0.0
  0
LINE
  5
F2A
330
A35
100
AcDbEntity
  8
0
100
AcDbLine
 10
27.98211067637655
 20
53.808586730228
 30
0.0
 11
29.477181157061665
 21
53.73397513043247
 31
0.0
  0
LINE
  5
F2B
330
A35
100
AcDbEntity
  8
0
100
AcDbLine
 10
29.477181157061665
 20
53.73397513043247
 30
0.0
 11
30.99658150724531
 21
53.75911599558097
 31
0.0
  0
LINE
  5
F2C
330
A35
100
AcDbEntity
  8
0
100
AcDbLine
 10
30.99658150724531
 20
53.75911599558097
 30
0.0
 11
32.491651987930425
 21
53.883198330023504
 31
0.0
  0
LINE
  5
F2D
330
A35
100
AcDbEntity
  8
0
100
AcDbLine
 10
29.252940859850128
 20
80.16756734494322
 30
0.0
 11
29.203064627378154
 21
80.16756734494322
 31
0.0
  0
LINE
  5
F2E
330
A35
100
AcDbEntity
  8
0
100
AcDbLine
 10
29.203064627378154
 20
80.16756734494322
 30
0.0
 11
29.177923762229653
 21
80.16756734494322
 31
0.0
  0
LINE
  5
F2F
330
A35
100
AcDbEntity
  8
0
100
AcDbLine
 10
29.177923762229653
 20
80.16756734494322
 30
0.0
 11
29.177923762229653
 21
80.14242647979475
 31
0.0
  0
LINE
  5
F30
330
A35
100
AcDbEntity
  8
0
100
AcDbLine
 10
29.177923762229653
 20
80.14242647979475
 30
0.0
 11
29.153188394906152
 21
80.14242647979475
 31
0.0
  0
LINE
  5
F31
330
A35
100
AcDbEntity
  8
0
100
AcDbLine
 10
31.54481456661236
 20
80.06781487999922
 30
0.0
 11
31.52007919928886
 21
80.11728561464625
 31
0.0
  0
LINE
  5
F32
330
A35
100
AcDbEntity
  8
0
100
AcDbLine
 10
31.52007919928886
 20
80.11728561464625
 30
0.0
 11
31.494938334140357
 21
80.11728561464625
 31
0.0
  0
LINE
  5
F33
330
A35
100
AcDbEntity
  8
0
100
AcDbLine
 10
31.494938334140357
 20
80.11728561464625
 30
0.0
 11
31.445062101668356
 21
80.11728561464625
 31
0.0
  0
LINE
  5
F34
330
A35
100
AcDbEntity
  8
0
100
AcDbLine
 10
29.35228782696916
 20
80.19230271226675
 30
0.0
 11
29.32755245964566
 21
80.19230271226675
 31
0.0
  0
LINE
  5
F35
330
A35
100
AcDbEntity
  8
0
100
AcDbLine
 10
29.35228782696916
 20
80.31679054453423
 30
0.0
 11
29.35228782696916
 21
80.29205517721073
 31
0.0
  0
LINE
  5
F36
330
A35
100
AcDbEntity
  8
0
100
AcDbLine
 10
29.35228782696916
 20
80.29205517721073
 30
0.0
 11
29.32755245964566
 21
80.29205517721073
 31
0.0
  0
LINE
  5
F37
330
A35
100
AcDbEntity
  8
0
100
AcDbLine
 10
31.096333972189313
 20
80.14242647979475
 30
0.0
 11
31.096333972189313
 21
80.16756734494322
 31
0.0
  0
LINE
  5
F38
330
A35
100
AcDbEntity
  8
0
100
AcDbLine
 10
31.096333972189313
 20
80.16756734494322
 30
0.0
 11
31.071598604865812
 21
80.16756734494322
 31
0.0
  0
LINE
  5
F39
330
A35
100
AcDbEntity
  8
0
100
AcDbLine
 10
31.096333972189313
 20
80.2673198098872
 30
0.0
 11
31.071598604865812
 21
80.2673198098872
 31
0.0
  0
LINE
  5
F3A
330
A35
100
AcDbEntity
  8
0
100
AcDbLine
 10
34.957889759432135
 20
78.34850410210257
 30
0.0
 11
34.957889759432135
 21
78.37364496725107
 31
0.0
  0
LINE
  5
F3B
330
A35
100
AcDbEntity
  8
0
100
AcDbLine
 10
34.957889759432135
 20
78.37364496725107
 30
0.0
 11
34.933154392108634
 21
78.37364496725107
 31
0.0
  0
LINE
  5
F3C
330
A35
100
AcDbEntity
  8
0
100
AcDbLine
 10
34.933154392108634
 20
78.37364496725107
 30
0.0
 11
34.933154392108634
 21
78.39878583239957
 31
0.0
  0
LINE
  5
F3D
330
A35
100
AcDbEntity
  8
0
100
AcDbLine
 10
31.445062101668356
 20
80.11728561464625
 30
0.0
 11
31.420326734344826
 21
80.11728561464625
 31
0.0
  0
LINE
  5
F3E
330
A35
100
AcDbEntity
  8
0
100
AcDbLine
 10
31.420326734344826
 20
80.11728561464625
 30
0.0
 11
31.395185869196354
 21
80.11728561464625
 31
0.0
  0
LINE
  5
F3F
330
A35
100
AcDbEntity
  8
0
100
AcDbLine
 10
31.395185869196354
 20
80.11728561464625
 30
0.0
 11
31.370450501872824
 21
80.11728561464625
 31
0.0
  0
LINE
  5
F40
330
A35
100
AcDbEntity
  8
0
100
AcDbLine
 10
35.08278308952464
 20
78.09952843756756
 30
0.0
 11
35.03290685705264
 21
78.07438757241906
 31
0.0
  0
LINE
  5
F41
330
A35
100
AcDbEntity
  8
0
100
AcDbLine
 10
44.66803069083758
 20
66.25783359475409
 30
0.0
 11
60.0
 21
71.83821405597214
 31
0.0
  0
LINE
  5
F42
330
A35
100
AcDbEntity
  8
0
100
AcDbLine
 10
0.0
 20
50.0
 30
0.0
 11
15.07366295082727
 21
55.486364635462394
 31
0.0
  0
TEXT
  5
F43
330
A35
100
AcDbEntity
  8
0
100
AcDbText
 10
0.0
 20
95.0
 30
0.0
 40
3.0
  1
LEDｸﾗｽ60 ﾀﾞｳﾝﾗｲﾄ高気密SB形WPφ125
 11
0.0
 21
95.0
 31
0.0
100
AcDbText
  0
TEXT
  5
F44
330
A35
100
AcDbEntity
  8
0
100
AcDbText
 10
0.0
 20
10.0
 30
0.0
 40
3.0
  1
三菱 EL-D0407L 1LN
 11
0.0
 21
10.0
 31
0.0
100
AcDbText
  0
TEXT
  5
F45
330
A35
100
AcDbEntity
  8
0
100
AcDbText
 10
50.0
 20
35.0
 30
0.0
 40
1.5
  1
ダウンライト 電球色（2700K） Ra82
 11
50.0
 21
35.0
 31
0.0
100
AcDbText
  0
TEXT
  5
F46
330
A35
100
AcDbEntity
  8
0
100
AcDbText
 10
50.0
 20
32.0
 30
0.0
 40
1.5
  1
本体：アルミダイカスト
 11
50.0
 21
32.0
 31
0.0
100
AcDbText
  0
TEXT
  5
F47
330
A35
100
AcDbEntity
  8
0
100
AcDbText
 10
50.0
 20
29.0
 30
0.0
 40
1.5
  1
反射板：プラスチック 白色
 11
50.0
 21
29.0
 31
0.0
100
AcDbText
  0
TEXT
  5
F48
330
A35
100
AcDbEntity
  8
0
100
AcDbText
 10
50.0
 20
26.0
 30
0.0
 40
1.5
  1
光源寿命：40,000時間
 11
50.0
 21
26.0
 31
0.0
100
AcDbText
  0
TEXT
  5
F49
330
A35
100
AcDbEntity
  8
0
100
AcDbText
 10
50.0
 20
23.0
 30
0.0
 40
1.5
  1
光束：450lm 消費電力：4.1W 消費効率：109.7lm/W
 11
50.0
 21
23.0
 31
0.0
100
AcDbText
  0
TEXT
  5
F4A
330
A35
100
AcDbEntity
  8
0
100
AcDbText
 10
50.0
 20
20.0
 30
0.0
 40
1.5
  1
埋込穴：125
 11
50.0
 21
20.0
 31
0.0
100
AcDbText
  0
TEXT
  5
F4B
330
A35
100
AcDbEntity
  8
0
100
AcDbText
 10
50.0
 20
17.0
 30
0.0
 40
1.5
  1
外部IP43
 11
50.0
 21
17.0
 31
0.0
100
AcDbText
  0
VIEWPORT
  5
45B
102
{ACAD_XDICTIONARY
360
A5E
102
}
330
A31
100
AcDbEntity
 67
1
  8
0
100
AcDbViewport
 10
128.5
 20
97.5
 30
0.0
 40
314.226
 41
222.18
 68
1
 69
1
 12
0.0
 22
0.0
 13
0.0
 23
0.0
 14
10.0
 24
10.0
 15
10.0
 25
10.0
 16
0.0
 26
0.0
 36
0.0
 17
0.0
 27
0.0
 37
0.0
 42
50.0
 43
0.0
 44
0.0
 45
1.0
 50
0.0
 51
0.0
 72
100
 90
32768
  1

281
0
 71
0
 74
0
110
0.0
120
0.0
130
0.0
111
1.0
121
0.0
131
0.0
112
0.0
122
1.0
132
0.0
 79
0
146
0.0
  0
ENDSEC
  0
SECTION
  2
OBJECTS
  0
DICTIONARY
  5
9D2
330
0
100
AcDbDictionary
281
1
  3
ACAD_CIP_PREVIOUS_PRODUCT_INFO
350
A48
  3
ACAD_COLOR
350
A28
  3
ACAD_DETAILVIEWSTYLE
350
A2F
  3
ACAD_GROUP
350
9D3
  3
ACAD_LAYOUT
350
A27
  3
ACAD_MATERIAL
350
9D6
  3
ACAD_MLEADERSTYLE
350
A2B
  3
ACAD_MLINESTYLE
350
A24
  3
ACAD_PLOTSETTINGS
350
A26
  3
ACAD_PLOTSTYLENAME
350
9D4
  3
ACAD_SCALELIST
350
A08
  3
ACAD_SECTIONVIEWSTYLE
350
A2D
  3
ACAD_TABLESTYLE
350
A29
  3
ACAD_VISUALSTYLE
350
9EF
  3
ACDB_RECOMPOSE_DATA
350
A5C
  3
AcDbVariableDictionary
350
A4F
  3
DWGPROPS
350
A5D
  3
EZDXF_META
350
F4E
  0
DICTIONARY
  5
A49
330
A1A
100
AcDbDictionary
280
1
281
1
  3
ADSK_XREC_LAYER_RECONCILED
360
A4A
  0
DICTIONARY
  5
A4B
330
A39
100
AcDbDictionary
280
1
281
1
  3
ADSK_XREC_LAYER_RECONCILED
360
A4C
  0
DICTIONARY
  5
A4D
330
A3D
100
AcDbDictionary
280
1
281
1
  3
ADSK_XREC_LAYER_RECONCILED
360
A4E
  0
DICTIONARY
  5
A5E
330
45B
100
AcDbDictionary
280
1
281
1
  3
ACAD_XREC_ROUNDTRIP
360
A5F
  0
XRECORD
  5
A48
102
{ACAD_REACTORS
330
9D2
102
}
330
9D2
100
AcDbXrecord
280
1
300
ACDLT
300
2019
300
87085ACDLT_2019_0F
  0
DICTIONARY
  5
A28
102
{ACAD_REACTORS
330
9D2
102
}
330
9D2
100
AcDbDictionary
281
1
  0
DICTIONARY
  5
A2F
102
{ACAD_REACTORS
330
9D2
102
}
330
9D2
100
AcDbDictionary
281
1
  3
Imperial24
350
A30
  0
DICTIONARY
  5
9D3
102
{ACAD_REACTORS
330
9D2
102
}
330
9D2
100
AcDbDictionary
281
1
  0
DICTIONARY
  5
A27
102
{ACAD_REACTORS
330
9D2
102
}
330
9D2
100
AcDbDictionary
281
1
  3
Model
350
A38
  3
レイアウト1
350
A34
  0
DICTIONARY
  5
9D6
102
{ACAD_REACTORS
330
9D2
102
}
330
9D2
100
AcDbDictionary
281
1
  3
ByBlock
350
9DF
  3
ByLayer
350
9D7
  3
Global
350
9E7
  0
DICTIONARY
  5
A2B
102
{ACAD_REACTORS
330
9D2
102
}
330
9D2
100
AcDbDictionary
281
1
  3
Standard
350
A2C
  0
DICTIONARY
  5
A24
102
{ACAD_REACTORS
330
9D2
102
}
330
9D2
100
AcDbDictionary
281
1
  3
Standard
350
A25
  0
DICTIONARY
  5
A26
102
{ACAD_REACTORS
330
9D2
102
}
330
9D2
100
AcDbDictionary
281
1
  0
ACDBDICTIONARYWDFLT
  5
9D4
102
{ACAD_REACTORS
330
9D2
102
}
330
9D2
100
AcDbDictionary
281
1
  3
Normal
350
9D5
100
AcDbDictionaryWithDefault
340
9D5
  0
DICTIONARY
  5
A08
102
{ACAD_REACTORS
330
9D2
102
}
330
9D2
100
AcDbDictionary
281
1
  3
A0
350
A09
  3
A1
350
A0A
  3
A2
350
A0B
  3
A3
350
A0C
  3
A4
350
A0D
  3
A5
350
A0E
  3
A6
350
A0F
  3
A7
350
A10
  3
A8
350
A11
  3
A9
350
A12
  3
B0
350
A13
  3
B1
350
A14
  3
B2
350
A15
  3
B3
350
A16
  3
B4
350
A17
  3
B5
350
A18
  3
B6
350
A19
  0
DICTIONARY
  5
A2D
102
{ACAD_REACTORS
330
9D2
102
}
330
9D2
100
AcDbDictionary
281
1
  3
Imperial24
350
A2E
  0
DICTIONARY
  5
A29
102
{ACAD_REACTORS
330
9D2
102
}
330
9D2
100
AcDbDictionary
281
1
  3
Standard
350
A2A
  0
DICTIONARY
  5
9EF
102
{ACAD_REACTORS
330
9D2
102
}
330
9D2
100
AcDbDictionary
281
1
  3
2dWireframe
350
9F5
  3
Basic
350
9F4
  3
Brighten
350
9FB
  3
ColorChange
350
9FF
  3
Conceptual
350
9F8
  3
Dim
350
9FA
  3
EdgeColorOff
350
A07
  3
Facepattern
350
9FE
  3
Flat
350
9F0
  3
FlatWithEdges
350
9F1
  3
Gouraud
350
9F2
  3
GouraudWithEdges
350
9F3
  3
Hidden
350
9F7
  3
JitterOff
350
A05
  3
Linepattern
350
9FD
  3
OverhangOff
350
A06
  3
Realistic
350
9F9
  3
Shaded
350
A04
  3
Shaded with edges
350
A03
  3
Shades of Gray
350
A00
  3
Sketchy
350
A01
  3
Thicken
350
9FC
  3
Wireframe
350
9F6
  3
X-Ray
350
A02
  0
XRECORD
  5
A5C
102
{ACAD_REACTORS
330
9D2
102
}
330
9D2
100
AcDbXrecord
280
1
 90
1
330
A2A
  0
DICTIONARY
  5
A4F
102
{ACAD_REACTORS
330
9D2
102
}
330
9D2
100
AcDbDictionary
281
1
  3
CANNOSCALE
350
A54
  3
CMLEADERSTYLE
350
A51
  3
CTABLESTYLE
350
A50
  3
CVIEWDETAILSTYLE
350
A52
  3
CVIEWSECTIONSTYLE
350
A53
  3
DIMASSOC
350
A57
  3
INDEXCTL
350
A56
  3
SORTENTS
350
A55
  3
XCLIPFRAME
350
A58
  0
XRECORD
  5
A5D
102
{ACAD_REACTORS
330
9D2
102
}
330
9D2
100
AcDbXrecord
280
1
  1
DWGPROPS COOKIE
  2

  3

  4

  6

  7

  8
1992517
  9

300
=
301
=
302
=
303
=
304
=
305
=
306
=
307
=
308
=
309
=
 40
0.0010069560185185
 41
2459044.788842593
 42
2459045.376064815
  1

 90
0
  0
XRECORD
  5
A4A
102
{ACAD_REACTORS
330
A49
102
}
330
A49
100
AcDbXrecord
280
1
290
1
  0
XRECORD
  5
A4C
102
{ACAD_REACTORS
330
A4B
102
}
330
A4B
100
AcDbXrecord
280
1
290
1
  0
XRECORD
  5
A4E
102
{ACAD_REACTORS
330
A4D
102
}
330
A4D
100
AcDbXrecord
280
1
290
1
  0
XRECORD
  5
A5F
102
{ACAD_REACTORS
330
A5E
102
}
330
A5E
100
AcDbXrecord
280
1
102
SHADEPLOT
 70
0
  0
ACDBDETAILVIEWSTYLE
  5
A30
102
{ACAD_XDICTIONARY
360
A97
102
}
102
{ACAD_REACTORS
330
A2F
102
}
330
A2F
100
AcDbModelDocViewStyle
 70
0
  3
Imperial24
290
0
100
AcDbDetailViewStyle
 70
0
 71
0
 90
3
 71
1
340
A1B
 40
0.24
340
0
 40
0.24
300

 40
0.36
280
3
 71
2
340
A22
 90
25
 71
3
340
A1B
 40
0.24
 90
1
 40
0.75
 90
1
300
%<\AcVar ViewType \f "%tc1">% %<\AcVar ViewDetailId>%\PSCALE %<\AcVar ViewScale \f "%sn">%
 71
4
340
A22
 90
25
340
A22
 90
25
280
0
  0
LAYOUT
  5
A38
102
{ACAD_XDICTIONARY
360
A9B
102
}
102
{ACAD_REACTORS
330
A27
102
}
330
A27
100
AcDbPlotSettings
  1

  2
LBP8720
  4

  6

 40
0.0
 41
0.0
 42
0.0
 43
0.0
 44
0.0
 45
0.0
 46
0.0
 47
0.0
 48
0.0
 49
0.0
140
0.0
141
0.0
142
1.0
143
1.0
 70
1712
 72
0
 73
0
 74
0
  7

 75
0
 76
0
 77
2
 78
300
147
1.0
148
0.0
149
0.0
100
AcDbLayout
  1
Model
 70
1
 71
0
 10
0.0
 20
0.0
 11
12.0
 21
9.0
 12
0.0
 22
0.0
 32
0.0
 14
0.0
 24
0.0
 34
0.0
 15
0.0
 25
0.0
 35
0.0
146
0.0
 13
0.0
 23
0.0
 33
0.0
 16
1.0
 26
0.0
 36
0.0
 17
0.0
 27
1.0
 37
0.0
 76
0
330
A35
331
A3A
  0
LAYOUT
  5
A34
102
{ACAD_XDICTIONARY
360
A99
102
}
102
{ACAD_REACTORS
330
A27
102
}
330
A27
100
AcDbPlotSettings
  1

  2
LBP8720
  4

  6

 40
0.0
 41
0.0
 42
0.0
 43
0.0
 44
0.0
 45
0.0
 46
0.0
 47
0.0
 48
0.0
 49
0.0
140
0.0
141
0.0
142
1.0
143
1.0
 70
688
 72
0
 73
0
 74
5
  7

 75
16
 76
0
 77
2
 78
300
147
1.0
148
0.0
149
0.0
100
AcDbLayout
  1
レイアウト1
 70
1
 71
1
 10
-20.0
 20
-7.5
 11
277.0
 21
202.5
 12
0.0
 22
0.0
 32
0.0
 14
1e+20
 24
1e+20
 34
1e+20
 15
-1e+20
 25
-1e+20
 35
-1e+20
146
0.0
 13
0.0
 23
0.0
 33
0.0
 16
1.0
 26
0.0
 36
0.0
 17
0.0
 27
1.0
 37
0.0
 76
0
330
A31
331
45B
  0
MATERIAL
  5
9DF
102
{ACAD_XDICTIONARY
360
9E0
102
}
102
{ACAD_REACTORS
330
9D6
102
}
330
9D6
100
AcDbMaterial
  1
ByBlock
  2

 70
0
 40
1.0
 71
0
 41
1.0
 91
-1023410177
 42
1.0
 72
0
  3

 73
1
 74
1
 75
1
 43
0.0208333333333333
 43
0.0
 43
0.0
 43
0.0
 43
0.0
 43
0.0208333333333333
 43
0.0
 43
0.0
 43
0.0
 43
0.0
 43
1.0
 43
0.0
 43
0.0
 43
0.0
 43
0.0
 43
1.0
 44
0.5
 73
0
 45
1.0
 46
1.0
 77
0
  4

 78
1
 79
1
170
1
 47
0.0208333333333333
 47
0.0
 47
0.0
 47
0.0
 47
0.0
 47
0.0208333333333333
 47
0.0
 47
0.0
 47
0.0
 47
0.0
 47
1.0
 47
0.0
 47
0.0
 47
0.0
 47
0.0
 47
1.0
 48
1.0
171
0
  6

172
1
173
1
174
1
 49
0.0208333333333333
 49
0.0
 49
0.0
 49
0.0
 49
0.0
 49
0.0208333333333333
 49
0.0
 49
0.0
 49
0.0
 49
0.0
 49
1.0
 49
0.0
 49
0.0
 49
0.0
 49
0.0
 49
1.0
140
1.0
141
1.0
175
0
  7

176
1
177
1
178
1
142
0.0208333333333333
142
0.0
142
0.0
142
0.0
142
0.0
142
0.0208333333333333
142
0.0
142
0.0
142
0.0
142
0.0
142
1.0
142
0.0
142
0.0
142
0.0
142
0.0
142
1.0
143
1.0
179
0
  8

270
1
271
1
272
1
144
0.0208333333333333
144
0.0
144
0.0
144
0.0
144
0.0
144
0.0208333333333333
144
0.0
144
0.0
144
0.0
144
0.0
144
1.0
144
0.0
144
0.0
144
0.0
144
0.0
144
1.0
145
1.0
146
1.0
273
1
  9

274
1
275
1
276
1
147
0.0208333333333333
147
0.0
147
0.0
147
0.0
147
0.0
147
0.0208333333333333
147
0.0
147
0.0
147
0.0
147
0.0
147
1.0
147
0.0
147
0.0
147
0.0
147
0.0
147
1.0
 42
1.0
 72
1
  3

 73
1
 74
1
 75
1
 94
63
  0
MATERIAL
  5
9D7
102
{ACAD_XDICTIONARY
360
9D8
102
}
102
{ACAD_REACTORS
330
9D6
102
}
330
9D6
100
AcDbMaterial
  1
ByLayer
  2

 70
0
 40
1.0
 71
0
 41
1.0
 91
-1023410177
 42
1.0
 72
0
  3

 73
1
 74
1
 75
1
 43
0.0208333333333333
 43
0.0
 43
0.0
 43
0.0
 43
0.0
 43
0.0208333333333333
 43
0.0
 43
0.0
 43
0.0
 43
0.0
 43
1.0
 43
0.0
 43
0.0
 43
0.0
 43
0.0
 43
1.0
 44
0.5
 73
0
 45
1.0
 46
1.0
 77
0
  4

 78
1
 79
1
170
1
 47
0.0208333333333333
 47
0.0
 47
0.0
 47
0.0
 47
0.0
 47
0.0208333333333333
 47
0.0
 47
0.0
 47
0.0
 47
0.0
 47
1.0
 47
0.0
 47
0.0
 47
0.0
 47
0.0
 47
1.0
 48
1.0
171
0
  6

172
1
173
1
174
1
 49
0.0208333333333333
 49
0.0
 49
0.0
 49
0.0
 49
0.0
 49
0.0208333333333333
 49
0.0
 49
0.0
 49
0.0
 49
0.0
 49
1.0
 49
0.0
 49
0.0
 49
0.0
 49
0.0
 49
1.0
140
1.0
141
1.0
175
0
  7

176
1
177
1
178
1
142
0.0208333333333333
142
0.0
142
0.0
142
0.0
142
0.0
142
0.0208333333333333
142
0.0
142
0.0
142
0.0
142
0.0
142
1.0
142
0.0
142
0.0
142
0.0
142
0.0
142
1.0
143
1.0
179
0
  8

270
1
271
1
272
1
144
0.0208333333333333
144
0.0
144
0.0
144
0.0
144
0.0
144
0.0208333333333333
144
0.0
144
0.0
144
0.0
144
0.0
144
1.0
144
0.0
144
0.0
144
0.0
144
0.0
144
1.0
145
1.0
146
1.0
273
1
  9

274
1
275
1
276
1
147
0.0208333333333333
147
0.0
147
0.0
147
0.0
147
0.0
147
0.0208333333333333
147
0.0
147
0.0
147
0.0
147
0.0
147
1.0
147
0.0
147
0.0
147
0.0
147
0.0
147
1.0
 42
1.0
 72
1
  3

 73
1
 74
1
 75
1
 94
63
  0
MATERIAL
  5
9E7
102
{ACAD_XDICTIONARY
360
9E8
102
}
102
{ACAD_REACTORS
330
9D6
102
}
330
9D6
100
AcDbMaterial
  1
Global
  2

 70
0
 40
1.0
 71
0
 41
1.0
 91
-1023410177
 42
1.0
 72
0
  3

 73
1
 74
1
 75
1
 43
0.0208333333333333
 43
0.0
 43
0.0
 43
0.0
 43
0.0
 43
0.0208333333333333
 43
0.0
 43
0.0
 43
0.0
 43
0.0
 43
1.0
 43
0.0
 43
0.0
 43
0.0
 43
0.0
 43
1.0
 44
0.5
 73
0
 45
1.0
 46
1.0
 77
0
  4

 78
1
 79
1
170
1
 47
0.0208333333333333
 47
0.0
 47
0.0
 47
0.0
 47
0.0
 47
0.0208333333333333
 47
0.0
 47
0.0
 47
0.0
 47
0.0
 47
1.0
 47
0.0
 47
0.0
 47
0.0
 47
0.0
 47
1.0
 48
1.0
171
0
  6

172
1
173
1
174
1
 49
0.0208333333333333
 49
0.0
 49
0.0
 49
0.0
 49
0.0
 49
0.0208333333333333
 49
0.0
 49
0.0
 49
0.0
 49
0.0
 49
1.0
 49
0.0
 49
0.0
 49
0.0
 49
0.0
 49
1.0
140
1.0
141
1.0
175
0
  7

176
1
177
1
178
1
142
0.0208333333333333
142
0.0
142
0.0
142
0.0
142
0.0
142
0.0208333333333333
142
0.0
142
0.0
142
0.0
142
0.0
142
1.0
142
0.0
142
0.0
142
0.0
142
0.0
142
1.0
143
1.0
179
0
  8

270
1
271
1
272
1
144
0.0208333333333333
144
0.0
144
0.0
144
0.0
144
0.0
144
0.0208333333333333
144
0.0
144
0.0
144
0.0
144
0.0
144
1.0
144
0.0
144
0.0
144
0.0
144
0.0
144
1.0
145
1.0
146
1.0
273
1
  9

274
1
275
1
276
1
147
0.0208333333333333
147
0.0
147
0.0
147
0.0
147
0.0
147
0.0208333333333333
147
0.0
147
0.0
147
0.0
147
0.0
147
1.0
147
0.0
147
0.0
147
0.0
147
0.0
147
1.0
 42
1.0
 72
1
  3

 73
1
 74
1
 75
1
 94
63
  0
MLEADERSTYLE
  5
A2C
102
{ACAD_REACTORS
330
A2B
102
}
330
A2B
100
AcDbMLeaderStyle
179
2
170
2
171
1
172
0
 90
2
 40
0.0
 41
0.0
173
1
 91
-1056964608
340
A20
 92
-2
290
1
 42
0.09
291
1
 43
0.36
  3
Standard
 44
0.18
300

342
A1B
174
1
175
1
176
0
178
6
 93
-1056964608
 45
0.18
292
0
297
0
 46
0.18
293
1
 94
-1056964608
 47
1.0
 49
1.0
140
1.0
294
1
141
0.0
177
0
142
1.0
295
0
296
0
143
0.125
271
0
272
9
273
9
1001
ACAD_MLEADERVER
1070
2
  0
MLINESTYLE
  5
A25
102
{ACAD_REACTORS
330
A24
102
}
330
A24
100
AcDbMlineStyle
  2
STANDARD
 70
0
  3

 62
256
 51
90.0
 52
90.0
 71
2
 49
0.5
 62
256
  6
BYLAYER
 49
-0.5
 62
256
  6
BYLAYER
  0
ACDBPLACEHOLDER
  5
9D5
102
{ACAD_REACTORS
330
9D4
102
}
330
9D4
  0
SCALE
  5
A09
102
{ACAD_REACTORS
330
A08
102
}
330
A08
100
AcDbScale
 70
0
300
1:1
140
1.0
141
1.0
290
1
  0
SCALE
  5
A0A
102
{ACAD_REACTORS
330
A08
102
}
330
A08
100
AcDbScale
 70
0
300
1/128" = 1'-0"
140
0.0078125
141
12.0
290
0
  0
SCALE
  5
A0B
102
{ACAD_REACTORS
330
A08
102
}
330
A08
100
AcDbScale
 70
0
300
1/64" = 1'-0"
140
0.015625
141
12.0
290
0
  0
SCALE
  5
A0C
102
{ACAD_REACTORS
330
A08
102
}
330
A08
100
AcDbScale
 70
0
300
1/32" = 1'-0"
140
0.03125
141
12.0
290
0
  0
SCALE
  5
A0D
102
{ACAD_REACTORS
330
A08
102
}
330
A08
100
AcDbScale
 70
0
300
1/16" = 1'-0"
140
0.0625
141
12.0
290
0
  0
SCALE
  5
A0E
102
{ACAD_REACTORS
330
A08
102
}
330
A08
100
AcDbScale
 70
0
300
3/32" = 1'-0"
140
0.09375
141
12.0
290
0
  0
SCALE
  5
A0F
102
{ACAD_REACTORS
330
A08
102
}
330
A08
100
AcDbScale
 70
0
300
1/8" = 1'-0"
140
0.125
141
12.0
290
0
  0
SCALE
  5
A10
102
{ACAD_REACTORS
330
A08
102
}
330
A08
100
AcDbScale
 70
0
300
3/16" = 1'-0"
140
0.1875
141
12.0
290
0
  0
SCALE
  5
A11
102
{ACAD_REACTORS
330
A08
102
}
330
A08
100
AcDbScale
 70
0
300
1/4" = 1'-0"
140
0.25
141
12.0
290
0
  0
SCALE
  5
A12
102
{ACAD_REACTORS
330
A08
102
}
330
A08
100
AcDbScale
 70
0
300
3/8" = 1'-0"
140
0.375
141
12.0
290
0
  0
SCALE
  5
A13
102
{ACAD_REACTORS
330
A08
102
}
330
A08
100
AcDbScale
 70
0
300
1/2" = 1'-0"
140
0.5
141
12.0
290
0
  0
SCALE
  5
A14
102
{ACAD_REACTORS
330
A08
102
}
330
A08
100
AcDbScale
 70
0
300
3/4" = 1'-0"
140
0.75
141
12.0
290
0
  0
SCALE
  5
A15
102
{ACAD_REACTORS
330
A08
102
}
330
A08
100
AcDbScale
 70
0
300
1" = 1'-0"
140
1.0
141
12.0
290
0
  0
SCALE
  5
A16
102
{ACAD_REACTORS
330
A08
102
}
330
A08
100
AcDbScale
 70
0
300
1-1/2" = 1'-0"
140
1.5
141
12.0
290
0
  0
SCALE
  5
A17
102
{ACAD_REACTORS
330
A08
102
}
330
A08
100
AcDbScale
 70
0
300
3" = 1'-0"
140
3.0
141
12.0
290
0
  0
SCALE
  5
A18
102
{ACAD_REACTORS
330
A08
102
}
330
A08
100
AcDbScale
 70
0
300
6" = 1'-0"
140
6.0
141
12.0
290
0
  0
SCALE
  5
A19
102
{ACAD_REACTORS
330
A08
102
}
330
A08
100
AcDbScale
 70
0
300
1'-0" = 1'-0"
140
12.0
141
12.0
290
0
  0
ACDBSECTIONVIEWSTYLE
  5
A2E
102
{ACAD_XDICTIONARY
360
A95
102
}
102
{ACAD_REACTORS
330
A2D
102
}
330
A2D
100
AcDbModelDocViewStyle
 70
0
  3
Imperial24
290
0
100
AcDbSectionViewStyle
 70
0
 71
0
 90
78
 71
1
340
A1B
 40
0.24
340
0
340
0
 40
0.24
300
I, O, Q, S, X, Z
 40
0.48
 90
3
 40
0.18
 90
1
 71
2
340
A22
 90
25
340
A22
 90
50
 40
0.24
 40
0.0
 40
0.24
 71
3
340
A1B
 40
0.24
 90
1
 40
0.75
 90
1
300
%<\AcVar ViewType \f "%tc1">% %<\AcVar ViewSectionStartId>%-%<\AcVar ViewSectionEndId>%\PSCALE %<\AcVar ViewScale \f "%sn">%
 71
4
300
ANSI31
 40
1.0
 90
0
290
0
290
0
 90
6
 40
0.0
 40
1.570796326794896
 40
0.2617993877991494
 40
1.308996938995747
 40
-0.2617993877991494
 40
1.832595714594046
  0
TABLESTYLE
  5
A2A
102
{ACAD_XDICTIONARY
360
A5A
102
}
102
{ACAD_REACTORS
330
A29
102
}
330
A29
100
AcDbTableStyle
  3
Standard
 70
0
 71
0
 40
0.06
 41
0.06
280
0
281
0
  7
STANDARD
140
0.18
170
2
 62
0
 63
7
283
0
274
-2
284
1
 64
0
275
-2
285
1
 65
0
276
-2
286
1
 66
0
277
-2
287
1
 67
0
278
-2
288
1
 68
0
279
-2
289
1
 69
0
  7
STANDARD
140
0.25
170
5
 62
0
 63
7
283
0
274
-2
284
1
 64
0
275
-2
285
1
 65
0
276
-2
286
1
 66
0
277
-2
287
1
 67
0
278
-2
288
1
 68
0
279
-2
289
1
 69
0
  7
STANDARD
140
0.18
170
5
 62
0
 63
7
283
0
274
-2
284
1
 64
0
275
-2
285
1
 65
0
276
-2
286
1
 66
0
277
-2
287
1
 67
0
278
-2
288
1
 68
0
279
-2
289
1
 69
0
  0
VISUALSTYLE
  5
9F5
102
{ACAD_XDICTIONARY
360
A6D
102
}
102
{ACAD_REACTORS
330
9EF
102
}
330
9EF
100
AcDbVisualStyle
  2
2dWireframe
 70
4
 71
0
 72
2
 73
0
 90
0
 40
-0.6
 41
-30.0
 62
5
 63
7
 74
1
 91
4
 64
7
 65
257
 75
1
175
1
 42
1.0
 92
0
 66
257
 43
1.0
 76
1
 77
6
 78
2
 67
7
 79
5
170
0
171
0
290
0
174
0
 93
1
 44
0.0
173
0
291
0
 45
0.0
1001
ACAD
1000
AcDbSavedByObjectVersion
1070
0
  0
VISUALSTYLE
  5
9F4
102
{ACAD_XDICTIONARY
360
A6B
102
}
102
{ACAD_REACTORS
330
9EF
102
}
330
9EF
100
AcDbVisualStyle
  2
Basic
 70
7
 71
1
 72
0
 73
1
 90
0
 40
-0.6
 41
-30.0
 62
5
 63
7
 74
0
 91
4
 64
7
 65
257
 75
1
175
1
 42
1.0
 92
8
 66
7
 43
1.0
 76
1
 77
6
 78
2
 67
7
 79
5
170
0
171
0
290
0
174
0
 93
1
 44
0.0
173
0
291
1
 45
0.0
1001
ACAD
1000
AcDbSavedByObjectVersion
1070
0
  0
VISUALSTYLE
  5
9FB
102
{ACAD_XDICTIONARY
360
A79
102
}
102
{ACAD_REACTORS
330
9EF
102
}
330
9EF
100
AcDbVisualStyle
  2
Brighten
 70
12
 71
2
 72
2
 73
0
 90
0
 40
-0.6
 41
-30.0
 62
5
 63
7
 74
1
 91
4
 64
7
 65
257
 75
1
175
1
 42
1.0
 92
8
 66
7
 43
1.0
 76
1
 77
6
 78
2
 67
7
 79
5
170
0
171
0
290
0
174
0
 93
1
 44
50.0
173
0
291
1
 45
0.0
1001
ACAD
1000
AcDbSavedByObjectVersion
1070
0
  0
VISUALSTYLE
  5
9FF
102
{ACAD_XDICTIONARY
360
A81
102
}
102
{ACAD_REACTORS
330
9EF
102
}
330
9EF
100
AcDbVisualStyle
  2
ColorChange
 70
16
 71
2
 72
2
 73
3
 90
0
 40
-0.6
 41
-30.0
 62
5
 63
8
 74
1
 91
4
 64
7
 65
257
 75
1
175
1
 42
1.0
 92
8
 66
8
 43
1.0
 76
1
 77
6
 78
2
 67
7
 79
5
170
0
171
0
290
0
174
0
 93
1
 44
0.0
173
0
291
1
 45
0.0
1001
ACAD
1000
AcDbSavedByObjectVersion
1070
0
  0
VISUALSTYLE
  5
9F8
102
{ACAD_XDICTIONARY
360
A73
102
}
102
{ACAD_REACTORS
330
9EF
102
}
330
9EF
100
AcDbVisualStyle
  2
Conceptual
 70
9
 71
3
 72
2
 73
0
 90
0
 40
-0.6
 41
-30.0
 62
5
 63
7
 74
2
 91
2
 64
7
 65
257
 75
1
175
1
 42
179.0
 92
8
 66
7
 43
1.0
 76
1
 77
6
 78
2
 67
7
 79
3
170
0
171
0
290
0
174
0
 93
1
 44
0.0
173
0
291
0
 45
0.0
1001
ACAD
1000
AcDbSavedByObjectVersion
1070
0
  0
VISUALSTYLE
  5
9FA
102
{ACAD_XDICTIONARY
360
A77
102
}
102
{ACAD_REACTORS
330
9EF
102
}
330
9EF
100
AcDbVisualStyle
  2
Dim
 70
11
 71
2
 72
2
 73
0
 90
0
 40
-0.6
 41
-30.0
 62
5
 63
7
 74
1
 91
4
 64
7
 65
257
 75
1
175
1
 42
1.0
 92
8
 66
7
 43
1.0
 76
1
 77
6
 78
2
 67
7
 79
5
170
0
171
0
290
0
174
0
 93
1
 44
-50.0
173
0
291
1
 45
0.0
1001
ACAD
1000
AcDbSavedByObjectVersion
1070
0
  0
VISUALSTYLE
  5
A07
102
{ACAD_XDICTIONARY
360
A91
102
}
102
{ACAD_REACTORS
330
9EF
102
}
330
9EF
100
AcDbVisualStyle
  2
EdgeColorOff
 70
22
 71
2
 72
2
 73
0
 90
0
 40
-0.6
 41
-30.0
 62
5
 63
7
 74
1
 91
4
 64
7
 65
257
 75
1
175
1
 42
1.0
 92
8
 66
7
 43
1.0
 76
1
 77
6
 78
2
 67
7
 79
5
170
0
171
0
290
0
174
0
 93
1
 44
0.0
173
0
291
1
 45
0.0
1001
ACAD
1000
AcDbSavedByObjectVersion
1070
0
  0
VISUALSTYLE
  5
9FE
102
{ACAD_XDICTIONARY
360
A7F
102
}
102
{ACAD_REACTORS
330
9EF
102
}
330
9EF
100
AcDbVisualStyle
  2
Facepattern
 70
15
 71
2
 72
2
 73
0
 90
0
 40
-0.6
 41
-30.0
 62
5
 63
7
 74
1
 91
4
 64
7
 65
257
 75
1
175
1
 42
1.0
 92
8
 66
7
 43
1.0
 76
1
 77
6
 78
2
 67
7
 79
5
170
0
171
0
290
0
174
0
 93
1
 44
0.0
173
0
291
1
 45
0.0
1001
ACAD
1000
AcDbSavedByObjectVersion
1070
0
  0
VISUALSTYLE
  5
9F0
102
{ACAD_XDICTIONARY
360
A63
102
}
102
{ACAD_REACTORS
330
9EF
102
}
330
9EF
100
AcDbVisualStyle
  2
Flat
 70
0
 71
2
 72
1
 73
1
 90
2
 40
-0.6
 41
30.0
 62
5
 63
7
 74
0
 91
0
 64
7
 65
257
 75
1
175
1
 42
1.0
 92
8
 66
7
 43
1.0
 76
1
 77
6
 78
2
 67
7
 79
5
170
0
171
0
290
0
174
0
 93
13
 44
0.0
173
0
291
1
 45
0.0
1001
ACAD
1000
AcDbSavedByObjectVersion
1070
0
  0
VISUALSTYLE
  5
9F1
102
{ACAD_XDICTIONARY
360
A65
102
}
102
{ACAD_REACTORS
330
9EF
102
}
330
9EF
100
AcDbVisualStyle
  2
FlatWithEdges
 70
1
 71
2
 72
1
 73
1
 90
2
 40
-0.6
 41
30.0
 62
5
 63
7
 74
1
 91
0
 64
7
 65
257
 75
1
175
1
 42
1.0
 92
0
 66
257
 43
1.0
 76
1
 77
6
 78
2
 67
7
 79
5
170
0
171
0
290
0
174
0
 93
13
 44
0.0
173
0
291
1
 45
0.0
1001
ACAD
1000
AcDbSavedByObjectVersion
1070
0
  0
VISUALSTYLE
  5
9F2
102
{ACAD_XDICTIONARY
360
A67
102
}
102
{ACAD_REACTORS
330
9EF
102
}
330
9EF
100
AcDbVisualStyle
  2
Gouraud
 70
2
 71
2
 72
2
 73
1
 90
2
 40
-0.6
 41
30.0
 62
5
 63
7
 74
0
 91
0
 64
7
 65
257
 75
1
175
1
 42
1.0
 92
0
 66
7
 43
1.0
 76
1
 77
6
 78
2
 67
7
 79
5
170
0
171
0
290
0
174
0
 93
13
 44
0.0
173
0
291
1
 45
0.0
1001
ACAD
1000
AcDbSavedByObjectVersion
1070
0
  0
VISUALSTYLE
  5
9F3
102
{ACAD_XDICTIONARY
360
A69
102
}
102
{ACAD_REACTORS
330
9EF
102
}
330
9EF
100
AcDbVisualStyle
  2
GouraudWithEdges
 70
3
 71
2
 72
2
 73
1
 90
2
 40
-0.6
 41
30.0
 62
5
 63
7
 74
1
 91
0
 64
7
 65
257
 75
1
175
1
 42
1.0
 92
0
 66
257
 43
1.0
 76
1
 77
6
 78
2
 67
7
 79
5
170
0
171
0
290
0
174
0
 93
13
 44
0.0
173
0
291
1
 45
0.0
1001
ACAD
1000
AcDbSavedByObjectVersion
1070
0
  0
VISUALSTYLE
  5
9F7
102
{ACAD_XDICTIONARY
360
A71
102
}
102
{ACAD_REACTORS
330
9EF
102
}
330
9EF
100
AcDbVisualStyle
  2
Hidden
 70
6
 71
1
 72
2
 73
2
 90
0
 40
-0.6
 41
-30.0
 62
5
 63
7
 74
2
 91
2
 64
7
 65
257
 75
2
175
1
 42
40.0
 92
0
 66
257
 43
1.0
 76
1
 77
6
 78
2
 67
7
 79
3
170
0
171
0
290
0
174
0
 93
1
 44
0.0
173
0
291
0
 45
0.0
1001
ACAD
1000
AcDbSavedByObjectVersion
1070
0
  0
VISUALSTYLE
  5
A05
102
{ACAD_XDICTIONARY
360
A8D
102
}
102
{ACAD_REACTORS
330
9EF
102
}
330
9EF
100
AcDbVisualStyle
  2
JitterOff
 70
20
 71
2
 72
2
 73
0
 90
0
 40
-0.6
 41
-30.0
 62
5
 63
7
 74
1
 91
4
 64
7
 65
257
 75
1
175
1
 42
1.0
 92
10
 66
7
 43
1.0
 76
1
 77
6
 78
2
 67
7
 79
5
170
0
171
0
290
0
174
0
 93
1
 44
0.0
173
0
291
1
 45
0.0
1001
ACAD
1000
AcDbSavedByObjectVersion
1070
0
  0
VISUALSTYLE
  5
9FD
102
{ACAD_XDICTIONARY
360
A7D
102
}
102
{ACAD_REACTORS
330
9EF
102
}
330
9EF
100
AcDbVisualStyle
  2
Linepattern
 70
14
 71
2
 72
2
 73
0
 90
0
 40
-0.6
 41
-30.0
 62
5
 63
7
 74
1
 91
4
 64
7
 65
257
 75
7
175
7
 42
1.0
 92
8
 66
7
 43
1.0
 76
1
 77
6
 78
2
 67
7
 79
5
170
0
171
0
290
0
174
0
 93
1
 44
0.0
173
0
291
1
 45
0.0
1001
ACAD
1000
AcDbSavedByObjectVersion
1070
0
  0
VISUALSTYLE
  5
A06
102
{ACAD_XDICTIONARY
360
A8F
102
}
102
{ACAD_REACTORS
330
9EF
102
}
330
9EF
100
AcDbVisualStyle
  2
OverhangOff
 70
21
 71
2
 72
2
 73
0
 90
0
 40
-0.6
 41
-30.0
 62
5
 63
7
 74
1
 91
4
 64
7
 65
257
 75
1
175
1
 42
1.0
 92
9
 66
7
 43
1.0
 76
1
 77
6
 78
2
 67
7
 79
5
170
0
171
0
290
0
174
0
 93
1
 44
0.0
173
0
291
1
 45
0.0
1001
ACAD
1000
AcDbSavedByObjectVersion
1070
0
  0
VISUALSTYLE
  5
9F9
102
{ACAD_XDICTIONARY
360
A75
102
}
102
{ACAD_REACTORS
330
9EF
102
}
330
9EF
100
AcDbVisualStyle
  2
Realistic
 70
8
 71
2
 72
3
 73
0
 90
2
 40
-0.6
 41
30.0
 62
5
 63
7
 74
0
 91
0
 64
7
 65
257
 75
1
175
1
 42
1.0
 92
8
 66
257
 43
1.0
 76
1
 77
6
 78
2
 67
7
 79
3
170
0
171
0
290
0
174
0
 93
13
 44
0.0
173
0
291
0
 45
0.0
1001
ACAD
1000
AcDbSavedByObjectVersion
1070
0
  0
VISUALSTYLE
  5
A04
102
{ACAD_XDICTIONARY
360
A8B
102
}
102
{ACAD_REACTORS
330
9EF
102
}
330
9EF
100
AcDbVisualStyle
  2
Shaded
 70
27
 71
2
 72
2
 73
1
 90
2
 40
-0.6
 41
30.0
 62
5
 63
7
 74
0
 91
4
 64
7
 65
257
 75
1
175
1
 42
1.0
 92
8
 66
257
 43
1.0
 76
1
 77
6
 78
2
 67
8
 79
3
170
0
171
0
290
0
174
0
 93
5
 44
0.0
173
0
291
0
 45
0.0
1001
ACAD
1000
AcDbSavedByObjectVersion
1070
0
  0
VISUALSTYLE
  5
A03
102
{ACAD_XDICTIONARY
360
A89
102
}
102
{ACAD_REACTORS
330
9EF
102
}
330
9EF
100
AcDbVisualStyle
  2
Shaded with edges
 70
26
 71
2
 72
2
 73
1
 90
2
 40
-0.6
 41
30.0
 62
5
 63
7
 74
1
 91
2
 64
7
 65
257
 75
2
175
1
 42
1.0
 92
8
 66
257
 43
1.0
 76
1
 77
6
 78
2
 67
7
 79
3
170
0
171
0
290
0
174
0
 93
5
 44
0.0
173
0
291
0
 45
0.0
1001
ACAD
1000
AcDbSavedByObjectVersion
1070
0
  0
VISUALSTYLE
  5
A00
102
{ACAD_XDICTIONARY
360
A83
102
}
102
{ACAD_REACTORS
330
9EF
102
}
330
9EF
100
AcDbVisualStyle
  2
Shades of Gray
 70
23
 71
2
 72
2
 73
3
 90
0
 40
-0.6
 41
-30.0
 62
5
 63
7
 74
2
 91
2
 64
7
 65
7
 75
1
175
1
 42
40.0
 92
8
 66
7
 43
1.0
 76
1
 77
6
 78
2
 67
7
 79
3
170
0
171
0
290
0
174
0
 93
1
 44
0.0
173
0
291
0
 45
0.0
1001
ACAD
1000
AcDbSavedByObjectVersion
1070
0
  0
VISUALSTYLE
  5
A01
102
{ACAD_XDICTIONARY
360
A85
102
}
102
{ACAD_REACTORS
330
9EF
102
}
330
9EF
100
AcDbVisualStyle
  2
Sketchy
 70
24
 71
1
 72
2
 73
2
 90
0
 40
-0.6
 41
-30.0
 62
5
 63
7
 74
2
 91
2
 64
7
 65
7
 75
1
175
1
 42
40.0
 92
11
 66
7
 43
1.0
 76
1
 77
6
 78
2
 67
7
 79
6
170
0
171
0
290
0
174
0
 93
1
 44
0.0
173
0
291
0
 45
0.0
1001
ACAD
1000
AcDbSavedByObjectVersion
1070
0
  0
VISUALSTYLE
  5
9FC
102
{ACAD_XDICTIONARY
360
A7B
102
}
102
{ACAD_REACTORS
330
9EF
102
}
330
9EF
100
AcDbVisualStyle
  2
Thicken
 70
13
 71
2
 72
2
 73
0
 90
0
 40
-0.6
 41
-30.0
 62
5
 63
7
 74
1
 91
4
 64
7
 65
257
 75
1
175
1
 42
1.0
 92
12
 66
7
 43
1.0
 76
1
 77
6
 78
2
 67
7
 79
5
170
0
171
0
290
0
174
0
 93
1
 44
0.0
173
0
291
1
 45
0.0
1001
ACAD
1000
AcDbSavedByObjectVersion
1070
0
  0
VISUALSTYLE
  5
9F6
102
{ACAD_XDICTIONARY
360
A6F
102
}
102
{ACAD_REACTORS
330
9EF
102
}
330
9EF
100
AcDbVisualStyle
  2
Wireframe
 70
5
 71
0
 72
2
 73
0
 90
0
 40
-0.6
 41
-30.0
 62
5
 63
7
 74
1
 91
4
 64
7
 65
257
 75
1
175
1
 42
1.0
 92
0
 66
257
 43
1.0
 76
1
 77
6
 78
2
 67
7
 79
3
170
0
171
0
290
0
174
0
 93
1
 44
0.0
173
0
291
0
 45
0.0
1001
ACAD
1000
AcDbSavedByObjectVersion
1070
0
  0
VISUALSTYLE
  5
A02
102
{ACAD_XDICTIONARY
360
A87
102
}
102
{ACAD_REACTORS
330
9EF
102
}
330
9EF
100
AcDbVisualStyle
  2
X-Ray
 70
25
 71
2
 72
2
 73
1
 90
1
 40
0.5
 41
-30.0
 62
5
 63
7
 74
1
 91
0
 64
7
 65
257
 75
1
175
1
 42
1.0
 92
8
 66
7
 43
1.0
 76
1
 77
6
 78
2
 67
7
 79
3
170
0
171
0
290
0
174
0
 93
13
 44
0.0
173
0
291
0
 45
0.0
1001
ACAD
1000
AcDbSavedByObjectVersion
1070
0
  0
DICTIONARYVAR
  5
A54
102
{ACAD_REACTORS
330
A4F
102
}
330
A4F
100
DictionaryVariables
280
0
  1
1:1
  0
DICTIONARYVAR
  5
A51
102
{ACAD_REACTORS
330
A4F
102
}
330
A4F
100
DictionaryVariables
280
0
  1
STANDARD
  0
DICTIONARYVAR
  5
A50
102
{ACAD_REACTORS
330
A4F
102
}
330
A4F
100
DictionaryVariables
280
0
  1
STANDARD
  0
DICTIONARYVAR
  5
A52
102
{ACAD_REACTORS
330
A4F
102
}
330
A4F
100
DictionaryVariables
280
0
  1
Imperial24
  0
DICTIONARYVAR
  5
A53
102
{ACAD_REACTORS
330
A4F
102
}
330
A4F
100
DictionaryVariables
280
0
  1
Imperial24
  0
DICTIONARYVAR
  5
A57
102
{ACAD_REACTORS
330
A4F
102
}
330
A4F
100
DictionaryVariables
280
0
  1
1
  0
DICTIONARYVAR
  5
A56
102
{ACAD_REACTORS
330
A4F
102
}
330
A4F
100
DictionaryVariables
280
0
  1
0
  0
DICTIONARYVAR
  5
A55
102
{ACAD_REACTORS
330
A4F
102
}
330
A4F
100
DictionaryVariables
280
0
  1
127
  0
DICTIONARYVAR
  5
A58
102
{ACAD_REACTORS
330
A4F
102
}
330
A4F
100
DictionaryVariables
280
0
  1
2
  0
DICTIONARY
  5
A97
330
A30
100
AcDbDictionary
280
1
281
1
  3
ACAD_XREC_ROUNDTRIP
360
A98
  0
DICTIONARY
  5
A9B
330
A38
100
AcDbDictionary
280
1
281
1
  3
ACAD_XREC_ROUNDTRIP
360
A9C
  0
DICTIONARY
  5
A99
330
A34
100
AcDbDictionary
280
1
281
1
  3
ACAD_XREC_ROUNDTRIP
360
A9A
  0
DICTIONARY
  5
9E0
330
9DF
100
AcDbDictionary
280
1
281
1
  3
ACAD_XREC_ROUNDTRIP
360
A61
  3
BUMPTILE
360
9E2
  3
DIFFUSETILE
360
9E1
  3
OPACITYTILE
360
9E5
  3
REFLECTIONTILE
360
9E4
  3
REFRACTIONTILE
360
9E6
  3
SPECULARTILE
360
9E3
  0
DICTIONARY
  5
9D8
330
9D7
100
AcDbDictionary
280
1
281
1
  3
ACAD_XREC_ROUNDTRIP
360
A60
  3
BUMPTILE
360
9DA
  3
DIFFUSETILE
360
9D9
  3
OPACITYTILE
360
9DD
  3
REFLECTIONTILE
360
9DC
  3
REFRACTIONTILE
360
9DE
  3
SPECULARTILE
360
9DB
  0
DICTIONARY
  5
9E8
330
9E7
100
AcDbDictionary
280
1
281
1
  3
ACAD_XREC_ROUNDTRIP
360
A62
  3
BUMPTILE
360
9EA
  3
DIFFUSETILE
360
9E9
  3
OPACITYTILE
360
9ED
  3
REFLECTIONTILE
360
9EC
  3
REFRACTIONTILE
360
9EE
  3
SPECULARTILE
360
9EB
  0
DICTIONARY
  5
A95
330
A2E
100
AcDbDictionary
280
1
281
1
  3
ACAD_XREC_ROUNDTRIP
360
A96
  0
DICTIONARY
  5
A5A
330
A2A
100
AcDbDictionary
280
1
281
1
  3
ACAD_ROUNDTRIP_2008_TABLESTYLE_CELLSTYLEMAP
360
A5B
  3
ACAD_XREC_ROUNDTRIP
360
A93
  0
DICTIONARY
  5
A6D
330
9F5
100
AcDbDictionary
280
1
281
1
  3
ACAD_XREC_ROUNDTRIP
360
A6E
  0
DICTIONARY
  5
A6B
330
9F4
100
AcDbDictionary
280
1
281
1
  3
ACAD_XREC_ROUNDTRIP
360
A6C
  0
DICTIONARY
  5
A79
330
9FB
100
AcDbDictionary
280
1
281
1
  3
ACAD_XREC_ROUNDTRIP
360
A7A
  0
DICTIONARY
  5
A81
330
9FF
100
AcDbDictionary
280
1
281
1
  3
ACAD_XREC_ROUNDTRIP
360
A82
  0
DICTIONARY
  5
A73
330
9F8
100
AcDbDictionary
280
1
281
1
  3
ACAD_XREC_ROUNDTRIP
360
A74
  0
DICTIONARY
  5
A77
330
9FA
100
AcDbDictionary
280
1
281
1
  3
ACAD_XREC_ROUNDTRIP
360
A78
  0
DICTIONARY
  5
A91
330
A07
100
AcDbDictionary
280
1
281
1
  3
ACAD_XREC_ROUNDTRIP
360
A92
  0
DICTIONARY
  5
A7F
330
9FE
100
AcDbDictionary
280
1
281
1
  3
ACAD_XREC_ROUNDTRIP
360
A80
  0
DICTIONARY
  5
A63
330
9F0
100
AcDbDictionary
280
1
281
1
  3
ACAD_XREC_ROUNDTRIP
360
A64
  0
DICTIONARY
  5
A65
330
9F1
100
AcDbDictionary
280
1
281
1
  3
ACAD_XREC_ROUNDTRIP
360
A66
  0
DICTIONARY
  5
A67
330
9F2
100
AcDbDictionary
280
1
281
1
  3
ACAD_XREC_ROUNDTRIP
360
A68
  0
DICTIONARY
  5
A69
330
9F3
100
AcDbDictionary
280
1
281
1
  3
ACAD_XREC_ROUNDTRIP
360
A6A
  0
DICTIONARY
  5
A71
330
9F7
100
AcDbDictionary
280
1
281
1
  3
ACAD_XREC_ROUNDTRIP
360
A72
  0
DICTIONARY
  5
A8D
330
A05
100
AcDbDictionary
280
1
281
1
  3
ACAD_XREC_ROUNDTRIP
360
A8E
  0
DICTIONARY
  5
A7D
330
9FD
100
AcDbDictionary
280
1
281
1
  3
ACAD_XREC_ROUNDTRIP
360
A7E
  0
DICTIONARY
  5
A8F
330
A06
100
AcDbDictionary
280
1
281
1
  3
ACAD_XREC_ROUNDTRIP
360
A90
  0
DICTIONARY
  5
A75
330
9F9
100
AcDbDictionary
280
1
281
1
  3
ACAD_XREC_ROUNDTRIP
360
A76
  0
DICTIONARY
  5
A8B
330
A04
100
AcDbDictionary
280
1
281
1
  3
ACAD_XREC_ROUNDTRIP
360
A8C
  0
DICTIONARY
  5
A89
330
A03
100
AcDbDictionary
280
1
281
1
  3
ACAD_XREC_ROUNDTRIP
360
A8A
  0
DICTIONARY
  5
A83
330
A00
100
AcDbDictionary
280
1
281
1
  3
ACAD_XREC_ROUNDTRIP
360
A84
  0
DICTIONARY
  5
A85
330
A01
100
AcDbDictionary
280
1
281
1
  3
ACAD_XREC_ROUNDTRIP
360
A86
  0
DICTIONARY
  5
A7B
330
9FC
100
AcDbDictionary
280
1
281
1
  3
ACAD_XREC_ROUNDTRIP
360
A7C
  0
DICTIONARY
  5
A6F
330
9F6
100
AcDbDictionary
280
1
281
1
  3
ACAD_XREC_ROUNDTRIP
360
A70
  0
DICTIONARY
  5
A87
330
A02
100
AcDbDictionary
280
1
281
1
  3
ACAD_XREC_ROUNDTRIP
360
A88
  0
XRECORD
  5
A98
102
{ACAD_REACTORS
330
A97
102
}
330
A97
100
AcDbXrecord
280
1
102
DISPLAYNAME
  1
Imperial24
102
FLAGS
 90
0
  0
XRECORD
  5
A9C
102
{ACAD_REACTORS
330
A9B
102
}
330
A9B
100
AcDbXrecord
280
1
102
SHADEPLOT
 70
0
102
SHADEPLOTRESLEVEL
 70
2
102
SHADEPLOTCUSTOMDPI
 70
300
  0
XRECORD
  5
A9A
102
{ACAD_REACTORS
330
A99
102
}
330
A99
100
AcDbXrecord
280
1
102
SHADEPLOT
 70
0
102
SHADEPLOTRESLEVEL
 70
2
102
SHADEPLOTCUSTOMDPI
 70
300
  0
XRECORD
  5
A61
102
{ACAD_REACTORS
330
9E0
102
}
330
9E0
100
AcDbXrecord
280
1
102
MATERIAL
148
0.0
149
0.0
149
0.0
 93
0
 94
127
282
0
 72
0
 77
0
171
0
175
0
179
0
273
0
  0
XRECORD
  5
9E2
102
{ACAD_REACTORS
330
9E0
102
}
330
9E0
100
AcDbXrecord
280
1
270
1
271
1
  0
XRECORD
  5
9E1
102
{ACAD_REACTORS
330
9E0
102
}
330
9E0
100
AcDbXrecord
280
1
270
1
271
1
  0
XRECORD
  5
9E5
102
{ACAD_REACTORS
330
9E0
102
}
330
9E0
100
AcDbXrecord
280
1
270
1
271
1
  0
XRECORD
  5
9E4
102
{ACAD_REACTORS
330
9E0
102
}
330
9E0
100
AcDbXrecord
280
1
270
1
271
1
  0
XRECORD
  5
9E6
102
{ACAD_REACTORS
330
9E0
102
}
330
9E0
100
AcDbXrecord
280
1
270
1
271
1
  0
XRECORD
  5
9E3
102
{ACAD_REACTORS
330
9E0
102
}
330
9E0
100
AcDbXrecord
280
1
270
1
271
1
  0
XRECORD
  5
A60
102
{ACAD_REACTORS
330
9D8
102
}
330
9D8
100
AcDbXrecord
280
1
102
MATERIAL
148
0.0
149
0.0
149
0.0
 93
0
 94
127
282
0
 72
0
 77
0
171
0
175
0
179
0
273
0
  0
XRECORD
  5
9DA
102
{ACAD_REACTORS
330
9D8
102
}
330
9D8
100
AcDbXrecord
280
1
270
1
271
1
  0
XRECORD
  5
9D9
102
{ACAD_REACTORS
330
9D8
102
}
330
9D8
100
AcDbXrecord
280
1
270
1
271
1
  0
XRECORD
  5
9DD
102
{ACAD_REACTORS
330
9D8
102
}
330
9D8
100
AcDbXrecord
280
1
270
1
271
1
  0
XRECORD
  5
9DC
102
{ACAD_REACTORS
330
9D8
102
}
330
9D8
100
AcDbXrecord
280
1
270
1
271
1
  0
XRECORD
  5
9DE
102
{ACAD_REACTORS
330
9D8
102
}
330
9D8
100
AcDbXrecord
280
1
270
1
271
1
  0
XRECORD
  5
9DB
102
{ACAD_REACTORS
330
9D8
102
}
330
9D8
100
AcDbXrecord
280
1
270
1
271
1
  0
XRECORD
  5
A62
102
{ACAD_REACTORS
330
9E8
102
}
330
9E8
100
AcDbXrecord
280
1
102
MATERIAL
148
0.0
149
0.0
149
0.0
 93
0
 94
127
282
0
 72
0
 77
0
171
0
175
0
179
0
273
0
  0
XRECORD
  5
9EA
102
{ACAD_REACTORS
330
9E8
102
}
330
9E8
100
AcDbXrecord
280
1
270
1
271
1
  0
XRECORD
  5
9E9
102
{ACAD_REACTORS
330
9E8
102
}
330
9E8
100
AcDbXrecord
280
1
270
1
271
1
  0
XRECORD
  5
9ED
102
{ACAD_REACTORS
330
9E8
102
}
330
9E8
100
AcDbXrecord
280
1
270
1
271
1
  0
XRECORD
  5
9EC
102
{ACAD_REACTORS
330
9E8
102
}
330
9E8
100
AcDbXrecord
280
1
270
1
271
1
  0
XRECORD
  5
9EE
102
{ACAD_REACTORS
330
9E8
102
}
330
9E8
100
AcDbXrecord
280
1
270
1
271
1
  0
XRECORD
  5
9EB
102
{ACAD_REACTORS
330
9E8
102
}
330
9E8
100
AcDbXrecord
280
1
270
1
271
1
  0
XRECORD
  5
A96
102
{ACAD_REACTORS
330
A95
102
}
330
A95
100
AcDbXrecord
280
1
102
DISPLAYNAME
  1
Imperial24
102
FLAGS
 90
0
  0
CELLSTYLEMAP
  5
A5B
102
{ACAD_REACTORS
330
A5A
102
}
330
A5A
100
AcDbCellStyleMap
 90
3
300
CELLSTYLE
  1
TABLEFORMAT_BEGIN
 90
5
170
1
 91
0
 92
32768
 62
257
 93
1
300
CONTENTFORMAT
  1
CONTENTFORMAT_BEGIN
 90
0
 91
0
 92
512
 93
0
300

 40
0.0
140
1.0
 94
5
 62
0
340
A1B
144
0.25
309
CONTENTFORMAT_END
171
0
 94
0
309
TABLEFORMAT_END
  1
CELLSTYLE_BEGIN
 90
1
 91
1
300
_TITLE
309
CELLSTYLE_END
300
CELLSTYLE
  1
TABLEFORMAT_BEGIN
 90
5
170
1
 91
0
 92
0
 62
257
 93
1
300
CONTENTFORMAT
  1
CONTENTFORMAT_BEGIN
 90
0
 91
0
 92
512
 93
0
300

 40
0.0
140
1.0
 94
5
 62
0
340
A1B
144
0.18
309
CONTENTFORMAT_END
171
0
 94
0
309
TABLEFORMAT_END
  1
CELLSTYLE_BEGIN
 90
2
 91
1
300
_HEADER
309
CELLSTYLE_END
300
CELLSTYLE
  1
TABLEFORMAT_BEGIN
 90
5
170
1
 91
0
 92
0
 62
257
 93
1
300
CONTENTFORMAT
  1
CONTENTFORMAT_BEGIN
 90
0
 91
0
 92
512
 93
0
300

 40
0.0
140
1.0
 94
2
 62
0
340
A1B
144
0.18
309
CONTENTFORMAT_END
171
0
 94
0
309
TABLEFORMAT_END
  1
CELLSTYLE_BEGIN
 90
3
 91
2
300
_DATA
309
CELLSTYLE_END
  0
XRECORD
  5
A93
102
{ACAD_REACTORS
330
A5A
102
}
330
A5A
100
AcDbXrecord
280
1
102
ACAD_ROUNDTRIP_PRE2007_TABLESTYLE
 90
512
 91
0
  1

 92
512
 93
0
  2

 94
512
 95
0
  3

  0
XRECORD
  5
A6E
102
{ACAD_REACTORS
330
A6D
102
}
330
A6D
100
AcDbXrecord
280
1
102
RTVSPost2010Prop28
280
1
102
RTVSPost2010PropOp28
 70
1
102
RTVSPost2010Prop29
280
1
102
RTVSPost2010PropOp29
 70
1
102
RTVSPost2010Prop30
280
0
102
RTVSPost2010PropOp30
 70
1
102
RTVSPost2010Prop31
280
0
102
RTVSPost2010PropOp31
 70
1
102
RTVSPost2010Prop32
280
0
102
RTVSPost2010PropOp32
 70
1
102
RTVSPost2010Prop33
280
0
102
RTVSPost2010PropOp33
 70
1
102
RTVSPost2010Prop34
280
0
102
RTVSPost2010PropOp34
 70
1
102
RTVSPost2010Prop35
280
0
102
RTVSPost2010PropOp35
 70
1
102
RTVSPost2010Prop36
280
0
102
RTVSPost2010PropOp36
 70
1
102
RTVSPost2010Prop37
 90
50
102
RTVSPost2010PropOp37
 70
1
102
RTVSPost2010Prop38
140
0.0
102
RTVSPost2010PropOp38
 70
1
102
RTVSPost2010Prop39
140
1.0
102
RTVSPost2010PropOp39
 70
1
102
RTVSPost2010Prop40
 90
0
102
RTVSPost2010PropOp40
 70
1
102
RTVSPost2010Prop41ColorIndex
 90
18
102
RTVSPost2010Prop41ColorRGB
 90
0
102
RTVSPost2010PropOp41
 70
1
102
RTVSPost2010Prop42
 90
50
102
RTVSPost2010PropOp42
 70
1
102
RTVSPost2010Prop43
 90
3
102
RTVSPost2010PropOp43
 70
1
102
RTVSPost2010Prop44ColorIndex
 90
5
102
RTVSPost2010Prop44ColorRGB
 90
255
102
RTVSPost2010PropOp44
 70
1
102
RTVSPost2010Prop45
280
0
102
RTVSPost2010PropOp45
 70
1
102
RTVSPost2010Prop46
 90
50
102
RTVSPost2010PropOp46
 70
1
102
RTVSPost2010Prop47
 90
50
102
RTVSPost2010PropOp47
 70
1
102
RTVSPost2010Prop48
 90
50
102
RTVSPost2010PropOp48
 70
1
102
RTVSPost2010Prop49
280
0
102
RTVSPost2010PropOp49
 70
1
102
RTVSPost2010Prop50
 90
50
102
RTVSPost2010PropOp50
 70
1
102
RTVSPost2010Prop51ColorIndex
 90
256
102
RTVSPost2010Prop51ColorRGB
 90
-16777216
102
RTVSPost2010PropOp51
 70
0
102
RTVSPost2010Prop52
140
1.0
102
RTVSPost2010PropOp52
 70
0
102
RTVSPost2010Prop53
 90
2
102
RTVSPost2010PropOp53
 70
1
102
RTVSPost2010Prop54
  1
strokes_ogs.tif
102
RTVSPost2010PropOp54
 70
1
102
RTVSPost2010Prop55
280
0
102
RTVSPost2010PropOp55
 70
1
102
RTVSPost2010Prop56
140
1.0
102
RTVSPost2010PropOp56
 70
1
102
RTVSPost2010Prop57
140
1.0
102
RTVSPost2010PropOp57
 70
1
102
RTVSPropertyOp0
 70
1
102
RTVSPropertyOp1
 70
1
102
RTVSPropertyOp2
 70
1
102
RTVSPropertyOp3
 70
1
102
RTVSPropertyOp4
 70
1
102
RTVSPropertyOp5
 70
1
102
RTVSPropertyOp6
 70
1
102
RTVSPropertyOp7
 70
1
102
RTVSPropertyOp8
 70
1
102
RTVSPropertyOp9
 70
1
102
RTVSPropertyOp10
 70
1
102
RTVSPropertyOp11
 70
1
102
RTVSPropertyOp12
 70
1
102
RTVSPropertyOp13
 70
1
102
RTVSPropertyOp14
 70
1
102
RTVSPropertyOp15
 70
1
102
RTVSPropertyOp16
 70
1
102
RTVSPropertyOp17
 70
1
102
RTVSPropertyOp18
 70
1
102
RTVSPropertyOp19
 70
1
102
RTVSPropertyOp20
 70
1
102
RTVSPropertyOp21
 70
1
102
RTVSPropertyOp22
 70
1
102
RTVSPropertyOp23
 70
1
102
RTVSPropertyOp24
 70
1
102
RTVSPropertyOp25
 70
1
102
RTVSPropertyOp26
 70
1
102
RTVSPropertyOp27
 70
1
102
RTVSPropertyOp28
 70
1
102
RTVSPropertyOp29
 70
1
102
RTVSPropertyOp30
 70
1
102
RTVSPropertyOp31
 70
1
102
RTVSPropertyOp32
 70
1
102
RTVSPropertyOp33
 70
1
102
RTVSPropertyOp34
 70
1
102
RTVSPropertyOp35
 70
1
102
RTVSPropertyOp36
 70
1
102
RTVSPropertyOp37
 70
1
102
RTVSPropertyOp38
 70
1
102
RTVSPropertyOp39
 70
1
102
RTVSPropertyOp40
 70
1
102
RTVSPropertyOp41
 70
1
102
RTVSPropertyOp42
 70
1
102
RTVSPropertyOp43
 70
1
102
RTVSPropertyOp44
 70
1
102
RTVSPropertyOp45
 70
1
102
RTVSPropertyOp46
 70
1
102
RTVSPropertyOp47
 70
1
102
RTVSPropertyOp48
 70
1
102
RTVSPropertyOp49
 70
1
102
RTVSPropertyOp50
 70
1
102
RTVSPropertyOp51
 70
0
102
RTVSPropertyOp52
 70
0
102
RTVSPropertyOp53
 70
1
102
RTVSPropertyOp54
 70
1
102
RTVSPropertyOp55
 70
1
102
RTVSPropertyOp56
 70
1
102
RTVSPropertyOp57
 70
1
102
RTVSPropertyOp58
 70
1
102
RTVSPropertyOp59
 70
1
102
RTVSPropertyOp60
 70
1
102
RTVSPropertyOp61
 70
1
102
RTVSPropertyOp62
 70
1
  0
XRECORD
  5
A6C
102
{ACAD_REACTORS
330
A6B
102
}
330
A6B
100
AcDbXrecord
280
1
102
RTVSPost2010Prop28
280
0
102
RTVSPost2010PropOp28
 70
1
102
RTVSPost2010Prop29
280
1
102
RTVSPost2010PropOp29
 70
1
102
RTVSPost2010Prop30
280
1
102
RTVSPost2010PropOp30
 70
1
102
RTVSPost2010Prop31
280
0
102
RTVSPost2010PropOp31
 70
1
102
RTVSPost2010Prop32
280
0
102
RTVSPost2010PropOp32
 70
1
102
RTVSPost2010Prop33
280
0
102
RTVSPost2010PropOp33
 70
1
102
RTVSPost2010Prop34
280
0
102
RTVSPost2010PropOp34
 70
1
102
RTVSPost2010Prop35
280
0
102
RTVSPost2010PropOp35
 70
1
102
RTVSPost2010Prop36
280
0
102
RTVSPost2010PropOp36
 70
1
102
RTVSPost2010Prop37
 90
50
102
RTVSPost2010PropOp37
 70
1
102
RTVSPost2010Prop38
140
0.0
102
RTVSPost2010PropOp38
 70
1
102
RTVSPost2010Prop39
140
1.0
102
RTVSPost2010PropOp39
 70
1
102
RTVSPost2010Prop40
 90
0
102
RTVSPost2010PropOp40
 70
1
102
RTVSPost2010Prop41ColorIndex
 90
18
102
RTVSPost2010Prop41ColorRGB
 90
0
102
RTVSPost2010PropOp41
 70
1
102
RTVSPost2010Prop42
 90
50
102
RTVSPost2010PropOp42
 70
1
102
RTVSPost2010Prop43
 90
3
102
RTVSPost2010PropOp43
 70
1
102
RTVSPost2010Prop44ColorIndex
 90
5
102
RTVSPost2010Prop44ColorRGB
 90
255
102
RTVSPost2010PropOp44
 70
1
102
RTVSPost2010Prop45
280
0
102
RTVSPost2010PropOp45
 70
1
102
RTVSPost2010Prop46
 90
50
102
RTVSPost2010PropOp46
 70
1
102
RTVSPost2010Prop47
 90
50
102
RTVSPost2010PropOp47
 70
1
102
RTVSPost2010Prop48
 90
50
102
RTVSPost2010PropOp48
 70
1
102
RTVSPost2010Prop49
280
0
102
RTVSPost2010PropOp49
 70
1
102
RTVSPost2010Prop50
 90
50
102
RTVSPost2010PropOp50
 70
1
102
RTVSPost2010Prop51ColorIndex
 90
256
102
RTVSPost2010Prop51ColorRGB
 90
-16777216
102
RTVSPost2010PropOp51
 70
0
102
RTVSPost2010Prop52
140
1.0
102
RTVSPost2010PropOp52
 70
0
102
RTVSPost2010Prop53
 90
2
102
RTVSPost2010PropOp53
 70
1
102
RTVSPost2010Prop54
  1
strokes_ogs.tif
102
RTVSPost2010PropOp54
 70
1
102
RTVSPost2010Prop55
280
0
102
RTVSPost2010PropOp55
 70
1
102
RTVSPost2010Prop56
140
1.0
102
RTVSPost2010PropOp56
 70
1
102
RTVSPost2010Prop57
140
1.0
102
RTVSPost2010PropOp57
 70
1
102
RTVSPropertyOp0
 70
1
102
RTVSPropertyOp1
 70
1
102
RTVSPropertyOp2
 70
1
102
RTVSPropertyOp3
 70
1
102
RTVSPropertyOp4
 70
1
102
RTVSPropertyOp5
 70
1
102
RTVSPropertyOp6
 70
1
102
RTVSPropertyOp7
 70
1
102
RTVSPropertyOp8
 70
1
102
RTVSPropertyOp9
 70
1
102
RTVSPropertyOp10
 70
1
102
RTVSPropertyOp11
 70
1
102
RTVSPropertyOp12
 70
1
102
RTVSPropertyOp13
 70
1
102
RTVSPropertyOp14
 70
1
102
RTVSPropertyOp15
 70
1
102
RTVSPropertyOp16
 70
1
102
RTVSPropertyOp17
 70
1
102
RTVSPropertyOp18
 70
1
102
RTVSPropertyOp19
 70
1
102
RTVSPropertyOp20
 70
1
102
RTVSPropertyOp21
 70
1
102
RTVSPropertyOp22
 70
1
102
RTVSPropertyOp23
 70
1
102
RTVSPropertyOp24
 70
1
102
RTVSPropertyOp25
 70
1
102
RTVSPropertyOp26
 70
1
102
RTVSPropertyOp27
 70
1
102
RTVSPropertyOp28
 70
1
102
RTVSPropertyOp29
 70
1
102
RTVSPropertyOp30
 70
1
102
RTVSPropertyOp31
 70
1
102
RTVSPropertyOp32
 70
1
102
RTVSPropertyOp33
 70
1
102
RTVSPropertyOp34
 70
1
102
RTVSPropertyOp35
 70
1
102
RTVSPropertyOp36
 70
1
102
RTVSPropertyOp37
 70
1
102
RTVSPropertyOp38
 70
1
102
RTVSPropertyOp39
 70
1
102
RTVSPropertyOp40
 70
1
102
RTVSPropertyOp41
 70
1
102
RTVSPropertyOp42
 70
1
102
RTVSPropertyOp43
 70
1
102
RTVSPropertyOp44
 70
1
102
RTVSPropertyOp45
 70
1
102
RTVSPropertyOp46
 70
1
102
RTVSPropertyOp47
 70
1
102
RTVSPropertyOp48
 70
1
102
RTVSPropertyOp49
 70
1
102
RTVSPropertyOp50
 70
1
102
RTVSPropertyOp51
 70
0
102
RTVSPropertyOp52
 70
0
102
RTVSPropertyOp53
 70
1
102
RTVSPropertyOp54
 70
1
102
RTVSPropertyOp55
 70
1
102
RTVSPropertyOp56
 70
1
102
RTVSPropertyOp57
 70
1
102
RTVSPropertyOp58
 70
1
102
RTVSPropertyOp59
 70
1
102
RTVSPropertyOp60
 70
1
102
RTVSPropertyOp61
 70
1
102
RTVSPropertyOp62
 70
1
  0
XRECORD
  5
A7A
102
{ACAD_REACTORS
330
A79
102
}
330
A79
100
AcDbXrecord
280
1
102
RTVSPost2010Prop28
280
0
102
RTVSPost2010PropOp28
 70
1
102
RTVSPost2010Prop29
280
1
102
RTVSPost2010PropOp29
 70
1
102
RTVSPost2010Prop30
280
1
102
RTVSPost2010PropOp30
 70
1
102
RTVSPost2010Prop31
280
0
102
RTVSPost2010PropOp31
 70
1
102
RTVSPost2010Prop32
280
0
102
RTVSPost2010PropOp32
 70
1
102
RTVSPost2010Prop33
280
0
102
RTVSPost2010PropOp33
 70
1
102
RTVSPost2010Prop34
280
0
102
RTVSPost2010PropOp34
 70
1
102
RTVSPost2010Prop35
280
0
102
RTVSPost2010PropOp35
 70
1
102
RTVSPost2010Prop36
280
0
102
RTVSPost2010PropOp36
 70
1
102
RTVSPost2010Prop37
 90
50
102
RTVSPost2010PropOp37
 70
1
102
RTVSPost2010Prop38
140
0.0
102
RTVSPost2010PropOp38
 70
1
102
RTVSPost2010Prop39
140
1.0
102
RTVSPost2010PropOp39
 70
1
102
RTVSPost2010Prop40
 90
0
102
RTVSPost2010PropOp40
 70
1
102
RTVSPost2010Prop41ColorIndex
 90
18
102
RTVSPost2010Prop41ColorRGB
 90
0
102
RTVSPost2010PropOp41
 70
1
102
RTVSPost2010Prop42
 90
50
102
RTVSPost2010PropOp42
 70
1
102
RTVSPost2010Prop43
 90
3
102
RTVSPost2010PropOp43
 70
1
102
RTVSPost2010Prop44ColorIndex
 90
5
102
RTVSPost2010Prop44ColorRGB
 90
255
102
RTVSPost2010PropOp44
 70
1
102
RTVSPost2010Prop45
280
0
102
RTVSPost2010PropOp45
 70
1
102
RTVSPost2010Prop46
 90
50
102
RTVSPost2010PropOp46
 70
1
102
RTVSPost2010Prop47
 90
50
102
RTVSPost2010PropOp47
 70
1
102
RTVSPost2010Prop48
 90
50
102
RTVSPost2010PropOp48
 70
1
102
RTVSPost2010Prop49
280
0
102
RTVSPost2010PropOp49
 70
1
102
RTVSPost2010Prop50
 90
50
102
RTVSPost2010PropOp50
 70
1
102
RTVSPost2010Prop51ColorIndex
 90
256
102
RTVSPost2010Prop51ColorRGB
 90
-16777216
102
RTVSPost2010PropOp51
 70
0
102
RTVSPost2010Prop52
140
1.0
102
RTVSPost2010PropOp52
 70
0
102
RTVSPost2010Prop53
 90
2
102
RTVSPost2010PropOp53
 70
1
102
RTVSPost2010Prop54
  1
strokes_ogs.tif
102
RTVSPost2010PropOp54
 70
1
102
RTVSPost2010Prop55
280
0
102
RTVSPost2010PropOp55
 70
1
102
RTVSPost2010Prop56
140
1.0
102
RTVSPost2010PropOp56
 70
1
102
RTVSPost2010Prop57
140
1.0
102
RTVSPost2010PropOp57
 70
1
102
RTVSPropertyOp0
 70
1
102
RTVSPropertyOp1
 70
1
102
RTVSPropertyOp2
 70
1
102
RTVSPropertyOp3
 70
1
102
RTVSPropertyOp4
 70
1
102
RTVSPropertyOp5
 70
1
102
RTVSPropertyOp6
 70
1
102
RTVSPropertyOp7
 70
1
102
RTVSPropertyOp8
 70
1
102
RTVSPropertyOp9
 70
1
102
RTVSPropertyOp10
 70
1
102
RTVSPropertyOp11
 70
1
102
RTVSPropertyOp12
 70
1
102
RTVSPropertyOp13
 70
1
102
RTVSPropertyOp14
 70
1
102
RTVSPropertyOp15
 70
1
102
RTVSPropertyOp16
 70
1
102
RTVSPropertyOp17
 70
1
102
RTVSPropertyOp18
 70
1
102
RTVSPropertyOp19
 70
1
102
RTVSPropertyOp20
 70
1
102
RTVSPropertyOp21
 70
1
102
RTVSPropertyOp22
 70
1
102
RTVSPropertyOp23
 70
1
102
RTVSPropertyOp24
 70
1
102
RTVSPropertyOp25
 70
1
102
RTVSPropertyOp26
 70
1
102
RTVSPropertyOp27
 70
1
102
RTVSPropertyOp28
 70
1
102
RTVSPropertyOp29
 70
1
102
RTVSPropertyOp30
 70
1
102
RTVSPropertyOp31
 70
1
102
RTVSPropertyOp32
 70
1
102
RTVSPropertyOp33
 70
1
102
RTVSPropertyOp34
 70
1
102
RTVSPropertyOp35
 70
1
102
RTVSPropertyOp36
 70
1
102
RTVSPropertyOp37
 70
1
102
RTVSPropertyOp38
 70
1
102
RTVSPropertyOp39
 70
1
102
RTVSPropertyOp40
 70
1
102
RTVSPropertyOp41
 70
1
102
RTVSPropertyOp42
 70
1
102
RTVSPropertyOp43
 70
1
102
RTVSPropertyOp44
 70
1
102
RTVSPropertyOp45
 70
1
102
RTVSPropertyOp46
 70
1
102
RTVSPropertyOp47
 70
1
102
RTVSPropertyOp48
 70
1
102
RTVSPropertyOp49
 70
1
102
RTVSPropertyOp50
 70
1
102
RTVSPropertyOp51
 70
0
102
RTVSPropertyOp52
 70
0
102
RTVSPropertyOp53
 70
1
102
RTVSPropertyOp54
 70
1
102
RTVSPropertyOp55
 70
1
102
RTVSPropertyOp56
 70
1
102
RTVSPropertyOp57
 70
1
102
RTVSPropertyOp58
 70
1
102
RTVSPropertyOp59
 70
1
102
RTVSPropertyOp60
 70
1
102
RTVSPropertyOp61
 70
1
102
RTVSPropertyOp62
 70
1
  0
XRECORD
  5
A82
102
{ACAD_REACTORS
330
A81
102
}
330
A81
100
AcDbXrecord
280
1
102
RTVSPost2010Prop28
280
0
102
RTVSPost2010PropOp28
 70
1
102
RTVSPost2010Prop29
280
1
102
RTVSPost2010PropOp29
 70
1
102
RTVSPost2010Prop30
280
1
102
RTVSPost2010PropOp30
 70
1
102
RTVSPost2010Prop31
280
0
102
RTVSPost2010PropOp31
 70
1
102
RTVSPost2010Prop32
280
0
102
RTVSPost2010PropOp32
 70
1
102
RTVSPost2010Prop33
280
0
102
RTVSPost2010PropOp33
 70
1
102
RTVSPost2010Prop34
280
0
102
RTVSPost2010PropOp34
 70
1
102
RTVSPost2010Prop35
280
0
102
RTVSPost2010PropOp35
 70
1
102
RTVSPost2010Prop36
280
0
102
RTVSPost2010PropOp36
 70
1
102
RTVSPost2010Prop37
 90
50
102
RTVSPost2010PropOp37
 70
1
102
RTVSPost2010Prop38
140
0.0
102
RTVSPost2010PropOp38
 70
1
102
RTVSPost2010Prop39
140
1.0
102
RTVSPost2010PropOp39
 70
1
102
RTVSPost2010Prop40
 90
0
102
RTVSPost2010PropOp40
 70
1
102
RTVSPost2010Prop41ColorIndex
 90
18
102
RTVSPost2010Prop41ColorRGB
 90
0
102
RTVSPost2010PropOp41
 70
1
102
RTVSPost2010Prop42
 90
50
102
RTVSPost2010PropOp42
 70
1
102
RTVSPost2010Prop43
 90
3
102
RTVSPost2010PropOp43
 70
1
102
RTVSPost2010Prop44ColorIndex
 90
5
102
RTVSPost2010Prop44ColorRGB
 90
255
102
RTVSPost2010PropOp44
 70
1
102
RTVSPost2010Prop45
280
0
102
RTVSPost2010PropOp45
 70
1
102
RTVSPost2010Prop46
 90
50
102
RTVSPost2010PropOp46
 70
1
102
RTVSPost2010Prop47
 90
50
102
RTVSPost2010PropOp47
 70
1
102
RTVSPost2010Prop48
 90
50
102
RTVSPost2010PropOp48
 70
1
102
RTVSPost2010Prop49
280
0
102
RTVSPost2010PropOp49
 70
1
102
RTVSPost2010Prop50
 90
50
102
RTVSPost2010PropOp50
 70
1
102
RTVSPost2010Prop51ColorIndex
 90
256
102
RTVSPost2010Prop51ColorRGB
 90
-16777216
102
RTVSPost2010PropOp51
 70
0
102
RTVSPost2010Prop52
140
1.0
102
RTVSPost2010PropOp52
 70
0
102
RTVSPost2010Prop53
 90
2
102
RTVSPost2010PropOp53
 70
1
102
RTVSPost2010Prop54
  1
strokes_ogs.tif
102
RTVSPost2010PropOp54
 70
1
102
RTVSPost2010Prop55
280
0
102
RTVSPost2010PropOp55
 70
1
102
RTVSPost2010Prop56
140
1.0
102
RTVSPost2010PropOp56
 70
1
102
RTVSPost2010Prop57
140
1.0
102
RTVSPost2010PropOp57
 70
1
102
RTVSPropertyOp0
 70
1
102
RTVSPropertyOp1
 70
1
102
RTVSPropertyOp2
 70
1
102
RTVSPropertyOp3
 70
1
102
RTVSPropertyOp4
 70
1
102
RTVSPropertyOp5
 70
1
102
RTVSPropertyOp6
 70
1
102
RTVSPropertyOp7
 70
1
102
RTVSPropertyOp8
 70
1
102
RTVSPropertyOp9
 70
1
102
RTVSPropertyOp10
 70
1
102
RTVSPropertyOp11
 70
1
102
RTVSPropertyOp12
 70
1
102
RTVSPropertyOp13
 70
1
102
RTVSPropertyOp14
 70
1
102
RTVSPropertyOp15
 70
1
102
RTVSPropertyOp16
 70
1
102
RTVSPropertyOp17
 70
1
102
RTVSPropertyOp18
 70
1
102
RTVSPropertyOp19
 70
1
102
RTVSPropertyOp20
 70
1
102
RTVSPropertyOp21
 70
1
102
RTVSPropertyOp22
 70
1
102
RTVSPropertyOp23
 70
1
102
RTVSPropertyOp24
 70
1
102
RTVSPropertyOp25
 70
1
102
RTVSPropertyOp26
 70
1
102
RTVSPropertyOp27
 70
1
102
RTVSPropertyOp28
 70
1
102
RTVSPropertyOp29
 70
1
102
RTVSPropertyOp30
 70
1
102
RTVSPropertyOp31
 70
1
102
RTVSPropertyOp32
 70
1
102
RTVSPropertyOp33
 70
1
102
RTVSPropertyOp34
 70
1
102
RTVSPropertyOp35
 70
1
102
RTVSPropertyOp36
 70
1
102
RTVSPropertyOp37
 70
1
102
RTVSPropertyOp38
 70
1
102
RTVSPropertyOp39
 70
1
102
RTVSPropertyOp40
 70
1
102
RTVSPropertyOp41
 70
1
102
RTVSPropertyOp42
 70
1
102
RTVSPropertyOp43
 70
1
102
RTVSPropertyOp44
 70
1
102
RTVSPropertyOp45
 70
1
102
RTVSPropertyOp46
 70
1
102
RTVSPropertyOp47
 70
1
102
RTVSPropertyOp48
 70
1
102
RTVSPropertyOp49
 70
1
102
RTVSPropertyOp50
 70
1
102
RTVSPropertyOp51
 70
0
102
RTVSPropertyOp52
 70
0
102
RTVSPropertyOp53
 70
1
102
RTVSPropertyOp54
 70
1
102
RTVSPropertyOp55
 70
1
102
RTVSPropertyOp56
 70
1
102
RTVSPropertyOp57
 70
1
102
RTVSPropertyOp58
 70
1
102
RTVSPropertyOp59
 70
1
102
RTVSPropertyOp60
 70
1
102
RTVSPropertyOp61
 70
1
102
RTVSPropertyOp62
 70
1
  0
XRECORD
  5
A74
102
{ACAD_REACTORS
330
A73
102
}
330
A73
100
AcDbXrecord
280
1
102
RTVSPost2010Prop28
280
0
102
RTVSPost2010PropOp28
 70
1
102
RTVSPost2010Prop29
280
1
102
RTVSPost2010PropOp29
 70
1
102
RTVSPost2010Prop30
280
1
102
RTVSPost2010PropOp30
 70
1
102
RTVSPost2010Prop31
280
0
102
RTVSPost2010PropOp31
 70
1
102
RTVSPost2010Prop32
280
0
102
RTVSPost2010PropOp32
 70
1
102
RTVSPost2010Prop33
280
0
102
RTVSPost2010PropOp33
 70
1
102
RTVSPost2010Prop34
280
0
102
RTVSPost2010PropOp34
 70
1
102
RTVSPost2010Prop35
280
0
102
RTVSPost2010PropOp35
 70
1
102
RTVSPost2010Prop36
280
0
102
RTVSPost2010PropOp36
 70
1
102
RTVSPost2010Prop37
 90
50
102
RTVSPost2010PropOp37
 70
1
102
RTVSPost2010Prop38
140
0.0
102
RTVSPost2010PropOp38
 70
1
102
RTVSPost2010Prop39
140
1.0
102
RTVSPost2010PropOp39
 70
1
102
RTVSPost2010Prop40
 90
0
102
RTVSPost2010PropOp40
 70
1
102
RTVSPost2010Prop41ColorIndex
 90
18
102
RTVSPost2010Prop41ColorRGB
 90
0
102
RTVSPost2010PropOp41
 70
1
102
RTVSPost2010Prop42
 90
50
102
RTVSPost2010PropOp42
 70
1
102
RTVSPost2010Prop43
 90
3
102
RTVSPost2010PropOp43
 70
1
102
RTVSPost2010Prop44ColorIndex
 90
5
102
RTVSPost2010Prop44ColorRGB
 90
255
102
RTVSPost2010PropOp44
 70
1
102
RTVSPost2010Prop45
280
0
102
RTVSPost2010PropOp45
 70
1
102
RTVSPost2010Prop46
 90
50
102
RTVSPost2010PropOp46
 70
1
102
RTVSPost2010Prop47
 90
50
102
RTVSPost2010PropOp47
 70
1
102
RTVSPost2010Prop48
 90
50
102
RTVSPost2010PropOp48
 70
1
102
RTVSPost2010Prop49
280
0
102
RTVSPost2010PropOp49
 70
1
102
RTVSPost2010Prop50
 90
50
102
RTVSPost2010PropOp50
 70
1
102
RTVSPost2010Prop51ColorIndex
 90
256
102
RTVSPost2010Prop51ColorRGB
 90
-16777216
102
RTVSPost2010PropOp51
 70
0
102
RTVSPost2010Prop52
140
1.0
102
RTVSPost2010PropOp52
 70
0
102
RTVSPost2010Prop53
 90
2
102
RTVSPost2010PropOp53
 70
1
102
RTVSPost2010Prop54
  1
strokes_ogs.tif
102
RTVSPost2010PropOp54
 70
1
102
RTVSPost2010Prop55
280
0
102
RTVSPost2010PropOp55
 70
1
102
RTVSPost2010Prop56
140
1.0
102
RTVSPost2010PropOp56
 70
1
102
RTVSPost2010Prop57
140
1.0
102
RTVSPost2010PropOp57
 70
1
102
RTVSPropertyOp0
 70
1
102
RTVSPropertyOp1
 70
1
102
RTVSPropertyOp2
 70
1
102
RTVSPropertyOp3
 70
1
102
RTVSPropertyOp4
 70
1
102
RTVSPropertyOp5
 70
1
102
RTVSPropertyOp6
 70
1
102
RTVSPropertyOp7
 70
1
102
RTVSPropertyOp8
 70
1
102
RTVSPropertyOp9
 70
1
102
RTVSPropertyOp10
 70
1
102
RTVSPropertyOp11
 70
1
102
RTVSPropertyOp12
 70
1
102
RTVSPropertyOp13
 70
1
102
RTVSPropertyOp14
 70
1
102
RTVSPropertyOp15
 70
1
102
RTVSPropertyOp16
 70
1
102
RTVSPropertyOp17
 70
1
102
RTVSPropertyOp18
 70
1
102
RTVSPropertyOp19
 70
1
102
RTVSPropertyOp20
 70
1
102
RTVSPropertyOp21
 70
1
102
RTVSPropertyOp22
 70
1
102
RTVSPropertyOp23
 70
1
102
RTVSPropertyOp24
 70
1
102
RTVSPropertyOp25
 70
1
102
RTVSPropertyOp26
 70
1
102
RTVSPropertyOp27
 70
1
102
RTVSPropertyOp28
 70
1
102
RTVSPropertyOp29
 70
1
102
RTVSPropertyOp30
 70
1
102
RTVSPropertyOp31
 70
1
102
RTVSPropertyOp32
 70
1
102
RTVSPropertyOp33
 70
1
102
RTVSPropertyOp34
 70
1
102
RTVSPropertyOp35
 70
1
102
RTVSPropertyOp36
 70
1
102
RTVSPropertyOp37
 70
1
102
RTVSPropertyOp38
 70
1
102
RTVSPropertyOp39
 70
1
102
RTVSPropertyOp40
 70
1
102
RTVSPropertyOp41
 70
1
102
RTVSPropertyOp42
 70
1
102
RTVSPropertyOp43
 70
1
102
RTVSPropertyOp44
 70
1
102
RTVSPropertyOp45
 70
1
102
RTVSPropertyOp46
 70
1
102
RTVSPropertyOp47
 70
1
102
RTVSPropertyOp48
 70
1
102
RTVSPropertyOp49
 70
1
102
RTVSPropertyOp50
 70
1
102
RTVSPropertyOp51
 70
0
102
RTVSPropertyOp52
 70
0
102
RTVSPropertyOp53
 70
1
102
RTVSPropertyOp54
 70
1
102
RTVSPropertyOp55
 70
1
102
RTVSPropertyOp56
 70
1
102
RTVSPropertyOp57
 70
1
102
RTVSPropertyOp58
 70
1
102
RTVSPropertyOp59
 70
1
102
RTVSPropertyOp60
 70
1
102
RTVSPropertyOp61
 70
1
102
RTVSPropertyOp62
 70
1
  0
XRECORD
  5
A78
102
{ACAD_REACTORS
330
A77
102
}
330
A77
100
AcDbXrecord
280
1
102
RTVSPost2010Prop28
280
0
102
RTVSPost2010PropOp28
 70
1
102
RTVSPost2010Prop29
280
1
102
RTVSPost2010PropOp29
 70
1
102
RTVSPost2010Prop30
280
1
102
RTVSPost2010PropOp30
 70
1
102
RTVSPost2010Prop31
280
0
102
RTVSPost2010PropOp31
 70
1
102
RTVSPost2010Prop32
280
0
102
RTVSPost2010PropOp32
 70
1
102
RTVSPost2010Prop33
280
0
102
RTVSPost2010PropOp33
 70
1
102
RTVSPost2010Prop34
280
0
102
RTVSPost2010PropOp34
 70
1
102
RTVSPost2010Prop35
280
0
102
RTVSPost2010PropOp35
 70
1
102
RTVSPost2010Prop36
280
0
102
RTVSPost2010PropOp36
 70
1
102
RTVSPost2010Prop37
 90
50
102
RTVSPost2010PropOp37
 70
1
102
RTVSPost2010Prop38
140
0.0
102
RTVSPost2010PropOp38
 70
1
102
RTVSPost2010Prop39
140
1.0
102
RTVSPost2010PropOp39
 70
1
102
RTVSPost2010Prop40
 90
0
102
RTVSPost2010PropOp40
 70
1
102
RTVSPost2010Prop41ColorIndex
 90
18
102
RTVSPost2010Prop41ColorRGB
 90
0
102
RTVSPost2010PropOp41
 70
1
102
RTVSPost2010Prop42
 90
50
102
RTVSPost2010PropOp42
 70
1
102
RTVSPost2010Prop43
 90
3
102
RTVSPost2010PropOp43
 70
1
102
RTVSPost2010Prop44ColorIndex
 90
5
102
RTVSPost2010Prop44ColorRGB
 90
255
102
RTVSPost2010PropOp44
 70
1
102
RTVSPost2010Prop45
280
0
102
RTVSPost2010PropOp45
 70
1
102
RTVSPost2010Prop46
 90
50
102
RTVSPost2010PropOp46
 70
1
102
RTVSPost2010Prop47
 90
50
102
RTVSPost2010PropOp47
 70
1
102
RTVSPost2010Prop48
 90
50
102
RTVSPost2010PropOp48
 70
1
102
RTVSPost2010Prop49
280
0
102
RTVSPost2010PropOp49
 70
1
102
RTVSPost2010Prop50
 90
50
102
RTVSPost2010PropOp50
 70
1
102
RTVSPost2010Prop51ColorIndex
 90
256
102
RTVSPost2010Prop51ColorRGB
 90
-16777216
102
RTVSPost2010PropOp51
 70
0
102
RTVSPost2010Prop52
140
1.0
102
RTVSPost2010PropOp52
 70
0
102
RTVSPost2010Prop53
 90
2
102
RTVSPost2010PropOp53
 70
1
102
RTVSPost2010Prop54
  1
strokes_ogs.tif
102
RTVSPost2010PropOp54
 70
1
102
RTVSPost2010Prop55
280
0
102
RTVSPost2010PropOp55
 70
1
102
RTVSPost2010Prop56
140
1.0
102
RTVSPost2010PropOp56
 70
1
102
RTVSPost2010Prop57
140
1.0
102
RTVSPost2010PropOp57
 70
1
102
RTVSPropertyOp0
 70
1
102
RTVSPropertyOp1
 70
1
102
RTVSPropertyOp2
 70
1
102
RTVSPropertyOp3
 70
1
102
RTVSPropertyOp4
 70
1
102
RTVSPropertyOp5
 70
1
102
RTVSPropertyOp6
 70
1
102
RTVSPropertyOp7
 70
1
102
RTVSPropertyOp8
 70
1
102
RTVSPropertyOp9
 70
1
102
RTVSPropertyOp10
 70
1
102
RTVSPropertyOp11
 70
1
102
RTVSPropertyOp12
 70
1
102
RTVSPropertyOp13
 70
1
102
RTVSPropertyOp14
 70
1
102
RTVSPropertyOp15
 70
1
102
RTVSPropertyOp16
 70
1
102
RTVSPropertyOp17
 70
1
102
RTVSPropertyOp18
 70
1
102
RTVSPropertyOp19
 70
1
102
RTVSPropertyOp20
 70
1
102
RTVSPropertyOp21
 70
1
102
RTVSPropertyOp22
 70
1
102
RTVSPropertyOp23
 70
1
102
RTVSPropertyOp24
 70
1
102
RTVSPropertyOp25
 70
1
102
RTVSPropertyOp26
 70
1
102
RTVSPropertyOp27
 70
1
102
RTVSPropertyOp28
 70
1
102
RTVSPropertyOp29
 70
1
102
RTVSPropertyOp30
 70
1
102
RTVSPropertyOp31
 70
1
102
RTVSPropertyOp32
 70
1
102
RTVSPropertyOp33
 70
1
102
RTVSPropertyOp34
 70
1
102
RTVSPropertyOp35
 70
1
102
RTVSPropertyOp36
 70
1
102
RTVSPropertyOp37
 70
1
102
RTVSPropertyOp38
 70
1
102
RTVSPropertyOp39
 70
1
102
RTVSPropertyOp40
 70
1
102
RTVSPropertyOp41
 70
1
102
RTVSPropertyOp42
 70
1
102
RTVSPropertyOp43
 70
1
102
RTVSPropertyOp44
 70
1
102
RTVSPropertyOp45
 70
1
102
RTVSPropertyOp46
 70
1
102
RTVSPropertyOp47
 70
1
102
RTVSPropertyOp48
 70
1
102
RTVSPropertyOp49
 70
1
102
RTVSPropertyOp50
 70
1
102
RTVSPropertyOp51
 70
0
102
RTVSPropertyOp52
 70
0
102
RTVSPropertyOp53
 70
1
102
RTVSPropertyOp54
 70
1
102
RTVSPropertyOp55
 70
1
102
RTVSPropertyOp56
 70
1
102
RTVSPropertyOp57
 70
1
102
RTVSPropertyOp58
 70
1
102
RTVSPropertyOp59
 70
1
102
RTVSPropertyOp60
 70
1
102
RTVSPropertyOp61
 70
1
102
RTVSPropertyOp62
 70
1
  0
XRECORD
  5
A92
102
{ACAD_REACTORS
330
A91
102
}
330
A91
100
AcDbXrecord
280
1
102
RTVSPost2010Prop28
280
0
102
RTVSPost2010PropOp28
 70
1
102
RTVSPost2010Prop29
280
1
102
RTVSPost2010PropOp29
 70
1
102
RTVSPost2010Prop30
280
1
102
RTVSPost2010PropOp30
 70
1
102
RTVSPost2010Prop31
280
0
102
RTVSPost2010PropOp31
 70
1
102
RTVSPost2010Prop32
280
0
102
RTVSPost2010PropOp32
 70
1
102
RTVSPost2010Prop33
280
0
102
RTVSPost2010PropOp33
 70
1
102
RTVSPost2010Prop34
280
0
102
RTVSPost2010PropOp34
 70
1
102
RTVSPost2010Prop35
280
0
102
RTVSPost2010PropOp35
 70
1
102
RTVSPost2010Prop36
280
0
102
RTVSPost2010PropOp36
 70
1
102
RTVSPost2010Prop37
 90
50
102
RTVSPost2010PropOp37
 70
0
102
RTVSPost2010Prop38
140
0.0
102
RTVSPost2010PropOp38
 70
0
102
RTVSPost2010Prop39
140
1.0
102
RTVSPost2010PropOp39
 70
0
102
RTVSPost2010Prop40
 90
0
102
RTVSPost2010PropOp40
 70
0
102
RTVSPost2010Prop41ColorIndex
 90
18
102
RTVSPost2010Prop41ColorRGB
 90
0
102
RTVSPost2010PropOp41
 70
0
102
RTVSPost2010Prop42
 90
50
102
RTVSPost2010PropOp42
 70
0
102
RTVSPost2010Prop43
 90
3
102
RTVSPost2010PropOp43
 70
0
102
RTVSPost2010Prop44ColorIndex
 90
5
102
RTVSPost2010Prop44ColorRGB
 90
255
102
RTVSPost2010PropOp44
 70
0
102
RTVSPost2010Prop45
280
0
102
RTVSPost2010PropOp45
 70
1
102
RTVSPost2010Prop46
 90
50
102
RTVSPost2010PropOp46
 70
0
102
RTVSPost2010Prop47
 90
50
102
RTVSPost2010PropOp47
 70
0
102
RTVSPost2010Prop48
 90
50
102
RTVSPost2010PropOp48
 70
0
102
RTVSPost2010Prop49
280
0
102
RTVSPost2010PropOp49
 70
1
102
RTVSPost2010Prop50
 90
50
102
RTVSPost2010PropOp50
 70
0
102
RTVSPost2010Prop51ColorIndex
 90
256
102
RTVSPost2010Prop51ColorRGB
 90
-16777216
102
RTVSPost2010PropOp51
 70
0
102
RTVSPost2010Prop52
140
1.0
102
RTVSPost2010PropOp52
 70
0
102
RTVSPost2010Prop53
 90
2
102
RTVSPost2010PropOp53
 70
0
102
RTVSPost2010Prop54
  1
strokes_ogs.tif
102
RTVSPost2010PropOp54
 70
0
102
RTVSPost2010Prop55
280
0
102
RTVSPost2010PropOp55
 70
1
102
RTVSPost2010Prop56
140
1.0
102
RTVSPost2010PropOp56
 70
0
102
RTVSPost2010Prop57
140
1.0
102
RTVSPost2010PropOp57
 70
0
102
RTVSPropertyOp0
 70
0
102
RTVSPropertyOp1
 70
0
102
RTVSPropertyOp2
 70
0
102
RTVSPropertyOp3
 70
0
102
RTVSPropertyOp4
 70
0
102
RTVSPropertyOp5
 70
0
102
RTVSPropertyOp6
 70
0
102
RTVSPropertyOp7
 70
0
102
RTVSPropertyOp8
 70
0
102
RTVSPropertyOp9
 70
0
102
RTVSPropertyOp10
 70
0
102
RTVSPropertyOp11
 70
0
102
RTVSPropertyOp12
 70
0
102
RTVSPropertyOp13
 70
0
102
RTVSPropertyOp14
 70
2
102
RTVSPropertyOp15
 70
0
102
RTVSPropertyOp16
 70
0
102
RTVSPropertyOp17
 70
0
102
RTVSPropertyOp18
 70
0
102
RTVSPropertyOp19
 70
0
102
RTVSPropertyOp20
 70
0
102
RTVSPropertyOp21
 70
0
102
RTVSPropertyOp22
 70
0
102
RTVSPropertyOp23
 70
0
102
RTVSPropertyOp24
 70
0
102
RTVSPropertyOp25
 70
0
102
RTVSPropertyOp26
 70
0
102
RTVSPropertyOp27
 70
0
102
RTVSPropertyOp28
 70
1
102
RTVSPropertyOp29
 70
1
102
RTVSPropertyOp30
 70
1
102
RTVSPropertyOp31
 70
1
102
RTVSPropertyOp32
 70
1
102
RTVSPropertyOp33
 70
1
102
RTVSPropertyOp34
 70
1
102
RTVSPropertyOp35
 70
1
102
RTVSPropertyOp36
 70
1
102
RTVSPropertyOp37
 70
0
102
RTVSPropertyOp38
 70
0
102
RTVSPropertyOp39
 70
0
102
RTVSPropertyOp40
 70
0
102
RTVSPropertyOp41
 70
0
102
RTVSPropertyOp42
 70
0
102
RTVSPropertyOp43
 70
0
102
RTVSPropertyOp44
 70
0
102
RTVSPropertyOp45
 70
1
102
RTVSPropertyOp46
 70
0
102
RTVSPropertyOp47
 70
0
102
RTVSPropertyOp48
 70
0
102
RTVSPropertyOp49
 70
1
102
RTVSPropertyOp50
 70
0
102
RTVSPropertyOp51
 70
0
102
RTVSPropertyOp52
 70
0
102
RTVSPropertyOp53
 70
0
102
RTVSPropertyOp54
 70
0
102
RTVSPropertyOp55
 70
1
102
RTVSPropertyOp56
 70
0
102
RTVSPropertyOp57
 70
0
102
RTVSPropertyOp58
 70
0
102
RTVSPropertyOp59
 70
0
102
RTVSPropertyOp60
 70
0
102
RTVSPropertyOp61
 70
0
102
RTVSPropertyOp62
 70
0
  0
XRECORD
  5
A80
102
{ACAD_REACTORS
330
A7F
102
}
330
A7F
100
AcDbXrecord
280
1
102
RTVSPost2010Prop28
280
0
102
RTVSPost2010PropOp28
 70
1
102
RTVSPost2010Prop29
280
1
102
RTVSPost2010PropOp29
 70
1
102
RTVSPost2010Prop30
280
1
102
RTVSPost2010PropOp30
 70
1
102
RTVSPost2010Prop31
280
0
102
RTVSPost2010PropOp31
 70
1
102
RTVSPost2010Prop32
280
0
102
RTVSPost2010PropOp32
 70
1
102
RTVSPost2010Prop33
280
0
102
RTVSPost2010PropOp33
 70
1
102
RTVSPost2010Prop34
280
0
102
RTVSPost2010PropOp34
 70
1
102
RTVSPost2010Prop35
280
0
102
RTVSPost2010PropOp35
 70
1
102
RTVSPost2010Prop36
280
0
102
RTVSPost2010PropOp36
 70
1
102
RTVSPost2010Prop37
 90
50
102
RTVSPost2010PropOp37
 70
1
102
RTVSPost2010Prop38
140
0.0
102
RTVSPost2010PropOp38
 70
1
102
RTVSPost2010Prop39
140
1.0
102
RTVSPost2010PropOp39
 70
1
102
RTVSPost2010Prop40
 90
0
102
RTVSPost2010PropOp40
 70
1
102
RTVSPost2010Prop41ColorIndex
 90
18
102
RTVSPost2010Prop41ColorRGB
 90
0
102
RTVSPost2010PropOp41
 70
1
102
RTVSPost2010Prop42
 90
50
102
RTVSPost2010PropOp42
 70
1
102
RTVSPost2010Prop43
 90
3
102
RTVSPost2010PropOp43
 70
1
102
RTVSPost2010Prop44ColorIndex
 90
5
102
RTVSPost2010Prop44ColorRGB
 90
255
102
RTVSPost2010PropOp44
 70
1
102
RTVSPost2010Prop45
280
0
102
RTVSPost2010PropOp45
 70
1
102
RTVSPost2010Prop46
 90
50
102
RTVSPost2010PropOp46
 70
1
102
RTVSPost2010Prop47
 90
50
102
RTVSPost2010PropOp47
 70
1
102
RTVSPost2010Prop48
 90
50
102
RTVSPost2010PropOp48
 70
1
102
RTVSPost2010Prop49
280
0
102
RTVSPost2010PropOp49
 70
1
102
RTVSPost2010Prop50
 90
50
102
RTVSPost2010PropOp50
 70
1
102
RTVSPost2010Prop51ColorIndex
 90
256
102
RTVSPost2010Prop51ColorRGB
 90
-16777216
102
RTVSPost2010PropOp51
 70
0
102
RTVSPost2010Prop52
140
1.0
102
RTVSPost2010PropOp52
 70
0
102
RTVSPost2010Prop53
 90
2
102
RTVSPost2010PropOp53
 70
1
102
RTVSPost2010Prop54
  1
strokes_ogs.tif
102
RTVSPost2010PropOp54
 70
1
102
RTVSPost2010Prop55
280
0
102
RTVSPost2010PropOp55
 70
1
102
RTVSPost2010Prop56
140
1.0
102
RTVSPost2010PropOp56
 70
1
102
RTVSPost2010Prop57
140
1.0
102
RTVSPost2010PropOp57
 70
1
102
RTVSPropertyOp0
 70
1
102
RTVSPropertyOp1
 70
1
102
RTVSPropertyOp2
 70
1
102
RTVSPropertyOp3
 70
1
102
RTVSPropertyOp4
 70
1
102
RTVSPropertyOp5
 70
1
102
RTVSPropertyOp6
 70
1
102
RTVSPropertyOp7
 70
1
102
RTVSPropertyOp8
 70
1
102
RTVSPropertyOp9
 70
1
102
RTVSPropertyOp10
 70
1
102
RTVSPropertyOp11
 70
1
102
RTVSPropertyOp12
 70
1
102
RTVSPropertyOp13
 70
1
102
RTVSPropertyOp14
 70
1
102
RTVSPropertyOp15
 70
1
102
RTVSPropertyOp16
 70
1
102
RTVSPropertyOp17
 70
1
102
RTVSPropertyOp18
 70
1
102
RTVSPropertyOp19
 70
1
102
RTVSPropertyOp20
 70
1
102
RTVSPropertyOp21
 70
1
102
RTVSPropertyOp22
 70
1
102
RTVSPropertyOp23
 70
1
102
RTVSPropertyOp24
 70
1
102
RTVSPropertyOp25
 70
1
102
RTVSPropertyOp26
 70
1
102
RTVSPropertyOp27
 70
1
102
RTVSPropertyOp28
 70
1
102
RTVSPropertyOp29
 70
1
102
RTVSPropertyOp30
 70
1
102
RTVSPropertyOp31
 70
1
102
RTVSPropertyOp32
 70
1
102
RTVSPropertyOp33
 70
1
102
RTVSPropertyOp34
 70
1
102
RTVSPropertyOp35
 70
1
102
RTVSPropertyOp36
 70
1
102
RTVSPropertyOp37
 70
1
102
RTVSPropertyOp38
 70
1
102
RTVSPropertyOp39
 70
1
102
RTVSPropertyOp40
 70
1
102
RTVSPropertyOp41
 70
1
102
RTVSPropertyOp42
 70
1
102
RTVSPropertyOp43
 70
1
102
RTVSPropertyOp44
 70
1
102
RTVSPropertyOp45
 70
1
102
RTVSPropertyOp46
 70
1
102
RTVSPropertyOp47
 70
1
102
RTVSPropertyOp48
 70
1
102
RTVSPropertyOp49
 70
1
102
RTVSPropertyOp50
 70
1
102
RTVSPropertyOp51
 70
0
102
RTVSPropertyOp52
 70
0
102
RTVSPropertyOp53
 70
1
102
RTVSPropertyOp54
 70
1
102
RTVSPropertyOp55
 70
1
102
RTVSPropertyOp56
 70
1
102
RTVSPropertyOp57
 70
1
102
RTVSPropertyOp58
 70
1
102
RTVSPropertyOp59
 70
1
102
RTVSPropertyOp60
 70
1
102
RTVSPropertyOp61
 70
1
102
RTVSPropertyOp62
 70
1
  0
XRECORD
  5
A64
102
{ACAD_REACTORS
330
A63
102
}
330
A63
100
AcDbXrecord
280
1
102
RTVSPost2010Prop28
280
0
102
RTVSPost2010PropOp28
 70
1
102
RTVSPost2010Prop29
280
1
102
RTVSPost2010PropOp29
 70
1
102
RTVSPost2010Prop30
280
1
102
RTVSPost2010PropOp30
 70
1
102
RTVSPost2010Prop31
280
0
102
RTVSPost2010PropOp31
 70
1
102
RTVSPost2010Prop32
280
0
102
RTVSPost2010PropOp32
 70
1
102
RTVSPost2010Prop33
280
0
102
RTVSPost2010PropOp33
 70
1
102
RTVSPost2010Prop34
280
0
102
RTVSPost2010PropOp34
 70
1
102
RTVSPost2010Prop35
280
0
102
RTVSPost2010PropOp35
 70
1
102
RTVSPost2010Prop36
280
0
102
RTVSPost2010PropOp36
 70
1
102
RTVSPost2010Prop37
 90
50
102
RTVSPost2010PropOp37
 70
1
102
RTVSPost2010Prop38
140
0.0
102
RTVSPost2010PropOp38
 70
1
102
RTVSPost2010Prop39
140
1.0
102
RTVSPost2010PropOp39
 70
1
102
RTVSPost2010Prop40
 90
0
102
RTVSPost2010PropOp40
 70
1
102
RTVSPost2010Prop41ColorIndex
 90
18
102
RTVSPost2010Prop41ColorRGB
 90
0
102
RTVSPost2010PropOp41
 70
1
102
RTVSPost2010Prop42
 90
50
102
RTVSPost2010PropOp42
 70
1
102
RTVSPost2010Prop43
 90
3
102
RTVSPost2010PropOp43
 70
1
102
RTVSPost2010Prop44ColorIndex
 90
5
102
RTVSPost2010Prop44ColorRGB
 90
255
102
RTVSPost2010PropOp44
 70
1
102
RTVSPost2010Prop45
280
0
102
RTVSPost2010PropOp45
 70
1
102
RTVSPost2010Prop46
 90
50
102
RTVSPost2010PropOp46
 70
1
102
RTVSPost2010Prop47
 90
50
102
RTVSPost2010PropOp47
 70
1
102
RTVSPost2010Prop48
 90
50
102
RTVSPost2010PropOp48
 70
1
102
RTVSPost2010Prop49
280
0
102
RTVSPost2010PropOp49
 70
1
102
RTVSPost2010Prop50
 90
50
102
RTVSPost2010PropOp50
 70
1
102
RTVSPost2010Prop51ColorIndex
 90
256
102
RTVSPost2010Prop51ColorRGB
 90
-16777216
102
RTVSPost2010PropOp51
 70
0
102
RTVSPost2010Prop52
140
1.0
102
RTVSPost2010PropOp52
 70
0
102
RTVSPost2010Prop53
 90
2
102
RTVSPost2010PropOp53
 70
1
102
RTVSPost2010Prop54
  1
strokes_ogs.tif
102
RTVSPost2010PropOp54
 70
1
102
RTVSPost2010Prop55
280
0
102
RTVSPost2010PropOp55
 70
1
102
RTVSPost2010Prop56
140
1.0
102
RTVSPost2010PropOp56
 70
1
102
RTVSPost2010Prop57
140
1.0
102
RTVSPost2010PropOp57
 70
1
102
RTVSPropertyOp0
 70
1
102
RTVSPropertyOp1
 70
1
102
RTVSPropertyOp2
 70
1
102
RTVSPropertyOp3
 70
1
102
RTVSPropertyOp4
 70
1
102
RTVSPropertyOp5
 70
1
102
RTVSPropertyOp6
 70
1
102
RTVSPropertyOp7
 70
1
102
RTVSPropertyOp8
 70
1
102
RTVSPropertyOp9
 70
1
102
RTVSPropertyOp10
 70
1
102
RTVSPropertyOp11
 70
1
102
RTVSPropertyOp12
 70
1
102
RTVSPropertyOp13
 70
1
102
RTVSPropertyOp14
 70
1
102
RTVSPropertyOp15
 70
1
102
RTVSPropertyOp16
 70
1
102
RTVSPropertyOp17
 70
1
102
RTVSPropertyOp18
 70
1
102
RTVSPropertyOp19
 70
1
102
RTVSPropertyOp20
 70
1
102
RTVSPropertyOp21
 70
1
102
RTVSPropertyOp22
 70
1
102
RTVSPropertyOp23
 70
1
102
RTVSPropertyOp24
 70
1
102
RTVSPropertyOp25
 70
1
102
RTVSPropertyOp26
 70
1
102
RTVSPropertyOp27
 70
1
102
RTVSPropertyOp28
 70
1
102
RTVSPropertyOp29
 70
1
102
RTVSPropertyOp30
 70
1
102
RTVSPropertyOp31
 70
1
102
RTVSPropertyOp32
 70
1
102
RTVSPropertyOp33
 70
1
102
RTVSPropertyOp34
 70
1
102
RTVSPropertyOp35
 70
1
102
RTVSPropertyOp36
 70
1
102
RTVSPropertyOp37
 70
1
102
RTVSPropertyOp38
 70
1
102
RTVSPropertyOp39
 70
1
102
RTVSPropertyOp40
 70
1
102
RTVSPropertyOp41
 70
1
102
RTVSPropertyOp42
 70
1
102
RTVSPropertyOp43
 70
1
102
RTVSPropertyOp44
 70
1
102
RTVSPropertyOp45
 70
1
102
RTVSPropertyOp46
 70
1
102
RTVSPropertyOp47
 70
1
102
RTVSPropertyOp48
 70
1
102
RTVSPropertyOp49
 70
1
102
RTVSPropertyOp50
 70
1
102
RTVSPropertyOp51
 70
0
102
RTVSPropertyOp52
 70
0
102
RTVSPropertyOp53
 70
1
102
RTVSPropertyOp54
 70
1
102
RTVSPropertyOp55
 70
1
102
RTVSPropertyOp56
 70
1
102
RTVSPropertyOp57
 70
1
102
RTVSPropertyOp58
 70
1
102
RTVSPropertyOp59
 70
1
102
RTVSPropertyOp60
 70
1
102
RTVSPropertyOp61
 70
1
102
RTVSPropertyOp62
 70
1
  0
XRECORD
  5
A66
102
{ACAD_REACTORS
330
A65
102
}
330
A65
100
AcDbXrecord
280
1
102
RTVSPost2010Prop28
280
0
102
RTVSPost2010PropOp28
 70
1
102
RTVSPost2010Prop29
280
1
102
RTVSPost2010PropOp29
 70
1
102
RTVSPost2010Prop30
280
1
102
RTVSPost2010PropOp30
 70
1
102
RTVSPost2010Prop31
280
0
102
RTVSPost2010PropOp31
 70
1
102
RTVSPost2010Prop32
280
0
102
RTVSPost2010PropOp32
 70
1
102
RTVSPost2010Prop33
280
0
102
RTVSPost2010PropOp33
 70
1
102
RTVSPost2010Prop34
280
0
102
RTVSPost2010PropOp34
 70
1
102
RTVSPost2010Prop35
280
0
102
RTVSPost2010PropOp35
 70
1
102
RTVSPost2010Prop36
280
0
102
RTVSPost2010PropOp36
 70
1
102
RTVSPost2010Prop37
 90
50
102
RTVSPost2010PropOp37
 70
1
102
RTVSPost2010Prop38
140
0.0
102
RTVSPost2010PropOp38
 70
1
102
RTVSPost2010Prop39
140
1.0
102
RTVSPost2010PropOp39
 70
1
102
RTVSPost2010Prop40
 90
0
102
RTVSPost2010PropOp40
 70
1
102
RTVSPost2010Prop41ColorIndex
 90
18
102
RTVSPost2010Prop41ColorRGB
 90
0
102
RTVSPost2010PropOp41
 70
1
102
RTVSPost2010Prop42
 90
50
102
RTVSPost2010PropOp42
 70
1
102
RTVSPost2010Prop43
 90
3
102
RTVSPost2010PropOp43
 70
1
102
RTVSPost2010Prop44ColorIndex
 90
5
102
RTVSPost2010Prop44ColorRGB
 90
255
102
RTVSPost2010PropOp44
 70
1
102
RTVSPost2010Prop45
280
0
102
RTVSPost2010PropOp45
 70
1
102
RTVSPost2010Prop46
 90
50
102
RTVSPost2010PropOp46
 70
1
102
RTVSPost2010Prop47
 90
50
102
RTVSPost2010PropOp47
 70
1
102
RTVSPost2010Prop48
 90
50
102
RTVSPost2010PropOp48
 70
1
102
RTVSPost2010Prop49
280
0
102
RTVSPost2010PropOp49
 70
1
102
RTVSPost2010Prop50
 90
50
102
RTVSPost2010PropOp50
 70
1
102
RTVSPost2010Prop51ColorIndex
 90
256
102
RTVSPost2010Prop51ColorRGB
 90
-16777216
102
RTVSPost2010PropOp51
 70
0
102
RTVSPost2010Prop52
140
1.0
102
RTVSPost2010PropOp52
 70
0
102
RTVSPost2010Prop53
 90
2
102
RTVSPost2010PropOp53
 70
1
102
RTVSPost2010Prop54
  1
strokes_ogs.tif
102
RTVSPost2010PropOp54
 70
1
102
RTVSPost2010Prop55
280
0
102
RTVSPost2010PropOp55
 70
1
102
RTVSPost2010Prop56
140
1.0
102
RTVSPost2010PropOp56
 70
1
102
RTVSPost2010Prop57
140
1.0
102
RTVSPost2010PropOp57
 70
1
102
RTVSPropertyOp0
 70
1
102
RTVSPropertyOp1
 70
1
102
RTVSPropertyOp2
 70
1
102
RTVSPropertyOp3
 70
1
102
RTVSPropertyOp4
 70
1
102
RTVSPropertyOp5
 70
1
102
RTVSPropertyOp6
 70
1
102
RTVSPropertyOp7
 70
1
102
RTVSPropertyOp8
 70
1
102
RTVSPropertyOp9
 70
1
102
RTVSPropertyOp10
 70
1
102
RTVSPropertyOp11
 70
1
102
RTVSPropertyOp12
 70
1
102
RTVSPropertyOp13
 70
1
102
RTVSPropertyOp14
 70
1
102
RTVSPropertyOp15
 70
1
102
RTVSPropertyOp16
 70
1
102
RTVSPropertyOp17
 70
1
102
RTVSPropertyOp18
 70
1
102
RTVSPropertyOp19
 70
1
102
RTVSPropertyOp20
 70
1
102
RTVSPropertyOp21
 70
1
102
RTVSPropertyOp22
 70
1
102
RTVSPropertyOp23
 70
1
102
RTVSPropertyOp24
 70
1
102
RTVSPropertyOp25
 70
1
102
RTVSPropertyOp26
 70
1
102
RTVSPropertyOp27
 70
1
102
RTVSPropertyOp28
 70
1
102
RTVSPropertyOp29
 70
1
102
RTVSPropertyOp30
 70
1
102
RTVSPropertyOp31
 70
1
102
RTVSPropertyOp32
 70
1
102
RTVSPropertyOp33
 70
1
102
RTVSPropertyOp34
 70
1
102
RTVSPropertyOp35
 70
1
102
RTVSPropertyOp36
 70
1
102
RTVSPropertyOp37
 70
1
102
RTVSPropertyOp38
 70
1
102
RTVSPropertyOp39
 70
1
102
RTVSPropertyOp40
 70
1
102
RTVSPropertyOp41
 70
1
102
RTVSPropertyOp42
 70
1
102
RTVSPropertyOp43
 70
1
102
RTVSPropertyOp44
 70
1
102
RTVSPropertyOp45
 70
1
102
RTVSPropertyOp46
 70
1
102
RTVSPropertyOp47
 70
1
102
RTVSPropertyOp48
 70
1
102
RTVSPropertyOp49
 70
1
102
RTVSPropertyOp50
 70
1
102
RTVSPropertyOp51
 70
0
102
RTVSPropertyOp52
 70
0
102
RTVSPropertyOp53
 70
1
102
RTVSPropertyOp54
 70
1
102
RTVSPropertyOp55
 70
1
102
RTVSPropertyOp56
 70
1
102
RTVSPropertyOp57
 70
1
102
RTVSPropertyOp58
 70
1
102
RTVSPropertyOp59
 70
1
102
RTVSPropertyOp60
 70
1
102
RTVSPropertyOp61
 70
1
102
RTVSPropertyOp62
 70
1
  0
XRECORD
  5
A68
102
{ACAD_REACTORS
330
A67
102
}
330
A67
100
AcDbXrecord
280
1
102
RTVSPost2010Prop28
280
0
102
RTVSPost2010PropOp28
 70
1
102
RTVSPost2010Prop29
280
1
102
RTVSPost2010PropOp29
 70
1
102
RTVSPost2010Prop30
280
1
102
RTVSPost2010PropOp30
 70
1
102
RTVSPost2010Prop31
280
0
102
RTVSPost2010PropOp31
 70
1
102
RTVSPost2010Prop32
280
0
102
RTVSPost2010PropOp32
 70
1
102
RTVSPost2010Prop33
280
0
102
RTVSPost2010PropOp33
 70
1
102
RTVSPost2010Prop34
280
0
102
RTVSPost2010PropOp34
 70
1
102
RTVSPost2010Prop35
280
0
102
RTVSPost2010PropOp35
 70
1
102
RTVSPost2010Prop36
280
0
102
RTVSPost2010PropOp36
 70
1
102
RTVSPost2010Prop37
 90
50
102
RTVSPost2010PropOp37
 70
1
102
RTVSPost2010Prop38
140
0.0
102
RTVSPost2010PropOp38
 70
1
102
RTVSPost2010Prop39
140
1.0
102
RTVSPost2010PropOp39
 70
1
102
RTVSPost2010Prop40
 90
0
102
RTVSPost2010PropOp40
 70
1
102
RTVSPost2010Prop41ColorIndex
 90
18
102
RTVSPost2010Prop41ColorRGB
 90
0
102
RTVSPost2010PropOp41
 70
1
102
RTVSPost2010Prop42
 90
50
102
RTVSPost2010PropOp42
 70
1
102
RTVSPost2010Prop43
 90
3
102
RTVSPost2010PropOp43
 70
1
102
RTVSPost2010Prop44ColorIndex
 90
5
102
RTVSPost2010Prop44ColorRGB
 90
255
102
RTVSPost2010PropOp44
 70
1
102
RTVSPost2010Prop45
280
0
102
RTVSPost2010PropOp45
 70
1
102
RTVSPost2010Prop46
 90
50
102
RTVSPost2010PropOp46
 70
1
102
RTVSPost2010Prop47
 90
50
102
RTVSPost2010PropOp47
 70
1
102
RTVSPost2010Prop48
 90
50
102
RTVSPost2010PropOp48
 70
1
102
RTVSPost2010Prop49
280
0
102
RTVSPost2010PropOp49
 70
1
102
RTVSPost2010Prop50
 90
50
102
RTVSPost2010PropOp50
 70
1
102
RTVSPost2010Prop51ColorIndex
 90
256
102
RTVSPost2010Prop51ColorRGB
 90
-16777216
102
RTVSPost2010PropOp51
 70
0
102
RTVSPost2010Prop52
140
1.0
102
RTVSPost2010PropOp52
 70
0
102
RTVSPost2010Prop53
 90
2
102
RTVSPost2010PropOp53
 70
1
102
RTVSPost2010Prop54
  1
strokes_ogs.tif
102
RTVSPost2010PropOp54
 70
1
102
RTVSPost2010Prop55
280
0
102
RTVSPost2010PropOp55
 70
1
102
RTVSPost2010Prop56
140
1.0
102
RTVSPost2010PropOp56
 70
1
102
RTVSPost2010Prop57
140
1.0
102
RTVSPost2010PropOp57
 70
1
102
RTVSPropertyOp0
 70
1
102
RTVSPropertyOp1
 70
1
102
RTVSPropertyOp2
 70
1
102
RTVSPropertyOp3
 70
1
102
RTVSPropertyOp4
 70
1
102
RTVSPropertyOp5
 70
1
102
RTVSPropertyOp6
 70
1
102
RTVSPropertyOp7
 70
1
102
RTVSPropertyOp8
 70
1
102
RTVSPropertyOp9
 70
1
102
RTVSPropertyOp10
 70
1
102
RTVSPropertyOp11
 70
1
102
RTVSPropertyOp12
 70
1
102
RTVSPropertyOp13
 70
1
102
RTVSPropertyOp14
 70
1
102
RTVSPropertyOp15
 70
1
102
RTVSPropertyOp16
 70
1
102
RTVSPropertyOp17
 70
1
102
RTVSPropertyOp18
 70
1
102
RTVSPropertyOp19
 70
1
102
RTVSPropertyOp20
 70
1
102
RTVSPropertyOp21
 70
1
102
RTVSPropertyOp22
 70
1
102
RTVSPropertyOp23
 70
1
102
RTVSPropertyOp24
 70
1
102
RTVSPropertyOp25
 70
1
102
RTVSPropertyOp26
 70
1
102
RTVSPropertyOp27
 70
1
102
RTVSPropertyOp28
 70
1
102
RTVSPropertyOp29
 70
1
102
RTVSPropertyOp30
 70
1
102
RTVSPropertyOp31
 70
1
102
RTVSPropertyOp32
 70
1
102
RTVSPropertyOp33
 70
1
102
RTVSPropertyOp34
 70
1
102
RTVSPropertyOp35
 70
1
102
RTVSPropertyOp36
 70
1
102
RTVSPropertyOp37
 70
1
102
RTVSPropertyOp38
 70
1
102
RTVSPropertyOp39
 70
1
102
RTVSPropertyOp40
 70
1
102
RTVSPropertyOp41
 70
1
102
RTVSPropertyOp42
 70
1
102
RTVSPropertyOp43
 70
1
102
RTVSPropertyOp44
 70
1
102
RTVSPropertyOp45
 70
1
102
RTVSPropertyOp46
 70
1
102
RTVSPropertyOp47
 70
1
102
RTVSPropertyOp48
 70
1
102
RTVSPropertyOp49
 70
1
102
RTVSPropertyOp50
 70
1
102
RTVSPropertyOp51
 70
0
102
RTVSPropertyOp52
 70
0
102
RTVSPropertyOp53
 70
1
102
RTVSPropertyOp54
 70
1
102
RTVSPropertyOp55
 70
1
102
RTVSPropertyOp56
 70
1
102
RTVSPropertyOp57
 70
1
102
RTVSPropertyOp58
 70
1
102
RTVSPropertyOp59
 70
1
102
RTVSPropertyOp60
 70
1
102
RTVSPropertyOp61
 70
1
102
RTVSPropertyOp62
 70
1
  0
XRECORD
  5
A6A
102
{ACAD_REACTORS
330
A69
102
}
330
A69
100
AcDbXrecord
280
1
102
RTVSPost2010Prop28
280
0
102
RTVSPost2010PropOp28
 70
1
102
RTVSPost2010Prop29
280
1
102
RTVSPost2010PropOp29
 70
1
102
RTVSPost2010Prop30
280
1
102
RTVSPost2010PropOp30
 70
1
102
RTVSPost2010Prop31
280
0
102
RTVSPost2010PropOp31
 70
1
102
RTVSPost2010Prop32
280
0
102
RTVSPost2010PropOp32
 70
1
102
RTVSPost2010Prop33
280
0
102
RTVSPost2010PropOp33
 70
1
102
RTVSPost2010Prop34
280
0
102
RTVSPost2010PropOp34
 70
1
102
RTVSPost2010Prop35
280
0
102
RTVSPost2010PropOp35
 70
1
102
RTVSPost2010Prop36
280
0
102
RTVSPost2010PropOp36
 70
1
102
RTVSPost2010Prop37
 90
50
102
RTVSPost2010PropOp37
 70
1
102
RTVSPost2010Prop38
140
0.0
102
RTVSPost2010PropOp38
 70
1
102
RTVSPost2010Prop39
140
1.0
102
RTVSPost2010PropOp39
 70
1
102
RTVSPost2010Prop40
 90
0
102
RTVSPost2010PropOp40
 70
1
102
RTVSPost2010Prop41ColorIndex
 90
18
102
RTVSPost2010Prop41ColorRGB
 90
0
102
RTVSPost2010PropOp41
 70
1
102
RTVSPost2010Prop42
 90
50
102
RTVSPost2010PropOp42
 70
1
102
RTVSPost2010Prop43
 90
3
102
RTVSPost2010PropOp43
 70
1
102
RTVSPost2010Prop44ColorIndex
 90
5
102
RTVSPost2010Prop44ColorRGB
 90
255
102
RTVSPost2010PropOp44
 70
1
102
RTVSPost2010Prop45
280
0
102
RTVSPost2010PropOp45
 70
1
102
RTVSPost2010Prop46
 90
50
102
RTVSPost2010PropOp46
 70
1
102
RTVSPost2010Prop47
 90
50
102
RTVSPost2010PropOp47
 70
1
102
RTVSPost2010Prop48
 90
50
102
RTVSPost2010PropOp48
 70
1
102
RTVSPost2010Prop49
280
0
102
RTVSPost2010PropOp49
 70
1
102
RTVSPost2010Prop50
 90
50
102
RTVSPost2010PropOp50
 70
1
102
RTVSPost2010Prop51ColorIndex
 90
256
102
RTVSPost2010Prop51ColorRGB
 90
-16777216
102
RTVSPost2010PropOp51
 70
0
102
RTVSPost2010Prop52
140
1.0
102
RTVSPost2010PropOp52
 70
0
102
RTVSPost2010Prop53
 90
2
102
RTVSPost2010PropOp53
 70
1
102
RTVSPost2010Prop54
  1
strokes_ogs.tif
102
RTVSPost2010PropOp54
 70
1
102
RTVSPost2010Prop55
280
0
102
RTVSPost2010PropOp55
 70
1
102
RTVSPost2010Prop56
140
1.0
102
RTVSPost2010PropOp56
 70
1
102
RTVSPost2010Prop57
140
1.0
102
RTVSPost2010PropOp57
 70
1
102
RTVSPropertyOp0
 70
1
102
RTVSPropertyOp1
 70
1
102
RTVSPropertyOp2
 70
1
102
RTVSPropertyOp3
 70
1
102
RTVSPropertyOp4
 70
1
102
RTVSPropertyOp5
 70
1
102
RTVSPropertyOp6
 70
1
102
RTVSPropertyOp7
 70
1
102
RTVSPropertyOp8
 70
1
102
RTVSPropertyOp9
 70
1
102
RTVSPropertyOp10
 70
1
102
RTVSPropertyOp11
 70
1
102
RTVSPropertyOp12
 70
1
102
RTVSPropertyOp13
 70
1
102
RTVSPropertyOp14
 70
1
102
RTVSPropertyOp15
 70
1
102
RTVSPropertyOp16
 70
1
102
RTVSPropertyOp17
 70
1
102
RTVSPropertyOp18
 70
1
102
RTVSPropertyOp19
 70
1
102
RTVSPropertyOp20
 70
1
102
RTVSPropertyOp21
 70
1
102
RTVSPropertyOp22
 70
1
102
RTVSPropertyOp23
 70
1
102
RTVSPropertyOp24
 70
1
102
RTVSPropertyOp25
 70
1
102
RTVSPropertyOp26
 70
1
102
RTVSPropertyOp27
 70
1
102
RTVSPropertyOp28
 70
1
102
RTVSPropertyOp29
 70
1
102
RTVSPropertyOp30
 70
1
102
RTVSPropertyOp31
 70
1
102
RTVSPropertyOp32
 70
1
102
RTVSPropertyOp33
 70
1
102
RTVSPropertyOp34
 70
1
102
RTVSPropertyOp35
 70
1
102
RTVSPropertyOp36
 70
1
102
RTVSPropertyOp37
 70
1
102
RTVSPropertyOp38
 70
1
102
RTVSPropertyOp39
 70
1
102
RTVSPropertyOp40
 70
1
102
RTVSPropertyOp41
 70
1
102
RTVSPropertyOp42
 70
1
102
RTVSPropertyOp43
 70
1
102
RTVSPropertyOp44
 70
1
102
RTVSPropertyOp45
 70
1
102
RTVSPropertyOp46
 70
1
102
RTVSPropertyOp47
 70
1
102
RTVSPropertyOp48
 70
1
102
RTVSPropertyOp49
 70
1
102
RTVSPropertyOp50
 70
1
102
RTVSPropertyOp51
 70
0
102
RTVSPropertyOp52
 70
0
102
RTVSPropertyOp53
 70
1
102
RTVSPropertyOp54
 70
1
102
RTVSPropertyOp55
 70
1
102
RTVSPropertyOp56
 70
1
102
RTVSPropertyOp57
 70
1
102
RTVSPropertyOp58
 70
1
102
RTVSPropertyOp59
 70
1
102
RTVSPropertyOp60
 70
1
102
RTVSPropertyOp61
 70
1
102
RTVSPropertyOp62
 70
1
  0
XRECORD
  5
A72
102
{ACAD_REACTORS
330
A71
102
}
330
A71
100
AcDbXrecord
280
1
102
RTVSPost2010Prop28
280
0
102
RTVSPost2010PropOp28
 70
1
102
RTVSPost2010Prop29
280
1
102
RTVSPost2010PropOp29
 70
1
102
RTVSPost2010Prop30
280
1
102
RTVSPost2010PropOp30
 70
1
102
RTVSPost2010Prop31
280
0
102
RTVSPost2010PropOp31
 70
1
102
RTVSPost2010Prop32
280
0
102
RTVSPost2010PropOp32
 70
1
102
RTVSPost2010Prop33
280
0
102
RTVSPost2010PropOp33
 70
1
102
RTVSPost2010Prop34
280
0
102
RTVSPost2010PropOp34
 70
1
102
RTVSPost2010Prop35
280
0
102
RTVSPost2010PropOp35
 70
1
102
RTVSPost2010Prop36
280
0
102
RTVSPost2010PropOp36
 70
1
102
RTVSPost2010Prop37
 90
50
102
RTVSPost2010PropOp37
 70
1
102
RTVSPost2010Prop38
140
0.0
102
RTVSPost2010PropOp38
 70
1
102
RTVSPost2010Prop39
140
1.0
102
RTVSPost2010PropOp39
 70
1
102
RTVSPost2010Prop40
 90
0
102
RTVSPost2010PropOp40
 70
1
102
RTVSPost2010Prop41ColorIndex
 90
18
102
RTVSPost2010Prop41ColorRGB
 90
0
102
RTVSPost2010PropOp41
 70
1
102
RTVSPost2010Prop42
 90
50
102
RTVSPost2010PropOp42
 70
1
102
RTVSPost2010Prop43
 90
3
102
RTVSPost2010PropOp43
 70
1
102
RTVSPost2010Prop44ColorIndex
 90
5
102
RTVSPost2010Prop44ColorRGB
 90
255
102
RTVSPost2010PropOp44
 70
1
102
RTVSPost2010Prop45
280
0
102
RTVSPost2010PropOp45
 70
1
102
RTVSPost2010Prop46
 90
50
102
RTVSPost2010PropOp46
 70
1
102
RTVSPost2010Prop47
 90
50
102
RTVSPost2010PropOp47
 70
1
102
RTVSPost2010Prop48
 90
50
102
RTVSPost2010PropOp48
 70
1
102
RTVSPost2010Prop49
280
0
102
RTVSPost2010PropOp49
 70
1
102
RTVSPost2010Prop50
 90
50
102
RTVSPost2010PropOp50
 70
1
102
RTVSPost2010Prop51ColorIndex
 90
256
102
RTVSPost2010Prop51ColorRGB
 90
-16777216
102
RTVSPost2010PropOp51
 70
0
102
RTVSPost2010Prop52
140
1.0
102
RTVSPost2010PropOp52
 70
0
102
RTVSPost2010Prop53
 90
2
102
RTVSPost2010PropOp53
 70
1
102
RTVSPost2010Prop54
  1
strokes_ogs.tif
102
RTVSPost2010PropOp54
 70
1
102
RTVSPost2010Prop55
280
0
102
RTVSPost2010PropOp55
 70
1
102
RTVSPost2010Prop56
140
1.0
102
RTVSPost2010PropOp56
 70
1
102
RTVSPost2010Prop57
140
1.0
102
RTVSPost2010PropOp57
 70
1
102
RTVSPropertyOp0
 70
1
102
RTVSPropertyOp1
 70
1
102
RTVSPropertyOp2
 70
1
102
RTVSPropertyOp3
 70
1
102
RTVSPropertyOp4
 70
1
102
RTVSPropertyOp5
 70
1
102
RTVSPropertyOp6
 70
1
102
RTVSPropertyOp7
 70
1
102
RTVSPropertyOp8
 70
1
102
RTVSPropertyOp9
 70
1
102
RTVSPropertyOp10
 70
1
102
RTVSPropertyOp11
 70
1
102
RTVSPropertyOp12
 70
1
102
RTVSPropertyOp13
 70
1
102
RTVSPropertyOp14
 70
1
102
RTVSPropertyOp15
 70
1
102
RTVSPropertyOp16
 70
1
102
RTVSPropertyOp17
 70
1
102
RTVSPropertyOp18
 70
1
102
RTVSPropertyOp19
 70
1
102
RTVSPropertyOp20
 70
1
102
RTVSPropertyOp21
 70
1
102
RTVSPropertyOp22
 70
1
102
RTVSPropertyOp23
 70
1
102
RTVSPropertyOp24
 70
1
102
RTVSPropertyOp25
 70
1
102
RTVSPropertyOp26
 70
1
102
RTVSPropertyOp27
 70
1
102
RTVSPropertyOp28
 70
1
102
RTVSPropertyOp29
 70
1
102
RTVSPropertyOp30
 70
1
102
RTVSPropertyOp31
 70
1
102
RTVSPropertyOp32
 70
1
102
RTVSPropertyOp33
 70
1
102
RTVSPropertyOp34
 70
1
102
RTVSPropertyOp35
 70
1
102
RTVSPropertyOp36
 70
1
102
RTVSPropertyOp37
 70
1
102
RTVSPropertyOp38
 70
1
102
RTVSPropertyOp39
 70
1
102
RTVSPropertyOp40
 70
1
102
RTVSPropertyOp41
 70
1
102
RTVSPropertyOp42
 70
1
102
RTVSPropertyOp43
 70
1
102
RTVSPropertyOp44
 70
1
102
RTVSPropertyOp45
 70
1
102
RTVSPropertyOp46
 70
1
102
RTVSPropertyOp47
 70
1
102
RTVSPropertyOp48
 70
1
102
RTVSPropertyOp49
 70
1
102
RTVSPropertyOp50
 70
1
102
RTVSPropertyOp51
 70
0
102
RTVSPropertyOp52
 70
0
102
RTVSPropertyOp53
 70
1
102
RTVSPropertyOp54
 70
1
102
RTVSPropertyOp55
 70
1
102
RTVSPropertyOp56
 70
1
102
RTVSPropertyOp57
 70
1
102
RTVSPropertyOp58
 70
1
102
RTVSPropertyOp59
 70
1
102
RTVSPropertyOp60
 70
1
102
RTVSPropertyOp61
 70
1
102
RTVSPropertyOp62
 70
1
  0
XRECORD
  5
A8E
102
{ACAD_REACTORS
330
A8D
102
}
330
A8D
100
AcDbXrecord
280
1
102
RTVSPost2010Prop28
280
0
102
RTVSPost2010PropOp28
 70
1
102
RTVSPost2010Prop29
280
1
102
RTVSPost2010PropOp29
 70
1
102
RTVSPost2010Prop30
280
1
102
RTVSPost2010PropOp30
 70
1
102
RTVSPost2010Prop31
280
0
102
RTVSPost2010PropOp31
 70
1
102
RTVSPost2010Prop32
280
0
102
RTVSPost2010PropOp32
 70
1
102
RTVSPost2010Prop33
280
0
102
RTVSPost2010PropOp33
 70
1
102
RTVSPost2010Prop34
280
0
102
RTVSPost2010PropOp34
 70
1
102
RTVSPost2010Prop35
280
0
102
RTVSPost2010PropOp35
 70
1
102
RTVSPost2010Prop36
280
0
102
RTVSPost2010PropOp36
 70
1
102
RTVSPost2010Prop37
 90
50
102
RTVSPost2010PropOp37
 70
0
102
RTVSPost2010Prop38
140
0.0
102
RTVSPost2010PropOp38
 70
0
102
RTVSPost2010Prop39
140
1.0
102
RTVSPost2010PropOp39
 70
0
102
RTVSPost2010Prop40
 90
0
102
RTVSPost2010PropOp40
 70
0
102
RTVSPost2010Prop41ColorIndex
 90
18
102
RTVSPost2010Prop41ColorRGB
 90
0
102
RTVSPost2010PropOp41
 70
0
102
RTVSPost2010Prop42
 90
50
102
RTVSPost2010PropOp42
 70
0
102
RTVSPost2010Prop43
 90
3
102
RTVSPost2010PropOp43
 70
0
102
RTVSPost2010Prop44ColorIndex
 90
5
102
RTVSPost2010Prop44ColorRGB
 90
255
102
RTVSPost2010PropOp44
 70
0
102
RTVSPost2010Prop45
280
0
102
RTVSPost2010PropOp45
 70
1
102
RTVSPost2010Prop46
 90
50
102
RTVSPost2010PropOp46
 70
0
102
RTVSPost2010Prop47
 90
50
102
RTVSPost2010PropOp47
 70
0
102
RTVSPost2010Prop48
 90
50
102
RTVSPost2010PropOp48
 70
0
102
RTVSPost2010Prop49
280
0
102
RTVSPost2010PropOp49
 70
1
102
RTVSPost2010Prop50
 90
50
102
RTVSPost2010PropOp50
 70
0
102
RTVSPost2010Prop51ColorIndex
 90
256
102
RTVSPost2010Prop51ColorRGB
 90
-16777216
102
RTVSPost2010PropOp51
 70
0
102
RTVSPost2010Prop52
140
1.0
102
RTVSPost2010PropOp52
 70
0
102
RTVSPost2010Prop53
 90
2
102
RTVSPost2010PropOp53
 70
0
102
RTVSPost2010Prop54
  1
strokes_ogs.tif
102
RTVSPost2010PropOp54
 70
0
102
RTVSPost2010Prop55
280
0
102
RTVSPost2010PropOp55
 70
1
102
RTVSPost2010Prop56
140
1.0
102
RTVSPost2010PropOp56
 70
0
102
RTVSPost2010Prop57
140
1.0
102
RTVSPost2010PropOp57
 70
0
102
RTVSPropertyOp0
 70
0
102
RTVSPropertyOp1
 70
0
102
RTVSPropertyOp2
 70
0
102
RTVSPropertyOp3
 70
0
102
RTVSPropertyOp4
 70
0
102
RTVSPropertyOp5
 70
0
102
RTVSPropertyOp6
 70
0
102
RTVSPropertyOp7
 70
0
102
RTVSPropertyOp8
 70
0
102
RTVSPropertyOp9
 70
0
102
RTVSPropertyOp10
 70
0
102
RTVSPropertyOp11
 70
0
102
RTVSPropertyOp12
 70
0
102
RTVSPropertyOp13
 70
0
102
RTVSPropertyOp14
 70
2
102
RTVSPropertyOp15
 70
0
102
RTVSPropertyOp16
 70
0
102
RTVSPropertyOp17
 70
0
102
RTVSPropertyOp18
 70
0
102
RTVSPropertyOp19
 70
0
102
RTVSPropertyOp20
 70
0
102
RTVSPropertyOp21
 70
0
102
RTVSPropertyOp22
 70
0
102
RTVSPropertyOp23
 70
0
102
RTVSPropertyOp24
 70
0
102
RTVSPropertyOp25
 70
0
102
RTVSPropertyOp26
 70
0
102
RTVSPropertyOp27
 70
0
102
RTVSPropertyOp28
 70
1
102
RTVSPropertyOp29
 70
1
102
RTVSPropertyOp30
 70
1
102
RTVSPropertyOp31
 70
1
102
RTVSPropertyOp32
 70
1
102
RTVSPropertyOp33
 70
1
102
RTVSPropertyOp34
 70
1
102
RTVSPropertyOp35
 70
1
102
RTVSPropertyOp36
 70
1
102
RTVSPropertyOp37
 70
0
102
RTVSPropertyOp38
 70
0
102
RTVSPropertyOp39
 70
0
102
RTVSPropertyOp40
 70
0
102
RTVSPropertyOp41
 70
0
102
RTVSPropertyOp42
 70
0
102
RTVSPropertyOp43
 70
0
102
RTVSPropertyOp44
 70
0
102
RTVSPropertyOp45
 70
1
102
RTVSPropertyOp46
 70
0
102
RTVSPropertyOp47
 70
0
102
RTVSPropertyOp48
 70
0
102
RTVSPropertyOp49
 70
1
102
RTVSPropertyOp50
 70
0
102
RTVSPropertyOp51
 70
0
102
RTVSPropertyOp52
 70
0
102
RTVSPropertyOp53
 70
0
102
RTVSPropertyOp54
 70
0
102
RTVSPropertyOp55
 70
1
102
RTVSPropertyOp56
 70
0
102
RTVSPropertyOp57
 70
0
102
RTVSPropertyOp58
 70
0
102
RTVSPropertyOp59
 70
0
102
RTVSPropertyOp60
 70
0
102
RTVSPropertyOp61
 70
0
102
RTVSPropertyOp62
 70
0
  0
XRECORD
  5
A7E
102
{ACAD_REACTORS
330
A7D
102
}
330
A7D
100
AcDbXrecord
280
1
102
RTVSPost2010Prop28
280
0
102
RTVSPost2010PropOp28
 70
1
102
RTVSPost2010Prop29
280
1
102
RTVSPost2010PropOp29
 70
1
102
RTVSPost2010Prop30
280
1
102
RTVSPost2010PropOp30
 70
1
102
RTVSPost2010Prop31
280
0
102
RTVSPost2010PropOp31
 70
1
102
RTVSPost2010Prop32
280
0
102
RTVSPost2010PropOp32
 70
1
102
RTVSPost2010Prop33
280
0
102
RTVSPost2010PropOp33
 70
1
102
RTVSPost2010Prop34
280
0
102
RTVSPost2010PropOp34
 70
1
102
RTVSPost2010Prop35
280
0
102
RTVSPost2010PropOp35
 70
1
102
RTVSPost2010Prop36
280
0
102
RTVSPost2010PropOp36
 70
1
102
RTVSPost2010Prop37
 90
50
102
RTVSPost2010PropOp37
 70
1
102
RTVSPost2010Prop38
140
0.0
102
RTVSPost2010PropOp38
 70
1
102
RTVSPost2010Prop39
140
1.0
102
RTVSPost2010PropOp39
 70
1
102
RTVSPost2010Prop40
 90
0
102
RTVSPost2010PropOp40
 70
1
102
RTVSPost2010Prop41ColorIndex
 90
18
102
RTVSPost2010Prop41ColorRGB
 90
0
102
RTVSPost2010PropOp41
 70
1
102
RTVSPost2010Prop42
 90
50
102
RTVSPost2010PropOp42
 70
1
102
RTVSPost2010Prop43
 90
3
102
RTVSPost2010PropOp43
 70
1
102
RTVSPost2010Prop44ColorIndex
 90
5
102
RTVSPost2010Prop44ColorRGB
 90
255
102
RTVSPost2010PropOp44
 70
1
102
RTVSPost2010Prop45
280
0
102
RTVSPost2010PropOp45
 70
1
102
RTVSPost2010Prop46
 90
50
102
RTVSPost2010PropOp46
 70
1
102
RTVSPost2010Prop47
 90
50
102
RTVSPost2010PropOp47
 70
1
102
RTVSPost2010Prop48
 90
50
102
RTVSPost2010PropOp48
 70
1
102
RTVSPost2010Prop49
280
0
102
RTVSPost2010PropOp49
 70
1
102
RTVSPost2010Prop50
 90
50
102
RTVSPost2010PropOp50
 70
1
102
RTVSPost2010Prop51ColorIndex
 90
256
102
RTVSPost2010Prop51ColorRGB
 90
-16777216
102
RTVSPost2010PropOp51
 70
0
102
RTVSPost2010Prop52
140
1.0
102
RTVSPost2010PropOp52
 70
0
102
RTVSPost2010Prop53
 90
2
102
RTVSPost2010PropOp53
 70
1
102
RTVSPost2010Prop54
  1
strokes_ogs.tif
102
RTVSPost2010PropOp54
 70
1
102
RTVSPost2010Prop55
280
0
102
RTVSPost2010PropOp55
 70
1
102
RTVSPost2010Prop56
140
1.0
102
RTVSPost2010PropOp56
 70
1
102
RTVSPost2010Prop57
140
1.0
102
RTVSPost2010PropOp57
 70
1
102
RTVSPropertyOp0
 70
1
102
RTVSPropertyOp1
 70
1
102
RTVSPropertyOp2
 70
1
102
RTVSPropertyOp3
 70
1
102
RTVSPropertyOp4
 70
1
102
RTVSPropertyOp5
 70
1
102
RTVSPropertyOp6
 70
1
102
RTVSPropertyOp7
 70
1
102
RTVSPropertyOp8
 70
1
102
RTVSPropertyOp9
 70
1
102
RTVSPropertyOp10
 70
1
102
RTVSPropertyOp11
 70
1
102
RTVSPropertyOp12
 70
1
102
RTVSPropertyOp13
 70
1
102
RTVSPropertyOp14
 70
1
102
RTVSPropertyOp15
 70
1
102
RTVSPropertyOp16
 70
1
102
RTVSPropertyOp17
 70
1
102
RTVSPropertyOp18
 70
1
102
RTVSPropertyOp19
 70
1
102
RTVSPropertyOp20
 70
1
102
RTVSPropertyOp21
 70
1
102
RTVSPropertyOp22
 70
1
102
RTVSPropertyOp23
 70
1
102
RTVSPropertyOp24
 70
1
102
RTVSPropertyOp25
 70
1
102
RTVSPropertyOp26
 70
1
102
RTVSPropertyOp27
 70
1
102
RTVSPropertyOp28
 70
1
102
RTVSPropertyOp29
 70
1
102
RTVSPropertyOp30
 70
1
102
RTVSPropertyOp31
 70
1
102
RTVSPropertyOp32
 70
1
102
RTVSPropertyOp33
 70
1
102
RTVSPropertyOp34
 70
1
102
RTVSPropertyOp35
 70
1
102
RTVSPropertyOp36
 70
1
102
RTVSPropertyOp37
 70
1
102
RTVSPropertyOp38
 70
1
102
RTVSPropertyOp39
 70
1
102
RTVSPropertyOp40
 70
1
102
RTVSPropertyOp41
 70
1
102
RTVSPropertyOp42
 70
1
102
RTVSPropertyOp43
 70
1
102
RTVSPropertyOp44
 70
1
102
RTVSPropertyOp45
 70
1
102
RTVSPropertyOp46
 70
1
102
RTVSPropertyOp47
 70
1
102
RTVSPropertyOp48
 70
1
102
RTVSPropertyOp49
 70
1
102
RTVSPropertyOp50
 70
1
102
RTVSPropertyOp51
 70
0
102
RTVSPropertyOp52
 70
0
102
RTVSPropertyOp53
 70
1
102
RTVSPropertyOp54
 70
1
102
RTVSPropertyOp55
 70
1
102
RTVSPropertyOp56
 70
1
102
RTVSPropertyOp57
 70
1
102
RTVSPropertyOp58
 70
1
102
RTVSPropertyOp59
 70
1
102
RTVSPropertyOp60
 70
1
102
RTVSPropertyOp61
 70
1
102
RTVSPropertyOp62
 70
1
  0
XRECORD
  5
A90
102
{ACAD_REACTORS
330
A8F
102
}
330
A8F
100
AcDbXrecord
280
1
102
RTVSPost2010Prop28
280
0
102
RTVSPost2010PropOp28
 70
1
102
RTVSPost2010Prop29
280
1
102
RTVSPost2010PropOp29
 70
1
102
RTVSPost2010Prop30
280
1
102
RTVSPost2010PropOp30
 70
1
102
RTVSPost2010Prop31
280
0
102
RTVSPost2010PropOp31
 70
1
102
RTVSPost2010Prop32
280
0
102
RTVSPost2010PropOp32
 70
1
102
RTVSPost2010Prop33
280
0
102
RTVSPost2010PropOp33
 70
1
102
RTVSPost2010Prop34
280
0
102
RTVSPost2010PropOp34
 70
1
102
RTVSPost2010Prop35
280
0
102
RTVSPost2010PropOp35
 70
1
102
RTVSPost2010Prop36
280
0
102
RTVSPost2010PropOp36
 70
1
102
RTVSPost2010Prop37
 90
50
102
RTVSPost2010PropOp37
 70
0
102
RTVSPost2010Prop38
140
0.0
102
RTVSPost2010PropOp38
 70
0
102
RTVSPost2010Prop39
140
1.0
102
RTVSPost2010PropOp39
 70
0
102
RTVSPost2010Prop40
 90
0
102
RTVSPost2010PropOp40
 70
0
102
RTVSPost2010Prop41ColorIndex
 90
18
102
RTVSPost2010Prop41ColorRGB
 90
0
102
RTVSPost2010PropOp41
 70
0
102
RTVSPost2010Prop42
 90
50
102
RTVSPost2010PropOp42
 70
0
102
RTVSPost2010Prop43
 90
3
102
RTVSPost2010PropOp43
 70
0
102
RTVSPost2010Prop44ColorIndex
 90
5
102
RTVSPost2010Prop44ColorRGB
 90
255
102
RTVSPost2010PropOp44
 70
0
102
RTVSPost2010Prop45
280
0
102
RTVSPost2010PropOp45
 70
1
102
RTVSPost2010Prop46
 90
50
102
RTVSPost2010PropOp46
 70
0
102
RTVSPost2010Prop47
 90
50
102
RTVSPost2010PropOp47
 70
0
102
RTVSPost2010Prop48
 90
50
102
RTVSPost2010PropOp48
 70
0
102
RTVSPost2010Prop49
280
0
102
RTVSPost2010PropOp49
 70
1
102
RTVSPost2010Prop50
 90
50
102
RTVSPost2010PropOp50
 70
0
102
RTVSPost2010Prop51ColorIndex
 90
256
102
RTVSPost2010Prop51ColorRGB
 90
-16777216
102
RTVSPost2010PropOp51
 70
0
102
RTVSPost2010Prop52
140
1.0
102
RTVSPost2010PropOp52
 70
0
102
RTVSPost2010Prop53
 90
2
102
RTVSPost2010PropOp53
 70
0
102
RTVSPost2010Prop54
  1
strokes_ogs.tif
102
RTVSPost2010PropOp54
 70
0
102
RTVSPost2010Prop55
280
0
102
RTVSPost2010PropOp55
 70
1
102
RTVSPost2010Prop56
140
1.0
102
RTVSPost2010PropOp56
 70
0
102
RTVSPost2010Prop57
140
1.0
102
RTVSPost2010PropOp57
 70
0
102
RTVSPropertyOp0
 70
0
102
RTVSPropertyOp1
 70
0
102
RTVSPropertyOp2
 70
0
102
RTVSPropertyOp3
 70
0
102
RTVSPropertyOp4
 70
0
102
RTVSPropertyOp5
 70
0
102
RTVSPropertyOp6
 70
0
102
RTVSPropertyOp7
 70
0
102
RTVSPropertyOp8
 70
0
102
RTVSPropertyOp9
 70
0
102
RTVSPropertyOp10
 70
0
102
RTVSPropertyOp11
 70
0
102
RTVSPropertyOp12
 70
0
102
RTVSPropertyOp13
 70
0
102
RTVSPropertyOp14
 70
2
102
RTVSPropertyOp15
 70
0
102
RTVSPropertyOp16
 70
0
102
RTVSPropertyOp17
 70
0
102
RTVSPropertyOp18
 70
0
102
RTVSPropertyOp19
 70
0
102
RTVSPropertyOp20
 70
0
102
RTVSPropertyOp21
 70
0
102
RTVSPropertyOp22
 70
0
102
RTVSPropertyOp23
 70
0
102
RTVSPropertyOp24
 70
0
102
RTVSPropertyOp25
 70
0
102
RTVSPropertyOp26
 70
0
102
RTVSPropertyOp27
 70
0
102
RTVSPropertyOp28
 70
1
102
RTVSPropertyOp29
 70
1
102
RTVSPropertyOp30
 70
1
102
RTVSPropertyOp31
 70
1
102
RTVSPropertyOp32
 70
1
102
RTVSPropertyOp33
 70
1
102
RTVSPropertyOp34
 70
1
102
RTVSPropertyOp35
 70
1
102
RTVSPropertyOp36
 70
1
102
RTVSPropertyOp37
 70
0
102
RTVSPropertyOp38
 70
0
102
RTVSPropertyOp39
 70
0
102
RTVSPropertyOp40
 70
0
102
RTVSPropertyOp41
 70
0
102
RTVSPropertyOp42
 70
0
102
RTVSPropertyOp43
 70
0
102
RTVSPropertyOp44
 70
0
102
RTVSPropertyOp45
 70
1
102
RTVSPropertyOp46
 70
0
102
RTVSPropertyOp47
 70
0
102
RTVSPropertyOp48
 70
0
102
RTVSPropertyOp49
 70
1
102
RTVSPropertyOp50
 70
0
102
RTVSPropertyOp51
 70
0
102
RTVSPropertyOp52
 70
0
102
RTVSPropertyOp53
 70
0
102
RTVSPropertyOp54
 70
0
102
RTVSPropertyOp55
 70
1
102
RTVSPropertyOp56
 70
0
102
RTVSPropertyOp57
 70
0
102
RTVSPropertyOp58
 70
0
102
RTVSPropertyOp59
 70
0
102
RTVSPropertyOp60
 70
0
102
RTVSPropertyOp61
 70
0
102
RTVSPropertyOp62
 70
0
  0
XRECORD
  5
A76
102
{ACAD_REACTORS
330
A75
102
}
330
A75
100
AcDbXrecord
280
1
102
RTVSPost2010Prop28
280
0
102
RTVSPost2010PropOp28
 70
1
102
RTVSPost2010Prop29
280
1
102
RTVSPost2010PropOp29
 70
1
102
RTVSPost2010Prop30
280
1
102
RTVSPost2010PropOp30
 70
1
102
RTVSPost2010Prop31
280
0
102
RTVSPost2010PropOp31
 70
1
102
RTVSPost2010Prop32
280
0
102
RTVSPost2010PropOp32
 70
1
102
RTVSPost2010Prop33
280
0
102
RTVSPost2010PropOp33
 70
1
102
RTVSPost2010Prop34
280
0
102
RTVSPost2010PropOp34
 70
1
102
RTVSPost2010Prop35
280
0
102
RTVSPost2010PropOp35
 70
1
102
RTVSPost2010Prop36
280
0
102
RTVSPost2010PropOp36
 70
1
102
RTVSPost2010Prop37
 90
50
102
RTVSPost2010PropOp37
 70
1
102
RTVSPost2010Prop38
140
0.0
102
RTVSPost2010PropOp38
 70
1
102
RTVSPost2010Prop39
140
1.0
102
RTVSPost2010PropOp39
 70
1
102
RTVSPost2010Prop40
 90
0
102
RTVSPost2010PropOp40
 70
1
102
RTVSPost2010Prop41ColorIndex
 90
18
102
RTVSPost2010Prop41ColorRGB
 90
0
102
RTVSPost2010PropOp41
 70
1
102
RTVSPost2010Prop42
 90
50
102
RTVSPost2010PropOp42
 70
1
102
RTVSPost2010Prop43
 90
3
102
RTVSPost2010PropOp43
 70
1
102
RTVSPost2010Prop44ColorIndex
 90
5
102
RTVSPost2010Prop44ColorRGB
 90
255
102
RTVSPost2010PropOp44
 70
1
102
RTVSPost2010Prop45
280
0
102
RTVSPost2010PropOp45
 70
1
102
RTVSPost2010Prop46
 90
50
102
RTVSPost2010PropOp46
 70
1
102
RTVSPost2010Prop47
 90
50
102
RTVSPost2010PropOp47
 70
1
102
RTVSPost2010Prop48
 90
50
102
RTVSPost2010PropOp48
 70
1
102
RTVSPost2010Prop49
280
0
102
RTVSPost2010PropOp49
 70
1
102
RTVSPost2010Prop50
 90
50
102
RTVSPost2010PropOp50
 70
1
102
RTVSPost2010Prop51ColorIndex
 90
256
102
RTVSPost2010Prop51ColorRGB
 90
-16777216
102
RTVSPost2010PropOp51
 70
0
102
RTVSPost2010Prop52
140
1.0
102
RTVSPost2010PropOp52
 70
0
102
RTVSPost2010Prop53
 90
2
102
RTVSPost2010PropOp53
 70
1
102
RTVSPost2010Prop54
  1
strokes_ogs.tif
102
RTVSPost2010PropOp54
 70
1
102
RTVSPost2010Prop55
280
0
102
RTVSPost2010PropOp55
 70
1
102
RTVSPost2010Prop56
140
1.0
102
RTVSPost2010PropOp56
 70
1
102
RTVSPost2010Prop57
140
1.0
102
RTVSPost2010PropOp57
 70
1
102
RTVSPropertyOp0
 70
1
102
RTVSPropertyOp1
 70
1
102
RTVSPropertyOp2
 70
1
102
RTVSPropertyOp3
 70
1
102
RTVSPropertyOp4
 70
1
102
RTVSPropertyOp5
 70
1
102
RTVSPropertyOp6
 70
1
102
RTVSPropertyOp7
 70
1
102
RTVSPropertyOp8
 70
1
102
RTVSPropertyOp9
 70
1
102
RTVSPropertyOp10
 70
1
102
RTVSPropertyOp11
 70
1
102
RTVSPropertyOp12
 70
1
102
RTVSPropertyOp13
 70
1
102
RTVSPropertyOp14
 70
1
102
RTVSPropertyOp15
 70
1
102
RTVSPropertyOp16
 70
1
102
RTVSPropertyOp17
 70
1
102
RTVSPropertyOp18
 70
1
102
RTVSPropertyOp19
 70
1
102
RTVSPropertyOp20
 70
1
102
RTVSPropertyOp21
 70
1
102
RTVSPropertyOp22
 70
1
102
RTVSPropertyOp23
 70
1
102
RTVSPropertyOp24
 70
1
102
RTVSPropertyOp25
 70
1
102
RTVSPropertyOp26
 70
1
102
RTVSPropertyOp27
 70
1
102
RTVSPropertyOp28
 70
1
102
RTVSPropertyOp29
 70
1
102
RTVSPropertyOp30
 70
1
102
RTVSPropertyOp31
 70
1
102
RTVSPropertyOp32
 70
1
102
RTVSPropertyOp33
 70
1
102
RTVSPropertyOp34
 70
1
102
RTVSPropertyOp35
 70
1
102
RTVSPropertyOp36
 70
1
102
RTVSPropertyOp37
 70
1
102
RTVSPropertyOp38
 70
1
102
RTVSPropertyOp39
 70
1
102
RTVSPropertyOp40
 70
1
102
RTVSPropertyOp41
 70
1
102
RTVSPropertyOp42
 70
1
102
RTVSPropertyOp43
 70
1
102
RTVSPropertyOp44
 70
1
102
RTVSPropertyOp45
 70
1
102
RTVSPropertyOp46
 70
1
102
RTVSPropertyOp47
 70
1
102
RTVSPropertyOp48
 70
1
102
RTVSPropertyOp49
 70
1
102
RTVSPropertyOp50
 70
1
102
RTVSPropertyOp51
 70
0
102
RTVSPropertyOp52
 70
0
102
RTVSPropertyOp53
 70
1
102
RTVSPropertyOp54
 70
1
102
RTVSPropertyOp55
 70
1
102
RTVSPropertyOp56
 70
1
102
RTVSPropertyOp57
 70
1
102
RTVSPropertyOp58
 70
1
102
RTVSPropertyOp59
 70
1
102
RTVSPropertyOp60
 70
1
102
RTVSPropertyOp61
 70
1
102
RTVSPropertyOp62
 70
1
  0
XRECORD
  5
A8C
102
{ACAD_REACTORS
330
A8B
102
}
330
A8B
100
AcDbXrecord
280
1
102
RTVSPost2010Prop28
280
0
102
RTVSPost2010PropOp28
 70
1
102
RTVSPost2010Prop29
280
1
102
RTVSPost2010PropOp29
 70
1
102
RTVSPost2010Prop30
280
1
102
RTVSPost2010PropOp30
 70
1
102
RTVSPost2010Prop31
280
0
102
RTVSPost2010PropOp31
 70
1
102
RTVSPost2010Prop32
280
0
102
RTVSPost2010PropOp32
 70
1
102
RTVSPost2010Prop33
280
0
102
RTVSPost2010PropOp33
 70
1
102
RTVSPost2010Prop34
280
0
102
RTVSPost2010PropOp34
 70
1
102
RTVSPost2010Prop35
280
0
102
RTVSPost2010PropOp35
 70
1
102
RTVSPost2010Prop36
280
0
102
RTVSPost2010PropOp36
 70
1
102
RTVSPost2010Prop37
 90
50
102
RTVSPost2010PropOp37
 70
1
102
RTVSPost2010Prop38
140
0.0
102
RTVSPost2010PropOp38
 70
1
102
RTVSPost2010Prop39
140
1.0
102
RTVSPost2010PropOp39
 70
1
102
RTVSPost2010Prop40
 90
0
102
RTVSPost2010PropOp40
 70
1
102
RTVSPost2010Prop41ColorIndex
 90
18
102
RTVSPost2010Prop41ColorRGB
 90
0
102
RTVSPost2010PropOp41
 70
1
102
RTVSPost2010Prop42
 90
50
102
RTVSPost2010PropOp42
 70
1
102
RTVSPost2010Prop43
 90
3
102
RTVSPost2010PropOp43
 70
1
102
RTVSPost2010Prop44ColorIndex
 90
5
102
RTVSPost2010Prop44ColorRGB
 90
255
102
RTVSPost2010PropOp44
 70
1
102
RTVSPost2010Prop45
280
0
102
RTVSPost2010PropOp45
 70
1
102
RTVSPost2010Prop46
 90
50
102
RTVSPost2010PropOp46
 70
1
102
RTVSPost2010Prop47
 90
50
102
RTVSPost2010PropOp47
 70
1
102
RTVSPost2010Prop48
 90
50
102
RTVSPost2010PropOp48
 70
1
102
RTVSPost2010Prop49
280
0
102
RTVSPost2010PropOp49
 70
1
102
RTVSPost2010Prop50
 90
50
102
RTVSPost2010PropOp50
 70
1
102
RTVSPost2010Prop51ColorIndex
 90
256
102
RTVSPost2010Prop51ColorRGB
 90
-16777216
102
RTVSPost2010PropOp51
 70
0
102
RTVSPost2010Prop52
140
1.0
102
RTVSPost2010PropOp52
 70
0
102
RTVSPost2010Prop53
 90
2
102
RTVSPost2010PropOp53
 70
1
102
RTVSPost2010Prop54
  1
strokes_ogs.tif
102
RTVSPost2010PropOp54
 70
1
102
RTVSPost2010Prop55
280
0
102
RTVSPost2010PropOp55
 70
1
102
RTVSPost2010Prop56
140
1.0
102
RTVSPost2010PropOp56
 70
1
102
RTVSPost2010Prop57
140
1.0
102
RTVSPost2010PropOp57
 70
1
102
RTVSPropertyOp0
 70
1
102
RTVSPropertyOp1
 70
1
102
RTVSPropertyOp2
 70
1
102
RTVSPropertyOp3
 70
1
102
RTVSPropertyOp4
 70
1
102
RTVSPropertyOp5
 70
1
102
RTVSPropertyOp6
 70
1
102
RTVSPropertyOp7
 70
1
102
RTVSPropertyOp8
 70
1
102
RTVSPropertyOp9
 70
1
102
RTVSPropertyOp10
 70
1
102
RTVSPropertyOp11
 70
1
102
RTVSPropertyOp12
 70
1
102
RTVSPropertyOp13
 70
1
102
RTVSPropertyOp14
 70
1
102
RTVSPropertyOp15
 70
1
102
RTVSPropertyOp16
 70
1
102
RTVSPropertyOp17
 70
1
102
RTVSPropertyOp18
 70
1
102
RTVSPropertyOp19
 70
1
102
RTVSPropertyOp20
 70
1
102
RTVSPropertyOp21
 70
1
102
RTVSPropertyOp22
 70
1
102
RTVSPropertyOp23
 70
1
102
RTVSPropertyOp24
 70
1
102
RTVSPropertyOp25
 70
1
102
RTVSPropertyOp26
 70
1
102
RTVSPropertyOp27
 70
1
102
RTVSPropertyOp28
 70
1
102
RTVSPropertyOp29
 70
1
102
RTVSPropertyOp30
 70
1
102
RTVSPropertyOp31
 70
1
102
RTVSPropertyOp32
 70
1
102
RTVSPropertyOp33
 70
1
102
RTVSPropertyOp34
 70
1
102
RTVSPropertyOp35
 70
1
102
RTVSPropertyOp36
 70
1
102
RTVSPropertyOp37
 70
1
102
RTVSPropertyOp38
 70
1
102
RTVSPropertyOp39
 70
1
102
RTVSPropertyOp40
 70
1
102
RTVSPropertyOp41
 70
1
102
RTVSPropertyOp42
 70
1
102
RTVSPropertyOp43
 70
1
102
RTVSPropertyOp44
 70
1
102
RTVSPropertyOp45
 70
1
102
RTVSPropertyOp46
 70
1
102
RTVSPropertyOp47
 70
1
102
RTVSPropertyOp48
 70
1
102
RTVSPropertyOp49
 70
1
102
RTVSPropertyOp50
 70
1
102
RTVSPropertyOp51
 70
0
102
RTVSPropertyOp52
 70
0
102
RTVSPropertyOp53
 70
1
102
RTVSPropertyOp54
 70
1
102
RTVSPropertyOp55
 70
1
102
RTVSPropertyOp56
 70
1
102
RTVSPropertyOp57
 70
1
102
RTVSPropertyOp58
 70
1
102
RTVSPropertyOp59
 70
1
102
RTVSPropertyOp60
 70
1
102
RTVSPropertyOp61
 70
1
102
RTVSPropertyOp62
 70
1
  0
XRECORD
  5
A8A
102
{ACAD_REACTORS
330
A89
102
}
330
A89
100
AcDbXrecord
280
1
102
RTVSPost2010Prop28
280
0
102
RTVSPost2010PropOp28
 70
1
102
RTVSPost2010Prop29
280
1
102
RTVSPost2010PropOp29
 70
1
102
RTVSPost2010Prop30
280
1
102
RTVSPost2010PropOp30
 70
1
102
RTVSPost2010Prop31
280
0
102
RTVSPost2010PropOp31
 70
1
102
RTVSPost2010Prop32
280
0
102
RTVSPost2010PropOp32
 70
1
102
RTVSPost2010Prop33
280
0
102
RTVSPost2010PropOp33
 70
1
102
RTVSPost2010Prop34
280
0
102
RTVSPost2010PropOp34
 70
1
102
RTVSPost2010Prop35
280
0
102
RTVSPost2010PropOp35
 70
1
102
RTVSPost2010Prop36
280
0
102
RTVSPost2010PropOp36
 70
1
102
RTVSPost2010Prop37
 90
50
102
RTVSPost2010PropOp37
 70
1
102
RTVSPost2010Prop38
140
0.0
102
RTVSPost2010PropOp38
 70
1
102
RTVSPost2010Prop39
140
1.0
102
RTVSPost2010PropOp39
 70
1
102
RTVSPost2010Prop40
 90
0
102
RTVSPost2010PropOp40
 70
1
102
RTVSPost2010Prop41ColorIndex
 90
18
102
RTVSPost2010Prop41ColorRGB
 90
0
102
RTVSPost2010PropOp41
 70
1
102
RTVSPost2010Prop42
 90
50
102
RTVSPost2010PropOp42
 70
1
102
RTVSPost2010Prop43
 90
3
102
RTVSPost2010PropOp43
 70
1
102
RTVSPost2010Prop44ColorIndex
 90
5
102
RTVSPost2010Prop44ColorRGB
 90
255
102
RTVSPost2010PropOp44
 70
1
102
RTVSPost2010Prop45
280
0
102
RTVSPost2010PropOp45
 70
1
102
RTVSPost2010Prop46
 90
50
102
RTVSPost2010PropOp46
 70
1
102
RTVSPost2010Prop47
 90
50
102
RTVSPost2010PropOp47
 70
1
102
RTVSPost2010Prop48
 90
50
102
RTVSPost2010PropOp48
 70
1
102
RTVSPost2010Prop49
280
0
102
RTVSPost2010PropOp49
 70
1
102
RTVSPost2010Prop50
 90
50
102
RTVSPost2010PropOp50
 70
1
102
RTVSPost2010Prop51ColorIndex
 90
256
102
RTVSPost2010Prop51ColorRGB
 90
-16777216
102
RTVSPost2010PropOp51
 70
0
102
RTVSPost2010Prop52
140
1.0
102
RTVSPost2010PropOp52
 70
0
102
RTVSPost2010Prop53
 90
2
102
RTVSPost2010PropOp53
 70
1
102
RTVSPost2010Prop54
  1
strokes_ogs.tif
102
RTVSPost2010PropOp54
 70
1
102
RTVSPost2010Prop55
280
0
102
RTVSPost2010PropOp55
 70
1
102
RTVSPost2010Prop56
140
1.0
102
RTVSPost2010PropOp56
 70
1
102
RTVSPost2010Prop57
140
1.0
102
RTVSPost2010PropOp57
 70
1
102
RTVSPropertyOp0
 70
1
102
RTVSPropertyOp1
 70
1
102
RTVSPropertyOp2
 70
1
102
RTVSPropertyOp3
 70
1
102
RTVSPropertyOp4
 70
1
102
RTVSPropertyOp5
 70
1
102
RTVSPropertyOp6
 70
1
102
RTVSPropertyOp7
 70
1
102
RTVSPropertyOp8
 70
1
102
RTVSPropertyOp9
 70
1
102
RTVSPropertyOp10
 70
1
102
RTVSPropertyOp11
 70
1
102
RTVSPropertyOp12
 70
1
102
RTVSPropertyOp13
 70
1
102
RTVSPropertyOp14
 70
1
102
RTVSPropertyOp15
 70
1
102
RTVSPropertyOp16
 70
1
102
RTVSPropertyOp17
 70
1
102
RTVSPropertyOp18
 70
1
102
RTVSPropertyOp19
 70
1
102
RTVSPropertyOp20
 70
1
102
RTVSPropertyOp21
 70
1
102
RTVSPropertyOp22
 70
1
102
RTVSPropertyOp23
 70
1
102
RTVSPropertyOp24
 70
1
102
RTVSPropertyOp25
 70
1
102
RTVSPropertyOp26
 70
1
102
RTVSPropertyOp27
 70
1
102
RTVSPropertyOp28
 70
1
102
RTVSPropertyOp29
 70
1
102
RTVSPropertyOp30
 70
1
102
RTVSPropertyOp31
 70
1
102
RTVSPropertyOp32
 70
1
102
RTVSPropertyOp33
 70
1
102
RTVSPropertyOp34
 70
1
102
RTVSPropertyOp35
 70
1
102
RTVSPropertyOp36
 70
1
102
RTVSPropertyOp37
 70
1
102
RTVSPropertyOp38
 70
1
102
RTVSPropertyOp39
 70
1
102
RTVSPropertyOp40
 70
1
102
RTVSPropertyOp41
 70
1
102
RTVSPropertyOp42
 70
1
102
RTVSPropertyOp43
 70
1
102
RTVSPropertyOp44
 70
1
102
RTVSPropertyOp45
 70
1
102
RTVSPropertyOp46
 70
1
102
RTVSPropertyOp47
 70
1
102
RTVSPropertyOp48
 70
1
102
RTVSPropertyOp49
 70
1
102
RTVSPropertyOp50
 70
1
102
RTVSPropertyOp51
 70
0
102
RTVSPropertyOp52
 70
0
102
RTVSPropertyOp53
 70
1
102
RTVSPropertyOp54
 70
1
102
RTVSPropertyOp55
 70
1
102
RTVSPropertyOp56
 70
1
102
RTVSPropertyOp57
 70
1
102
RTVSPropertyOp58
 70
1
102
RTVSPropertyOp59
 70
1
102
RTVSPropertyOp60
 70
1
102
RTVSPropertyOp61
 70
1
102
RTVSPropertyOp62
 70
1
  0
XRECORD
  5
A84
102
{ACAD_REACTORS
330
A83
102
}
330
A83
100
AcDbXrecord
280
1
102
RTVSPost2010Prop28
280
0
102
RTVSPost2010PropOp28
 70
1
102
RTVSPost2010Prop29
280
1
102
RTVSPost2010PropOp29
 70
1
102
RTVSPost2010Prop30
280
1
102
RTVSPost2010PropOp30
 70
1
102
RTVSPost2010Prop31
280
0
102
RTVSPost2010PropOp31
 70
1
102
RTVSPost2010Prop32
280
0
102
RTVSPost2010PropOp32
 70
1
102
RTVSPost2010Prop33
280
0
102
RTVSPost2010PropOp33
 70
1
102
RTVSPost2010Prop34
280
0
102
RTVSPost2010PropOp34
 70
1
102
RTVSPost2010Prop35
280
0
102
RTVSPost2010PropOp35
 70
1
102
RTVSPost2010Prop36
280
0
102
RTVSPost2010PropOp36
 70
1
102
RTVSPost2010Prop37
 90
50
102
RTVSPost2010PropOp37
 70
1
102
RTVSPost2010Prop38
140
0.0
102
RTVSPost2010PropOp38
 70
1
102
RTVSPost2010Prop39
140
1.0
102
RTVSPost2010PropOp39
 70
1
102
RTVSPost2010Prop40
 90
0
102
RTVSPost2010PropOp40
 70
1
102
RTVSPost2010Prop41ColorIndex
 90
18
102
RTVSPost2010Prop41ColorRGB
 90
0
102
RTVSPost2010PropOp41
 70
1
102
RTVSPost2010Prop42
 90
50
102
RTVSPost2010PropOp42
 70
1
102
RTVSPost2010Prop43
 90
3
102
RTVSPost2010PropOp43
 70
1
102
RTVSPost2010Prop44ColorIndex
 90
5
102
RTVSPost2010Prop44ColorRGB
 90
255
102
RTVSPost2010PropOp44
 70
1
102
RTVSPost2010Prop45
280
0
102
RTVSPost2010PropOp45
 70
1
102
RTVSPost2010Prop46
 90
50
102
RTVSPost2010PropOp46
 70
1
102
RTVSPost2010Prop47
 90
50
102
RTVSPost2010PropOp47
 70
1
102
RTVSPost2010Prop48
 90
50
102
RTVSPost2010PropOp48
 70
1
102
RTVSPost2010Prop49
280
0
102
RTVSPost2010PropOp49
 70
1
102
RTVSPost2010Prop50
 90
50
102
RTVSPost2010PropOp50
 70
1
102
RTVSPost2010Prop51ColorIndex
 90
256
102
RTVSPost2010Prop51ColorRGB
 90
-16777216
102
RTVSPost2010PropOp51
 70
0
102
RTVSPost2010Prop52
140
1.0
102
RTVSPost2010PropOp52
 70
0
102
RTVSPost2010Prop53
 90
2
102
RTVSPost2010PropOp53
 70
1
102
RTVSPost2010Prop54
  1
strokes_ogs.tif
102
RTVSPost2010PropOp54
 70
1
102
RTVSPost2010Prop55
280
0
102
RTVSPost2010PropOp55
 70
1
102
RTVSPost2010Prop56
140
1.0
102
RTVSPost2010PropOp56
 70
1
102
RTVSPost2010Prop57
140
1.0
102
RTVSPost2010PropOp57
 70
1
102
RTVSPropertyOp0
 70
1
102
RTVSPropertyOp1
 70
1
102
RTVSPropertyOp2
 70
1
102
RTVSPropertyOp3
 70
1
102
RTVSPropertyOp4
 70
1
102
RTVSPropertyOp5
 70
1
102
RTVSPropertyOp6
 70
1
102
RTVSPropertyOp7
 70
1
102
RTVSPropertyOp8
 70
1
102
RTVSPropertyOp9
 70
1
102
RTVSPropertyOp10
 70
1
102
RTVSPropertyOp11
 70
1
102
RTVSPropertyOp12
 70
1
102
RTVSPropertyOp13
 70
1
102
RTVSPropertyOp14
 70
1
102
RTVSPropertyOp15
 70
1
102
RTVSPropertyOp16
 70
1
102
RTVSPropertyOp17
 70
1
102
RTVSPropertyOp18
 70
1
102
RTVSPropertyOp19
 70
1
102
RTVSPropertyOp20
 70
1
102
RTVSPropertyOp21
 70
1
102
RTVSPropertyOp22
 70
1
102
RTVSPropertyOp23
 70
1
102
RTVSPropertyOp24
 70
1
102
RTVSPropertyOp25
 70
1
102
RTVSPropertyOp26
 70
1
102
RTVSPropertyOp27
 70
1
102
RTVSPropertyOp28
 70
1
102
RTVSPropertyOp29
 70
1
102
RTVSPropertyOp30
 70
1
102
RTVSPropertyOp31
 70
1
102
RTVSPropertyOp32
 70
1
102
RTVSPropertyOp33
 70
1
102
RTVSPropertyOp34
 70
1
102
RTVSPropertyOp35
 70
1
102
RTVSPropertyOp36
 70
1
102
RTVSPropertyOp37
 70
1
102
RTVSPropertyOp38
 70
1
102
RTVSPropertyOp39
 70
1
102
RTVSPropertyOp40
 70
1
102
RTVSPropertyOp41
 70
1
102
RTVSPropertyOp42
 70
1
102
RTVSPropertyOp43
 70
1
102
RTVSPropertyOp44
 70
1
102
RTVSPropertyOp45
 70
1
102
RTVSPropertyOp46
 70
1
102
RTVSPropertyOp47
 70
1
102
RTVSPropertyOp48
 70
1
102
RTVSPropertyOp49
 70
1
102
RTVSPropertyOp50
 70
1
102
RTVSPropertyOp51
 70
0
102
RTVSPropertyOp52
 70
0
102
RTVSPropertyOp53
 70
1
102
RTVSPropertyOp54
 70
1
102
RTVSPropertyOp55
 70
1
102
RTVSPropertyOp56
 70
1
102
RTVSPropertyOp57
 70
1
102
RTVSPropertyOp58
 70
1
102
RTVSPropertyOp59
 70
1
102
RTVSPropertyOp60
 70
1
102
RTVSPropertyOp61
 70
1
102
RTVSPropertyOp62
 70
1
  0
XRECORD
  5
A86
102
{ACAD_REACTORS
330
A85
102
}
330
A85
100
AcDbXrecord
280
1
102
RTVSPost2010Prop28
280
0
102
RTVSPost2010PropOp28
 70
1
102
RTVSPost2010Prop29
280
1
102
RTVSPost2010PropOp29
 70
1
102
RTVSPost2010Prop30
280
1
102
RTVSPost2010PropOp30
 70
1
102
RTVSPost2010Prop31
280
0
102
RTVSPost2010PropOp31
 70
1
102
RTVSPost2010Prop32
280
0
102
RTVSPost2010PropOp32
 70
1
102
RTVSPost2010Prop33
280
0
102
RTVSPost2010PropOp33
 70
1
102
RTVSPost2010Prop34
280
0
102
RTVSPost2010PropOp34
 70
1
102
RTVSPost2010Prop35
280
0
102
RTVSPost2010PropOp35
 70
1
102
RTVSPost2010Prop36
280
0
102
RTVSPost2010PropOp36
 70
1
102
RTVSPost2010Prop37
 90
50
102
RTVSPost2010PropOp37
 70
1
102
RTVSPost2010Prop38
140
0.0
102
RTVSPost2010PropOp38
 70
1
102
RTVSPost2010Prop39
140
1.0
102
RTVSPost2010PropOp39
 70
1
102
RTVSPost2010Prop40
 90
0
102
RTVSPost2010PropOp40
 70
1
102
RTVSPost2010Prop41ColorIndex
 90
18
102
RTVSPost2010Prop41ColorRGB
 90
0
102
RTVSPost2010PropOp41
 70
1
102
RTVSPost2010Prop42
 90
50
102
RTVSPost2010PropOp42
 70
1
102
RTVSPost2010Prop43
 90
3
102
RTVSPost2010PropOp43
 70
1
102
RTVSPost2010Prop44ColorIndex
 90
5
102
RTVSPost2010Prop44ColorRGB
 90
255
102
RTVSPost2010PropOp44
 70
1
102
RTVSPost2010Prop45
280
0
102
RTVSPost2010PropOp45
 70
1
102
RTVSPost2010Prop46
 90
50
102
RTVSPost2010PropOp46
 70
1
102
RTVSPost2010Prop47
 90
50
102
RTVSPost2010PropOp47
 70
1
102
RTVSPost2010Prop48
 90
50
102
RTVSPost2010PropOp48
 70
1
102
RTVSPost2010Prop49
280
0
102
RTVSPost2010PropOp49
 70
1
102
RTVSPost2010Prop50
 90
50
102
RTVSPost2010PropOp50
 70
1
102
RTVSPost2010Prop51ColorIndex
 90
256
102
RTVSPost2010Prop51ColorRGB
 90
-16777216
102
RTVSPost2010PropOp51
 70
0
102
RTVSPost2010Prop52
140
1.0
102
RTVSPost2010PropOp52
 70
0
102
RTVSPost2010Prop53
 90
2
102
RTVSPost2010PropOp53
 70
1
102
RTVSPost2010Prop54
  1
strokes_ogs.tif
102
RTVSPost2010PropOp54
 70
1
102
RTVSPost2010Prop55
280
0
102
RTVSPost2010PropOp55
 70
1
102
RTVSPost2010Prop56
140
1.0
102
RTVSPost2010PropOp56
 70
1
102
RTVSPost2010Prop57
140
1.0
102
RTVSPost2010PropOp57
 70
1
102
RTVSPropertyOp0
 70
1
102
RTVSPropertyOp1
 70
1
102
RTVSPropertyOp2
 70
1
102
RTVSPropertyOp3
 70
1
102
RTVSPropertyOp4
 70
1
102
RTVSPropertyOp5
 70
1
102
RTVSPropertyOp6
 70
1
102
RTVSPropertyOp7
 70
1
102
RTVSPropertyOp8
 70
1
102
RTVSPropertyOp9
 70
1
102
RTVSPropertyOp10
 70
1
102
RTVSPropertyOp11
 70
1
102
RTVSPropertyOp12
 70
1
102
RTVSPropertyOp13
 70
1
102
RTVSPropertyOp14
 70
1
102
RTVSPropertyOp15
 70
1
102
RTVSPropertyOp16
 70
1
102
RTVSPropertyOp17
 70
1
102
RTVSPropertyOp18
 70
1
102
RTVSPropertyOp19
 70
1
102
RTVSPropertyOp20
 70
1
102
RTVSPropertyOp21
 70
1
102
RTVSPropertyOp22
 70
1
102
RTVSPropertyOp23
 70
1
102
RTVSPropertyOp24
 70
1
102
RTVSPropertyOp25
 70
1
102
RTVSPropertyOp26
 70
1
102
RTVSPropertyOp27
 70
1
102
RTVSPropertyOp28
 70
1
102
RTVSPropertyOp29
 70
1
102
RTVSPropertyOp30
 70
1
102
RTVSPropertyOp31
 70
1
102
RTVSPropertyOp32
 70
1
102
RTVSPropertyOp33
 70
1
102
RTVSPropertyOp34
 70
1
102
RTVSPropertyOp35
 70
1
102
RTVSPropertyOp36
 70
1
102
RTVSPropertyOp37
 70
1
102
RTVSPropertyOp38
 70
1
102
RTVSPropertyOp39
 70
1
102
RTVSPropertyOp40
 70
1
102
RTVSPropertyOp41
 70
1
102
RTVSPropertyOp42
 70
1
102
RTVSPropertyOp43
 70
1
102
RTVSPropertyOp44
 70
1
102
RTVSPropertyOp45
 70
1
102
RTVSPropertyOp46
 70
1
102
RTVSPropertyOp47
 70
1
102
RTVSPropertyOp48
 70
1
102
RTVSPropertyOp49
 70
1
102
RTVSPropertyOp50
 70
1
102
RTVSPropertyOp51
 70
0
102
RTVSPropertyOp52
 70
0
102
RTVSPropertyOp53
 70
1
102
RTVSPropertyOp54
 70
1
102
RTVSPropertyOp55
 70
1
102
RTVSPropertyOp56
 70
1
102
RTVSPropertyOp57
 70
1
102
RTVSPropertyOp58
 70
1
102
RTVSPropertyOp59
 70
1
102
RTVSPropertyOp60
 70
1
102
RTVSPropertyOp61
 70
1
102
RTVSPropertyOp62
 70
1
  0
XRECORD
  5
A7C
102
{ACAD_REACTORS
330
A7B
102
}
330
A7B
100
AcDbXrecord
280
1
102
RTVSPost2010Prop28
280
0
102
RTVSPost2010PropOp28
 70
1
102
RTVSPost2010Prop29
280
1
102
RTVSPost2010PropOp29
 70
1
102
RTVSPost2010Prop30
280
1
102
RTVSPost2010PropOp30
 70
1
102
RTVSPost2010Prop31
280
0
102
RTVSPost2010PropOp31
 70
1
102
RTVSPost2010Prop32
280
0
102
RTVSPost2010PropOp32
 70
1
102
RTVSPost2010Prop33
280
0
102
RTVSPost2010PropOp33
 70
1
102
RTVSPost2010Prop34
280
0
102
RTVSPost2010PropOp34
 70
1
102
RTVSPost2010Prop35
280
0
102
RTVSPost2010PropOp35
 70
1
102
RTVSPost2010Prop36
280
0
102
RTVSPost2010PropOp36
 70
1
102
RTVSPost2010Prop37
 90
50
102
RTVSPost2010PropOp37
 70
1
102
RTVSPost2010Prop38
140
0.0
102
RTVSPost2010PropOp38
 70
1
102
RTVSPost2010Prop39
140
1.0
102
RTVSPost2010PropOp39
 70
1
102
RTVSPost2010Prop40
 90
0
102
RTVSPost2010PropOp40
 70
1
102
RTVSPost2010Prop41ColorIndex
 90
18
102
RTVSPost2010Prop41ColorRGB
 90
0
102
RTVSPost2010PropOp41
 70
1
102
RTVSPost2010Prop42
 90
50
102
RTVSPost2010PropOp42
 70
1
102
RTVSPost2010Prop43
 90
3
102
RTVSPost2010PropOp43
 70
1
102
RTVSPost2010Prop44ColorIndex
 90
5
102
RTVSPost2010Prop44ColorRGB
 90
255
102
RTVSPost2010PropOp44
 70
1
102
RTVSPost2010Prop45
280
0
102
RTVSPost2010PropOp45
 70
1
102
RTVSPost2010Prop46
 90
50
102
RTVSPost2010PropOp46
 70
1
102
RTVSPost2010Prop47
 90
50
102
RTVSPost2010PropOp47
 70
1
102
RTVSPost2010Prop48
 90
50
102
RTVSPost2010PropOp48
 70
1
102
RTVSPost2010Prop49
280
0
102
RTVSPost2010PropOp49
 70
1
102
RTVSPost2010Prop50
 90
50
102
RTVSPost2010PropOp50
 70
1
102
RTVSPost2010Prop51ColorIndex
 90
256
102
RTVSPost2010Prop51ColorRGB
 90
-16777216
102
RTVSPost2010PropOp51
 70
0
102
RTVSPost2010Prop52
140
1.0
102
RTVSPost2010PropOp52
 70
0
102
RTVSPost2010Prop53
 90
2
102
RTVSPost2010PropOp53
 70
1
102
RTVSPost2010Prop54
  1
strokes_ogs.tif
102
RTVSPost2010PropOp54
 70
1
102
RTVSPost2010Prop55
280
0
102
RTVSPost2010PropOp55
 70
1
102
RTVSPost2010Prop56
140
1.0
102
RTVSPost2010PropOp56
 70
1
102
RTVSPost2010Prop57
140
1.0
102
RTVSPost2010PropOp57
 70
1
102
RTVSPropertyOp0
 70
1
102
RTVSPropertyOp1
 70
1
102
RTVSPropertyOp2
 70
1
102
RTVSPropertyOp3
 70
1
102
RTVSPropertyOp4
 70
1
102
RTVSPropertyOp5
 70
1
102
RTVSPropertyOp6
 70
1
102
RTVSPropertyOp7
 70
1
102
RTVSPropertyOp8
 70
1
102
RTVSPropertyOp9
 70
1
102
RTVSPropertyOp10
 70
1
102
RTVSPropertyOp11
 70
1
102
RTVSPropertyOp12
 70
1
102
RTVSPropertyOp13
 70
1
102
RTVSPropertyOp14
 70
1
102
RTVSPropertyOp15
 70
1
102
RTVSPropertyOp16
 70
1
102
RTVSPropertyOp17
 70
1
102
RTVSPropertyOp18
 70
1
102
RTVSPropertyOp19
 70
1
102
RTVSPropertyOp20
 70
1
102
RTVSPropertyOp21
 70
1
102
RTVSPropertyOp22
 70
1
102
RTVSPropertyOp23
 70
1
102
RTVSPropertyOp24
 70
1
102
RTVSPropertyOp25
 70
1
102
RTVSPropertyOp26
 70
1
102
RTVSPropertyOp27
 70
1
102
RTVSPropertyOp28
 70
1
102
RTVSPropertyOp29
 70
1
102
RTVSPropertyOp30
 70
1
102
RTVSPropertyOp31
 70
1
102
RTVSPropertyOp32
 70
1
102
RTVSPropertyOp33
 70
1
102
RTVSPropertyOp34
 70
1
102
RTVSPropertyOp35
 70
1
102
RTVSPropertyOp36
 70
1
102
RTVSPropertyOp37
 70
1
102
RTVSPropertyOp38
 70
1
102
RTVSPropertyOp39
 70
1
102
RTVSPropertyOp40
 70
1
102
RTVSPropertyOp41
 70
1
102
RTVSPropertyOp42
 70
1
102
RTVSPropertyOp43
 70
1
102
RTVSPropertyOp44
 70
1
102
RTVSPropertyOp45
 70
1
102
RTVSPropertyOp46
 70
1
102
RTVSPropertyOp47
 70
1
102
RTVSPropertyOp48
 70
1
102
RTVSPropertyOp49
 70
1
102
RTVSPropertyOp50
 70
1
102
RTVSPropertyOp51
 70
0
102
RTVSPropertyOp52
 70
0
102
RTVSPropertyOp53
 70
1
102
RTVSPropertyOp54
 70
1
102
RTVSPropertyOp55
 70
1
102
RTVSPropertyOp56
 70
1
102
RTVSPropertyOp57
 70
1
102
RTVSPropertyOp58
 70
1
102
RTVSPropertyOp59
 70
1
102
RTVSPropertyOp60
 70
1
102
RTVSPropertyOp61
 70
1
102
RTVSPropertyOp62
 70
1
  0
XRECORD
  5
A70
102
{ACAD_REACTORS
330
A6F
102
}
330
A6F
100
AcDbXrecord
280
1
102
RTVSPost2010Prop28
280
0
102
RTVSPost2010PropOp28
 70
1
102
RTVSPost2010Prop29
280
1
102
RTVSPost2010PropOp29
 70
1
102
RTVSPost2010Prop30
280
1
102
RTVSPost2010PropOp30
 70
1
102
RTVSPost2010Prop31
280
0
102
RTVSPost2010PropOp31
 70
1
102
RTVSPost2010Prop32
280
0
102
RTVSPost2010PropOp32
 70
1
102
RTVSPost2010Prop33
280
0
102
RTVSPost2010PropOp33
 70
1
102
RTVSPost2010Prop34
280
0
102
RTVSPost2010PropOp34
 70
1
102
RTVSPost2010Prop35
280
0
102
RTVSPost2010PropOp35
 70
1
102
RTVSPost2010Prop36
280
0
102
RTVSPost2010PropOp36
 70
1
102
RTVSPost2010Prop37
 90
50
102
RTVSPost2010PropOp37
 70
1
102
RTVSPost2010Prop38
140
0.0
102
RTVSPost2010PropOp38
 70
1
102
RTVSPost2010Prop39
140
1.0
102
RTVSPost2010PropOp39
 70
1
102
RTVSPost2010Prop40
 90
0
102
RTVSPost2010PropOp40
 70
1
102
RTVSPost2010Prop41ColorIndex
 90
18
102
RTVSPost2010Prop41ColorRGB
 90
0
102
RTVSPost2010PropOp41
 70
1
102
RTVSPost2010Prop42
 90
50
102
RTVSPost2010PropOp42
 70
1
102
RTVSPost2010Prop43
 90
3
102
RTVSPost2010PropOp43
 70
1
102
RTVSPost2010Prop44ColorIndex
 90
5
102
RTVSPost2010Prop44ColorRGB
 90
255
102
RTVSPost2010PropOp44
 70
1
102
RTVSPost2010Prop45
280
0
102
RTVSPost2010PropOp45
 70
1
102
RTVSPost2010Prop46
 90
50
102
RTVSPost2010PropOp46
 70
1
102
RTVSPost2010Prop47
 90
50
102
RTVSPost2010PropOp47
 70
1
102
RTVSPost2010Prop48
 90
50
102
RTVSPost2010PropOp48
 70
1
102
RTVSPost2010Prop49
280
0
102
RTVSPost2010PropOp49
 70
1
102
RTVSPost2010Prop50
 90
50
102
RTVSPost2010PropOp50
 70
1
102
RTVSPost2010Prop51ColorIndex
 90
256
102
RTVSPost2010Prop51ColorRGB
 90
-16777216
102
RTVSPost2010PropOp51
 70
0
102
RTVSPost2010Prop52
140
1.0
102
RTVSPost2010PropOp52
 70
0
102
RTVSPost2010Prop53
 90
2
102
RTVSPost2010PropOp53
 70
1
102
RTVSPost2010Prop54
  1
strokes_ogs.tif
102
RTVSPost2010PropOp54
 70
1
102
RTVSPost2010Prop55
280
0
102
RTVSPost2010PropOp55
 70
1
102
RTVSPost2010Prop56
140
1.0
102
RTVSPost2010PropOp56
 70
1
102
RTVSPost2010Prop57
140
1.0
102
RTVSPost2010PropOp57
 70
1
102
RTVSPropertyOp0
 70
1
102
RTVSPropertyOp1
 70
1
102
RTVSPropertyOp2
 70
1
102
RTVSPropertyOp3
 70
1
102
RTVSPropertyOp4
 70
1
102
RTVSPropertyOp5
 70
1
102
RTVSPropertyOp6
 70
1
102
RTVSPropertyOp7
 70
1
102
RTVSPropertyOp8
 70
1
102
RTVSPropertyOp9
 70
1
102
RTVSPropertyOp10
 70
1
102
RTVSPropertyOp11
 70
1
102
RTVSPropertyOp12
 70
1
102
RTVSPropertyOp13
 70
1
102
RTVSPropertyOp14
 70
1
102
RTVSPropertyOp15
 70
1
102
RTVSPropertyOp16
 70
1
102
RTVSPropertyOp17
 70
1
102
RTVSPropertyOp18
 70
1
102
RTVSPropertyOp19
 70
1
102
RTVSPropertyOp20
 70
1
102
RTVSPropertyOp21
 70
1
102
RTVSPropertyOp22
 70
1
102
RTVSPropertyOp23
 70
1
102
RTVSPropertyOp24
 70
1
102
RTVSPropertyOp25
 70
1
102
RTVSPropertyOp26
 70
1
102
RTVSPropertyOp27
 70
1
102
RTVSPropertyOp28
 70
1
102
RTVSPropertyOp29
 70
1
102
RTVSPropertyOp30
 70
1
102
RTVSPropertyOp31
 70
1
102
RTVSPropertyOp32
 70
1
102
RTVSPropertyOp33
 70
1
102
RTVSPropertyOp34
 70
1
102
RTVSPropertyOp35
 70
1
102
RTVSPropertyOp36
 70
1
102
RTVSPropertyOp37
 70
1
102
RTVSPropertyOp38
 70
1
102
RTVSPropertyOp39
 70
1
102
RTVSPropertyOp40
 70
1
102
RTVSPropertyOp41
 70
1
102
RTVSPropertyOp42
 70
1
102
RTVSPropertyOp43
 70
1
102
RTVSPropertyOp44
 70
1
102
RTVSPropertyOp45
 70
1
102
RTVSPropertyOp46
 70
1
102
RTVSPropertyOp47
 70
1
102
RTVSPropertyOp48
 70
1
102
RTVSPropertyOp49
 70
1
102
RTVSPropertyOp50
 70
1
102
RTVSPropertyOp51
 70
0
102
RTVSPropertyOp52
 70
0
102
RTVSPropertyOp53
 70
1
102
RTVSPropertyOp54
 70
1
102
RTVSPropertyOp55
 70
1
102
RTVSPropertyOp56
 70
1
102
RTVSPropertyOp57
 70
1
102
RTVSPropertyOp58
 70
1
102
RTVSPropertyOp59
 70
1
102
RTVSPropertyOp60
 70
1
102
RTVSPropertyOp61
 70
1
102
RTVSPropertyOp62
 70
1
  0
XRECORD
  5
A88
102
{ACAD_REACTORS
330
A87
102
}
330
A87
100
AcDbXrecord
280
1
102
RTVSPost2010Prop28
280
0
102
RTVSPost2010PropOp28
 70
1
102
RTVSPost2010Prop29
280
1
102
RTVSPost2010PropOp29
 70
1
102
RTVSPost2010Prop30
280
1
102
RTVSPost2010PropOp30
 70
1
102
RTVSPost2010Prop31
280
0
102
RTVSPost2010PropOp31
 70
1
102
RTVSPost2010Prop32
280
0
102
RTVSPost2010PropOp32
 70
1
102
RTVSPost2010Prop33
280
0
102
RTVSPost2010PropOp33
 70
1
102
RTVSPost2010Prop34
280
0
102
RTVSPost2010PropOp34
 70
1
102
RTVSPost2010Prop35
280
0
102
RTVSPost2010PropOp35
 70
1
102
RTVSPost2010Prop36
280
0
102
RTVSPost2010PropOp36
 70
1
102
RTVSPost2010Prop37
 90
50
102
RTVSPost2010PropOp37
 70
1
102
RTVSPost2010Prop38
140
0.0
102
RTVSPost2010PropOp38
 70
1
102
RTVSPost2010Prop39
140
1.0
102
RTVSPost2010PropOp39
 70
1
102
RTVSPost2010Prop40
 90
0
102
RTVSPost2010PropOp40
 70
1
102
RTVSPost2010Prop41ColorIndex
 90
18
102
RTVSPost2010Prop41ColorRGB
 90
0
102
RTVSPost2010PropOp41
 70
1
102
RTVSPost2010Prop42
 90
50
102
RTVSPost2010PropOp42
 70
1
102
RTVSPost2010Prop43
 90
3
102
RTVSPost2010PropOp43
 70
1
102
RTVSPost2010Prop44ColorIndex
 90
5
102
RTVSPost2010Prop44ColorRGB
 90
255
102
RTVSPost2010PropOp44
 70
1
102
RTVSPost2010Prop45
280
0
102
RTVSPost2010PropOp45
 70
1
102
RTVSPost2010Prop46
 90
50
102
RTVSPost2010PropOp46
 70
1
102
RTVSPost2010Prop47
 90
50
102
RTVSPost2010PropOp47
 70
1
102
RTVSPost2010Prop48
 90
50
102
RTVSPost2010PropOp48
 70
1
102
RTVSPost2010Prop49
280
0
102
RTVSPost2010PropOp49
 70
1
102
RTVSPost2010Prop50
 90
50
102
RTVSPost2010PropOp50
 70
1
102
RTVSPost2010Prop51ColorIndex
 90
256
102
RTVSPost2010Prop51ColorRGB
 90
-16777216
102
RTVSPost2010PropOp51
 70
0
102
RTVSPost2010Prop52
140
1.0
102
RTVSPost2010PropOp52
 70
0
102
RTVSPost2010Prop53
 90
2
102
RTVSPost2010PropOp53
 70
1
102
RTVSPost2010Prop54
  1
strokes_ogs.tif
102
RTVSPost2010PropOp54
 70
1
102
RTVSPost2010Prop55
280
0
102
RTVSPost2010PropOp55
 70
1
102
RTVSPost2010Prop56
140
1.0
102
RTVSPost2010PropOp56
 70
1
102
RTVSPost2010Prop57
140
1.0
102
RTVSPost2010PropOp57
 70
1
102
RTVSPropertyOp0
 70
1
102
RTVSPropertyOp1
 70
1
102
RTVSPropertyOp2
 70
1
102
RTVSPropertyOp3
 70
1
102
RTVSPropertyOp4
 70
1
102
RTVSPropertyOp5
 70
1
102
RTVSPropertyOp6
 70
1
102
RTVSPropertyOp7
 70
1
102
RTVSPropertyOp8
 70
1
102
RTVSPropertyOp9
 70
1
102
RTVSPropertyOp10
 70
1
102
RTVSPropertyOp11
 70
1
102
RTVSPropertyOp12
 70
1
102
RTVSPropertyOp13
 70
1
102
RTVSPropertyOp14
 70
1
102
RTVSPropertyOp15
 70
1
102
RTVSPropertyOp16
 70
1
102
RTVSPropertyOp17
 70
1
102
RTVSPropertyOp18
 70
1
102
RTVSPropertyOp19
 70
1
102
RTVSPropertyOp20
 70
1
102
RTVSPropertyOp21
 70
1
102
RTVSPropertyOp22
 70
1
102
RTVSPropertyOp23
 70
1
102
RTVSPropertyOp24
 70
1
102
RTVSPropertyOp25
 70
1
102
RTVSPropertyOp26
 70
1
102
RTVSPropertyOp27
 70
1
102
RTVSPropertyOp28
 70
1
102
RTVSPropertyOp29
 70
1
102
RTVSPropertyOp30
 70
1
102
RTVSPropertyOp31
 70
1
102
RTVSPropertyOp32
 70
1
102
RTVSPropertyOp33
 70
1
102
RTVSPropertyOp34
 70
1
102
RTVSPropertyOp35
 70
1
102
RTVSPropertyOp36
 70
1
102
RTVSPropertyOp37
 70
1
102
RTVSPropertyOp38
 70
1
102
RTVSPropertyOp39
 70
1
102
RTVSPropertyOp40
 70
1
102
RTVSPropertyOp41
 70
1
102
RTVSPropertyOp42
 70
1
102
RTVSPropertyOp43
 70
1
102
RTVSPropertyOp44
 70
1
102
RTVSPropertyOp45
 70
1
102
RTVSPropertyOp46
 70
1
102
RTVSPropertyOp47
 70
1
102
RTVSPropertyOp48
 70
1
102
RTVSPropertyOp49
 70
1
102
RTVSPropertyOp50
 70
1
102
RTVSPropertyOp51
 70
0
102
RTVSPropertyOp52
 70
0
102
RTVSPropertyOp53
 70
1
102
RTVSPropertyOp54
 70
1
102
RTVSPropertyOp55
 70
1
102
RTVSPropertyOp56
 70
1
102
RTVSPropertyOp57
 70
1
102
RTVSPropertyOp58
 70
1
102
RTVSPropertyOp59
 70
1
102
RTVSPropertyOp60
 70
1
102
RTVSPropertyOp61
 70
1
102
RTVSPropertyOp62
 70
1
  0
DICTIONARY
  5
F4E
330
9D2
100
AcDbDictionary
281
1
  3
WRITTEN_BY_EZDXF
350
F4F
  0
DICTIONARYVAR
  5
F4F
330
F4E
100
DictionaryVariables
280
0
  1
0.16.4 @ 2021-09-16T07:32:28.031422+00:00
  0
ENDSEC
  0
EOF
