  0
SECTION
  2
HEADER
  9
$ACADVER
  1
AC1015
  9
$ACADMAINTVER
 70
6
  9
$DWGCODEPAGE
  3
ANSI_932
  9
$INSBASE
 10
0.0
 20
0.0
 30
0.0
  9
$EXTMIN
 10
0.0
 20
0.0
 30
0.0
  9
$EXTMAX
 10
0.0
 20
0.0
 30
0.0
  9
$LIMMIN
 10
0.0
 20
0.0
  9
$LIMMAX
 10
12.0
 20
9.0
  9
$ORTHOMODE
 70
0
  9
$REGENMODE
 70
1
  9
$FILLMODE
 70
1
  9
$QTEXTMODE
 70
0
  9
$MIRRTEXT
 70
1
  9
$LTSCALE
 40
1.0
  9
$ATTMODE
 70
1
  9
$TEXTSIZE
 40
0.2
  9
$TRACEWID
 40
1.0
  9
$TEXTSTYLE
  7
STANDARD
  9
$CLAYER
  8
__
  9
$CELTYPE
  6
ByLayer
  9
$CECOLOR
 62
256
  9
$CELTSCALE
 40
1.0
  9
$DISPSILH
 70
0
  9
$DIMSCALE
 40
1.0
  9
$DIMASZ
 40
0.18
  9
$DIMEXO
 40
0.0625
  9
$DIMDLI
 40
0.38
  9
$DIMRND
 40
0.0
  9
$DIMDLE
 40
0.0
  9
$DIMEXE
 40
0.18
  9
$DIMTP
 40
0.0
  9
$DIMTM
 40
0.0
  9
$DIMTXT
 40
0.18
  9
$DIMCEN
 40
0.09
  9
$DIMTSZ
 40
0.0
  9
$DIMTOL
 70
0
  9
$DIMLIM
 70
0
  9
$DIMTIH
 70
1
  9
$DIMTOH
 70
1
  9
$DIMSE1
 70
0
  9
$DIMSE2
 70
0
  9
$DIMTAD
 70
0
  9
$DIMZIN
 70
0
  9
$DIMBLK
  1

  9
$DIMASO
 70
1
  9
$DIMSHO
 70
1
  9
$DIMPOST
  1

  9
$DIMAPOST
  1

  9
$DIMALT
 70
0
  9
$DIMALTD
 70
2
  9
$DIMALTF
 40
25.4
  9
$DIMLFAC
 40
1.0
  9
$DIMTOFL
 70
0
  9
$DIMTVP
 40
0.0
  9
$DIMTIX
 70
0
  9
$DIMSOXD
 70
0
  9
$DIMSAH
 70
0
  9
$DIMBLK1
  1

  9
$DIMBLK2
  1

  9
$DIMSTYLE
  2
STANDARD
  9
$DIMCLRD
 70
0
  9
$DIMCLRE
 70
0
  9
$DIMCLRT
 70
0
  9
$DIMTFAC
 40
1.0
  9
$DIMGAP
 40
0.09
  9
$DIMJUST
 70
0
  9
$DIMSD1
 70
0
  9
$DIMSD2
 70
0
  9
$DIMTOLJ
 70
1
  9
$DIMTZIN
 70
0
  9
$DIMALTZ
 70
0
  9
$DIMALTTZ
 70
0
  9
$DIMUPT
 70
0
  9
$DIMDEC
 70
4
  9
$DIMTDEC
 70
4
  9
$DIMALTU
 70
2
  9
$DIMALTTD
 70
2
  9
$DIMTXSTY
  7
STANDARD
  9
$DIMAUNIT
 70
0
  9
$DIMADEC
 70
0
  9
$DIMALTRND
 40
0.0
  9
$DIMAZIN
 70
0
  9
$DIMDSEP
 70
46
  9
$DIMATFIT
 70
3
  9
$DIMFRAC
 70
0
  9
$DIMLDRBLK
  1

  9
$DIMLUNIT
 70
2
  9
$DIMLWD
 70
-2
  9
$DIMLWE
 70
-2
  9
$DIMTMOVE
 70
0
  9
$LUNITS
 70
2
  9
$LUPREC
 70
2
  9
$SKETCHINC
 40
0.1
  9
$FILLETRAD
 40
0.5
  9
$AUNITS
 70
0
  9
$AUPREC
 70
2
  9
$MENU
  1
.
  9
$ELEVATION
 40
0.0
  9
$PELEVATION
 40
0.0
  9
$THICKNESS
 40
0.0
  9
$LIMCHECK
 70
0
  9
$CHAMFERA
 40
0.0
  9
$CHAMFERB
 40
0.0
  9
$CHAMFERC
 40
0.0
  9
$CHAMFERD
 40
0.0
  9
$SKPOLY
 70
0
  9
$TDCREATE
 40
2459829.553287037
  9
$TDUCREATE
 40
2459044.413842593
  9
$TDUPDATE
 40
2459829.553287037
  9
$TDUUPDATE
 40
2459045.001064815
  9
$TDINDWG
 40
0.001006956
  9
$TDUSRTIMER
 40
0.0009953819
  9
$USRTIMER
 70
1
  9
$ANGBASE
 50
0.0
  9
$ANGDIR
 70
0
  9
$PDMODE
 70
1
  9
$PDSIZE
 40
-2.0
  9
$PLINEWID
 40
0.0
  9
$SPLFRAME
 70
0
  9
$SPLINETYPE
 70
6
  9
$SPLINESEGS
 70
8
  9
$HANDSEED
  5
F09
  9
$SURFTAB1
 70
6
  9
$SURFTAB2
 70
6
  9
$SURFTYPE
 70
6
  9
$SURFU
 70
6
  9
$SURFV
 70
6
  9
$UCSBASE
  2

  9
$UCSNAME
  2

  9
$UCSORG
 10
0.0
 20
0.0
 30
0.0
  9
$UCSXDIR
 10
1.0
 20
0.0
 30
0.0
  9
$UCSYDIR
 10
0.0
 20
1.0
 30
0.0
  9
$UCSORTHOREF
  2

  9
$UCSORTHOVIEW
 70
0
  9
$UCSORGTOP
 10
0.0
 20
0.0
 30
0.0
  9
$UCSORGBOTTOM
 10
0.0
 20
0.0
 30
0.0
  9
$UCSORGLEFT
 10
0.0
 20
0.0
 30
0.0
  9
$UCSORGRIGHT
 10
0.0
 20
0.0
 30
0.0
  9
$UCSORGFRONT
 10
0.0
 20
0.0
 30
0.0
  9
$UCSORGBACK
 10
0.0
 20
0.0
 30
0.0
  9
$PUCSBASE
  2

  9
$PUCSNAME
  2

  9
$PUCSORG
 10
0.0
 20
0.0
 30
0.0
  9
$PUCSXDIR
 10
1.0
 20
0.0
 30
0.0
  9
$PUCSYDIR
 10
0.0
 20
1.0
 30
0.0
  9
$PUCSORTHOREF
  2

  9
$PUCSORTHOVIEW
 70
0
  9
$PUCSORGTOP
 10
0.0
 20
0.0
 30
0.0
  9
$PUCSORGBOTTOM
 10
0.0
 20
0.0
 30
0.0
  9
$PUCSORGLEFT
 10
0.0
 20
0.0
 30
0.0
  9
$PUCSORGRIGHT
 10
0.0
 20
0.0
 30
0.0
  9
$PUCSORGFRONT
 10
0.0
 20
0.0
 30
0.0
  9
$PUCSORGBACK
 10
0.0
 20
0.0
 30
0.0
  9
$USERI1
 70
0
  9
$USERI2
 70
0
  9
$USERI3
 70
0
  9
$USERI4
 70
0
  9
$USERI5
 70
0
  9
$USERR1
 40
0.0
  9
$USERR2
 40
0.0
  9
$USERR3
 40
0.0
  9
$USERR4
 40
0.0
  9
$USERR5
 40
0.0
  9
$WORLDVIEW
 70
1
  9
$SHADEDGE
 70
3
  9
$SHADEDIF
 70
70
  9
$TILEMODE
 70
1
  9
$MAXACTVP
 70
64
  9
$PINSBASE
 10
0.0
 20
0.0
 30
0.0
  9
$PLIMCHECK
 70
0
  9
$PEXTMIN
 10
1e+20
 20
1e+20
 30
1e+20
  9
$PEXTMAX
 10
-1e+20
 20
-1e+20
 30
-1e+20
  9
$PLIMMIN
 10
-20.0
 20
-7.5
  9
$PLIMMAX
 10
277.0
 20
202.5
  9
$UNITMODE
 70
0
  9
$VISRETAIN
 70
1
  9
$PLINEGEN
 70
0
  9
$PSLTSCALE
 70
1
  9
$TREEDEPTH
 70
3020
  9
$CMLSTYLE
  2
Standard
  9
$CMLJUST
 70
0
  9
$CMLSCALE
 40
1.0
  9
$PROXYGRAPHICS
 70
1
  9
$MEASUREMENT
 70
0
  9
$CELWEIGHT
370
-1
  9
$ENDCAPS
280
0
  9
$JOINSTYLE
280
0
  9
$LWDISPLAY
290
0
  9
$INSUNITS
 70
0
  9
$HYPERLINKBASE
  1

  9
$STYLESHEET
  1

  9
$XEDIT
290
1
  9
$CEPSNTYPE
380
0
  9
$PSTYLEMODE
290
1
  9
$FINGERPRINTGUID
  2
{8E38A01F-1797-4C9E-8226-9A815C204537}
  9
$VERSIONGUID
  2
{700DF495-A9CC-4CDB-8A7F-0E1A8E08E64E}
  9
$EXTNAMES
290
1
  9
$PSVPSCALE
 40
0.0
  9
$OLESTARTUP
290
0
  0
ENDSEC
  0
SECTION
  2
CLASSES
  0
CLASS
  1
ACDBDICTIONARYWDFLT
  2
AcDbDictionaryWithDefault
  3
ObjectDBX Classes
 90
0
280
0
281
0
  0
CLASS
  1
MATERIAL
  2
AcDbMaterial
  3
ObjectDBX Classes
 90
1153
280
0
281
0
  0
CLASS
  1
VISUALSTYLE
  2
AcDbVisualStyle
  3
ObjectDBX Classes
 90
4095
280
0
281
0
  0
CLASS
  1
SCALE
  2
AcDbScale
  3
ObjectDBX Classes
 90
1153
280
0
281
0
  0
CLASS
  1
TABLESTYLE
  2
AcDbTableStyle
  3
ObjectDBX Classes
 90
4095
280
0
281
0
  0
CLASS
  1
MLEADERSTYLE
  2
AcDbMLeaderStyle
  3
ACDB_MLEADERSTYLE_CLASS
 90
4095
280
0
281
0
  0
CLASS
  1
ACDBSECTIONVIEWSTYLE
  2
AcDbSectionViewStyle
  3
ObjectDBX Classes
 90
1025
280
0
281
0
  0
CLASS
  1
ACDBDETAILVIEWSTYLE
  2
AcDbDetailViewStyle
  3
ObjectDBX Classes
 90
1025
280
0
281
0
  0
CLASS
  1
DICTIONARYVAR
  2
AcDbDictionaryVar
  3
ObjectDBX Classes
 90
0
280
0
281
0
  0
CLASS
  1
CELLSTYLEMAP
  2
AcDbCellStyleMap
  3
ObjectDBX Classes
 90
1152
280
0
281
0
  0
CLASS
  1
ACDBPLACEHOLDER
  2
AcDbPlaceHolder
  3
ObjectDBX Classes
 90
0
280
0
281
0
  0
CLASS
  1
LAYOUT
  2
AcDbLayout
  3
ObjectDBX Classes
 90
0
280
0
281
0
  0
CLASS
  1
SUN
  2
AcDbSun
  3
SCENEOE
 90
1153
280
0
281
0
  0
CLASS
  1
MENTALRAYRENDERSETTINGS
  2
AcDbMentalRayRenderSettings
  3
SCENEOE
 90
1024
280
0
281
0
  0
CLASS
  1
RASTERVARIABLES
  2
AcDbRasterVariables
  3
ISM
 90
0
280
0
281
0
  0
ENDSEC
  0
SECTION
  2
TABLES
  0
TABLE
  2
VPORT
  5
9CE
330
0
100
AcDbSymbolTable
 70
1
  0
VPORT
  5
A3A
330
9CE
100
AcDbSymbolTableRecord
100
AcDbViewportTableRecord
  2
*ACTIVE
 70
0
 10
0.0
 20
0.0
 11
1.0
 21
1.0
 12
50.22649720630994
 22
14.7479721186084
 13
0.0
 23
0.0
 14
0.5
 24
0.5
 15
0.5
 25
0.5
 16
0.0
 26
0.0
 36
1.0
 17
0.0
 27
0.0
 37
0.0
 40
167.9470367482983
 41
2.193641618497109
 42
50.0
 43
0.0
 44
0.0
 50
0.0
 51
0.0
 71
0
 72
1000
 73
1
 74
3
 75
0
 76
0
 77
0
 78
0
281
0
 65
1
110
0.0
120
0.0
130
0.0
111
1.0
121
0.0
131
0.0
112
0.0
122
1.0
132
0.0
 79
0
146
0.0
1001
ACAD_NAV_VCDISPLAY
1070
3
  0
ENDTAB
  0
TABLE
  2
LTYPE
  5
9CB
330
0
100
AcDbSymbolTable
 70
3
  0
LTYPE
  5
A3B
330
9CB
100
AcDbSymbolTableRecord
100
AcDbLinetypeTableRecord
  2
BYBLOCK
 70
0
  3

 72
65
 73
0
 40
0.0
  0
LTYPE
  5
A3C
330
9CB
100
AcDbSymbolTableRecord
100
AcDbLinetypeTableRecord
  2
BYLAYER
 70
0
  3

 72
65
 73
0
 40
0.0
  0
LTYPE
  5
A22
330
9CB
100
AcDbSymbolTableRecord
100
AcDbLinetypeTableRecord
  2
CONTINUOUS
 70
0
  3
Solid line
 72
65
 73
0
 40
0.0
  0
ENDTAB
  0
TABLE
  2
LAYER
  5
9C8
330
0
100
AcDbSymbolTable
 70
4
  0
LAYER
  5
A1A
102
{ACAD_XDICTIONARY
360
A49
102
}
330
9C8
100
AcDbSymbolTableRecord
100
AcDbLayerTableRecord
  2
0
 70
0
 62
7
  6
CONTINUOUS
370
-3
390
9D5
  0
LAYER
  5
A39
102
{ACAD_XDICTIONARY
360
A4B
102
}
330
9C8
100
AcDbSymbolTableRecord
100
AcDbLayerTableRecord
  2
__
 70
0
 62
7
  6
CONTINUOUS
370
-3
390
9D5
  0
LAYER
  5
A3D
102
{ACAD_XDICTIONARY
360
A4D
102
}
330
9C8
100
AcDbSymbolTableRecord
100
AcDbLayerTableRecord
  2
_____1
 70
0
 62
7
  6
CONTINUOUS
370
-3
390
9D5
  0
LAYER
  5
A3E
330
9C8
100
AcDbSymbolTableRecord
100
AcDbLayerTableRecord
  2
DEFPOINTS
 70
0
 62
7
  6
CONTINUOUS
290
0
370
-3
390
9D5
  0
ENDTAB
  0
TABLE
  2
STYLE
  5
9C9
330
0
100
AcDbSymbolTable
 70
2
  0
STYLE
  5
A1B
330
9C9
100
AcDbSymbolTableRecord
100
AcDbTextStyleTableRecord
  2
STANDARD
 70
0
 40
0.0
 41
1.0
 50
0.0
 71
0
 42
0.2
  3
txt
  4
BIGFONT.SHX
  0
STYLE
  5
A1F
330
9C9
100
AcDbSymbolTableRecord
100
AcDbTextStyleTableRecord
  2
Annotative
 70
0
 40
0.0
 41
1.0
 50
0.0
 71
0
 42
0.2
  3
txt
  4

1001
AcadAnnotative
1000
AnnotativeData
1002
{
1070
1
1070
1
1002
}
  0
ENDTAB
  0
TABLE
  2
VIEW
  5
9CC
330
0
100
AcDbSymbolTable
 70
0
  0
ENDTAB
  0
TABLE
  2
UCS
  5
9CD
330
0
100
AcDbSymbolTable
 70
0
  0
ENDTAB
  0
TABLE
  2
APPID
  5
9CF
330
0
100
AcDbSymbolTable
 70
8
  0
APPID
  5
A1C
330
9CF
100
AcDbSymbolTableRecord
100
AcDbRegAppTableRecord
  2
ACAD
 70
0
  0
APPID
  5
A23
330
9CF
100
AcDbSymbolTableRecord
100
AcDbRegAppTableRecord
  2
AcadAnnotative
 70
0
  0
APPID
  5
A3F
330
9CF
100
AcDbSymbolTableRecord
100
AcDbRegAppTableRecord
  2
ACCMTRANSPARENCY
 70
0
  0
APPID
  5
A40
330
9CF
100
AcDbSymbolTableRecord
100
AcDbRegAppTableRecord
  2
ACAECLAYERSTANDARD
 70
0
  0
APPID
  5
A59
330
9CF
100
AcDbSymbolTableRecord
100
AcDbRegAppTableRecord
  2
ACAD_NAV_VCDISPLAY
 70
0
  0
APPID
  5
A94
330
9CF
100
AcDbSymbolTableRecord
100
AcDbRegAppTableRecord
  2
ACAD_MLEADERVER
 70
0
  0
APPID
  5
F05
330
9CF
100
AcDbSymbolTableRecord
100
AcDbRegAppTableRecord
  2
HATCHBACKGROUNDCOLOR
 70
0
  0
APPID
  5
F06
330
9CF
100
AcDbSymbolTableRecord
100
AcDbRegAppTableRecord
  2
EZDXF
 70
0
  0
ENDTAB
  0
TABLE
  2
DIMSTYLE
  5
9D0
330
0
100
AcDbSymbolTable
 70
2
100
AcDbDimStyleTable
  0
DIMSTYLE
105
A1D
330
9D0
100
AcDbSymbolTableRecord
100
AcDbDimStyleTableRecord
  2
STANDARD
 70
0
  3

  4

 40
1.0
 41
2.5
 42
0.625
 43
3.75
 44
1.25
 45
0.0
 46
0.0
 47
0.0
 48
0.0
140
2.5
141
2.5
142
0.0
143
0.03937007874
144
1.0
145
0.0
146
1.0
147
0.625
148
0.0
 71
0
 72
0
 73
0
 74
0
 75
0
 76
0
 77
1
 78
8
 79
0
170
0
171
3
172
1
173
0
174
0
175
0
176
0
177
0
178
0
179
0
271
2
272
2
273
2
274
3
275
0
276
0
277
2
278
44
279
2
280
0
281
0
282
0
283
0
284
8
285
0
286
0
288
0
289
3
371
-2
372
-2
  0
DIMSTYLE
105
A1E
330
9D0
100
AcDbSymbolTableRecord
100
AcDbDimStyleTableRecord
  2
Annotative
 70
0
  3

  4

 40
1.0
 41
2.5
 42
0.625
 43
3.75
 44
1.25
 45
0.0
 46
0.0
 47
0.0
 48
0.0
140
2.5
141
2.5
142
0.0
143
0.03937007874
144
1.0
145
0.0
146
1.0
147
0.625
148
0.0
 71
0
 72
0
 73
0
 74
0
 75
0
 76
0
 77
1
 78
8
 79
0
170
0
171
3
172
1
173
0
174
0
175
0
176
0
177
0
178
0
179
0
271
0
272
2
273
2
274
3
275
0
276
0
277
2
278
44
279
0
280
0
281
0
282
0
283
0
284
8
285
0
286
0
288
0
289
3
371
-2
372
-2
1001
AcadAnnotative
1000
AnnotativeData
1002
{
1070
1
1070
1
1002
}
  0
ENDTAB
  0
TABLE
  2
BLOCK_RECORD
  5
9C7
330
0
100
AcDbSymbolTable
 70
4
  0
BLOCK_RECORD
  5
A35
330
9C7
100
AcDbSymbolTableRecord
100
AcDbBlockTableRecord
  2
*Model_Space
340
A38
  0
BLOCK_RECORD
  5
A31
330
9C7
100
AcDbSymbolTableRecord
100
AcDbBlockTableRecord
  2
*Paper_Space
340
A34
  0
BLOCK_RECORD
  5
A43
330
9C7
100
AcDbSymbolTableRecord
100
AcDbBlockTableRecord
  2
$MODEL_SPACE
340
0
  0
BLOCK_RECORD
  5
A44
330
9C7
100
AcDbSymbolTableRecord
100
AcDbBlockTableRecord
  2
$PAPER_SPACE
340
0
  0
ENDTAB
  0
ENDSEC
  0
SECTION
  2
BLOCKS
  0
BLOCK
  5
A36
330
A35
100
AcDbEntity
  8
0
100
AcDbBlockBegin
  2
*Model_Space
 70
0
 10
0.0
 20
0.0
 30
0.0
  3
*Model_Space
  1

  0
ENDBLK
  5
A37
330
A35
100
AcDbEntity
  8
0
100
AcDbBlockEnd
  0
BLOCK
  5
A32
330
A31
100
AcDbEntity
 67
1
  8
0
100
AcDbBlockBegin
  2
*Paper_Space
 70
0
 10
0.0
 20
0.0
 30
0.0
  3
*Paper_Space
  1

  0
ENDBLK
  5
A33
330
A31
100
AcDbEntity
 67
1
  8
0
100
AcDbBlockEnd
  0
BLOCK
  5
470
330
A43
100
AcDbEntity
  8
0
100
AcDbBlockBegin
  2
$MODEL_SPACE
 70
0
 10
0.0
 20
0.0
 30
0.0
  3
$MODEL_SPACE
  1

  0
ENDBLK
  5
21
330
A43
100
AcDbEntity
  8
0
100
AcDbBlockEnd
  0
BLOCK
  5
471
330
A44
100
AcDbEntity
  8
0
100
AcDbBlockBegin
  2
$PAPER_SPACE
 70
0
 10
0.0
 20
0.0
 30
0.0
  3
$PAPER_SPACE
  1

  0
ENDBLK
  5
1D
330
A44
100
AcDbEntity
  8
0
100
AcDbBlockEnd
  0
ENDSEC
  0
SECTION
  2
ENTITIES
  0
LINE
  5
A9D
330
A35
100
AcDbEntity
  8
0
100
AcDbLine
 10
55.134
 20
54.162
 30
0.0
 11
55.197
 21
54.15
 31
0.0
  0
LINE
  5
A9E
330
A35
100
AcDbEntity
  8
0
100
AcDbLine
 10
55.134
 20
54.162
 30
0.0
 11
55.1
 21
54.162
 31
0.0
  0
LINE
  5
A9F
330
A35
100
AcDbEntity
  8
0
100
AcDbLine
 10
55.122
 20
54.277
 30
0.0
 11
53.371
 21
52.766
 31
0.0
  0
LINE
  5
AA0
330
A35
100
AcDbEntity
  8
0
100
AcDbLine
 10
55.122
 20
54.277
 30
0.0
 11
55.122
 21
54.306
 31
0.0
  0
LINE
  5
AA1
330
A35
100
AcDbEntity
  8
0
100
AcDbLine
 10
55.122
 20
54.277
 30
0.0
 11
55.081
 21
54.34
 31
0.0
  0
LINE
  5
AA2
330
A35
100
AcDbEntity
  8
0
100
AcDbLine
 10
55.111
 20
54.369
 30
0.0
 11
54.163
 21
54.611
 31
0.0
  0
LINE
  5
AA3
330
A35
100
AcDbEntity
  8
0
100
AcDbLine
 10
55.081
 20
54.34
 30
0.0
 11
54.163
 21
54.518
 31
0.0
  0
LINE
  5
AA4
330
A35
100
AcDbEntity
  8
0
100
AcDbLine
 10
55.07
 20
54.433
 30
0.0
 11
55.081
 21
54.34
 31
0.0
  0
LINE
  5
AA5
330
A35
100
AcDbEntity
  8
0
100
AcDbLine
 10
55.111
 20
54.369
 30
0.0
 11
55.122
 21
54.306
 31
0.0
  0
LINE
  5
AA6
330
A35
100
AcDbEntity
  8
0
100
AcDbLine
 10
54.163
 20
54.518
 30
0.0
 11
50.495
 21
54.967
 31
0.0
  0
LINE
  5
AA7
330
A35
100
AcDbEntity
  8
0
100
AcDbLine
 10
54.163
 20
54.611
 30
0.0
 11
54.163
 21
54.518
 31
0.0
  0
LINE
  5
AA8
330
A35
100
AcDbEntity
  8
0
100
AcDbLine
 10
53.782
 20
52.662
 30
0.0
 11
53.688
 21
52.684
 31
0.0
  0
LINE
  5
AA9
330
A35
100
AcDbEntity
  8
0
100
AcDbLine
 10
48.821
 20
55.301
 30
0.0
 11
48.81
 21
55.301
 31
0.0
  0
LINE
  5
AAA
330
A35
100
AcDbEntity
  8
0
100
AcDbLine
 10
48.821
 20
55.301
 30
0.0
 11
50.495
 21
54.967
 31
0.0
  0
LINE
  5
AAB
330
A35
100
AcDbEntity
  8
0
100
AcDbLine
 10
50.483
 20
55.064
 30
0.0
 11
48.81
 21
55.398
 31
0.0
  0
LINE
  5
AAC
330
A35
100
AcDbEntity
  8
0
100
AcDbLine
 10
52.317
 20
52.925
 30
0.0
 11
53.236
 21
52.747
 31
0.0
  0
LINE
  5
AAD
330
A35
100
AcDbEntity
  8
0
100
AcDbLine
 10
43.857
 20
54.57
 30
0.0
 11
42.539
 21
53.426
 31
0.0
  0
LINE
  5
AAE
330
A35
100
AcDbEntity
  8
0
100
AcDbLine
 10
42.938
 20
53.374
 30
0.0
 11
44.257
 21
54.507
 31
0.0
  0
LINE
  5
AAF
330
A35
100
AcDbEntity
  8
0
100
AcDbLine
 10
50.483
 20
55.064
 30
0.0
 11
50.495
 21
54.967
 31
0.0
  0
LINE
  5
AB0
330
A35
100
AcDbEntity
  8
0
100
AcDbLine
 10
50.483
 20
55.064
 30
0.0
 11
54.163
 21
54.611
 31
0.0
  0
LINE
  5
AB1
330
A35
100
AcDbEntity
  8
0
100
AcDbLine
 10
48.81
 20
55.398
 30
0.0
 11
48.765
 21
55.398
 31
0.0
  0
LINE
  5
AB2
330
A35
100
AcDbEntity
  8
0
100
AcDbLine
 10
47.503
 20
54.173
 30
0.0
 11
47.492
 21
54.173
 31
0.0
  0
LINE
  5
AB3
330
A35
100
AcDbEntity
  8
0
100
AcDbLine
 10
47.503
 20
54.173
 30
0.0
 11
49.176
 21
53.835
 31
0.0
  0
LINE
  5
AB4
330
A35
100
AcDbEntity
  8
0
100
AcDbLine
 10
48.821
 20
55.301
 30
0.0
 11
47.503
 21
54.173
 31
0.0
  0
LINE
  5
AB5
330
A35
100
AcDbEntity
  8
0
100
AcDbLine
 10
49.176
 20
53.835
 30
0.0
 11
52.317
 21
52.925
 31
0.0
  0
LINE
  5
AB6
330
A35
100
AcDbEntity
  8
0
100
AcDbLine
 10
48.81
 20
55.301
 30
0.0
 11
44.257
 21
54.507
 31
0.0
  0
LINE
  5
AB7
330
A35
100
AcDbEntity
  8
0
100
AcDbLine
 10
42.938
 20
53.374
 30
0.0
 11
47.492
 21
54.173
 31
0.0
  0
LINE
  5
AB8
330
A35
100
AcDbEntity
  8
0
100
AcDbLine
 10
48.765
 20
55.398
 30
0.0
 11
44.216
 21
54.599
 31
0.0
  0
LINE
  5
AB9
330
A35
100
AcDbEntity
  8
0
100
AcDbLine
 10
55.111
 20
54.173
 30
0.0
 11
55.122
 21
54.288
 31
0.0
  0
LINE
  5
ABA
330
A35
100
AcDbEntity
  8
0
100
AcDbLine
 10
53.486
 20
52.777
 30
0.0
 11
53.699
 21
52.695
 31
0.0
  0
LINE
  5
ABB
330
A35
100
AcDbEntity
  8
0
100
AcDbLine
 10
55.197
 20
54.15
 30
0.0
 11
55.111
 21
54.369
 31
0.0
  0
LINE
  5
ABC
330
A35
100
AcDbEntity
  8
0
100
AcDbLine
 10
54.163
 20
52.714
 30
0.0
 11
53.782
 21
52.662
 31
0.0
  0
LINE
  5
ABD
330
A35
100
AcDbEntity
  8
0
100
AcDbLine
 10
54.551
 20
53.007
 30
0.0
 11
54.163
 21
52.714
 31
0.0
  0
LINE
  5
ABE
330
A35
100
AcDbEntity
  8
0
100
AcDbLine
 10
54.902
 20
53.501
 30
0.0
 11
54.551
 21
53.007
 31
0.0
  0
LINE
  5
ABF
330
A35
100
AcDbEntity
  8
0
100
AcDbLine
 10
55.197
 20
54.15
 30
0.0
 11
54.902
 21
53.501
 31
0.0
  0
LINE
  5
AC0
330
A35
100
AcDbEntity
  8
0
100
AcDbLine
 10
54.069
 20
52.736
 30
0.0
 11
53.688
 21
52.684
 31
0.0
  0
LINE
  5
AC1
330
A35
100
AcDbEntity
  8
0
100
AcDbLine
 10
54.458
 20
53.018
 30
0.0
 11
54.069
 21
52.736
 31
0.0
  0
LINE
  5
AC2
330
A35
100
AcDbEntity
  8
0
100
AcDbLine
 10
54.816
 20
53.512
 30
0.0
 11
54.458
 21
53.018
 31
0.0
  0
LINE
  5
AC3
330
A35
100
AcDbEntity
  8
0
100
AcDbLine
 10
55.1
 20
54.162
 30
0.0
 11
54.816
 21
53.512
 31
0.0
  0
LINE
  5
AC4
330
A35
100
AcDbEntity
  8
0
100
AcDbLine
 10
43.865
 20
54.652
 30
0.0
 11
44.216
 21
54.599
 31
0.0
  0
LINE
  5
AC5
330
A35
100
AcDbEntity
  8
0
100
AcDbLine
 10
42.255
 20
55.041
 30
0.0
 11
41.231
 21
55.082
 31
0.0
  0
LINE
  5
AC6
330
A35
100
AcDbEntity
  8
0
100
AcDbLine
 10
43.857
 20
54.57
 30
0.0
 11
42.255
 21
55.041
 31
0.0
  0
LINE
  5
AC7
330
A35
100
AcDbEntity
  8
0
100
AcDbLine
 10
42.274
 20
55.134
 30
0.0
 11
41.254
 21
55.179
 31
0.0
  0
LINE
  5
AC8
330
A35
100
AcDbEntity
  8
0
100
AcDbLine
 10
43.865
 20
54.652
 30
0.0
 11
42.274
 21
55.134
 31
0.0
  0
LINE
  5
AC9
330
A35
100
AcDbEntity
  8
0
100
AcDbLine
 10
53.486
 20
52.766
 30
0.0
 11
53.236
 21
52.747
 31
0.0
  0
LINE
  5
ACA
330
A35
100
AcDbEntity
  8
0
100
AcDbLine
 10
42.539
 20
53.426
 30
0.0
 11
42.938
 21
53.374
 31
0.0
  0
LINE
  5
ACB
330
A35
100
AcDbEntity
  8
0
100
AcDbLine
 10
43.857
 20
54.57
 30
0.0
 11
44.257
 21
54.507
 31
0.0
  0
LINE
  5
ACC
330
A35
100
AcDbEntity
  8
0
100
AcDbLine
 10
41.937
 20
53.668
 30
0.0
 11
40.768
 21
53.931
 31
0.0
  0
LINE
  5
ACD
330
A35
100
AcDbEntity
  8
0
100
AcDbLine
 10
42.539
 20
53.426
 30
0.0
 11
41.937
 21
53.668
 31
0.0
  0
LINE
  5
ACE
330
A35
100
AcDbEntity
  8
0
100
AcDbLine
 10
5.071
 20
54.277
 30
0.0
 11
5.116
 21
54.34
 31
0.0
  0
LINE
  5
ACF
330
A35
100
AcDbEntity
  8
0
100
AcDbLine
 10
5.064
 20
54.162
 30
0.0
 11
5.0
 21
54.15
 31
0.0
  0
LINE
  5
AD0
330
A35
100
AcDbEntity
  8
0
100
AcDbLine
 10
5.064
 20
54.162
 30
0.0
 11
5.094
 21
54.162
 31
0.0
  0
LINE
  5
AD1
330
A35
100
AcDbEntity
  8
0
100
AcDbLine
 10
6.412
 20
52.662
 30
0.0
 11
6.505
 21
52.684
 31
0.0
  0
LINE
  5
AD2
330
A35
100
AcDbEntity
  8
0
100
AcDbLine
 10
6.961
 20
52.747
 30
0.0
 11
7.865
 21
52.925
 31
0.0
  0
LINE
  5
AD3
330
A35
100
AcDbEntity
  8
0
100
AcDbLine
 10
9.699
 20
54.967
 30
0.0
 11
9.71
 21
55.064
 31
0.0
  0
LINE
  5
AD4
330
A35
100
AcDbEntity
  8
0
100
AcDbLine
 10
9.699
 20
54.967
 30
0.0
 11
11.376
 21
55.301
 31
0.0
  0
LINE
  5
AD5
330
A35
100
AcDbEntity
  8
0
100
AcDbLine
 10
11.387
 20
55.301
 30
0.0
 11
15.937
 21
54.507
 31
0.0
  0
LINE
  5
AD6
330
A35
100
AcDbEntity
  8
0
100
AcDbLine
 10
15.982
 20
54.599
 30
0.0
 11
11.428
 21
55.398
 31
0.0
  0
LINE
  5
AD7
330
A35
100
AcDbEntity
  8
0
100
AcDbLine
 10
11.018
 20
53.835
 30
0.0
 11
12.691
 21
54.173
 31
0.0
  0
LINE
  5
AD8
330
A35
100
AcDbEntity
  8
0
100
AcDbLine
 10
11.018
 20
53.835
 30
0.0
 11
7.865
 21
52.925
 31
0.0
  0
LINE
  5
AD9
330
A35
100
AcDbEntity
  8
0
100
AcDbLine
 10
5.071
 20
54.277
 30
0.0
 11
5.071
 21
54.306
 31
0.0
  0
LINE
  5
ADA
330
A35
100
AcDbEntity
  8
0
100
AcDbLine
 10
12.691
 20
54.173
 30
0.0
 11
12.702
 21
54.173
 31
0.0
  0
LINE
  5
ADB
330
A35
100
AcDbEntity
  8
0
100
AcDbLine
 10
15.937
 20
54.507
 30
0.0
 11
17.255
 21
53.374
 31
0.0
  0
LINE
  5
ADC
330
A35
100
AcDbEntity
  8
0
100
AcDbLine
 10
5.082
 20
54.369
 30
0.0
 11
5.071
 21
54.306
 31
0.0
  0
LINE
  5
ADD
330
A35
100
AcDbEntity
  8
0
100
AcDbLine
 10
12.702
 20
54.173
 30
0.0
 11
17.255
 21
53.374
 31
0.0
  0
LINE
  5
ADE
330
A35
100
AcDbEntity
  8
0
100
AcDbLine
 10
11.387
 20
55.301
 30
0.0
 11
11.376
 21
55.301
 31
0.0
  0
LINE
  5
ADF
330
A35
100
AcDbEntity
  8
0
100
AcDbLine
 10
11.376
 20
55.301
 30
0.0
 11
12.691
 21
54.173
 31
0.0
  0
LINE
  5
AE0
330
A35
100
AcDbEntity
  8
0
100
AcDbLine
 10
11.428
 20
55.398
 30
0.0
 11
9.71
 21
55.064
 31
0.0
  0
LINE
  5
AE1
330
A35
100
AcDbEntity
  8
0
100
AcDbLine
 10
6.823
 20
52.766
 30
0.0
 11
5.071
 21
54.277
 31
0.0
  0
LINE
  5
AE2
330
A35
100
AcDbEntity
  8
0
100
AcDbLine
 10
5.127
 20
54.433
 30
0.0
 11
5.082
 21
54.369
 31
0.0
  0
LINE
  5
AE3
330
A35
100
AcDbEntity
  8
0
100
AcDbLine
 10
5.116
 20
54.34
 30
0.0
 11
5.127
 21
54.433
 31
0.0
  0
LINE
  5
AE4
330
A35
100
AcDbEntity
  8
0
100
AcDbLine
 10
6.02
 20
54.518
 30
0.0
 11
6.031
 21
54.611
 31
0.0
  0
LINE
  5
AE5
330
A35
100
AcDbEntity
  8
0
100
AcDbLine
 10
6.02
 20
54.518
 30
0.0
 11
5.116
 21
54.34
 31
0.0
  0
LINE
  5
AE6
330
A35
100
AcDbEntity
  8
0
100
AcDbLine
 10
5.127
 20
54.433
 30
0.0
 11
6.031
 21
54.611
 31
0.0
  0
LINE
  5
AE7
330
A35
100
AcDbEntity
  8
0
100
AcDbLine
 10
6.02
 20
54.518
 30
0.0
 11
9.699
 21
54.967
 31
0.0
  0
LINE
  5
AE8
330
A35
100
AcDbEntity
  8
0
100
AcDbLine
 10
9.71
 20
55.064
 30
0.0
 11
6.031
 21
54.611
 31
0.0
  0
LINE
  5
AE9
330
A35
100
AcDbEntity
  8
0
100
AcDbLine
 10
16.34
 20
54.57
 30
0.0
 11
17.655
 21
53.426
 31
0.0
  0
LINE
  5
AEA
330
A35
100
AcDbEntity
  8
0
100
AcDbLine
 10
5.071
 20
54.288
 30
0.0
 11
5.082
 21
54.173
 31
0.0
  0
LINE
  5
AEB
330
A35
100
AcDbEntity
  8
0
100
AcDbLine
 10
6.505
 20
52.695
 30
0.0
 11
6.718
 21
52.777
 31
0.0
  0
LINE
  5
AEC
330
A35
100
AcDbEntity
  8
0
100
AcDbLine
 10
5.0
 20
54.15
 30
0.0
 11
5.082
 21
54.369
 31
0.0
  0
LINE
  5
AED
330
A35
100
AcDbEntity
  8
0
100
AcDbLine
 10
5.284
 20
53.501
 30
0.0
 11
5.0
 21
54.15
 31
0.0
  0
LINE
  5
AEE
330
A35
100
AcDbEntity
  8
0
100
AcDbLine
 10
5.642
 20
53.007
 30
0.0
 11
5.284
 21
53.501
 31
0.0
  0
LINE
  5
AEF
330
A35
100
AcDbEntity
  8
0
100
AcDbLine
 10
6.031
 20
52.714
 30
0.0
 11
5.642
 21
53.007
 31
0.0
  0
LINE
  5
AF0
330
A35
100
AcDbEntity
  8
0
100
AcDbLine
 10
6.412
 20
52.662
 30
0.0
 11
6.031
 21
52.714
 31
0.0
  0
LINE
  5
AF1
330
A35
100
AcDbEntity
  8
0
100
AcDbLine
 10
5.377
 20
53.512
 30
0.0
 11
5.093
 21
54.162
 31
0.0
  0
LINE
  5
AF2
330
A35
100
AcDbEntity
  8
0
100
AcDbLine
 10
5.736
 20
53.018
 30
0.0
 11
5.377
 21
53.512
 31
0.0
  0
LINE
  5
AF3
330
A35
100
AcDbEntity
  8
0
100
AcDbLine
 10
6.128
 20
52.736
 30
0.0
 11
5.736
 21
53.018
 31
0.0
  0
LINE
  5
AF4
330
A35
100
AcDbEntity
  8
0
100
AcDbLine
 10
6.505
 20
52.684
 30
0.0
 11
6.128
 21
52.736
 31
0.0
  0
LINE
  5
AF5
330
A35
100
AcDbEntity
  8
0
100
AcDbLine
 10
6.823
 20
52.766
 30
0.0
 11
6.961
 21
52.747
 31
0.0
  0
LINE
  5
AF6
330
A35
100
AcDbEntity
  8
0
100
AcDbLine
 10
17.92
 20
55.134
 30
0.0
 11
18.944
 21
55.179
 31
0.0
  0
LINE
  5
AF7
330
A35
100
AcDbEntity
  8
0
100
AcDbLine
 10
16.329
 20
54.652
 30
0.0
 11
17.92
 21
55.134
 31
0.0
  0
LINE
  5
AF8
330
A35
100
AcDbEntity
  8
0
100
AcDbLine
 10
17.655
 20
53.426
 30
0.0
 11
17.255
 21
53.374
 31
0.0
  0
LINE
  5
AF9
330
A35
100
AcDbEntity
  8
0
100
AcDbLine
 10
6.707
 20
52.766
 30
0.0
 11
6.823
 21
52.766
 31
0.0
  0
LINE
  5
AFA
330
A35
100
AcDbEntity
  8
0
100
AcDbLine
 10
16.34
 20
54.57
 30
0.0
 11
15.937
 21
54.507
 31
0.0
  0
LINE
  5
AFB
330
A35
100
AcDbEntity
  8
0
100
AcDbLine
 10
16.329
 20
54.652
 30
0.0
 11
15.982
 21
54.599
 31
0.0
  0
LINE
  5
AFC
330
A35
100
AcDbEntity
  8
0
100
AcDbLine
 10
17.943
 20
55.041
 30
0.0
 11
18.962
 21
55.082
 31
0.0
  0
LINE
  5
AFD
330
A35
100
AcDbEntity
  8
0
100
AcDbLine
 10
16.34
 20
54.57
 30
0.0
 11
17.943
 21
55.041
 31
0.0
  0
LINE
  5
AFE
330
A35
100
AcDbEntity
  8
0
100
AcDbLine
 10
18.256
 20
53.668
 30
0.0
 11
19.425
 21
53.931
 31
0.0
  0
LINE
  5
AFF
330
A35
100
AcDbEntity
  8
0
100
AcDbLine
 10
17.655
 20
53.426
 30
0.0
 11
18.256
 21
53.668
 31
0.0
  0
LINE
  5
B00
330
A35
100
AcDbEntity
  8
0
100
AcDbLine
 10
32.674
 20
58.928
 30
0.0
 11
32.356
 21
59.158
 31
0.0
  0
LINE
  5
B01
330
A35
100
AcDbEntity
  8
0
100
AcDbLine
 10
26.888
 20
57.744
 30
0.0
 11
27.247
 21
57.284
 31
0.0
  0
LINE
  5
B02
330
A35
100
AcDbEntity
  8
0
100
AcDbLine
 10
26.814
 20
58.226
 30
0.0
 11
26.888
 21
57.744
 31
0.0
  0
LINE
  5
B03
330
A35
100
AcDbEntity
  8
0
100
AcDbLine
 10
27.027
 20
58.698
 30
0.0
 11
26.814
 21
58.226
 31
0.0
  0
LINE
  5
B04
330
A35
100
AcDbEntity
  8
0
100
AcDbLine
 10
27.501
 20
59.106
 30
0.0
 11
27.027
 21
58.698
 31
0.0
  0
LINE
  5
B05
330
A35
100
AcDbEntity
  8
0
100
AcDbLine
 10
32.999
 20
58.52
 30
0.0
 11
32.674
 21
58.928
 31
0.0
  0
LINE
  5
B06
330
A35
100
AcDbEntity
  8
0
100
AcDbLine
 10
33.062
 20
58.082
 30
0.0
 11
32.999
 21
58.52
 31
0.0
  0
LINE
  5
B07
330
A35
100
AcDbEntity
  8
0
100
AcDbLine
 10
32.876
 20
57.651
 30
0.0
 11
33.062
 21
58.082
 31
0.0
  0
LINE
  5
B08
330
A35
100
AcDbEntity
  8
0
100
AcDbLine
 10
32.674
 20
57.451
 30
0.0
 11
32.876
 21
57.651
 31
0.0
  0
LINE
  5
B09
330
A35
100
AcDbEntity
  8
0
100
AcDbLine
 10
32.009
 20
57.053
 30
0.0
 11
32.674
 21
57.451
 31
0.0
  0
LINE
  5
B0A
330
A35
100
AcDbEntity
  8
0
100
AcDbLine
 10
31.587
 20
56.905
 30
0.0
 11
32.009
 21
57.053
 31
0.0
  0
LINE
  5
B0B
330
A35
100
AcDbEntity
  8
0
100
AcDbLine
 10
30.62
 20
56.727
 30
0.0
 11
31.587
 21
56.905
 31
0.0
  0
LINE
  5
B0C
330
A35
100
AcDbEntity
  8
0
100
AcDbLine
 10
29.574
 20
56.727
 30
0.0
 11
30.62
 21
56.727
 31
0.0
  0
LINE
  5
B0D
330
A35
100
AcDbEntity
  8
0
100
AcDbLine
 10
28.184
 20
57.053
 30
0.0
 11
29.574
 21
56.727
 31
0.0
  0
LINE
  5
B0E
330
A35
100
AcDbEntity
  8
0
100
AcDbLine
 10
27.815
 20
57.243
 30
0.0
 11
28.184
 21
57.053
 31
0.0
  0
LINE
  5
B0F
330
A35
100
AcDbEntity
  8
0
100
AcDbLine
 10
27.321
 20
57.651
 30
0.0
 11
27.815
 21
57.243
 31
0.0
  0
LINE
  5
B10
330
A35
100
AcDbEntity
  8
0
100
AcDbLine
 10
27.12
 20
58.082
 30
0.0
 11
27.321
 21
57.651
 31
0.0
  0
LINE
  5
B11
330
A35
100
AcDbEntity
  8
0
100
AcDbLine
 10
27.195
 20
58.52
 30
0.0
 11
27.12
 21
58.082
 31
0.0
  0
LINE
  5
B12
330
A35
100
AcDbEntity
  8
0
100
AcDbLine
 10
27.321
 20
58.731
 30
0.0
 11
27.195
 21
58.52
 31
0.0
  0
LINE
  5
B13
330
A35
100
AcDbEntity
  8
0
100
AcDbLine
 10
27.837
 20
59.158
 30
0.0
 11
27.321
 21
58.731
 31
0.0
  0
LINE
  5
B14
330
A35
100
AcDbEntity
  8
0
100
AcDbLine
 10
33.171
 20
58.698
 30
0.0
 11
32.697
 21
59.106
 31
0.0
  0
LINE
  5
B15
330
A35
100
AcDbEntity
  8
0
100
AcDbLine
 10
33.305
 20
58.457
 30
0.0
 11
33.171
 21
58.698
 31
0.0
  0
LINE
  5
B16
330
A35
100
AcDbEntity
  8
0
100
AcDbLine
 10
33.38
 20
57.974
 30
0.0
 11
33.305
 21
58.457
 31
0.0
  0
LINE
  5
B17
330
A35
100
AcDbEntity
  8
0
100
AcDbLine
 10
33.305
 20
57.744
 30
0.0
 11
33.38
 21
57.974
 31
0.0
  0
LINE
  5
B18
330
A35
100
AcDbEntity
  8
0
100
AcDbLine
 10
33.171
 20
57.503
 30
0.0
 11
33.305
 21
57.744
 31
0.0
  0
LINE
  5
B19
330
A35
100
AcDbEntity
  8
0
100
AcDbLine
 10
32.611
 20
57.042
 30
0.0
 11
33.171
 21
57.503
 31
0.0
  0
LINE
  5
B1A
330
A35
100
AcDbEntity
  8
0
100
AcDbLine
 10
31.748
 20
56.686
 30
0.0
 11
32.611
 21
57.042
 31
0.0
  0
LINE
  5
B1B
330
A35
100
AcDbEntity
  8
0
100
AcDbLine
 10
30.672
 20
56.485
 30
0.0
 11
31.748
 21
56.686
 31
0.0
  0
LINE
  5
B1C
330
A35
100
AcDbEntity
  8
0
100
AcDbLine
 10
29.514
 20
56.485
 30
0.0
 11
30.672
 21
56.485
 31
0.0
  0
LINE
  5
B1D
330
A35
100
AcDbEntity
  8
0
100
AcDbLine
 10
27.983
 20
56.842
 30
0.0
 11
29.514
 21
56.485
 31
0.0
  0
LINE
  5
B1E
330
A35
100
AcDbEntity
  8
0
100
AcDbLine
 10
27.247
 20
57.284
 30
0.0
 11
27.983
 21
56.842
 31
0.0
  0
LINE
  5
B1F
330
A35
100
AcDbEntity
  8
0
100
AcDbLine
 10
40.791
 20
78.284
 30
0.0
 11
40.85
 21
78.199
 31
0.0
  0
LINE
  5
B20
330
A35
100
AcDbEntity
  8
0
100
AcDbLine
 10
40.641
 20
78.244
 30
0.0
 11
40.641
 21
78.095
 31
0.0
  0
LINE
  5
B21
330
A35
100
AcDbEntity
  8
0
100
AcDbLine
 10
40.619
 20
78.136
 30
0.0
 11
40.555
 21
78.221
 31
0.0
  0
LINE
  5
B22
330
A35
100
AcDbEntity
  8
0
100
AcDbLine
 10
40.705
 20
78.262
 30
0.0
 11
40.705
 21
77.939
 31
0.0
  0
LINE
  5
B23
330
A35
100
AcDbEntity
  8
0
100
AcDbLine
 10
40.189
 20
78.262
 30
0.0
 11
40.189
 21
78.295
 31
0.0
  0
LINE
  5
B24
330
A35
100
AcDbEntity
  8
0
100
AcDbLine
 10
40.884
 20
78.18
 30
0.0
 11
40.884
 21
77.906
 31
0.0
  0
LINE
  5
B25
330
A35
100
AcDbEntity
  8
0
100
AcDbLine
 10
40.948
 20
77.887
 30
0.0
 11
40.948
 21
78.158
 31
0.0
  0
LINE
  5
B26
330
A35
100
AcDbEntity
  8
0
100
AcDbLine
 10
40.578
 20
78.043
 30
0.0
 11
40.462
 21
78.043
 31
0.0
  0
LINE
  5
B27
330
A35
100
AcDbEntity
  8
0
100
AcDbLine
 10
40.589
 20
78.054
 30
0.0
 11
40.589
 21
77.928
 31
0.0
  0
LINE
  5
B28
330
A35
100
AcDbEntity
  8
0
100
AcDbLine
 10
40.884
 20
77.906
 30
0.0
 11
40.948
 21
77.887
 31
0.0
  0
LINE
  5
B29
330
A35
100
AcDbEntity
  8
0
100
AcDbLine
 10
40.705
 20
77.939
 30
0.0
 11
40.589
 21
77.928
 31
0.0
  0
LINE
  5
B2A
330
A35
100
AcDbEntity
  8
0
100
AcDbLine
 10
41.56
 20
78.262
 30
0.0
 11
41.56
 21
78.295
 31
0.0
  0
LINE
  5
B2B
330
A35
100
AcDbEntity
  8
0
100
AcDbLine
 10
41.273
 20
78.129
 30
0.0
 11
41.157
 21
78.065
 31
0.0
  0
LINE
  5
B2C
330
A35
100
AcDbEntity
  8
0
100
AcDbLine
 10
41.03
 20
78.18
 30
0.0
 11
41.145
 21
78.244
 31
0.0
  0
LINE
  5
B2D
330
A35
100
AcDbEntity
  8
0
100
AcDbLine
 10
41.093
 20
78.21
 30
0.0
 11
41.093
 21
78.002
 31
0.0
  0
LINE
  5
B2E
330
A35
100
AcDbEntity
  8
0
100
AcDbLine
 10
41.116
 20
77.98
 30
0.0
 11
41.179
 21
77.95
 31
0.0
  0
LINE
  5
B2F
330
A35
100
AcDbEntity
  8
0
100
AcDbLine
 10
40.555
 20
78.232
 30
0.0
 11
40.791
 21
78.295
 31
0.0
  0
LINE
  5
B30
330
A35
100
AcDbEntity
  8
0
100
AcDbLine
 10
40.641
 20
78.095
 30
0.0
 11
40.63
 21
78.136
 31
0.0
  0
LINE
  5
B31
330
A35
100
AcDbEntity
  8
0
100
AcDbLine
 10
40.959
 20
77.887
 30
0.0
 11
41.19
 21
77.95
 31
0.0
  0
LINE
  5
B32
330
A35
100
AcDbEntity
  8
0
100
AcDbLine
 10
40.462
 20
78.043
 30
0.0
 11
40.6
 21
77.928
 31
0.0
  0
LINE
  5
B33
330
A35
100
AcDbEntity
  8
0
100
AcDbLine
 10
41.145
 20
78.244
 30
0.0
 11
41.284
 21
78.129
 31
0.0
  0
LINE
  5
B34
330
A35
100
AcDbEntity
  8
0
100
AcDbLine
 10
41.093
 20
78.002
 30
0.0
 11
41.116
 21
77.969
 31
0.0
  0
LINE
  5
B35
330
A35
100
AcDbEntity
  8
0
100
AcDbLine
 10
41.03
 20
78.18
 30
0.0
 11
40.85
 21
78.199
 31
0.0
  0
LINE
  5
B36
330
A35
100
AcDbEntity
  8
0
100
AcDbLine
 10
40.567
 20
77.898
 30
0.0
 11
41.179
 21
77.898
 31
0.0
  0
LINE
  5
B37
330
A35
100
AcDbEntity
  8
0
100
AcDbLine
 10
40.189
 20
78.295
 30
0.0
 11
40.189
 21
78.262
 31
0.0
  0
LINE
  5
B38
330
A35
100
AcDbEntity
  8
0
100
AcDbLine
 10
40.271
 20
78.054
 30
0.0
 11
40.189
 21
78.262
 31
0.0
  0
LINE
  5
B39
330
A35
100
AcDbEntity
  8
0
100
AcDbLine
 10
40.567
 20
77.898
 30
0.0
 11
40.271
 21
78.054
 31
0.0
  0
LINE
  5
B3A
330
A35
100
AcDbEntity
  8
0
100
AcDbLine
 10
40.705
 20
77.939
 30
0.0
 11
40.884
 21
77.906
 31
0.0
  0
LINE
  5
B3B
330
A35
100
AcDbEntity
  8
0
100
AcDbLine
 10
40.641
 20
78.095
 30
0.0
 11
40.578
 21
78.043
 31
0.0
  0
LINE
  5
B3C
330
A35
100
AcDbEntity
  8
0
100
AcDbLine
 10
41.56
 20
78.262
 30
0.0
 11
41.549
 21
78.295
 31
0.0
  0
LINE
  5
B3D
330
A35
100
AcDbEntity
  8
0
100
AcDbLine
 10
41.093
 20
78.002
 30
0.0
 11
41.157
 21
78.065
 31
0.0
  0
LINE
  5
B3E
330
A35
100
AcDbEntity
  8
0
100
AcDbLine
 10
41.474
 20
78.065
 30
0.0
 11
41.179
 21
77.898
 31
0.0
  0
LINE
  5
B3F
330
A35
100
AcDbEntity
  8
0
100
AcDbLine
 10
41.56
 20
78.262
 30
0.0
 11
41.474
 21
78.065
 31
0.0
  0
LINE
  5
B40
330
A35
100
AcDbEntity
  8
0
100
AcDbLine
 10
39.27
 20
84.228
 30
0.0
 11
39.241
 21
84.143
 31
0.0
  0
LINE
  5
B41
330
A35
100
AcDbEntity
  8
0
100
AcDbLine
 10
39.27
 20
84.228
 30
0.0
 11
39.27
 21
83.931
 31
0.0
  0
LINE
  5
B42
330
A35
100
AcDbEntity
  8
0
100
AcDbLine
 10
39.375
 20
83.964
 30
0.0
 11
39.375
 21
84.299
 31
0.0
  0
LINE
  5
B43
330
A35
100
AcDbEntity
  8
0
100
AcDbLine
 10
39.375
 20
84.299
 30
0.0
 11
39.704
 21
84.395
 31
0.0
  0
LINE
  5
B44
330
A35
100
AcDbEntity
  8
0
100
AcDbLine
 10
39.704
 20
84.395
 30
0.0
 11
39.704
 21
84.05
 31
0.0
  0
LINE
  5
B45
330
A35
100
AcDbEntity
  8
0
100
AcDbLine
 10
39.872
 20
84.102
 30
0.0
 11
39.872
 21
84.402
 31
0.0
  0
LINE
  5
B46
330
A35
100
AcDbEntity
  8
0
100
AcDbLine
 10
39.872
 20
84.402
 30
0.0
 11
40.04
 21
84.373
 31
0.0
  0
LINE
  5
B47
330
A35
100
AcDbEntity
  8
0
100
AcDbLine
 10
39.883
 20
84.402
 30
0.0
 11
39.704
 21
84.395
 31
0.0
  0
LINE
  5
B48
330
A35
100
AcDbEntity
  8
0
100
AcDbLine
 10
40.26
 20
84.217
 30
0.0
 11
40.04
 21
84.373
 31
0.0
  0
LINE
  5
B49
330
A35
100
AcDbEntity
  8
0
100
AcDbLine
 10
39.375
 20
84.299
 30
0.0
 11
39.27
 21
84.228
 31
0.0
  0
LINE
  5
B4A
330
A35
100
AcDbEntity
  8
0
100
AcDbLine
 10
39.241
 20
84.143
 30
0.0
 11
39.207
 21
83.912
 31
0.0
  0
LINE
  5
B4B
330
A35
100
AcDbEntity
  8
0
100
AcDbLine
 10
45.332
 20
75.415
 30
0.0
 11
46.7
 21
75.812
 31
0.0
  0
LINE
  5
B4C
330
A35
100
AcDbEntity
  8
0
100
AcDbLine
 10
46.797
 20
75.938
 30
0.0
 11
46.797
 21
76.669
 31
0.0
  0
LINE
  5
B4D
330
A35
100
AcDbEntity
  8
0
100
AcDbLine
 10
46.774
 20
76.692
 30
0.0
 11
46.774
 21
75.968
 31
0.0
  0
LINE
  5
B4E
330
A35
100
AcDbEntity
  8
0
100
AcDbLine
 10
46.658
 20
75.823
 30
0.0
 11
42.053
 21
79.792
 31
0.0
  0
LINE
  5
B4F
330
A35
100
AcDbEntity
  8
0
100
AcDbLine
 10
42.169
 20
79.94
 30
0.0
 11
46.774
 21
75.968
 31
0.0
  0
LINE
  5
B50
330
A35
100
AcDbEntity
  8
0
100
AcDbLine
 10
48.481
 20
79.187
 30
0.0
 11
48.481
 21
80.631
 31
0.0
  0
LINE
  5
B51
330
A35
100
AcDbEntity
  8
0
100
AcDbLine
 10
48.029
 20
78.956
 30
0.0
 11
48.291
 21
78.726
 31
0.0
  0
LINE
  5
B52
330
A35
100
AcDbEntity
  8
0
100
AcDbLine
 10
48.388
 20
79.06
 30
0.0
 11
48.029
 21
78.956
 31
0.0
  0
LINE
  5
B53
330
A35
100
AcDbEntity
  8
0
100
AcDbLine
 10
48.325
 20
78.641
 30
0.0
 11
48.104
 21
77.33
 31
0.0
  0
LINE
  5
B54
330
A35
100
AcDbEntity
  8
0
100
AcDbLine
 10
47.017
 20
76.933
 30
0.0
 11
47.017
 21
76.837
 31
0.0
  0
LINE
  5
B55
330
A35
100
AcDbEntity
  8
0
100
AcDbLine
 10
46.924
 20
76.714
 30
0.0
 11
46.797
 21
76.669
 31
0.0
  0
LINE
  5
B56
330
A35
100
AcDbEntity
  8
0
100
AcDbLine
 10
47.006
 20
76.87
 30
0.0
 11
47.006
 21
76.922
 31
0.0
  0
LINE
  5
B57
330
A35
100
AcDbEntity
  8
0
100
AcDbLine
 10
46.954
 20
76.911
 30
0.0
 11
47.006
 21
76.87
 31
0.0
  0
LINE
  5
B58
330
A35
100
AcDbEntity
  8
0
100
AcDbLine
 10
47.081
 20
77.594
 30
0.0
 11
46.89
 21
77.75
 31
0.0
  0
LINE
  5
B59
330
A35
100
AcDbEntity
  8
0
100
AcDbLine
 10
46.815
 20
77.728
 30
0.0
 11
46.965
 21
77.601
 31
0.0
  0
LINE
  5
B5A
330
A35
100
AcDbEntity
  8
0
100
AcDbLine
 10
46.744
 20
76.848
 30
0.0
 11
47.988
 21
77.204
 31
0.0
  0
LINE
  5
B5B
330
A35
100
AcDbEntity
  8
0
100
AcDbLine
 10
46.364
 20
77.382
 30
0.0
 11
46.322
 21
77.423
 31
0.0
  0
LINE
  5
B5C
330
A35
100
AcDbEntity
  8
0
100
AcDbLine
 10
46.364
 20
77.382
 30
0.0
 11
47.081
 21
77.594
 31
0.0
  0
LINE
  5
B5D
330
A35
100
AcDbEntity
  8
0
100
AcDbLine
 10
46.965
 20
77.601
 30
0.0
 11
46.322
 21
77.423
 31
0.0
  0
LINE
  5
B5E
330
A35
100
AcDbEntity
  8
0
100
AcDbLine
 10
46.67
 20
78.336
 30
0.0
 11
47.988
 21
77.204
 31
0.0
  0
LINE
  5
B5F
330
A35
100
AcDbEntity
  8
0
100
AcDbLine
 10
43.741
 20
83.044
 30
0.0
 11
43.424
 21
82.947
 31
0.0
  0
LINE
  5
B60
330
A35
100
AcDbEntity
  8
0
100
AcDbLine
 10
43.857
 20
83.188
 30
0.0
 11
43.857
 21
84.636
 31
0.0
  0
LINE
  5
B61
330
A35
100
AcDbEntity
  8
0
100
AcDbLine
 10
43.678
 20
83.211
 30
0.0
 11
43.349
 21
83.114
 31
0.0
  0
LINE
  5
B62
330
A35
100
AcDbEntity
  8
0
100
AcDbLine
 10
43.678
 20
83.211
 30
0.0
 11
43.678
 21
84.666
 31
0.0
  0
LINE
  5
B63
330
A35
100
AcDbEntity
  8
0
100
AcDbLine
 10
43.678
 20
84.666
 30
0.0
 11
37.309
 21
82.832
 31
0.0
  0
LINE
  5
B64
330
A35
100
AcDbEntity
  8
0
100
AcDbLine
 10
43.129
 20
82.832
 30
0.0
 11
43.129
 21
82.257
 31
0.0
  0
LINE
  5
B65
330
A35
100
AcDbEntity
  8
0
100
AcDbLine
 10
43.308
 20
82.802
 30
0.0
 11
43.749
 21
82.424
 31
0.0
  0
LINE
  5
B66
330
A35
100
AcDbEntity
  8
0
100
AcDbLine
 10
43.308
 20
82.234
 30
0.0
 11
43.308
 21
82.802
 31
0.0
  0
LINE
  5
B67
330
A35
100
AcDbEntity
  8
0
100
AcDbLine
 10
44.003
 20
82.361
 30
0.0
 11
43.783
 21
81.05
 31
0.0
  0
LINE
  5
B68
330
A35
100
AcDbEntity
  8
0
100
AcDbLine
 10
44.571
 20
81.343
 30
0.0
 11
44.593
 21
81.332
 31
0.0
  0
LINE
  5
B69
330
A35
100
AcDbEntity
  8
0
100
AcDbLine
 10
43.454
 20
82.108
 30
0.0
 11
43.454
 21
82.338
 31
0.0
  0
LINE
  5
B6A
330
A35
100
AcDbEntity
  8
0
100
AcDbLine
 10
43.973
 20
82.446
 30
0.0
 11
45.288
 21
81.314
 31
0.0
  0
LINE
  5
B6B
330
A35
100
AcDbEntity
  8
0
100
AcDbLine
 10
45.299
 20
81.147
 30
0.0
 11
45.385
 21
81.165
 31
0.0
  0
LINE
  5
B6C
330
A35
100
AcDbEntity
  8
0
100
AcDbLine
 10
45.321
 20
81.228
 30
0.0
 11
45.101
 21
79.918
 31
0.0
  0
LINE
  5
B6D
330
A35
100
AcDbEntity
  8
0
100
AcDbLine
 10
45.28
 20
79.762
 30
0.0
 11
45.501
 21
81.072
 31
0.0
  0
LINE
  5
B6E
330
A35
100
AcDbEntity
  8
0
100
AcDbLine
 10
45.478
 20
81.154
 30
0.0
 11
46.797
 21
80.026
 31
0.0
  0
LINE
  5
B6F
330
A35
100
AcDbEntity
  8
0
100
AcDbLine
 10
46.976
 20
79.866
 30
0.0
 11
48.029
 21
78.956
 31
0.0
  0
LINE
  5
B70
330
A35
100
AcDbEntity
  8
0
100
AcDbLine
 10
46.89
 20
79.877
 30
0.0
 11
46.808
 21
79.855
 31
0.0
  0
LINE
  5
B71
330
A35
100
AcDbEntity
  8
0
100
AcDbLine
 10
47.006
 20
79.773
 30
0.0
 11
46.786
 21
78.463
 31
0.0
  0
LINE
  5
B72
330
A35
100
AcDbEntity
  8
0
100
AcDbLine
 10
46.595
 20
78.619
 30
0.0
 11
46.815
 21
79.929
 31
0.0
  0
LINE
  5
B73
330
A35
100
AcDbEntity
  8
0
100
AcDbLine
 10
45.583
 20
78.871
 30
0.0
 11
45.542
 21
78.912
 31
0.0
  0
LINE
  5
B74
330
A35
100
AcDbEntity
  8
0
100
AcDbLine
 10
45.448
 20
78.997
 30
0.0
 11
44.69
 21
78.83
 31
0.0
  0
LINE
  5
B75
330
A35
100
AcDbEntity
  8
0
100
AcDbLine
 10
45.015
 20
78.756
 30
0.0
 11
45.448
 21
78.997
 31
0.0
  0
LINE
  5
B76
330
A35
100
AcDbEntity
  8
0
100
AcDbLine
 10
45.542
 20
78.912
 30
0.0
 11
45.015
 21
78.756
 31
0.0
  0
LINE
  5
B77
330
A35
100
AcDbEntity
  8
0
100
AcDbLine
 10
44.877
 20
78.671
 30
0.0
 11
45.583
 21
78.871
 31
0.0
  0
LINE
  5
B78
330
A35
100
AcDbEntity
  8
0
100
AcDbLine
 10
45.161
 20
79.636
 30
0.0
 11
46.479
 21
78.492
 31
0.0
  0
LINE
  5
B79
330
A35
100
AcDbEntity
  8
0
100
AcDbLine
 10
46.068
 20
80.055
 30
0.0
 11
45.576
 21
79.91
 31
0.0
  0
LINE
  5
B7A
330
A35
100
AcDbEntity
  8
0
100
AcDbLine
 10
46.068
 20
80.055
 30
0.0
 11
46.091
 21
80.033
 31
0.0
  0
LINE
  5
B7B
330
A35
100
AcDbEntity
  8
0
100
AcDbLine
 10
46.038
 20
79.814
 30
0.0
 11
45.68
 21
79.71
 31
0.0
  0
LINE
  5
B7C
330
A35
100
AcDbEntity
  8
0
100
AcDbLine
 10
46.038
 20
79.814
 30
0.0
 11
46.05
 21
79.803
 31
0.0
  0
LINE
  5
B7D
330
A35
100
AcDbEntity
  8
0
100
AcDbLine
 10
46.091
 20
80.033
 30
0.0
 11
45.583
 21
79.888
 31
0.0
  0
LINE
  5
B7E
330
A35
100
AcDbEntity
  8
0
100
AcDbLine
 10
45.542
 20
78.232
 30
0.0
 11
45.542
 21
78.129
 31
0.0
  0
LINE
  5
B7F
330
A35
100
AcDbEntity
  8
0
100
AcDbLine
 10
45.542
 20
78.129
 30
0.0
 11
45.456
 21
78.199
 31
0.0
  0
LINE
  5
B80
330
A35
100
AcDbEntity
  8
0
100
AcDbLine
 10
45.426
 20
77.98
 30
0.0
 11
46.67
 21
78.336
 31
0.0
  0
LINE
  5
B81
330
A35
100
AcDbEntity
  8
0
100
AcDbLine
 10
45.426
 20
77.98
 30
0.0
 11
45.247
 21
78.136
 31
0.0
  0
LINE
  5
B82
330
A35
100
AcDbEntity
  8
0
100
AcDbLine
 10
45.247
 20
78.136
 30
0.0
 11
46.479
 21
78.492
 31
0.0
  0
LINE
  5
B83
330
A35
100
AcDbEntity
  8
0
100
AcDbLine
 10
47.081
 20
78.619
 30
0.0
 11
47.596
 21
78.745
 31
0.0
  0
LINE
  5
B84
330
A35
100
AcDbEntity
  8
0
100
AcDbLine
 10
47.532
 20
78.526
 30
0.0
 11
47.555
 21
78.503
 31
0.0
  0
LINE
  5
B85
330
A35
100
AcDbEntity
  8
0
100
AcDbLine
 10
47.532
 20
78.526
 30
0.0
 11
47.185
 21
78.422
 31
0.0
  0
LINE
  5
B86
330
A35
100
AcDbEntity
  8
0
100
AcDbLine
 10
47.081
 20
78.6
 30
0.0
 11
47.596
 21
78.745
 31
0.0
  0
LINE
  5
B87
330
A35
100
AcDbEntity
  8
0
100
AcDbLine
 10
44.985
 20
79.792
 30
0.0
 11
43.667
 21
80.924
 31
0.0
  0
LINE
  5
B88
330
A35
100
AcDbEntity
  8
0
100
AcDbLine
 10
43.454
 20
82.338
 30
0.0
 11
43.887
 21
82.464
 31
0.0
  0
LINE
  5
B89
330
A35
100
AcDbEntity
  8
0
100
AcDbLine
 10
44.077
 20
81.21
 30
0.0
 11
44.571
 21
81.343
 31
0.0
  0
LINE
  5
B8A
330
A35
100
AcDbEntity
  8
0
100
AcDbLine
 10
44.593
 20
81.332
 30
0.0
 11
44.077
 21
81.188
 31
0.0
  0
LINE
  5
B8B
330
A35
100
AcDbEntity
  8
0
100
AcDbLine
 10
44.182
 20
81.009
 30
0.0
 11
44.552
 21
81.091
 31
0.0
  0
LINE
  5
B8C
330
A35
100
AcDbEntity
  8
0
100
AcDbLine
 10
42.961
 20
81.826
 30
0.0
 11
42.568
 21
81.325
 31
0.0
  0
LINE
  5
B8D
330
A35
100
AcDbEntity
  8
0
100
AcDbLine
 10
42.961
 20
81.826
 30
0.0
 11
42.811
 21
81.952
 31
0.0
  0
LINE
  5
B8E
330
A35
100
AcDbEntity
  8
0
100
AcDbLine
 10
43.043
 20
81.878
 30
0.0
 11
43.338
 21
81.963
 31
0.0
  0
LINE
  5
B8F
330
A35
100
AcDbEntity
  8
0
100
AcDbLine
 10
43.454
 20
82.108
 30
0.0
 11
43.308
 21
82.234
 31
0.0
  0
LINE
  5
B90
330
A35
100
AcDbEntity
  8
0
100
AcDbLine
 10
43.192
 20
82.09
 30
0.0
 11
42.897
 21
82.004
 31
0.0
  0
LINE
  5
B91
330
A35
100
AcDbEntity
  8
0
100
AcDbLine
 10
42.834
 20
82.171
 30
0.0
 11
43.129
 21
82.257
 31
0.0
  0
LINE
  5
B92
330
A35
100
AcDbEntity
  8
0
100
AcDbLine
 10
43.667
 20
80.924
 30
0.0
 11
42.423
 21
80.567
 31
0.0
  0
LINE
  5
B93
330
A35
100
AcDbEntity
  8
0
100
AcDbLine
 10
46.815
 20
77.728
 30
0.0
 11
46.89
 21
77.75
 31
0.0
  0
LINE
  5
B94
330
A35
100
AcDbEntity
  8
0
100
AcDbLine
 10
46.89
 20
76.721
 30
0.0
 11
46.774
 21
76.692
 31
0.0
  0
LINE
  5
B95
330
A35
100
AcDbEntity
  8
0
100
AcDbLine
 10
46.89
 20
76.721
 30
0.0
 11
46.744
 21
76.848
 31
0.0
  0
LINE
  5
B96
330
A35
100
AcDbEntity
  8
0
100
AcDbLine
 10
37.25
 20
78.904
 30
0.0
 11
37.25
 21
82.78
 31
0.0
  0
LINE
  5
B97
330
A35
100
AcDbEntity
  8
0
100
AcDbLine
 10
38.217
 20
79.216
 30
0.0
 11
37.309
 21
78.956
 31
0.0
  0
LINE
  5
B98
330
A35
100
AcDbEntity
  8
0
100
AcDbLine
 10
42.274
 20
80.694
 30
0.0
 11
42.423
 21
80.567
 31
0.0
  0
LINE
  5
B99
330
A35
100
AcDbEntity
  8
0
100
AcDbLine
 10
39.397
 20
80.026
 30
0.0
 11
39.397
 21
79.929
 31
0.0
  0
LINE
  5
B9A
330
A35
100
AcDbEntity
  8
0
100
AcDbLine
 10
39.293
 20
80.17
 30
0.0
 11
39.293
 21
81.867
 31
0.0
  0
LINE
  5
B9B
330
A35
100
AcDbEntity
  8
0
100
AcDbLine
 10
37.25
 20
80.504
 30
0.0
 11
37.141
 21
80.486
 31
0.0
  0
LINE
  5
B9C
330
A35
100
AcDbEntity
  8
0
100
AcDbLine
 10
39.368
 20
80.222
 30
0.0
 11
39.368
 21
81.93
 31
0.0
  0
LINE
  5
B9D
330
A35
100
AcDbEntity
  8
0
100
AcDbLine
 10
42.169
 20
80.664
 30
0.0
 11
42.169
 21
79.94
 31
0.0
  0
LINE
  5
B9E
330
A35
100
AcDbEntity
  8
0
100
AcDbLine
 10
41.99
 20
79.962
 30
0.0
 11
41.99
 21
80.798
 31
0.0
  0
LINE
  5
B9F
330
A35
100
AcDbEntity
  8
0
100
AcDbLine
 10
37.141
 20
80.486
 30
0.0
 11
37.141
 21
79.94
 31
0.0
  0
LINE
  5
BA0
330
A35
100
AcDbEntity
  8
0
100
AcDbLine
 10
39.368
 20
80.222
 30
0.0
 11
40.619
 21
80.59
 31
0.0
  0
LINE
  5
BA1
330
A35
100
AcDbEntity
  8
0
100
AcDbLine
 10
38.598
 20
81.406
 30
0.0
 11
38.598
 21
79.71
 31
0.0
  0
LINE
  5
BA2
330
A35
100
AcDbEntity
  8
0
100
AcDbLine
 10
38.396
 20
79.198
 30
0.0
 11
38.396
 21
81.574
 31
0.0
  0
LINE
  5
BA3
330
A35
100
AcDbEntity
  8
0
100
AcDbLine
 10
38.217
 20
81.596
 30
0.0
 11
38.217
 21
79.216
 31
0.0
  0
LINE
  5
BA4
330
A35
100
AcDbEntity
  8
0
100
AcDbLine
 10
40.619
 20
79.561
 30
0.0
 11
41.99
 21
79.962
 31
0.0
  0
LINE
  5
BA5
330
A35
100
AcDbEntity
  8
0
100
AcDbLine
 10
42.539
 20
80.716
 30
0.0
 11
42.539
 21
81.239
 31
0.0
  0
LINE
  5
BA6
330
A35
100
AcDbEntity
  8
0
100
AcDbLine
 10
42.169
 20
80.664
 30
0.0
 11
41.99
 21
80.798
 31
0.0
  0
LINE
  5
BA7
330
A35
100
AcDbEntity
  8
0
100
AcDbLine
 10
42.389
 20
80.842
 30
0.0
 11
42.539
 21
80.716
 31
0.0
  0
LINE
  5
BA8
330
A35
100
AcDbEntity
  8
0
100
AcDbLine
 10
42.274
 20
80.694
 30
0.0
 11
42.169
 21
80.664
 31
0.0
  0
LINE
  5
BA9
330
A35
100
AcDbEntity
  8
0
100
AcDbLine
 10
42.21
 20
80.861
 30
0.0
 11
41.99
 21
80.798
 31
0.0
  0
LINE
  5
BAA
330
A35
100
AcDbEntity
  8
0
100
AcDbLine
 10
42.389
 20
80.842
 30
0.0
 11
42.389
 21
81.366
 31
0.0
  0
LINE
  5
BAB
330
A35
100
AcDbEntity
  8
0
100
AcDbLine
 10
42.21
 20
81.388
 30
0.0
 11
42.21
 21
80.861
 31
0.0
  0
LINE
  5
BAC
330
A35
100
AcDbEntity
  8
0
100
AcDbLine
 10
42.285
 20
81.566
 30
0.0
 11
42.677
 21
82.067
 31
0.0
  0
LINE
  5
BAD
330
A35
100
AcDbEntity
  8
0
100
AcDbLine
 10
42.811
 20
81.952
 30
0.0
 11
42.423
 21
81.447
 31
0.0
  0
LINE
  5
BAE
330
A35
100
AcDbEntity
  8
0
100
AcDbLine
 10
38.598
 20
81.406
 30
0.0
 11
38.396
 21
81.574
 31
0.0
  0
LINE
  5
BAF
330
A35
100
AcDbEntity
  8
0
100
AcDbLine
 10
38.217
 20
81.596
 30
0.0
 11
39.368
 21
81.93
 31
0.0
  0
LINE
  5
BB0
330
A35
100
AcDbEntity
  8
0
100
AcDbLine
 10
39.293
 20
81.607
 30
0.0
 11
38.598
 21
81.406
 31
0.0
  0
LINE
  5
BB1
330
A35
100
AcDbEntity
  8
0
100
AcDbLine
 10
42.285
 20
81.566
 30
0.0
 11
42.423
 21
81.447
 31
0.0
  0
LINE
  5
BB2
330
A35
100
AcDbEntity
  8
0
100
AcDbLine
 10
42.389
 20
81.366
 30
0.0
 11
42.539
 21
81.239
 31
0.0
  0
LINE
  5
BB3
330
A35
100
AcDbEntity
  8
0
100
AcDbLine
 10
42.568
 20
81.325
 30
0.0
 11
42.423
 21
81.447
 31
0.0
  0
LINE
  5
BB4
330
A35
100
AcDbEntity
  8
0
100
AcDbLine
 10
37.25
 20
81.418
 30
0.0
 11
37.164
 21
81.395
 31
0.0
  0
LINE
  5
BB5
330
A35
100
AcDbEntity
  8
0
100
AcDbLine
 10
42.677
 20
82.067
 30
0.0
 11
42.811
 21
81.952
 31
0.0
  0
LINE
  5
BB6
330
A35
100
AcDbEntity
  8
0
100
AcDbLine
 10
43.741
 20
83.044
 30
0.0
 11
48.354
 21
79.071
 31
0.0
  0
LINE
  5
BB7
330
A35
100
AcDbEntity
  8
0
100
AcDbLine
 10
46.774
 20
76.692
 30
0.0
 11
42.169
 21
80.664
 31
0.0
  0
LINE
  5
BB8
330
A35
100
AcDbEntity
  8
0
100
AcDbLine
 10
43.857
 20
83.188
 30
0.0
 11
48.463
 21
79.216
 31
0.0
  0
LINE
  5
BB9
330
A35
100
AcDbEntity
  8
0
100
AcDbLine
 10
48.463
 20
80.675
 30
0.0
 11
43.857
 21
84.636
 31
0.0
  0
LINE
  5
BBA
330
A35
100
AcDbEntity
  8
0
100
AcDbLine
 10
42.938
 20
75.066
 30
0.0
 11
42.023
 21
74.806
 31
0.0
  0
LINE
  5
BBB
330
A35
100
AcDbEntity
  8
0
100
AcDbLine
 10
42.632
 20
75.307
 30
0.0
 11
42.897
 21
75.077
 31
0.0
  0
LINE
  5
BBC
330
A35
100
AcDbEntity
  8
0
100
AcDbLine
 10
43.013
 20
75.225
 30
0.0
 11
42.845
 21
75.359
 31
0.0
  0
LINE
  5
BBD
330
A35
100
AcDbEntity
  8
0
100
AcDbLine
 10
43.035
 20
75.192
 30
0.0
 11
43.035
 21
76.072
 31
0.0
  0
LINE
  5
BBE
330
A35
100
AcDbEntity
  8
0
100
AcDbLine
 10
43.603
 20
76.243
 30
0.0
 11
43.835
 21
76.209
 31
0.0
  0
LINE
  5
BBF
330
A35
100
AcDbEntity
  8
0
100
AcDbLine
 10
43.898
 20
80.003
 30
0.0
 11
43.454
 21
80.337
 31
0.0
  0
LINE
  5
BC0
330
A35
100
AcDbEntity
  8
0
100
AcDbLine
 10
43.794
 20
80.285
 30
0.0
 11
43.98
 21
80.17
 31
0.0
  0
LINE
  5
BC1
330
A35
100
AcDbEntity
  8
0
100
AcDbLine
 10
43.939
 20
80.159
 30
0.0
 11
43.794
 21
80.285
 31
0.0
  0
LINE
  5
BC2
330
A35
100
AcDbEntity
  8
0
100
AcDbLine
 10
43.667
 20
80.148
 30
0.0
 11
43.846
 21
79.992
 31
0.0
  0
LINE
  5
BC3
330
A35
100
AcDbEntity
  8
0
100
AcDbLine
 10
43.898
 20
80.085
 30
0.0
 11
43.626
 21
80.308
 31
0.0
  0
LINE
  5
BC4
330
A35
100
AcDbEntity
  8
0
100
AcDbLine
 10
43.846
 20
79.992
 30
0.0
 11
43.898
 21
80.003
 31
0.0
  0
LINE
  5
BC5
330
A35
100
AcDbEntity
  8
0
100
AcDbLine
 10
43.678
 20
80.326
 30
0.0
 11
43.626
 21
80.308
 31
0.0
  0
LINE
  5
BC6
330
A35
100
AcDbEntity
  8
0
100
AcDbLine
 10
43.633
 20
80.17
 30
0.0
 11
43.454
 21
80.337
 31
0.0
  0
LINE
  5
BC7
330
A35
100
AcDbEntity
  8
0
100
AcDbLine
 10
43.741
 20
79.435
 30
0.0
 11
43.928
 21
79.279
 31
0.0
  0
LINE
  5
BC8
330
A35
100
AcDbEntity
  8
0
100
AcDbLine
 10
44.044
 20
79.428
 30
0.0
 11
44.044
 21
79.521
 31
0.0
  0
LINE
  5
BC9
330
A35
100
AcDbEntity
  8
0
100
AcDbLine
 10
43.951
 20
79.498
 30
0.0
 11
44.044
 21
79.428
 31
0.0
  0
LINE
  5
BCA
330
A35
100
AcDbEntity
  8
0
100
AcDbLine
 10
43.928
 20
79.279
 30
0.0
 11
45.161
 21
79.636
 31
0.0
  0
LINE
  5
BCB
330
A35
100
AcDbEntity
  8
0
100
AcDbLine
 10
44.985
 20
79.792
 30
0.0
 11
43.741
 21
79.435
 31
0.0
  0
LINE
  5
BCC
330
A35
100
AcDbEntity
  8
0
100
AcDbLine
 10
43.939
 20
80.096
 30
0.0
 11
43.678
 21
80.326
 31
0.0
  0
LINE
  5
BCD
330
A35
100
AcDbEntity
  8
0
100
AcDbLine
 10
40.548
 20
80.434
 30
0.0
 11
40.548
 21
79.509
 31
0.0
  0
LINE
  5
BCE
330
A35
100
AcDbEntity
  8
0
100
AcDbLine
 10
43.823
 20
76.209
 30
0.0
 11
43.951
 21
76.105
 31
0.0
  0
LINE
  5
BCF
330
A35
100
AcDbEntity
  8
0
100
AcDbLine
 10
44.077
 20
76.072
 30
0.0
 11
44.373
 21
76.157
 31
0.0
  0
LINE
  5
BD0
330
A35
100
AcDbEntity
  8
0
100
AcDbLine
 10
43.603
 20
76.243
 30
0.0
 11
42.875
 21
76.031
 31
0.0
  0
LINE
  5
BD1
330
A35
100
AcDbEntity
  8
0
100
AcDbLine
 10
43.319
 20
80.085
 30
0.0
 11
43.633
 21
80.17
 31
0.0
  0
LINE
  5
BD2
330
A35
100
AcDbEntity
  8
0
100
AcDbLine
 10
43.338
 20
80.066
 30
0.0
 11
43.319
 21
80.085
 31
0.0
  0
LINE
  5
BD3
330
A35
100
AcDbEntity
  8
0
100
AcDbLine
 10
43.338
 20
80.066
 30
0.0
 11
43.667
 21
80.148
 31
0.0
  0
LINE
  5
BD4
330
A35
100
AcDbEntity
  8
0
100
AcDbLine
 10
43.939
 20
80.159
 30
0.0
 11
43.98
 21
80.17
 31
0.0
  0
LINE
  5
BD5
330
A35
100
AcDbEntity
  8
0
100
AcDbLine
 10
43.939
 20
80.096
 30
0.0
 11
43.898
 21
80.085
 31
0.0
  0
LINE
  5
BD6
330
A35
100
AcDbEntity
  8
0
100
AcDbLine
 10
44.825
 20
78.715
 30
0.0
 11
44.877
 21
78.671
 31
0.0
  0
LINE
  5
BD7
330
A35
100
AcDbEntity
  8
0
100
AcDbLine
 10
44.825
 20
78.715
 30
0.0
 11
45.258
 21
78.945
 31
0.0
  0
LINE
  5
BD8
330
A35
100
AcDbEntity
  8
0
100
AcDbLine
 10
44.731
 20
78.797
 30
0.0
 11
44.69
 21
78.83
 31
0.0
  0
LINE
  5
BD9
330
A35
100
AcDbEntity
  8
0
100
AcDbLine
 10
44.731
 20
78.797
 30
0.0
 11
45.258
 21
78.945
 31
0.0
  0
LINE
  5
BDA
330
A35
100
AcDbEntity
  8
0
100
AcDbLine
 10
42.875
 20
76.031
 30
0.0
 11
42.875
 21
75.456
 31
0.0
  0
LINE
  5
BDB
330
A35
100
AcDbEntity
  8
0
100
AcDbLine
 10
42.781
 20
75.329
 30
0.0
 11
42.74
 21
75.307
 31
0.0
  0
LINE
  5
BDC
330
A35
100
AcDbEntity
  8
0
100
AcDbLine
 10
42.748
 20
75.34
 30
0.0
 11
40.421
 21
77.342
 31
0.0
  0
LINE
  5
BDD
330
A35
100
AcDbEntity
  8
0
100
AcDbLine
 10
41.145
 20
77.531
 30
0.0
 11
42.864
 21
76.053
 31
0.0
  0
LINE
  5
BDE
330
A35
100
AcDbEntity
  8
0
100
AcDbLine
 10
42.864
 20
75.485
 30
0.0
 11
40.652
 21
77.393
 31
0.0
  0
LINE
  5
BDF
330
A35
100
AcDbEntity
  8
0
100
AcDbLine
 10
37.25
 20
79.97
 30
0.0
 11
37.141
 21
79.94
 31
0.0
  0
LINE
  5
BE0
330
A35
100
AcDbEntity
  8
0
100
AcDbLine
 10
39.397
 20
79.929
 30
0.0
 11
39.431
 21
79.992
 31
0.0
  0
LINE
  5
BE1
330
A35
100
AcDbEntity
  8
0
100
AcDbLine
 10
39.483
 20
79.951
 30
0.0
 11
39.345
 21
80.066
 31
0.0
  0
LINE
  5
BE2
330
A35
100
AcDbEntity
  8
0
100
AcDbLine
 10
38.598
 20
79.71
 30
0.0
 11
38.598
 21
79.027
 31
0.0
  0
LINE
  5
BE3
330
A35
100
AcDbEntity
  8
0
100
AcDbLine
 10
38.777
 20
78.997
 30
0.0
 11
38.777
 21
79.561
 31
0.0
  0
LINE
  5
BE4
330
A35
100
AcDbEntity
  8
0
100
AcDbLine
 10
39.547
 20
78.912
 30
0.0
 11
40.768
 21
79.257
 31
0.0
  0
LINE
  5
BE5
330
A35
100
AcDbEntity
  8
0
100
AcDbLine
 10
38.777
 20
79.561
 30
0.0
 11
39.547
 21
78.912
 31
0.0
  0
LINE
  5
BE6
330
A35
100
AcDbEntity
  8
0
100
AcDbLine
 10
40.029
 20
78.244
 30
0.0
 11
40.029
 21
77.761
 31
0.0
  0
LINE
  5
BE7
330
A35
100
AcDbEntity
  8
0
100
AcDbLine
 10
39.547
 20
78.348
 30
0.0
 11
41.265
 21
78.841
 31
0.0
  0
LINE
  5
BE8
330
A35
100
AcDbEntity
  8
0
100
AcDbLine
 10
41.433
 20
78.693
 30
0.0
 11
39.494
 21
78.136
 31
0.0
  0
LINE
  5
BE9
330
A35
100
AcDbEntity
  8
0
100
AcDbLine
 10
38.553
 20
78.819
 30
0.0
 11
38.292
 21
79.049
 31
0.0
  0
LINE
  5
BEA
330
A35
100
AcDbEntity
  8
0
100
AcDbLine
 10
38.662
 20
78.849
 30
0.0
 11
38.553
 21
78.819
 31
0.0
  0
LINE
  5
BEB
330
A35
100
AcDbEntity
  8
0
100
AcDbLine
 10
38.662
 20
78.849
 30
0.0
 11
39.494
 21
78.136
 31
0.0
  0
LINE
  5
BEC
330
A35
100
AcDbEntity
  8
0
100
AcDbLine
 10
39.547
 20
78.348
 30
0.0
 11
38.777
 21
78.997
 31
0.0
  0
LINE
  5
BED
330
A35
100
AcDbEntity
  8
0
100
AcDbLine
 10
41.926
 20
78.232
 30
0.0
 11
41.926
 21
77.854
 31
0.0
  0
LINE
  5
BEE
330
A35
100
AcDbEntity
  8
0
100
AcDbLine
 10
41.926
 20
78.232
 30
0.0
 11
41.96
 21
78.244
 31
0.0
  0
LINE
  5
BEF
330
A35
100
AcDbEntity
  8
0
100
AcDbLine
 10
40.873
 20
78.485
 30
0.0
 11
40.029
 21
78.244
 31
0.0
  0
LINE
  5
BF0
330
A35
100
AcDbEntity
  8
0
100
AcDbLine
 10
40.514
 20
77.353
 30
0.0
 11
42.371
 21
77.887
 31
0.0
  0
LINE
  5
BF1
330
A35
100
AcDbEntity
  8
0
100
AcDbLine
 10
42.348
 20
77.898
 30
0.0
 11
40.421
 21
77.342
 31
0.0
  0
LINE
  5
BF2
330
A35
100
AcDbEntity
  8
0
100
AcDbLine
 10
39.431
 20
80.055
 30
0.0
 11
40.548
 21
80.382
 31
0.0
  0
LINE
  5
BF3
330
A35
100
AcDbEntity
  8
0
100
AcDbLine
 10
39.588
 20
79.918
 30
0.0
 11
39.431
 21
80.055
 31
0.0
  0
LINE
  5
BF4
330
A35
100
AcDbEntity
  8
0
100
AcDbLine
 10
41.926
 20
77.854
 30
0.0
 11
42.285
 21
77.958
 31
0.0
  0
LINE
  5
BF5
330
A35
100
AcDbEntity
  8
0
100
AcDbLine
 10
41.822
 20
78.359
 30
0.0
 11
41.791
 21
78.377
 31
0.0
  0
LINE
  5
BF6
330
A35
100
AcDbEntity
  8
0
100
AcDbLine
 10
41.791
 20
78.348
 30
0.0
 11
41.138
 21
78.537
 31
0.0
  0
LINE
  5
BF7
330
A35
100
AcDbEntity
  8
0
100
AcDbLine
 10
41.717
 20
78.244
 30
0.0
 11
41.717
 21
77.761
 31
0.0
  0
LINE
  5
BF8
330
A35
100
AcDbEntity
  8
0
100
AcDbLine
 10
41.717
 20
78.244
 30
0.0
 11
40.873
 21
78.485
 31
0.0
  0
LINE
  5
BF9
330
A35
100
AcDbEntity
  8
0
100
AcDbLine
 10
40.873
 20
77.52
 30
0.0
 11
41.717
 21
77.761
 31
0.0
  0
LINE
  5
BFA
330
A35
100
AcDbEntity
  8
0
100
AcDbLine
 10
40.873
 20
77.52
 30
0.0
 11
40.029
 21
77.761
 31
0.0
  0
LINE
  5
BFB
330
A35
100
AcDbEntity
  8
0
100
AcDbLine
 10
41.138
 20
78.537
 30
0.0
 11
41.497
 21
78.641
 31
0.0
  0
LINE
  5
BFC
330
A35
100
AcDbEntity
  8
0
100
AcDbLine
 10
38.598
 20
79.027
 30
0.0
 11
38.396
 21
79.198
 31
0.0
  0
LINE
  5
BFD
330
A35
100
AcDbEntity
  8
0
100
AcDbLine
 10
39.547
 20
78.912
 30
0.0
 11
39.547
 21
78.348
 31
0.0
  0
LINE
  5
BFE
330
A35
100
AcDbEntity
  8
0
100
AcDbLine
 10
38.292
 20
79.049
 30
0.0
 11
37.373
 21
78.786
 31
0.0
  0
LINE
  5
BFF
330
A35
100
AcDbEntity
  8
0
100
AcDbLine
 10
39.513
 20
79.784
 30
0.0
 11
39.588
 21
79.918
 31
0.0
  0
LINE
  5
C00
330
A35
100
AcDbEntity
  8
0
100
AcDbLine
 10
38.777
 20
79.561
 30
0.0
 11
38.598
 21
79.71
 31
0.0
  0
LINE
  5
C01
330
A35
100
AcDbEntity
  8
0
100
AcDbLine
 10
40.682
 20
79.394
 30
0.0
 11
42.053
 21
79.792
 31
0.0
  0
LINE
  5
C02
330
A35
100
AcDbEntity
  8
0
100
AcDbLine
 10
39.513
 20
79.784
 30
0.0
 11
38.777
 21
79.561
 31
0.0
  0
LINE
  5
C03
330
A35
100
AcDbEntity
  8
0
100
AcDbLine
 10
38.598
 20
79.71
 30
0.0
 11
39.397
 21
79.929
 31
0.0
  0
LINE
  5
C04
330
A35
100
AcDbEntity
  8
0
100
AcDbLine
 10
40.6
 20
79.406
 30
0.0
 11
45.206
 21
75.445
 31
0.0
  0
LINE
  5
C05
330
A35
100
AcDbEntity
  8
0
100
AcDbLine
 10
41.896
 20
74.824
 30
0.0
 11
37.291
 21
78.797
 31
0.0
  0
LINE
  5
C06
330
A35
100
AcDbEntity
  8
0
100
AcDbLine
 10
45.217
 20
75.445
 30
0.0
 11
45.351
 21
75.422
 31
0.0
  0
LINE
  5
C07
330
A35
100
AcDbEntity
  8
0
100
AcDbLine
 10
46.797
 20
75.938
 30
0.0
 11
46.786
 21
75.968
 31
0.0
  0
LINE
  5
C08
330
A35
100
AcDbEntity
  8
0
100
AcDbLine
 10
46.7
 20
75.812
 30
0.0
 11
46.797
 21
75.946
 31
0.0
  0
LINE
  5
C09
330
A35
100
AcDbEntity
  8
0
100
AcDbLine
 10
48.481
 20
79.187
 30
0.0
 11
48.47
 21
79.216
 31
0.0
  0
LINE
  5
C0A
330
A35
100
AcDbEntity
  8
0
100
AcDbLine
 10
48.388
 20
79.06
 30
0.0
 11
48.481
 21
79.198
 31
0.0
  0
LINE
  5
C0B
330
A35
100
AcDbEntity
  8
0
100
AcDbLine
 10
48.481
 20
80.642
 30
0.0
 11
48.47
 21
80.675
 31
0.0
  0
LINE
  5
C0C
330
A35
100
AcDbEntity
  8
0
100
AcDbLine
 10
46.924
 20
76.714
 30
0.0
 11
47.017
 21
76.848
 31
0.0
  0
LINE
  5
C0D
330
A35
100
AcDbEntity
  8
0
100
AcDbLine
 10
47.028
 20
76.837
 30
0.0
 11
47.017
 21
76.87
 31
0.0
  0
LINE
  5
C0E
330
A35
100
AcDbEntity
  8
0
100
AcDbLine
 10
47.988
 20
77.215
 30
0.0
 11
48.104
 21
77.342
 31
0.0
  0
LINE
  5
C0F
330
A35
100
AcDbEntity
  8
0
100
AcDbLine
 10
46.67
 20
78.348
 30
0.0
 11
46.786
 21
78.474
 31
0.0
  0
LINE
  5
C10
330
A35
100
AcDbEntity
  8
0
100
AcDbLine
 10
46.49
 20
78.503
 30
0.0
 11
46.606
 21
78.63
 31
0.0
  0
LINE
  5
C11
330
A35
100
AcDbEntity
  8
0
100
AcDbLine
 10
43.667
 20
80.935
 30
0.0
 11
43.783
 21
81.061
 31
0.0
  0
LINE
  5
C12
330
A35
100
AcDbEntity
  8
0
100
AcDbLine
 10
42.909
 20
82.004
 30
0.0
 11
42.823
 21
81.952
 31
0.0
  0
LINE
  5
C13
330
A35
100
AcDbEntity
  8
0
100
AcDbLine
 10
43.054
 20
81.878
 30
0.0
 11
42.972
 21
81.826
 31
0.0
  0
LINE
  5
C14
330
A35
100
AcDbEntity
  8
0
100
AcDbLine
 10
42.434
 20
81.459
 30
0.0
 11
42.4
 21
81.366
 31
0.0
  0
LINE
  5
C15
330
A35
100
AcDbEntity
  8
0
100
AcDbLine
 10
42.58
 20
81.332
 30
0.0
 11
42.55
 21
81.239
 31
0.0
  0
LINE
  5
C16
330
A35
100
AcDbEntity
  8
0
100
AcDbLine
 10
41.907
 20
74.836
 30
0.0
 11
42.042
 21
74.817
 31
0.0
  0
LINE
  5
C17
330
A35
100
AcDbEntity
  8
0
100
AcDbLine
 10
42.643
 20
75.307
 30
0.0
 11
42.74
 21
75.318
 31
0.0
  0
LINE
  5
C18
330
A35
100
AcDbEntity
  8
0
100
AcDbLine
 10
43.962
 20
76.105
 30
0.0
 11
44.1
 21
76.083
 31
0.0
  0
LINE
  5
C19
330
A35
100
AcDbEntity
  8
0
100
AcDbLine
 10
44.985
 20
79.803
 30
0.0
 11
45.101
 21
79.929
 31
0.0
  0
LINE
  5
C1A
330
A35
100
AcDbEntity
  8
0
100
AcDbLine
 10
45.172
 20
79.636
 30
0.0
 11
45.288
 21
79.762
 31
0.0
  0
LINE
  5
C1B
330
A35
100
AcDbEntity
  8
0
100
AcDbLine
 10
42.886
 20
75.456
 30
0.0
 11
42.875
 21
75.485
 31
0.0
  0
LINE
  5
C1C
330
A35
100
AcDbEntity
  8
0
100
AcDbLine
 10
42.781
 20
75.329
 30
0.0
 11
42.875
 21
75.467
 31
0.0
  0
LINE
  5
C1D
330
A35
100
AcDbEntity
  8
0
100
AcDbLine
 10
42.938
 20
75.066
 30
0.0
 11
43.035
 21
75.203
 31
0.0
  0
LINE
  5
C1E
330
A35
100
AcDbEntity
  8
0
100
AcDbLine
 10
43.035
 20
75.192
 30
0.0
 11
43.024
 21
75.225
 31
0.0
  0
LINE
  5
C1F
330
A35
100
AcDbEntity
  8
0
100
AcDbLine
 10
39.293
 20
80.17
 30
0.0
 11
39.345
 21
80.066
 31
0.0
  0
LINE
  5
C20
330
A35
100
AcDbEntity
  8
0
100
AcDbLine
 10
40.432
 20
77.353
 30
0.0
 11
40.525
 21
77.364
 31
0.0
  0
LINE
  5
C21
330
A35
100
AcDbEntity
  8
0
100
AcDbLine
 10
37.238
 20
78.904
 30
0.0
 11
37.291
 21
78.797
 31
0.0
  0
LINE
  5
C22
330
A35
100
AcDbEntity
  8
0
100
AcDbLine
 10
38.553
 20
78.819
 30
0.0
 11
38.609
 21
79.027
 31
0.0
  0
LINE
  5
C23
330
A35
100
AcDbEntity
  8
0
100
AcDbLine
 10
39.494
 20
78.136
 30
0.0
 11
39.547
 21
78.348
 31
0.0
  0
LINE
  5
C24
330
A35
100
AcDbEntity
  8
0
100
AcDbLine
 10
40.548
 20
79.509
 30
0.0
 11
40.6
 21
79.406
 31
0.0
  0
LINE
  5
C25
330
A35
100
AcDbEntity
  8
0
100
AcDbLine
 10
46.658
 20
75.823
 30
0.0
 11
46.7
 21
75.812
 31
0.0
  0
LINE
  5
C26
330
A35
100
AcDbEntity
  8
0
100
AcDbLine
 10
46.658
 20
75.823
 30
0.0
 11
46.774
 21
75.968
 31
0.0
  0
LINE
  5
C27
330
A35
100
AcDbEntity
  8
0
100
AcDbLine
 10
48.388
 20
79.06
 30
0.0
 11
48.354
 21
79.071
 31
0.0
  0
LINE
  5
C28
330
A35
100
AcDbEntity
  8
0
100
AcDbLine
 10
48.291
 20
78.726
 30
0.0
 11
48.324
 21
78.641
 31
0.0
  0
LINE
  5
C29
330
A35
100
AcDbEntity
  8
0
100
AcDbLine
 10
48.052
 20
78.032
 30
0.0
 11
47.902
 21
77.887
 31
0.0
  0
LINE
  5
C2A
330
A35
100
AcDbEntity
  8
0
100
AcDbLine
 10
48.093
 20
78.485
 30
0.0
 11
48.052
 21
78.032
 31
0.0
  0
LINE
  5
C2B
330
A35
100
AcDbEntity
  8
0
100
AcDbLine
 10
47.925
 20
78.871
 30
0.0
 11
48.093
 21
78.485
 31
0.0
  0
LINE
  5
C2C
330
A35
100
AcDbEntity
  8
0
100
AcDbLine
 10
47.745
 20
78.934
 30
0.0
 11
47.925
 21
78.871
 31
0.0
  0
LINE
  5
C2D
330
A35
100
AcDbEntity
  8
0
100
AcDbLine
 10
46.797
 20
76.669
 30
0.0
 11
46.774
 21
76.692
 31
0.0
  0
LINE
  5
C2E
330
A35
100
AcDbEntity
  8
0
100
AcDbLine
 10
46.924
 20
76.714
 30
0.0
 11
47.006
 21
76.87
 31
0.0
  0
LINE
  5
C2F
330
A35
100
AcDbEntity
  8
0
100
AcDbLine
 10
43.424
 20
82.947
 30
0.0
 11
43.308
 21
82.802
 31
0.0
  0
LINE
  5
C30
330
A35
100
AcDbEntity
  8
0
100
AcDbLine
 10
47.66
 20
78.043
 30
0.0
 11
47.555
 21
78.503
 31
0.0
  0
LINE
  5
C31
330
A35
100
AcDbEntity
  8
0
100
AcDbLine
 10
47.902
 20
77.887
 30
0.0
 11
47.66
 21
78.043
 31
0.0
  0
LINE
  5
C32
330
A35
100
AcDbEntity
  8
0
100
AcDbLine
 10
43.857
 20
83.188
 30
0.0
 11
43.741
 21
83.044
 31
0.0
  0
LINE
  5
C33
330
A35
100
AcDbEntity
  8
0
100
AcDbLine
 10
43.678
 20
83.211
 30
0.0
 11
43.741
 21
83.044
 31
0.0
  0
LINE
  5
C34
330
A35
100
AcDbEntity
  8
0
100
AcDbLine
 10
43.678
 20
83.211
 30
0.0
 11
43.857
 21
83.188
 31
0.0
  0
LINE
  5
C35
330
A35
100
AcDbEntity
  8
0
100
AcDbLine
 10
43.349
 20
83.114
 30
0.0
 11
43.129
 21
82.832
 31
0.0
  0
LINE
  5
C36
330
A35
100
AcDbEntity
  8
0
100
AcDbLine
 10
43.678
 20
84.666
 30
0.0
 11
43.857
 21
84.636
 31
0.0
  0
LINE
  5
C37
330
A35
100
AcDbEntity
  8
0
100
AcDbLine
 10
43.129
 20
82.832
 30
0.0
 11
43.308
 21
82.802
 31
0.0
  0
LINE
  5
C38
330
A35
100
AcDbEntity
  8
0
100
AcDbLine
 10
43.129
 20
82.257
 30
0.0
 11
43.308
 21
82.234
 31
0.0
  0
LINE
  5
C39
330
A35
100
AcDbEntity
  8
0
100
AcDbLine
 10
43.973
 20
82.446
 30
0.0
 11
44.003
 21
82.361
 31
0.0
  0
LINE
  5
C3A
330
A35
100
AcDbEntity
  8
0
100
AcDbLine
 10
45.288
 20
81.314
 30
0.0
 11
45.321
 21
81.228
 31
0.0
  0
LINE
  5
C3B
330
A35
100
AcDbEntity
  8
0
100
AcDbLine
 10
44.593
 20
81.332
 30
0.0
 11
44.742
 21
81.51
 31
0.0
  0
LINE
  5
C3C
330
A35
100
AcDbEntity
  8
0
100
AcDbLine
 10
44.466
 20
81.815
 30
0.0
 11
44.571
 21
81.343
 31
0.0
  0
LINE
  5
C3D
330
A35
100
AcDbEntity
  8
0
100
AcDbLine
 10
44.216
 20
81.975
 30
0.0
 11
44.466
 21
81.815
 31
0.0
  0
LINE
  5
C3E
330
A35
100
AcDbEntity
  8
0
100
AcDbLine
 10
44.036
 20
81.689
 30
0.0
 11
44.216
 21
81.975
 31
0.0
  0
LINE
  5
C3F
330
A35
100
AcDbEntity
  8
0
100
AcDbLine
 10
44.066
 20
81.21
 30
0.0
 11
44.036
 21
81.689
 31
0.0
  0
LINE
  5
C40
330
A35
100
AcDbEntity
  8
0
100
AcDbLine
 10
44.287
 20
80.924
 30
0.0
 11
44.066
 21
81.21
 31
0.0
  0
LINE
  5
C41
330
A35
100
AcDbEntity
  8
0
100
AcDbLine
 10
44.466
 20
80.987
 30
0.0
 11
44.287
 21
80.924
 31
0.0
  0
LINE
  5
C42
330
A35
100
AcDbEntity
  8
0
100
AcDbLine
 10
44.529
 20
81.102
 30
0.0
 11
44.466
 21
80.987
 31
0.0
  0
LINE
  5
C43
330
A35
100
AcDbEntity
  8
0
100
AcDbLine
 10
45.385
 20
81.165
 30
0.0
 11
45.478
 21
81.154
 31
0.0
  0
LINE
  5
C44
330
A35
100
AcDbEntity
  8
0
100
AcDbLine
 10
45.045
 20
80.612
 30
0.0
 11
44.899
 21
80.475
 31
0.0
  0
LINE
  5
C45
330
A35
100
AcDbEntity
  8
0
100
AcDbLine
 10
45.09
 20
81.072
 30
0.0
 11
45.045
 21
80.612
 31
0.0
  0
LINE
  5
C46
330
A35
100
AcDbEntity
  8
0
100
AcDbLine
 10
44.922
 20
81.459
 30
0.0
 11
45.09
 21
81.072
 31
0.0
  0
LINE
  5
C47
330
A35
100
AcDbEntity
  8
0
100
AcDbLine
 10
44.742
 20
81.51
 30
0.0
 11
44.922
 21
81.459
 31
0.0
  0
LINE
  5
C48
330
A35
100
AcDbEntity
  8
0
100
AcDbLine
 10
45.478
 20
81.154
 30
0.0
 11
45.501
 21
81.072
 31
0.0
  0
LINE
  5
C49
330
A35
100
AcDbEntity
  8
0
100
AcDbLine
 10
46.091
 20
80.033
 30
0.0
 11
46.248
 21
80.222
 31
0.0
  0
LINE
  5
C4A
330
A35
100
AcDbEntity
  8
0
100
AcDbLine
 10
45.964
 20
80.516
 30
0.0
 11
46.068
 21
80.055
 31
0.0
  0
LINE
  5
C4B
330
A35
100
AcDbEntity
  8
0
100
AcDbLine
 10
45.721
 20
80.675
 30
0.0
 11
45.964
 21
80.516
 31
0.0
  0
LINE
  5
C4C
330
A35
100
AcDbEntity
  8
0
100
AcDbLine
 10
46.976
 20
79.866
 30
0.0
 11
47.006
 21
79.773
 31
0.0
  0
LINE
  5
C4D
330
A35
100
AcDbEntity
  8
0
100
AcDbLine
 10
46.154
 20
79.331
 30
0.0
 11
46.05
 21
79.803
 31
0.0
  0
LINE
  5
C4E
330
A35
100
AcDbEntity
  8
0
100
AcDbLine
 10
46.405
 20
79.175
 30
0.0
 11
46.154
 21
79.331
 31
0.0
  0
LINE
  5
C4F
330
A35
100
AcDbEntity
  8
0
100
AcDbLine
 10
46.89
 20
79.877
 30
0.0
 11
46.976
 21
79.866
 31
0.0
  0
LINE
  5
C50
330
A35
100
AcDbEntity
  8
0
100
AcDbLine
 10
46.797
 20
80.026
 30
0.0
 11
46.815
 21
79.929
 31
0.0
  0
LINE
  5
C51
330
A35
100
AcDbEntity
  8
0
100
AcDbLine
 10
46.584
 20
79.446
 30
0.0
 11
46.405
 21
79.175
 31
0.0
  0
LINE
  5
C52
330
A35
100
AcDbEntity
  8
0
100
AcDbLine
 10
46.584
 20
79.773
 30
0.0
 11
46.584
 21
79.446
 31
0.0
  0
LINE
  5
C53
330
A35
100
AcDbEntity
  8
0
100
AcDbLine
 10
46.416
 20
80.17
 30
0.0
 11
46.584
 21
79.773
 31
0.0
  0
LINE
  5
C54
330
A35
100
AcDbEntity
  8
0
100
AcDbLine
 10
46.248
 20
80.222
 30
0.0
 11
46.416
 21
80.17
 31
0.0
  0
LINE
  5
C55
330
A35
100
AcDbEntity
  8
0
100
AcDbLine
 10
47.596
 20
78.745
 30
0.0
 11
47.745
 21
78.934
 31
0.0
  0
LINE
  5
C56
330
A35
100
AcDbEntity
  8
0
100
AcDbLine
 10
47.469
 20
79.227
 30
0.0
 11
47.577
 21
78.756
 31
0.0
  0
LINE
  5
C57
330
A35
100
AcDbEntity
  8
0
100
AcDbLine
 10
47.312
 20
79.383
 30
0.0
 11
47.469
 21
79.227
 31
0.0
  0
LINE
  5
C58
330
A35
100
AcDbEntity
  8
0
100
AcDbLine
 10
47.144
 20
79.331
 30
0.0
 11
47.312
 21
79.383
 31
0.0
  0
LINE
  5
C59
330
A35
100
AcDbEntity
  8
0
100
AcDbLine
 10
47.039
 20
79.112
 30
0.0
 11
47.144
 21
79.331
 31
0.0
  0
LINE
  5
C5A
330
A35
100
AcDbEntity
  8
0
100
AcDbLine
 10
47.069
 20
78.619
 30
0.0
 11
47.039
 21
79.112
 31
0.0
  0
LINE
  5
C5B
330
A35
100
AcDbEntity
  8
0
100
AcDbLine
 10
47.208
 20
78.388
 30
0.0
 11
47.069
 21
78.619
 31
0.0
  0
LINE
  5
C5C
330
A35
100
AcDbEntity
  8
0
100
AcDbLine
 10
47.376
 20
78.336
 30
0.0
 11
47.208
 21
78.388
 31
0.0
  0
LINE
  5
C5D
330
A35
100
AcDbEntity
  8
0
100
AcDbLine
 10
47.532
 20
78.526
 30
0.0
 11
47.376
 21
78.336
 31
0.0
  0
LINE
  5
C5E
330
A35
100
AcDbEntity
  8
0
100
AcDbLine
 10
45.542
 20
80.401
 30
0.0
 11
45.721
 21
80.675
 31
0.0
  0
LINE
  5
C5F
330
A35
100
AcDbEntity
  8
0
100
AcDbLine
 10
45.576
 20
79.918
 30
0.0
 11
45.542
 21
80.401
 31
0.0
  0
LINE
  5
C60
330
A35
100
AcDbEntity
  8
0
100
AcDbLine
 10
45.796
 20
79.636
 30
0.0
 11
45.576
 21
79.918
 31
0.0
  0
LINE
  5
C61
330
A35
100
AcDbEntity
  8
0
100
AcDbLine
 10
45.878
 20
79.624
 30
0.0
 11
45.796
 21
79.636
 31
0.0
  0
LINE
  5
C62
330
A35
100
AcDbEntity
  8
0
100
AcDbLine
 10
46.038
 20
79.814
 30
0.0
 11
45.878
 21
79.624
 31
0.0
  0
LINE
  5
C63
330
A35
100
AcDbEntity
  8
0
100
AcDbLine
 10
45.542
 20
78.129
 30
0.0
 11
45.426
 21
77.98
 31
0.0
  0
LINE
  5
C64
330
A35
100
AcDbEntity
  8
0
100
AcDbLine
 10
43.603
 20
80.434
 30
0.0
 11
43.413
 21
80.401
 31
0.0
  0
LINE
  5
C65
330
A35
100
AcDbEntity
  8
0
100
AcDbLine
 10
43.991
 20
80.382
 30
0.0
 11
43.603
 21
80.434
 31
0.0
  0
LINE
  5
C66
330
A35
100
AcDbEntity
  8
0
100
AcDbLine
 10
44.193
 20
80.222
 30
0.0
 11
43.991
 21
80.382
 31
0.0
  0
LINE
  5
C67
330
A35
100
AcDbEntity
  8
0
100
AcDbLine
 10
44.152
 20
80.066
 30
0.0
 11
44.193
 21
80.222
 31
0.0
  0
LINE
  5
C68
330
A35
100
AcDbEntity
  8
0
100
AcDbLine
 10
43.939
 20
79.94
 30
0.0
 11
44.152
 21
80.066
 31
0.0
  0
LINE
  5
C69
330
A35
100
AcDbEntity
  8
0
100
AcDbLine
 10
43.54
 20
79.918
 30
0.0
 11
43.939
 21
79.94
 31
0.0
  0
LINE
  5
C6A
330
A35
100
AcDbEntity
  8
0
100
AcDbLine
 10
43.215
 20
80.044
 30
0.0
 11
43.54
 21
79.918
 31
0.0
  0
LINE
  5
C6B
330
A35
100
AcDbEntity
  8
0
100
AcDbLine
 10
43.151
 20
80.204
 30
0.0
 11
43.215
 21
80.044
 31
0.0
  0
LINE
  5
C6C
330
A35
100
AcDbEntity
  8
0
100
AcDbLine
 10
43.413
 20
80.401
 30
0.0
 11
43.151
 21
80.204
 31
0.0
  0
LINE
  5
C6D
330
A35
100
AcDbEntity
  8
0
100
AcDbLine
 10
43.887
 20
82.464
 30
0.0
 11
43.973
 21
82.446
 31
0.0
  0
LINE
  5
C6E
330
A35
100
AcDbEntity
  8
0
100
AcDbLine
 10
44.657
 20
80.631
 30
0.0
 11
44.552
 21
81.091
 31
0.0
  0
LINE
  5
C6F
330
A35
100
AcDbEntity
  8
0
100
AcDbLine
 10
44.899
 20
80.475
 30
0.0
 11
44.657
 21
80.631
 31
0.0
  0
LINE
  5
C70
330
A35
100
AcDbEntity
  8
0
100
AcDbLine
 10
43.338
 20
81.963
 30
0.0
 11
43.454
 21
82.108
 31
0.0
  0
LINE
  5
C71
330
A35
100
AcDbEntity
  8
0
100
AcDbLine
 10
43.192
 20
82.09
 30
0.0
 11
43.308
 21
82.234
 31
0.0
  0
LINE
  5
C72
330
A35
100
AcDbEntity
  8
0
100
AcDbLine
 10
43.129
 20
82.257
 30
0.0
 11
43.192
 21
82.09
 31
0.0
  0
LINE
  5
C73
330
A35
100
AcDbEntity
  8
0
100
AcDbLine
 10
42.423
 20
80.567
 30
0.0
 11
42.539
 21
80.716
 31
0.0
  0
LINE
  5
C74
330
A35
100
AcDbEntity
  8
0
100
AcDbLine
 10
40.619
 20
80.59
 30
0.0
 11
40.548
 21
80.434
 31
0.0
  0
LINE
  5
C75
330
A35
100
AcDbEntity
  8
0
100
AcDbLine
 10
37.014
 20
81.061
 30
0.0
 11
37.164
 21
81.395
 31
0.0
  0
LINE
  5
C76
330
A35
100
AcDbEntity
  8
0
100
AcDbLine
 10
37.141
 20
80.486
 30
0.0
 11
37.014
 21
81.061
 31
0.0
  0
LINE
  5
C77
330
A35
100
AcDbEntity
  8
0
100
AcDbLine
 10
42.274
 20
80.694
 30
0.0
 11
42.389
 21
80.842
 31
0.0
  0
LINE
  5
C78
330
A35
100
AcDbEntity
  8
0
100
AcDbLine
 10
42.21
 20
80.861
 30
0.0
 11
42.389
 21
80.842
 31
0.0
  0
LINE
  5
C79
330
A35
100
AcDbEntity
  8
0
100
AcDbLine
 10
42.274
 20
80.694
 30
0.0
 11
42.21
 21
80.861
 31
0.0
  0
LINE
  5
C7A
330
A35
100
AcDbEntity
  8
0
100
AcDbLine
 10
38.217
 20
81.596
 30
0.0
 11
38.396
 21
81.574
 31
0.0
  0
LINE
  5
C7B
330
A35
100
AcDbEntity
  8
0
100
AcDbLine
 10
39.368
 20
81.93
 30
0.0
 11
39.293
 21
81.867
 31
0.0
  0
LINE
  5
C7C
330
A35
100
AcDbEntity
  8
0
100
AcDbLine
 10
42.21
 20
81.388
 30
0.0
 11
42.285
 21
81.566
 31
0.0
  0
LINE
  5
C7D
330
A35
100
AcDbEntity
  8
0
100
AcDbLine
 10
42.21
 20
81.388
 30
0.0
 11
42.389
 21
81.366
 31
0.0
  0
LINE
  5
C7E
330
A35
100
AcDbEntity
  8
0
100
AcDbLine
 10
37.309
 20
82.832
 30
0.0
 11
37.25
 21
82.78
 31
0.0
  0
LINE
  5
C7F
330
A35
100
AcDbEntity
  8
0
100
AcDbLine
 10
42.677
 20
82.067
 30
0.0
 11
42.834
 21
82.171
 31
0.0
  0
LINE
  5
C80
330
A35
100
AcDbEntity
  8
0
100
AcDbLine
 10
43.615
 20
80.401
 30
0.0
 11
43.435
 21
80.382
 31
0.0
  0
LINE
  5
C81
330
A35
100
AcDbEntity
  8
0
100
AcDbLine
 10
43.962
 20
80.36
 30
0.0
 11
43.615
 21
80.401
 31
0.0
  0
LINE
  5
C82
330
A35
100
AcDbEntity
  8
0
100
AcDbLine
 10
44.141
 20
80.204
 30
0.0
 11
43.962
 21
80.36
 31
0.0
  0
LINE
  5
C83
330
A35
100
AcDbEntity
  8
0
100
AcDbLine
 10
44.044
 20
80.025
 30
0.0
 11
44.141
 21
80.204
 31
0.0
  0
LINE
  5
C84
330
A35
100
AcDbEntity
  8
0
100
AcDbLine
 10
43.73
 20
79.94
 30
0.0
 11
44.044
 21
80.025
 31
0.0
  0
LINE
  5
C85
330
A35
100
AcDbEntity
  8
0
100
AcDbLine
 10
43.383
 20
79.981
 30
0.0
 11
43.73
 21
79.94
 31
0.0
  0
LINE
  5
C86
330
A35
100
AcDbEntity
  8
0
100
AcDbLine
 10
43.203
 20
80.14
 30
0.0
 11
43.383
 21
79.981
 31
0.0
  0
LINE
  5
C87
330
A35
100
AcDbEntity
  8
0
100
AcDbLine
 10
43.215
 20
80.233
 30
0.0
 11
43.203
 21
80.14
 31
0.0
  0
LINE
  5
C88
330
A35
100
AcDbEntity
  8
0
100
AcDbLine
 10
43.435
 20
80.382
 30
0.0
 11
43.215
 21
80.233
 31
0.0
  0
LINE
  5
C89
330
A35
100
AcDbEntity
  8
0
100
AcDbLine
 10
44.044
 20
79.428
 30
0.0
 11
43.928
 21
79.279
 31
0.0
  0
LINE
  5
C8A
330
A35
100
AcDbEntity
  8
0
100
AcDbLine
 10
42.864
 20
76.053
 30
0.0
 11
42.875
 21
76.031
 31
0.0
  0
LINE
  5
C8B
330
A35
100
AcDbEntity
  8
0
100
AcDbLine
 10
42.781
 20
75.329
 30
0.0
 11
42.748
 21
75.34
 31
0.0
  0
LINE
  5
C8C
330
A35
100
AcDbEntity
  8
0
100
AcDbLine
 10
42.938
 20
75.066
 30
0.0
 11
42.897
 21
75.077
 31
0.0
  0
LINE
  5
C8D
330
A35
100
AcDbEntity
  8
0
100
AcDbLine
 10
37.309
 20
78.956
 30
0.0
 11
37.25
 21
78.904
 31
0.0
  0
LINE
  5
C8E
330
A35
100
AcDbEntity
  8
0
100
AcDbLine
 10
39.431
 20
80.055
 30
0.0
 11
39.345
 21
80.066
 31
0.0
  0
LINE
  5
C8F
330
A35
100
AcDbEntity
  8
0
100
AcDbLine
 10
38.217
 20
79.216
 30
0.0
 11
38.292
 21
79.049
 31
0.0
  0
LINE
  5
C90
330
A35
100
AcDbEntity
  8
0
100
AcDbLine
 10
38.396
 20
79.198
 30
0.0
 11
38.292
 21
79.049
 31
0.0
  0
LINE
  5
C91
330
A35
100
AcDbEntity
  8
0
100
AcDbLine
 10
38.217
 20
79.216
 30
0.0
 11
38.396
 21
79.198
 31
0.0
  0
LINE
  5
C92
330
A35
100
AcDbEntity
  8
0
100
AcDbLine
 10
39.368
 20
80.222
 30
0.0
 11
39.293
 21
80.17
 31
0.0
  0
LINE
  5
C93
330
A35
100
AcDbEntity
  8
0
100
AcDbLine
 10
39.368
 20
80.222
 30
0.0
 11
39.431
 21
80.055
 31
0.0
  0
LINE
  5
C94
330
A35
100
AcDbEntity
  8
0
100
AcDbLine
 10
41.99
 20
79.962
 30
0.0
 11
42.053
 21
79.792
 31
0.0
  0
LINE
  5
C95
330
A35
100
AcDbEntity
  8
0
100
AcDbLine
 10
41.99
 20
79.962
 30
0.0
 11
42.169
 21
79.94
 31
0.0
  0
LINE
  5
C96
330
A35
100
AcDbEntity
  8
0
100
AcDbLine
 10
39.483
 20
79.951
 30
0.0
 11
39.588
 21
79.918
 31
0.0
  0
LINE
  5
C97
330
A35
100
AcDbEntity
  8
0
100
AcDbLine
 10
42.053
 20
79.792
 30
0.0
 11
42.169
 21
79.94
 31
0.0
  0
LINE
  5
C98
330
A35
100
AcDbEntity
  8
0
100
AcDbLine
 10
37.291
 20
78.797
 30
0.0
 11
37.373
 21
78.786
 31
0.0
  0
LINE
  5
C99
330
A35
100
AcDbEntity
  8
0
100
AcDbLine
 10
38.662
 20
78.849
 30
0.0
 11
38.777
 21
78.997
 31
0.0
  0
LINE
  5
C9A
330
A35
100
AcDbEntity
  8
0
100
AcDbLine
 10
38.598
 20
79.027
 30
0.0
 11
38.662
 21
78.849
 31
0.0
  0
LINE
  5
C9B
330
A35
100
AcDbEntity
  8
0
100
AcDbLine
 10
38.777
 20
78.997
 30
0.0
 11
38.598
 21
79.027
 31
0.0
  0
LINE
  5
C9C
330
A35
100
AcDbEntity
  8
0
100
AcDbLine
 10
39.513
 20
79.784
 30
0.0
 11
39.397
 21
79.929
 31
0.0
  0
LINE
  5
C9D
330
A35
100
AcDbEntity
  8
0
100
AcDbLine
 10
40.682
 20
79.394
 30
0.0
 11
40.6
 21
79.406
 31
0.0
  0
LINE
  5
C9E
330
A35
100
AcDbEntity
  8
0
100
AcDbLine
 10
37.25
 20
79.561
 30
0.0
 11
37.141
 21
79.94
 31
0.0
  0
LINE
  5
C9F
330
A35
100
AcDbEntity
  8
0
100
AcDbLine
 10
40.619
 20
79.561
 30
0.0
 11
40.548
 21
79.509
 31
0.0
  0
LINE
  5
CA0
330
A35
100
AcDbEntity
  8
0
100
AcDbLine
 10
28.394
 20
74.323
 30
0.0
 11
28.341
 21
74.312
 31
0.0
  0
LINE
  5
CA1
330
A35
100
AcDbEntity
  8
0
100
AcDbLine
 10
28.341
 20
74.312
 30
0.0
 11
28.45
 21
74.312
 31
0.0
  0
LINE
  5
CA2
330
A35
100
AcDbEntity
  8
0
100
AcDbLine
 10
28.341
 20
74.409
 30
0.0
 11
28.248
 21
74.346
 31
0.0
  0
LINE
  5
CA3
330
A35
100
AcDbEntity
  8
0
100
AcDbLine
 10
28.341
 20
74.312
 30
0.0
 11
28.341
 21
74.409
 31
0.0
  0
LINE
  5
CA4
330
A35
100
AcDbEntity
  8
0
100
AcDbLine
 10
28.248
 20
74.26
 30
0.0
 11
28.341
 21
74.312
 31
0.0
  0
LINE
  5
CA5
330
A35
100
AcDbEntity
  8
0
100
AcDbLine
 10
28.248
 20
74.346
 30
0.0
 11
28.248
 21
73.651
 31
0.0
  0
LINE
  5
CA6
330
A35
100
AcDbEntity
  8
0
100
AcDbLine
 10
28.248
 20
64.2
 30
0.0
 11
28.248
 21
64.107
 31
0.0
  0
LINE
  5
CA7
330
A35
100
AcDbEntity
  8
0
100
AcDbLine
 10
28.775
 20
65.28
 30
0.0
 11
31.408
 21
65.28
 31
0.0
  0
LINE
  5
CA8
330
A35
100
AcDbEntity
  8
0
100
AcDbLine
 10
31.408
 20
65.562
 30
0.0
 11
28.775
 21
65.562
 31
0.0
  0
LINE
  5
CA9
330
A35
100
AcDbEntity
  8
0
100
AcDbLine
 10
31.408
 20
70.277
 30
0.0
 11
31.408
 21
70.299
 31
0.0
  0
LINE
  5
CAA
330
A35
100
AcDbEntity
  8
0
100
AcDbLine
 10
31.408
 20
65.562
 30
0.0
 11
31.408
 21
65.28
 31
0.0
  0
LINE
  5
CAB
330
A35
100
AcDbEntity
  8
0
100
AcDbLine
 10
31.408
 20
70.299
 30
0.0
 11
31.408
 21
71.398
 31
0.0
  0
LINE
  5
CAC
330
A35
100
AcDbEntity
  8
0
100
AcDbLine
 10
31.408
 20
65.28
 30
0.0
 11
31.408
 21
61.809
 31
0.0
  0
LINE
  5
CAD
330
A35
100
AcDbEntity
  8
0
100
AcDbLine
 10
31.408
 20
65.562
 30
0.0
 11
31.408
 21
70.277
 31
0.0
  0
LINE
  5
CAE
330
A35
100
AcDbEntity
  8
0
100
AcDbLine
 10
28.775
 20
61.757
 30
0.0
 11
28.733
 21
61.757
 31
0.0
  0
LINE
  5
CAF
330
A35
100
AcDbEntity
  8
0
100
AcDbLine
 10
28.775
 20
64.419
 30
0.0
 11
28.513
 21
64.419
 31
0.0
  0
LINE
  5
CB0
330
A35
100
AcDbEntity
  8
0
100
AcDbLine
 10
28.733
 20
61.809
 30
0.0
 11
28.775
 21
61.809
 31
0.0
  0
LINE
  5
CB1
330
A35
100
AcDbEntity
  8
0
100
AcDbLine
 10
28.775
 20
65.28
 30
0.0
 11
28.775
 21
65.562
 31
0.0
  0
LINE
  5
CB2
330
A35
100
AcDbEntity
  8
0
100
AcDbLine
 10
28.775
 20
61.809
 30
0.0
 11
28.775
 21
61.349
 31
0.0
  0
LINE
  5
CB3
330
A35
100
AcDbEntity
  8
0
100
AcDbLine
 10
28.775
 20
70.299
 30
0.0
 11
28.775
 21
71.398
 31
0.0
  0
LINE
  5
CB4
330
A35
100
AcDbEntity
  8
0
100
AcDbLine
 10
28.775
 20
70.277
 30
0.0
 11
28.775
 21
65.562
 31
0.0
  0
LINE
  5
CB5
330
A35
100
AcDbEntity
  8
0
100
AcDbLine
 10
28.775
 20
65.28
 30
0.0
 11
28.775
 21
61.809
 31
0.0
  0
LINE
  5
CB6
330
A35
100
AcDbEntity
  8
0
100
AcDbLine
 10
31.408
 20
61.757
 30
0.0
 11
31.408
 21
61.349
 31
0.0
  0
LINE
  5
CB7
330
A35
100
AcDbEntity
  8
0
100
AcDbLine
 10
31.408
 20
61.757
 30
0.0
 11
31.408
 21
61.809
 31
0.0
  0
LINE
  5
CB8
330
A35
100
AcDbEntity
  8
0
100
AcDbLine
 10
31.408
 20
61.757
 30
0.0
 11
31.464
 21
61.757
 31
0.0
  0
LINE
  5
CB9
330
A35
100
AcDbEntity
  8
0
100
AcDbLine
 10
31.464
 20
61.809
 30
0.0
 11
31.408
 21
61.809
 31
0.0
  0
LINE
  5
CBA
330
A35
100
AcDbEntity
  8
0
100
AcDbLine
 10
28.775
 20
70.277
 30
0.0
 11
28.775
 21
70.299
 31
0.0
  0
LINE
  5
CBB
330
A35
100
AcDbEntity
  8
0
100
AcDbLine
 10
28.775
 20
70.277
 30
0.0
 11
31.408
 21
70.277
 31
0.0
  0
LINE
  5
CBC
330
A35
100
AcDbEntity
  8
0
100
AcDbLine
 10
28.775
 20
71.398
 30
0.0
 11
28.248
 21
73.651
 31
0.0
  0
LINE
  5
CBD
330
A35
100
AcDbEntity
  8
0
100
AcDbLine
 10
31.938
 20
64.2
 30
0.0
 11
31.938
 21
64.107
 31
0.0
  0
LINE
  5
CBE
330
A35
100
AcDbEntity
  8
0
100
AcDbLine
 10
31.714
 20
74.301
 30
0.0
 11
31.714
 21
74.323
 31
0.0
  0
LINE
  5
CBF
330
A35
100
AcDbEntity
  8
0
100
AcDbLine
 10
31.748
 20
74.312
 30
0.0
 11
31.852
 21
74.312
 31
0.0
  0
LINE
  5
CC0
330
A35
100
AcDbEntity
  8
0
100
AcDbLine
 10
31.852
 20
74.312
 30
0.0
 11
31.938
 21
74.26
 31
0.0
  0
LINE
  5
CC1
330
A35
100
AcDbEntity
  8
0
100
AcDbLine
 10
31.673
 20
64.419
 30
0.0
 11
31.408
 21
64.419
 31
0.0
  0
LINE
  5
CC2
330
A35
100
AcDbEntity
  8
0
100
AcDbLine
 10
31.938
 20
74.26
 30
0.0
 11
31.938
 21
74.346
 31
0.0
  0
LINE
  5
CC3
330
A35
100
AcDbEntity
  8
0
100
AcDbLine
 10
31.938
 20
73.651
 30
0.0
 11
31.408
 21
71.398
 31
0.0
  0
LINE
  5
CC4
330
A35
100
AcDbEntity
  8
0
100
AcDbLine
 10
31.938
 20
74.26
 30
0.0
 11
31.938
 21
73.651
 31
0.0
  0
LINE
  5
CC5
330
A35
100
AcDbEntity
  8
0
100
AcDbLine
 10
28.479
 20
74.301
 30
0.0
 11
28.479
 21
74.364
 31
0.0
  0
LINE
  5
CC6
330
A35
100
AcDbEntity
  8
0
100
AcDbLine
 10
31.714
 20
74.364
 30
0.0
 11
31.714
 21
74.323
 31
0.0
  0
LINE
  5
CC7
330
A35
100
AcDbEntity
  8
0
100
AcDbLine
 10
31.852
 20
74.346
 30
0.0
 11
31.852
 21
74.409
 31
0.0
  0
LINE
  5
CC8
330
A35
100
AcDbEntity
  8
0
100
AcDbLine
 10
31.852
 20
74.346
 30
0.0
 11
31.852
 21
74.312
 31
0.0
  0
LINE
  5
CC9
330
A35
100
AcDbEntity
  8
0
100
AcDbLine
 10
31.852
 20
74.409
 30
0.0
 11
31.938
 21
74.346
 31
0.0
  0
LINE
  5
CCA
330
A35
100
AcDbEntity
  8
0
100
AcDbLine
 10
31.852
 20
74.312
 30
0.0
 11
31.8
 21
74.323
 31
0.0
  0
LINE
  5
CCB
330
A35
100
AcDbEntity
  8
0
100
AcDbLine
 10
31.8
 20
74.427
 30
0.0
 11
28.341
 21
74.409
 31
0.0
  0
LINE
  5
CCC
330
A35
100
AcDbEntity
  8
0
100
AcDbLine
 10
28.386
 20
64.389
 30
0.0
 11
28.513
 21
64.419
 31
0.0
  0
LINE
  5
CCD
330
A35
100
AcDbEntity
  8
0
100
AcDbLine
 10
28.248
 20
64.2
 30
0.0
 11
28.386
 21
64.389
 31
0.0
  0
LINE
  5
CCE
330
A35
100
AcDbEntity
  8
0
100
AcDbLine
 10
28.334
 20
61.872
 30
0.0
 11
28.405
 21
61.831
 31
0.0
  0
LINE
  5
CCF
330
A35
100
AcDbEntity
  8
0
100
AcDbLine
 10
28.278
 20
61.872
 30
0.0
 11
28.405
 21
61.779
 31
0.0
  0
LINE
  5
CD0
330
A35
100
AcDbEntity
  8
0
100
AcDbLine
 10
28.479
 20
74.364
 30
0.0
 11
28.394
 21
74.427
 31
0.0
  0
LINE
  5
CD1
330
A35
100
AcDbEntity
  8
0
100
AcDbLine
 10
28.479
 20
74.301
 30
0.0
 11
28.394
 21
74.323
 31
0.0
  0
LINE
  5
CD2
330
A35
100
AcDbEntity
  8
0
100
AcDbLine
 10
31.863
 20
61.872
 30
0.0
 11
31.778
 21
61.831
 31
0.0
  0
LINE
  5
CD3
330
A35
100
AcDbEntity
  8
0
100
AcDbLine
 10
31.905
 20
61.872
 30
0.0
 11
31.789
 21
61.779
 31
0.0
  0
LINE
  5
CD4
330
A35
100
AcDbEntity
  8
0
100
AcDbLine
 10
31.714
 20
74.301
 30
0.0
 11
31.8
 21
74.323
 31
0.0
  0
LINE
  5
CD5
330
A35
100
AcDbEntity
  8
0
100
AcDbLine
 10
30.967
 20
73.926
 30
0.0
 11
31.714
 21
74.301
 31
0.0
  0
LINE
  5
CD6
330
A35
100
AcDbEntity
  8
0
100
AcDbLine
 10
30.093
 20
73.789
 30
0.0
 11
30.967
 21
73.926
 31
0.0
  0
LINE
  5
CD7
330
A35
100
AcDbEntity
  8
0
100
AcDbLine
 10
29.227
 20
73.926
 30
0.0
 11
30.093
 21
73.789
 31
0.0
  0
LINE
  5
CD8
330
A35
100
AcDbEntity
  8
0
100
AcDbLine
 10
28.479
 20
74.301
 30
0.0
 11
29.227
 21
73.926
 31
0.0
  0
LINE
  5
CD9
330
A35
100
AcDbEntity
  8
0
100
AcDbLine
 10
31.811
 20
64.389
 30
0.0
 11
31.673
 21
64.419
 31
0.0
  0
LINE
  5
CDA
330
A35
100
AcDbEntity
  8
0
100
AcDbLine
 10
31.938
 20
64.2
 30
0.0
 11
31.811
 21
64.389
 31
0.0
  0
LINE
  5
CDB
330
A35
100
AcDbEntity
  8
0
100
AcDbLine
 10
31.8
 20
74.427
 30
0.0
 11
31.852
 21
74.409
 31
0.0
  0
LINE
  5
CDC
330
A35
100
AcDbEntity
  8
0
100
AcDbLine
 10
31.714
 20
74.364
 30
0.0
 11
31.8
 21
74.427
 31
0.0
  0
LINE
  5
CDD
330
A35
100
AcDbEntity
  8
0
100
AcDbLine
 10
30.967
 20
73.989
 30
0.0
 11
31.714
 21
74.364
 31
0.0
  0
LINE
  5
CDE
330
A35
100
AcDbEntity
  8
0
100
AcDbLine
 10
30.093
 20
73.852
 30
0.0
 11
30.967
 21
73.989
 31
0.0
  0
LINE
  5
CDF
330
A35
100
AcDbEntity
  8
0
100
AcDbLine
 10
29.227
 20
73.989
 30
0.0
 11
30.093
 21
73.852
 31
0.0
  0
LINE
  5
CE0
330
A35
100
AcDbEntity
  8
0
100
AcDbLine
 10
28.479
 20
74.364
 30
0.0
 11
29.227
 21
73.989
 31
0.0
  0
LINE
  5
CE1
330
A35
100
AcDbEntity
  8
0
100
AcDbLine
 10
34.93
 20
80.348
 30
0.0
 11
34.93
 21
80.464
 31
0.0
  0
LINE
  5
CE2
330
A35
100
AcDbEntity
  8
0
100
AcDbLine
 10
48.526
 20
80.538
 30
0.0
 11
48.526
 21
80.768
 31
0.0
  0
LINE
  5
CE3
330
A35
100
AcDbEntity
  8
0
100
AcDbLine
 10
48.418
 20
80.738
 30
0.0
 11
48.418
 21
80.957
 31
0.0
  0
LINE
  5
CE4
330
A35
100
AcDbEntity
  8
0
100
AcDbLine
 10
48.418
 20
80.738
 30
0.0
 11
43.939
 21
84.592
 31
0.0
  0
LINE
  5
CE5
330
A35
100
AcDbEntity
  8
0
100
AcDbLine
 10
43.939
 20
84.814
 30
0.0
 11
48.418
 21
80.957
 31
0.0
  0
LINE
  5
CE6
330
A35
100
AcDbEntity
  8
0
100
AcDbLine
 10
43.939
 20
84.592
 30
0.0
 11
43.939
 21
84.814
 31
0.0
  0
LINE
  5
CE7
330
A35
100
AcDbEntity
  8
0
100
AcDbLine
 10
27.796
 20
80.779
 30
0.0
 11
26.373
 21
80.371
 31
0.0
  0
LINE
  5
CE8
330
A35
100
AcDbEntity
  8
0
100
AcDbLine
 10
28.744
 20
80.682
 30
0.0
 11
29.503
 21
80.894
 31
0.0
  0
LINE
  5
CE9
330
A35
100
AcDbEntity
  8
0
100
AcDbLine
 10
36.48
 20
82.331
 30
0.0
 11
37.25
 21
82.55
 31
0.0
  0
LINE
  5
CEA
330
A35
100
AcDbEntity
  8
0
100
AcDbLine
 10
37.25
 20
82.09
 30
0.0
 11
36.88
 21
81.982
 31
0.0
  0
LINE
  5
CEB
330
A35
100
AcDbEntity
  8
0
100
AcDbLine
 10
36.932
 20
82.223
 30
0.0
 11
37.25
 21
82.32
 31
0.0
  0
LINE
  5
CEC
330
A35
100
AcDbEntity
  8
0
100
AcDbLine
 10
36.88
 20
81.982
 30
0.0
 11
36.48
 21
82.331
 31
0.0
  0
LINE
  5
CED
330
A35
100
AcDbEntity
  8
0
100
AcDbLine
 10
42.864
 20
84.729
 30
0.0
 11
42.864
 21
84.959
 31
0.0
  0
LINE
  5
CEE
330
A35
100
AcDbEntity
  8
0
100
AcDbLine
 10
42.864
 20
84.959
 30
0.0
 11
28.543
 21
80.853
 31
0.0
  0
LINE
  5
CEF
330
A35
100
AcDbEntity
  8
0
100
AcDbLine
 10
29.88
 20
81.009
 30
0.0
 11
42.864
 21
84.729
 31
0.0
  0
LINE
  5
CF0
330
A35
100
AcDbEntity
  8
0
100
AcDbLine
 10
36.446
 20
79.227
 30
0.0
 11
34.971
 21
80.497
 31
0.0
  0
LINE
  5
CF1
330
A35
100
AcDbEntity
  8
0
100
AcDbLine
 10
23.336
 20
78.566
 30
0.0
 11
23.325
 21
78.537
 31
0.0
  0
LINE
  5
CF2
330
A35
100
AcDbEntity
  8
0
100
AcDbLine
 10
36.943
 20
76.985
 30
0.0
 11
38.785
 21
77.508
 31
0.0
  0
LINE
  5
CF3
330
A35
100
AcDbEntity
  8
0
100
AcDbLine
 10
36.446
 20
79.198
 30
0.0
 11
36.446
 21
79.227
 31
0.0
  0
LINE
  5
CF4
330
A35
100
AcDbEntity
  8
0
100
AcDbLine
 10
36.036
 20
79.342
 30
0.0
 11
35.774
 21
79.573
 31
0.0
  0
LINE
  5
CF5
330
A35
100
AcDbEntity
  8
0
100
AcDbLine
 10
35.214
 20
80.055
 30
0.0
 11
34.941
 21
80.285
 31
0.0
  0
LINE
  5
CF6
330
A35
100
AcDbEntity
  8
0
100
AcDbLine
 10
35.498
 20
80.464
 30
0.0
 11
37.014
 21
79.164
 31
0.0
  0
LINE
  5
CF7
330
A35
100
AcDbEntity
  8
0
100
AcDbLine
 10
23.672
 20
79.406
 30
0.0
 11
23.336
 21
78.797
 31
0.0
  0
LINE
  5
CF8
330
A35
100
AcDbEntity
  8
0
100
AcDbLine
 10
23.788
 20
79.491
 30
0.0
 11
24.58
 21
79.71
 31
0.0
  0
LINE
  5
CF9
330
A35
100
AcDbEntity
  8
0
100
AcDbLine
 10
23.665
 20
79.216
 30
0.0
 11
23.672
 21
79.175
 31
0.0
  0
LINE
  5
CFA
330
A35
100
AcDbEntity
  8
0
100
AcDbLine
 10
23.665
 20
79.216
 30
0.0
 11
23.672
 21
79.406
 31
0.0
  0
LINE
  5
CFB
330
A35
100
AcDbEntity
  8
0
100
AcDbLine
 10
26.646
 20
79.09
 30
0.0
 11
27.796
 21
79.428
 31
0.0
  0
LINE
  5
CFC
330
A35
100
AcDbEntity
  8
0
100
AcDbLine
 10
26.478
 20
79.123
 30
0.0
 11
26.339
 21
79.238
 31
0.0
  0
LINE
  5
CFD
330
A35
100
AcDbEntity
  8
0
100
AcDbLine
 10
26.257
 20
80.193
 30
0.0
 11
26.287
 21
80.204
 31
0.0
  0
LINE
  5
CFE
330
A35
100
AcDbEntity
  8
0
100
AcDbLine
 10
24.58
 20
79.491
 30
0.0
 11
23.949
 21
79.302
 31
0.0
  0
LINE
  5
CFF
330
A35
100
AcDbEntity
  8
0
100
AcDbLine
 10
25.118
 20
79.866
 30
0.0
 11
25.517
 21
79.981
 31
0.0
  0
LINE
  5
D00
330
A35
100
AcDbEntity
  8
0
100
AcDbLine
 10
25.517
 20
79.751
 30
0.0
 11
25.32
 21
79.699
 31
0.0
  0
LINE
  5
D01
330
A35
100
AcDbEntity
  8
0
100
AcDbLine
 10
23.788
 20
79.491
 30
0.0
 11
23.788
 21
79.29
 31
0.0
  0
LINE
  5
D02
330
A35
100
AcDbEntity
  8
0
100
AcDbLine
 10
26.287
 20
79.376
 30
0.0
 11
26.287
 21
80.159
 31
0.0
  0
LINE
  5
D03
330
A35
100
AcDbEntity
  8
0
100
AcDbLine
 10
26.507
 20
79.205
 30
0.0
 11
27.796
 21
79.573
 31
0.0
  0
LINE
  5
D04
330
A35
100
AcDbEntity
  8
0
100
AcDbLine
 10
23.336
 20
78.797
 30
0.0
 11
23.336
 21
78.566
 31
0.0
  0
LINE
  5
D05
330
A35
100
AcDbEntity
  8
0
100
AcDbLine
 10
36.932
 20
82.234
 30
0.0
 11
36.88
 21
81.993
 31
0.0
  0
LINE
  5
D06
330
A35
100
AcDbEntity
  8
0
100
AcDbLine
 10
35.128
 20
80.538
 30
0.0
 11
35.498
 21
80.464
 31
0.0
  0
LINE
  5
D07
330
A35
100
AcDbEntity
  8
0
100
AcDbLine
 10
34.889
 20
80.389
 30
0.0
 11
35.128
 21
80.538
 31
0.0
  0
LINE
  5
D08
330
A35
100
AcDbEntity
  8
0
100
AcDbLine
 10
37.014
 20
79.164
 30
0.0
 11
37.059
 21
79.079
 31
0.0
  0
LINE
  5
D09
330
A35
100
AcDbEntity
  8
0
100
AcDbLine
 10
48.418
 20
80.957
 30
0.0
 11
48.526
 21
80.768
 31
0.0
  0
LINE
  5
D0A
330
A35
100
AcDbEntity
  8
0
100
AcDbLine
 10
43.465
 20
85.0
 30
0.0
 11
43.939
 21
84.814
 31
0.0
  0
LINE
  5
D0B
330
A35
100
AcDbEntity
  8
0
100
AcDbLine
 10
42.864
 20
84.959
 30
0.0
 11
43.465
 21
85.0
 31
0.0
  0
LINE
  5
D0C
330
A35
100
AcDbEntity
  8
0
100
AcDbLine
 10
48.526
 20
80.538
 30
0.0
 11
48.481
 21
80.401
 31
0.0
  0
LINE
  5
D0D
330
A35
100
AcDbEntity
  8
0
100
AcDbLine
 10
48.418
 20
80.738
 30
0.0
 11
48.526
 21
80.538
 31
0.0
  0
LINE
  5
D0E
330
A35
100
AcDbEntity
  8
0
100
AcDbLine
 10
43.465
 20
84.77
 30
0.0
 11
43.939
 21
84.592
 31
0.0
  0
LINE
  5
D0F
330
A35
100
AcDbEntity
  8
0
100
AcDbLine
 10
42.864
 20
84.729
 30
0.0
 11
43.465
 21
84.77
 31
0.0
  0
LINE
  5
D10
330
A35
100
AcDbEntity
  8
0
100
AcDbLine
 10
37.216
 20
83.452
 30
0.0
 11
36.764
 21
83.211
 31
0.0
  0
LINE
  5
D11
330
A35
100
AcDbEntity
  8
0
100
AcDbLine
 10
37.638
 20
83.459
 30
0.0
 11
37.216
 21
83.452
 31
0.0
  0
LINE
  5
D12
330
A35
100
AcDbEntity
  8
0
100
AcDbLine
 10
37.07
 20
82.498
 30
0.0
 11
36.932
 21
82.223
 31
0.0
  0
LINE
  5
D13
330
A35
100
AcDbEntity
  8
0
100
AcDbLine
 10
41.78
 20
84.759
 30
0.0
 11
41.325
 21
84.521
 31
0.0
  0
LINE
  5
D14
330
A35
100
AcDbEntity
  8
0
100
AcDbLine
 10
42.203
 20
84.77
 30
0.0
 11
41.78
 21
84.759
 31
0.0
  0
LINE
  5
D15
330
A35
100
AcDbEntity
  8
0
100
AcDbLine
 10
36.943
 20
78.956
 30
0.0
 11
36.648
 21
78.923
 31
0.0
  0
LINE
  5
D16
330
A35
100
AcDbEntity
  8
0
100
AcDbLine
 10
37.059
 20
79.079
 30
0.0
 11
36.943
 21
78.956
 31
0.0
  0
LINE
  5
D17
330
A35
100
AcDbEntity
  8
0
100
AcDbLine
 10
36.667
 20
79.142
 30
0.0
 11
36.446
 21
79.227
 31
0.0
  0
LINE
  5
D18
330
A35
100
AcDbEntity
  8
0
100
AcDbLine
 10
36.973
 20
79.198
 30
0.0
 11
36.667
 21
79.142
 31
0.0
  0
LINE
  5
D19
330
A35
100
AcDbEntity
  8
0
100
AcDbLine
 10
23.672
 20
79.406
 30
0.0
 11
23.788
 21
79.491
 31
0.0
  0
LINE
  5
D1A
330
A35
100
AcDbEntity
  8
0
100
AcDbLine
 10
26.478
 20
79.123
 30
0.0
 11
26.646
 21
79.09
 31
0.0
  0
LINE
  5
D1B
330
A35
100
AcDbEntity
  8
0
100
AcDbLine
 10
24.58
 20
78.912
 30
0.0
 11
24.307
 21
78.934
 31
0.0
  0
LINE
  5
D1C
330
A35
100
AcDbEntity
  8
0
100
AcDbLine
 10
26.287
 20
80.159
 30
0.0
 11
26.373
 21
80.371
 31
0.0
  0
LINE
  5
D1D
330
A35
100
AcDbEntity
  8
0
100
AcDbLine
 10
26.339
 20
79.238
 30
0.0
 11
26.507
 21
79.205
 31
0.0
  0
LINE
  5
D1E
330
A35
100
AcDbEntity
  8
0
100
AcDbLine
 10
26.287
 20
79.376
 30
0.0
 11
26.339
 21
79.238
 31
0.0
  0
LINE
  5
D1F
330
A35
100
AcDbEntity
  8
0
100
AcDbLine
 10
24.296
 20
79.112
 30
0.0
 11
24.58
 21
79.135
 31
0.0
  0
LINE
  5
D20
330
A35
100
AcDbEntity
  8
0
100
AcDbLine
 10
36.521
 20
78.912
 30
0.0
 11
36.238
 21
79.153
 31
0.0
  0
LINE
  5
D21
330
A35
100
AcDbEntity
  8
0
100
AcDbLine
 10
35.371
 20
79.049
 30
0.0
 11
34.941
 21
78.923
 31
0.0
  0
LINE
  5
D22
330
A35
100
AcDbEntity
  8
0
100
AcDbLine
 10
35.636
 20
78.975
 30
0.0
 11
36.238
 21
79.153
 31
0.0
  0
LINE
  5
D23
330
A35
100
AcDbEntity
  8
0
100
AcDbLine
 10
35.92
 20
78.745
 30
0.0
 11
35.636
 21
78.975
 31
0.0
  0
LINE
  5
D24
330
A35
100
AcDbEntity
  8
0
100
AcDbLine
 10
36.775
 20
77.95
 30
0.0
 11
36.775
 21
77.939
 31
0.0
  0
LINE
  5
D25
330
A35
100
AcDbEntity
  8
0
100
AcDbLine
 10
36.775
 20
77.95
 30
0.0
 11
36.719
 21
78.652
 31
0.0
  0
LINE
  5
D26
330
A35
100
AcDbEntity
  8
0
100
AcDbLine
 10
36.648
 20
78.054
 30
0.0
 11
36.585
 21
78.756
 31
0.0
  0
LINE
  5
D27
330
A35
100
AcDbEntity
  8
0
100
AcDbLine
 10
36.775
 20
77.95
 30
0.0
 11
36.648
 21
78.054
 31
0.0
  0
LINE
  5
D28
330
A35
100
AcDbEntity
  8
0
100
AcDbLine
 10
35.972
 20
78.095
 30
0.0
 11
35.868
 21
78.077
 31
0.0
  0
LINE
  5
D29
330
A35
100
AcDbEntity
  8
0
100
AcDbLine
 10
35.984
 20
77.969
 30
0.0
 11
35.984
 21
78.578
 31
0.0
  0
LINE
  5
D2A
330
A35
100
AcDbEntity
  8
0
100
AcDbLine
 10
35.487
 20
78.6
 30
0.0
 11
35.479
 21
78.411
 31
0.0
  0
LINE
  5
D2B
330
A35
100
AcDbEntity
  8
0
100
AcDbLine
 10
35.55
 20
78.652
 30
0.0
 11
35.897
 21
78.756
 31
0.0
  0
LINE
  5
D2C
330
A35
100
AcDbEntity
  8
0
100
AcDbLine
 10
35.539
 20
78.359
 30
0.0
 11
35.55
 21
78.652
 31
0.0
  0
LINE
  5
D2D
330
A35
100
AcDbEntity
  8
0
100
AcDbLine
 10
35.856
 20
78.797
 30
0.0
 11
35.584
 21
78.715
 31
0.0
  0
LINE
  5
D2E
330
A35
100
AcDbEntity
  8
0
100
AcDbLine
 10
35.92
 20
78.745
 30
0.0
 11
36.521
 21
78.912
 31
0.0
  0
LINE
  5
D2F
330
A35
100
AcDbEntity
  8
0
100
AcDbLine
 10
36.648
 20
78.054
 30
0.0
 11
36.648
 21
78.043
 31
0.0
  0
LINE
  5
D30
330
A35
100
AcDbEntity
  8
0
100
AcDbLine
 10
36.648
 20
78.054
 30
0.0
 11
36.069
 21
77.898
 31
0.0
  0
LINE
  5
D31
330
A35
100
AcDbEntity
  8
0
100
AcDbLine
 10
36.088
 20
77.887
 30
0.0
 11
36.648
 21
78.043
 31
0.0
  0
LINE
  5
D32
330
A35
100
AcDbEntity
  8
0
100
AcDbLine
 10
35.972
 20
78.095
 30
0.0
 11
35.984
 21
78.273
 31
0.0
  0
LINE
  5
D33
330
A35
100
AcDbEntity
  8
0
100
AcDbLine
 10
35.984
 20
78.578
 30
0.0
 11
36.585
 21
78.756
 31
0.0
  0
LINE
  5
D34
330
A35
100
AcDbEntity
  8
0
100
AcDbLine
 10
36.742
 20
77.876
 30
0.0
 11
36.256
 21
77.739
 31
0.0
  0
LINE
  5
D35
330
A35
100
AcDbEntity
  8
0
100
AcDbLine
 10
36.51
 20
79.135
 30
0.0
 11
36.226
 21
79.376
 31
0.0
  0
LINE
  5
D36
330
A35
100
AcDbEntity
  8
0
100
AcDbLine
 10
35.793
 20
79.647
 30
0.0
 11
35.793
 21
79.636
 31
0.0
  0
LINE
  5
D37
330
A35
100
AcDbEntity
  8
0
100
AcDbLine
 10
35.729
 20
79.595
 30
0.0
 11
35.457
 21
79.825
 31
0.0
  0
LINE
  5
D38
330
A35
100
AcDbEntity
  8
0
100
AcDbLine
 10
35.404
 20
79.469
 30
0.0
 11
35.774
 21
79.573
 31
0.0
  0
LINE
  5
D39
330
A35
100
AcDbEntity
  8
0
100
AcDbLine
 10
35.603
 20
79.227
 30
0.0
 11
36.193
 21
79.394
 31
0.0
  0
LINE
  5
D3A
330
A35
100
AcDbEntity
  8
0
100
AcDbLine
 10
36.163
 20
79.331
 30
0.0
 11
36.174
 21
79.313
 31
0.0
  0
LINE
  5
D3B
330
A35
100
AcDbEntity
  8
0
100
AcDbLine
 10
35.572
 20
79.164
 30
0.0
 11
36.174
 21
79.32
 31
0.0
  0
LINE
  5
D3C
330
A35
100
AcDbEntity
  8
0
100
AcDbLine
 10
36.163
 20
79.331
 30
0.0
 11
35.572
 21
79.164
 31
0.0
  0
LINE
  5
D3D
330
A35
100
AcDbEntity
  8
0
100
AcDbLine
 10
35.572
 20
79.153
 30
0.0
 11
35.572
 21
79.142
 31
0.0
  0
LINE
  5
D3E
330
A35
100
AcDbEntity
  8
0
100
AcDbLine
 10
35.278
 20
79.216
 30
0.0
 11
35.278
 21
79.227
 31
0.0
  0
LINE
  5
D3F
330
A35
100
AcDbEntity
  8
0
100
AcDbLine
 10
35.404
 20
79.123
 30
0.0
 11
35.404
 21
79.112
 31
0.0
  0
LINE
  5
D40
330
A35
100
AcDbEntity
  8
0
100
AcDbLine
 10
35.404
 20
79.123
 30
0.0
 11
35.416
 21
79.123
 31
0.0
  0
LINE
  5
D41
330
A35
100
AcDbEntity
  8
0
100
AcDbLine
 10
35.404
 20
79.123
 30
0.0
 11
35.277
 21
79.227
 31
0.0
  0
LINE
  5
D42
330
A35
100
AcDbEntity
  8
0
100
AcDbLine
 10
35.278
 20
79.238
 30
0.0
 11
35.416
 21
79.123
 31
0.0
  0
LINE
  5
D43
330
A35
100
AcDbEntity
  8
0
100
AcDbLine
 10
35.572
 20
79.142
 30
0.0
 11
36.174
 21
79.313
 31
0.0
  0
LINE
  5
D44
330
A35
100
AcDbEntity
  8
0
100
AcDbLine
 10
35.416
 20
79.123
 30
0.0
 11
35.393
 21
79.784
 31
0.0
  0
LINE
  5
D45
330
A35
100
AcDbEntity
  8
0
100
AcDbLine
 10
35.446
 20
80.055
 30
0.0
 11
35.718
 21
79.814
 31
0.0
  0
LINE
  5
D46
330
A35
100
AcDbEntity
  8
0
100
AcDbLine
 10
35.278
 20
79.227
 30
0.0
 11
34.941
 21
79.135
 31
0.0
  0
LINE
  5
D47
330
A35
100
AcDbEntity
  8
0
100
AcDbLine
 10
34.941
 20
79.97
 30
0.0
 11
35.341
 21
80.085
 31
0.0
  0
LINE
  5
D48
330
A35
100
AcDbEntity
  8
0
100
AcDbLine
 10
35.266
 20
79.91
 30
0.0
 11
34.941
 21
79.814
 31
0.0
  0
LINE
  5
D49
330
A35
100
AcDbEntity
  8
0
100
AcDbLine
 10
35.793
 20
79.658
 30
0.0
 11
35.793
 21
79.636
 31
0.0
  0
LINE
  5
D4A
330
A35
100
AcDbEntity
  8
0
100
AcDbLine
 10
35.266
 20
79.91
 30
0.0
 11
35.278
 21
79.238
 31
0.0
  0
LINE
  5
D4B
330
A35
100
AcDbEntity
  8
0
100
AcDbLine
 10
28.479
 20
74.323
 30
0.0
 11
28.479
 21
74.301
 31
0.0
  0
LINE
  5
D4C
330
A35
100
AcDbEntity
  8
0
100
AcDbLine
 10
28.479
 20
74.323
 30
0.0
 11
28.479
 21
74.364
 31
0.0
  0
LINE
  5
D4D
330
A35
100
AcDbEntity
  8
0
100
AcDbLine
 10
35.595
 20
78.726
 30
0.0
 11
35.498
 21
78.607
 31
0.0
  0
LINE
  5
D4E
330
A35
100
AcDbEntity
  8
0
100
AcDbLine
 10
35.572
 20
79.142
 30
0.0
 11
35.636
 21
78.975
 31
0.0
  0
LINE
  5
D4F
330
A35
100
AcDbEntity
  8
0
100
AcDbLine
 10
36.775
 20
77.939
 30
0.0
 11
36.742
 21
77.876
 31
0.0
  0
LINE
  5
D50
330
A35
100
AcDbEntity
  8
0
100
AcDbLine
 10
36.51
 20
79.135
 30
0.0
 11
36.719
 21
78.652
 31
0.0
  0
LINE
  5
D51
330
A35
100
AcDbEntity
  8
0
100
AcDbLine
 10
35.95
 20
78.002
 30
0.0
 11
35.972
 21
78.095
 31
0.0
  0
LINE
  5
D52
330
A35
100
AcDbEntity
  8
0
100
AcDbLine
 10
35.92
 20
78.745
 30
0.0
 11
35.983
 21
78.578
 31
0.0
  0
LINE
  5
D53
330
A35
100
AcDbEntity
  8
0
100
AcDbLine
 10
35.55
 20
78.652
 30
0.0
 11
35.487
 21
78.6
 31
0.0
  0
LINE
  5
D54
330
A35
100
AcDbEntity
  8
0
100
AcDbLine
 10
35.584
 20
78.715
 30
0.0
 11
35.55
 21
78.652
 31
0.0
  0
LINE
  5
D55
330
A35
100
AcDbEntity
  8
0
100
AcDbLine
 10
36.585
 20
78.756
 30
0.0
 11
36.521
 21
78.912
 31
0.0
  0
LINE
  5
D56
330
A35
100
AcDbEntity
  8
0
100
AcDbLine
 10
36.742
 20
77.876
 30
0.0
 11
36.648
 21
78.043
 31
0.0
  0
LINE
  5
D57
330
A35
100
AcDbEntity
  8
0
100
AcDbLine
 10
35.793
 20
79.636
 30
0.0
 11
35.774
 21
79.573
 31
0.0
  0
LINE
  5
D58
330
A35
100
AcDbEntity
  8
0
100
AcDbLine
 10
35.457
 20
79.825
 30
0.0
 11
35.423
 21
79.847
 31
0.0
  0
LINE
  5
D59
330
A35
100
AcDbEntity
  8
0
100
AcDbLine
 10
35.774
 20
79.573
 30
0.0
 11
35.729
 21
79.595
 31
0.0
  0
LINE
  5
D5A
330
A35
100
AcDbEntity
  8
0
100
AcDbLine
 10
36.163
 20
79.331
 30
0.0
 11
36.226
 21
79.376
 31
0.0
  0
LINE
  5
D5B
330
A35
100
AcDbEntity
  8
0
100
AcDbLine
 10
36.238
 20
79.153
 30
0.0
 11
36.174
 21
79.313
 31
0.0
  0
LINE
  5
D5C
330
A35
100
AcDbEntity
  8
0
100
AcDbLine
 10
35.603
 20
79.227
 30
0.0
 11
35.572
 21
79.164
 31
0.0
  0
LINE
  5
D5D
330
A35
100
AcDbEntity
  8
0
100
AcDbLine
 10
35.319
 20
79.071
 30
0.0
 11
35.277
 21
79.216
 31
0.0
  0
LINE
  5
D5E
330
A35
100
AcDbEntity
  8
0
100
AcDbLine
 10
35.404
 20
79.112
 30
0.0
 11
35.319
 21
79.071
 31
0.0
  0
LINE
  5
D5F
330
A35
100
AcDbEntity
  8
0
100
AcDbLine
 10
35.341
 20
80.085
 30
0.0
 11
35.446
 21
80.055
 31
0.0
  0
LINE
  5
D60
330
A35
100
AcDbEntity
  8
0
100
AcDbLine
 10
35.266
 20
79.91
 30
0.0
 11
35.341
 21
80.085
 31
0.0
  0
LINE
  5
D61
330
A35
100
AcDbEntity
  8
0
100
AcDbLine
 10
35.423
 20
79.847
 30
0.0
 11
35.393
 21
79.784
 31
0.0
  0
LINE
  5
D62
330
A35
100
AcDbEntity
  8
0
100
AcDbLine
 10
35.718
 20
79.814
 30
0.0
 11
35.793
 21
79.658
 31
0.0
  0
LINE
  5
D63
330
A35
100
AcDbEntity
  8
0
100
AcDbLine
 10
36.943
 20
62.043
 30
0.0
 11
36.943
 21
78.043
 31
0.0
  0
LINE
  5
D64
330
A35
100
AcDbEntity
  8
0
100
AcDbLine
 10
29.503
 20
81.039
 30
0.0
 11
29.503
 21
74.427
 31
0.0
  0
LINE
  5
D65
330
A35
100
AcDbEntity
  8
0
100
AcDbLine
 10
29.798
 20
74.427
 30
0.0
 11
29.798
 21
81.084
 31
0.0
  0
LINE
  5
D66
330
A35
100
AcDbEntity
  8
0
100
AcDbLine
 10
31.019
 20
81.039
 30
0.0
 11
31.019
 21
74.427
 31
0.0
  0
LINE
  5
D67
330
A35
100
AcDbEntity
  8
0
100
AcDbLine
 10
31.314
 20
74.427
 30
0.0
 11
31.314
 21
81.084
 31
0.0
  0
LINE
  5
D68
330
A35
100
AcDbEntity
  8
0
100
AcDbLine
 10
32.304
 20
64.233
 30
0.0
 11
32.304
 21
61.935
 31
0.0
  0
LINE
  5
D69
330
A35
100
AcDbEntity
  8
0
100
AcDbLine
 10
31.8
 20
74.427
 30
0.0
 11
31.8
 21
80.842
 31
0.0
  0
LINE
  5
D6A
330
A35
100
AcDbEntity
  8
0
100
AcDbLine
 10
32.356
 20
81.072
 30
0.0
 11
32.356
 21
64.515
 31
0.0
  0
LINE
  5
D6B
330
A35
100
AcDbEntity
  8
0
100
AcDbLine
 10
33.021
 20
64.515
 30
0.0
 11
33.021
 21
81.124
 31
0.0
  0
LINE
  5
D6C
330
A35
100
AcDbEntity
  8
0
100
AcDbLine
 10
34.594
 20
80.612
 30
0.0
 11
34.594
 21
64.022
 31
0.0
  0
LINE
  5
D6D
330
A35
100
AcDbEntity
  8
0
100
AcDbLine
 10
36.816
 20
62.303
 30
0.0
 11
36.816
 21
78.693
 31
0.0
  0
LINE
  5
D6E
330
A35
100
AcDbEntity
  8
0
100
AcDbLine
 10
35.666
 20
63.413
 30
0.0
 11
35.666
 21
62.503
 31
0.0
  0
LINE
  5
D6F
330
A35
100
AcDbEntity
  8
0
100
AcDbLine
 10
36.764
 20
78.18
 30
0.0
 11
36.764
 21
78.778
 31
0.0
  0
LINE
  5
D70
330
A35
100
AcDbEntity
  8
0
100
AcDbLine
 10
36.562
 20
62.681
 30
0.0
 11
36.562
 21
61.768
 31
0.0
  0
LINE
  5
D71
330
A35
100
AcDbEntity
  8
0
100
AcDbLine
 10
36.342
 20
62.693
 30
0.0
 11
36.342
 21
62.763
 31
0.0
  0
LINE
  5
D72
330
A35
100
AcDbEntity
  8
0
100
AcDbLine
 10
35.774
 20
63.079
 30
0.0
 11
35.666
 21
63.171
 31
0.0
  0
LINE
  5
D73
330
A35
100
AcDbEntity
  8
0
100
AcDbLine
 10
37.078
 20
61.371
 30
0.0
 11
37.078
 21
60.458
 31
0.0
  0
LINE
  5
D74
330
A35
100
AcDbEntity
  8
0
100
AcDbLine
 10
24.296
 20
79.112
 30
0.0
 11
24.147
 21
79.238
 31
0.0
  0
LINE
  5
D75
330
A35
100
AcDbEntity
  8
0
100
AcDbLine
 10
24.875
 20
80.077
 30
0.0
 11
25.517
 21
79.521
 31
0.0
  0
LINE
  5
D76
330
A35
100
AcDbEntity
  8
0
100
AcDbLine
 10
26.287
 20
80.17
 30
0.0
 11
25.812
 21
80.579
 31
0.0
  0
LINE
  5
D77
330
A35
100
AcDbEntity
  8
0
100
AcDbLine
 10
34.71
 20
80.549
 30
0.0
 11
34.889
 21
80.389
 31
0.0
  0
LINE
  5
D78
330
A35
100
AcDbEntity
  8
0
100
AcDbLine
 10
30.377
 20
80.579
 30
0.0
 11
29.798
 21
81.084
 31
0.0
  0
LINE
  5
D79
330
A35
100
AcDbEntity
  8
0
100
AcDbLine
 10
32.652
 20
81.124
 30
0.0
 11
32.991
 21
81.124
 31
0.0
  0
LINE
  5
D7A
330
A35
100
AcDbEntity
  8
0
100
AcDbLine
 10
31.587
 20
80.853
 30
0.0
 11
31.314
 21
81.084
 31
0.0
  0
LINE
  5
D7B
330
A35
100
AcDbEntity
  8
0
100
AcDbLine
 10
29.301
 20
80.193
 30
0.0
 11
28.091
 21
81.239
 31
0.0
  0
LINE
  5
D7C
330
A35
100
AcDbEntity
  8
0
100
AcDbLine
 10
23.336
 20
78.566
 30
0.0
 11
23.336
 21
62.228
 31
0.0
  0
LINE
  5
D7D
330
A35
100
AcDbEntity
  8
0
100
AcDbLine
 10
31.408
 20
64.515
 30
0.0
 11
32.969
 21
64.515
 31
0.0
  0
LINE
  5
D7E
330
A35
100
AcDbEntity
  8
0
100
AcDbLine
 10
23.179
 20
61.853
 30
0.0
 11
23.179
 21
60.922
 31
0.0
  0
LINE
  5
D7F
330
A35
100
AcDbEntity
  8
0
100
AcDbLine
 10
34.941
 20
78.871
 30
0.0
 11
34.941
 21
80.337
 31
0.0
  0
LINE
  5
D80
330
A35
100
AcDbEntity
  8
0
100
AcDbLine
 10
36.521
 20
77.813
 30
0.0
 11
36.521
 21
77.508
 31
0.0
  0
LINE
  5
D81
330
A35
100
AcDbEntity
  8
0
100
AcDbLine
 10
36.764
 20
78.778
 30
0.0
 11
36.678
 21
78.849
 31
0.0
  0
LINE
  5
D82
330
A35
100
AcDbEntity
  8
0
100
AcDbLine
 10
36.521
 20
77.508
 30
0.0
 11
34.941
 21
78.871
 31
0.0
  0
LINE
  5
D83
330
A35
100
AcDbEntity
  8
0
100
AcDbLine
 10
34.941
 20
80.337
 30
0.0
 11
34.889
 21
80.389
 31
0.0
  0
LINE
  5
D84
330
A35
100
AcDbEntity
  8
0
100
AcDbLine
 10
32.969
 20
63.602
 30
0.0
 11
32.749
 21
63.602
 31
0.0
  0
LINE
  5
D85
330
A35
100
AcDbEntity
  8
0
100
AcDbLine
 10
33.137
 20
63.583
 30
0.0
 11
33.137
 21
64.493
 31
0.0
  0
LINE
  5
D86
330
A35
100
AcDbEntity
  8
0
100
AcDbLine
 10
32.969
 20
64.515
 30
0.0
 11
32.969
 21
63.602
 31
0.0
  0
LINE
  5
D87
330
A35
100
AcDbEntity
  8
0
100
AcDbLine
 10
27.796
 20
64.649
 30
0.0
 11
27.796
 21
81.199
 31
0.0
  0
LINE
  5
D88
330
A35
100
AcDbEntity
  8
0
100
AcDbLine
 10
24.147
 20
79.238
 30
0.0
 11
24.147
 21
63.182
 31
0.0
  0
LINE
  5
D89
330
A35
100
AcDbEntity
  8
0
100
AcDbLine
 10
25.812
 20
64.107
 30
0.0
 11
25.812
 21
80.579
 31
0.0
  0
LINE
  5
D8A
330
A35
100
AcDbEntity
  8
0
100
AcDbLine
 10
25.517
 20
80.538
 30
0.0
 11
25.517
 21
63.992
 31
0.0
  0
LINE
  5
D8B
330
A35
100
AcDbEntity
  8
0
100
AcDbLine
 10
24.875
 20
63.676
 30
0.0
 11
24.875
 21
80.077
 31
0.0
  0
LINE
  5
D8C
330
A35
100
AcDbEntity
  8
0
100
AcDbLine
 10
24.58
 20
80.033
 30
0.0
 11
24.58
 21
63.498
 31
0.0
  0
LINE
  5
D8D
330
A35
100
AcDbEntity
  8
0
100
AcDbLine
 10
24.307
 20
63.309
 30
0.0
 11
24.307
 21
79.079
 31
0.0
  0
LINE
  5
D8E
330
A35
100
AcDbEntity
  8
0
100
AcDbLine
 10
27.027
 20
79.205
 30
0.0
 11
27.027
 21
64.734
 31
0.0
  0
LINE
  5
D8F
330
A35
100
AcDbEntity
  8
0
100
AcDbLine
 10
27.385
 20
64.682
 30
0.0
 11
27.385
 21
79.313
 31
0.0
  0
LINE
  5
D90
330
A35
100
AcDbEntity
  8
0
100
AcDbLine
 10
27.912
 20
64.66
 30
0.0
 11
27.912
 21
64.378
 31
0.0
  0
LINE
  5
D91
330
A35
100
AcDbEntity
  8
0
100
AcDbLine
 10
28.218
 20
64.107
 30
0.0
 11
28.226
 21
64.107
 31
0.0
  0
LINE
  5
D92
330
A35
100
AcDbEntity
  8
0
100
AcDbLine
 10
28.218
 20
64.107
 30
0.0
 11
28.218
 21
64.608
 31
0.0
  0
LINE
  5
D93
330
A35
100
AcDbEntity
  8
0
100
AcDbLine
 10
28.565
 20
64.515
 30
0.0
 11
28.565
 21
64.419
 31
0.0
  0
LINE
  5
D94
330
A35
100
AcDbEntity
  8
0
100
AcDbLine
 10
28.565
 20
64.515
 30
0.0
 11
28.775
 21
64.515
 31
0.0
  0
LINE
  5
D95
330
A35
100
AcDbEntity
  8
0
100
AcDbLine
 10
30.377
 20
74.427
 30
0.0
 11
30.377
 21
80.579
 31
0.0
  0
LINE
  5
D96
330
A35
100
AcDbEntity
  8
0
100
AcDbLine
 10
23.336
 20
78.6
 30
0.0
 11
23.336
 21
78.566
 31
0.0
  0
LINE
  5
D97
330
A35
100
AcDbEntity
  8
0
100
AcDbLine
 10
27.773
 20
63.457
 30
0.0
 11
27.785
 21
63.09
 31
0.0
  0
LINE
  5
D98
330
A35
100
AcDbEntity
  8
0
100
AcDbLine
 10
28.091
 20
64.66
 30
0.0
 11
28.091
 21
81.239
 31
0.0
  0
LINE
  5
D99
330
A35
100
AcDbEntity
  8
0
100
AcDbLine
 10
31.587
 20
72.133
 30
0.0
 11
31.587
 21
64.515
 31
0.0
  0
LINE
  5
D9A
330
A35
100
AcDbEntity
  8
0
100
AcDbLine
 10
31.8
 20
64.515
 30
0.0
 11
31.8
 21
73.035
 31
0.0
  0
LINE
  5
D9B
330
A35
100
AcDbEntity
  8
0
100
AcDbLine
 10
23.672
 20
79.175
 30
0.0
 11
23.665
 21
62.722
 31
0.0
  0
LINE
  5
D9C
330
A35
100
AcDbEntity
  8
0
100
AcDbLine
 10
37.078
 20
60.406
 30
0.0
 11
37.078
 21
60.458
 31
0.0
  0
LINE
  5
D9D
330
A35
100
AcDbEntity
  8
0
100
AcDbLine
 10
35.677
 20
62.492
 30
0.0
 11
35.677
 21
62.514
 31
0.0
  0
LINE
  5
D9E
330
A35
100
AcDbEntity
  8
0
100
AcDbLine
 10
34.71
 20
80.549
 30
0.0
 11
34.601
 21
80.612
 31
0.0
  0
LINE
  5
D9F
330
A35
100
AcDbEntity
  8
0
100
AcDbLine
 10
32.368
 20
81.084
 30
0.0
 11
31.8
 21
80.842
 31
0.0
  0
LINE
  5
DA0
330
A35
100
AcDbEntity
  8
0
100
AcDbLine
 10
36.816
 20
78.704
 30
0.0
 11
36.753
 21
78.786
 31
0.0
  0
LINE
  5
DA1
330
A35
100
AcDbEntity
  8
0
100
AcDbLine
 10
33.148
 20
64.504
 30
0.0
 11
32.98
 21
64.515
 31
0.0
  0
LINE
  5
DA2
330
A35
100
AcDbEntity
  8
0
100
AcDbLine
 10
33.148
 20
63.591
 30
0.0
 11
32.98
 21
63.602
 31
0.0
  0
LINE
  5
DA3
330
A35
100
AcDbEntity
  8
0
100
AcDbLine
 10
24.307
 20
79.079
 30
0.0
 11
24.296
 21
79.112
 31
0.0
  0
LINE
  5
DA4
330
A35
100
AcDbEntity
  8
0
100
AcDbLine
 10
31.019
 20
80.653
 30
0.0
 11
30.545
 21
80.56
 31
0.0
  0
LINE
  5
DA5
330
A35
100
AcDbEntity
  8
0
100
AcDbLine
 10
35.614
 20
63.498
 30
0.0
 11
35.666
 21
63.413
 31
0.0
  0
LINE
  5
DA6
330
A35
100
AcDbEntity
  8
0
100
AcDbLine
 10
34.497
 20
63.153
 30
0.0
 11
35.614
 21
62.585
 31
0.0
  0
LINE
  5
DA7
330
A35
100
AcDbEntity
  8
0
100
AcDbLine
 10
33.137
 20
63.583
 30
0.0
 11
34.497
 21
63.153
 31
0.0
  0
LINE
  5
DA8
330
A35
100
AcDbEntity
  8
0
100
AcDbLine
 10
36.955
 20
61.129
 30
0.0
 11
37.078
 21
60.458
 31
0.0
  0
LINE
  5
DA9
330
A35
100
AcDbEntity
  8
0
100
AcDbLine
 10
36.446
 20
61.842
 30
0.0
 11
36.955
 21
61.129
 31
0.0
  0
LINE
  5
DAA
330
A35
100
AcDbEntity
  8
0
100
AcDbLine
 10
36.955
 20
62.043
 30
0.0
 11
37.078
 21
61.371
 31
0.0
  0
LINE
  5
DAB
330
A35
100
AcDbEntity
  8
0
100
AcDbLine
 10
36.562
 20
62.681
 30
0.0
 11
36.955
 21
62.043
 31
0.0
  0
LINE
  5
DAC
330
A35
100
AcDbEntity
  8
0
100
AcDbLine
 10
36.342
 20
62.763
 30
0.0
 11
36.32
 21
62.763
 31
0.0
  0
LINE
  5
DAD
330
A35
100
AcDbEntity
  8
0
100
AcDbLine
 10
36.342
 20
62.763
 30
0.0
 11
36.562
 21
62.681
 31
0.0
  0
LINE
  5
DAE
330
A35
100
AcDbEntity
  8
0
100
AcDbLine
 10
35.614
 20
62.585
 30
0.0
 11
35.666
 21
62.503
 31
0.0
  0
LINE
  5
DAF
330
A35
100
AcDbEntity
  8
0
100
AcDbLine
 10
24.696
 20
80.118
 30
0.0
 11
24.875
 21
80.077
 31
0.0
  0
LINE
  5
DB0
330
A35
100
AcDbEntity
  8
0
100
AcDbLine
 10
24.58
 20
80.033
 30
0.0
 11
24.696
 21
80.118
 31
0.0
  0
LINE
  5
DB1
330
A35
100
AcDbEntity
  8
0
100
AcDbLine
 10
27.796
 20
81.199
 30
0.0
 11
28.091
 21
81.239
 31
0.0
  0
LINE
  5
DB2
330
A35
100
AcDbEntity
  8
0
100
AcDbLine
 10
25.633
 20
80.619
 30
0.0
 11
25.812
 21
80.579
 31
0.0
  0
LINE
  5
DB3
330
A35
100
AcDbEntity
  8
0
100
AcDbLine
 10
25.517
 20
80.538
 30
0.0
 11
25.633
 21
80.619
 31
0.0
  0
LINE
  5
DB4
330
A35
100
AcDbEntity
  8
0
100
AcDbLine
 10
32.356
 20
81.072
 30
0.0
 11
32.652
 21
81.124
 31
0.0
  0
LINE
  5
DB5
330
A35
100
AcDbEntity
  8
0
100
AcDbLine
 10
31.587
 20
80.853
 30
0.0
 11
31.8
 21
80.842
 31
0.0
  0
LINE
  5
DB6
330
A35
100
AcDbEntity
  8
0
100
AcDbLine
 10
31.135
 20
81.124
 30
0.0
 11
31.314
 21
81.084
 31
0.0
  0
LINE
  5
DB7
330
A35
100
AcDbEntity
  8
0
100
AcDbLine
 10
31.019
 20
81.039
 30
0.0
 11
31.135
 21
81.124
 31
0.0
  0
LINE
  5
DB8
330
A35
100
AcDbEntity
  8
0
100
AcDbLine
 10
29.619
 20
81.124
 30
0.0
 11
29.798
 21
81.084
 31
0.0
  0
LINE
  5
DB9
330
A35
100
AcDbEntity
  8
0
100
AcDbLine
 10
29.503
 20
81.039
 30
0.0
 11
29.619
 21
81.124
 31
0.0
  0
LINE
  5
DBA
330
A35
100
AcDbEntity
  8
0
100
AcDbLine
 10
32.991
 20
81.124
 30
0.0
 11
34.594
 21
80.612
 31
0.0
  0
LINE
  5
DBB
330
A35
100
AcDbEntity
  8
0
100
AcDbLine
 10
23.191
 20
60.888
 30
0.0
 11
23.179
 21
60.922
 31
0.0
  0
LINE
  5
DBC
330
A35
100
AcDbEntity
  8
0
100
AcDbLine
 10
25.824
 20
63.205
 30
0.0
 11
27.803
 21
63.739
 31
0.0
  0
LINE
  5
DBD
330
A35
100
AcDbEntity
  8
0
100
AcDbLine
 10
24.737
 20
62.681
 30
0.0
 11
25.824
 21
63.205
 31
0.0
  0
LINE
  5
DBE
330
A35
100
AcDbEntity
  8
0
100
AcDbLine
 10
23.717
 20
61.865
 30
0.0
 11
24.737
 21
62.681
 31
0.0
  0
LINE
  5
DBF
330
A35
100
AcDbEntity
  8
0
100
AcDbLine
 10
23.179
 20
60.94
 30
0.0
 11
23.717
 21
61.865
 31
0.0
  0
LINE
  5
DC0
330
A35
100
AcDbEntity
  8
0
100
AcDbLine
 10
26.5
 20
64.348
 30
0.0
 11
27.912
 21
64.66
 31
0.0
  0
LINE
  5
DC1
330
A35
100
AcDbEntity
  8
0
100
AcDbLine
 10
25.263
 20
63.877
 30
0.0
 11
26.5
 21
64.348
 31
0.0
  0
LINE
  5
DC2
330
A35
100
AcDbEntity
  8
0
100
AcDbLine
 10
24.737
 20
63.591
 30
0.0
 11
25.263
 21
63.877
 31
0.0
  0
LINE
  5
DC3
330
A35
100
AcDbEntity
  8
0
100
AcDbLine
 10
23.717
 20
62.774
 30
0.0
 11
24.737
 21
63.591
 31
0.0
  0
LINE
  5
DC4
330
A35
100
AcDbEntity
  8
0
100
AcDbLine
 10
23.179
 20
61.853
 30
0.0
 11
23.717
 21
62.774
 31
0.0
  0
LINE
  5
DC5
330
A35
100
AcDbEntity
  8
0
100
AcDbLine
 10
36.816
 20
78.693
 30
0.0
 11
36.943
 21
78.043
 31
0.0
  0
LINE
  5
DC6
330
A35
100
AcDbEntity
  8
0
100
AcDbLine
 10
34.497
 20
64.062
 30
0.0
 11
35.614
 21
63.498
 31
0.0
  0
LINE
  5
DC7
330
A35
100
AcDbEntity
  8
0
100
AcDbLine
 10
33.137
 20
64.493
 30
0.0
 11
34.497
 21
64.062
 31
0.0
  0
LINE
  5
DC8
330
A35
100
AcDbEntity
  8
0
100
AcDbLine
 10
23.896
 20
79.302
 30
0.0
 11
24.147
 21
79.238
 31
0.0
  0
LINE
  5
DC9
330
A35
100
AcDbEntity
  8
0
100
AcDbLine
 10
23.665
 20
79.216
 30
0.0
 11
23.896
 21
79.302
 31
0.0
  0
LINE
  5
DCA
330
A35
100
AcDbEntity
  8
0
100
AcDbLine
 10
28.565
 20
64.515
 30
0.0
 11
28.218
 21
64.608
 31
0.0
  0
LINE
  5
DCB
330
A35
100
AcDbEntity
  8
0
100
AcDbLine
 10
27.912
 20
64.66
 30
0.0
 11
28.218
 21
64.608
 31
0.0
  0
LINE
  5
DCC
330
A35
100
AcDbEntity
  8
0
100
AcDbLine
 10
29.301
 20
80.193
 30
0.0
 11
29.503
 21
80.17
 31
0.0
  0
LINE
  5
DCD
330
A35
100
AcDbEntity
  8
0
100
AcDbLine
 10
30.377
 20
80.579
 30
0.0
 11
30.545
 21
80.56
 31
0.0
  0
LINE
  5
DCE
330
A35
100
AcDbEntity
  8
0
100
AcDbLine
 10
23.336
 20
78.6
 30
0.0
 11
23.665
 21
79.216
 31
0.0
  0
LINE
  5
DCF
330
A35
100
AcDbEntity
  8
0
100
AcDbLine
 10
24.307
 20
78.767
 30
0.0
 11
24.58
 21
78.734
 31
0.0
  0
LINE
  5
DD0
330
A35
100
AcDbEntity
  8
0
100
AcDbLine
 10
26.287
 20
64.274
 30
0.0
 11
26.287
 21
64.293
 31
0.0
  0
LINE
  5
DD1
330
A35
100
AcDbEntity
  8
0
100
AcDbLine
 10
27.184
 20
64.723
 30
0.0
 11
26.866
 21
64.723
 31
0.0
  0
LINE
  5
DD2
330
A35
100
AcDbEntity
  8
0
100
AcDbLine
 10
27.184
 20
64.723
 30
0.0
 11
27.564
 21
64.597
 31
0.0
  0
LINE
  5
DD3
330
A35
100
AcDbEntity
  8
0
100
AcDbLine
 10
26.447
 20
64.578
 30
0.0
 11
26.287
 21
64.293
 31
0.0
  0
LINE
  5
DD4
330
A35
100
AcDbEntity
  8
0
100
AcDbLine
 10
26.866
 20
64.723
 30
0.0
 11
26.447
 21
64.578
 31
0.0
  0
LINE
  5
DD5
330
A35
100
AcDbEntity
  8
0
100
AcDbLine
 10
32.472
 20
63.654
 30
0.0
 11
32.39
 21
63.665
 31
0.0
  0
LINE
  5
DD6
330
A35
100
AcDbEntity
  8
0
100
AcDbLine
 10
36.047
 20
63.112
 30
0.0
 11
36.226
 21
62.952
 31
0.0
  0
LINE
  5
DD7
330
A35
100
AcDbEntity
  8
0
100
AcDbLine
 10
41.284
 20
55.598
 30
0.0
 11
41.284
 21
55.45
 31
0.0
  0
LINE
  5
DD8
330
A35
100
AcDbEntity
  8
0
100
AcDbLine
 10
37.078
 20
60.153
 30
0.0
 11
37.078
 21
60.406
 31
0.0
  0
LINE
  5
DD9
330
A35
100
AcDbEntity
  8
0
100
AcDbLine
 10
18.899
 20
55.598
 30
0.0
 11
18.91
 21
55.45
 31
0.0
  0
LINE
  5
DDA
330
A35
100
AcDbEntity
  8
0
100
AcDbLine
 10
23.116
 20
60.153
 30
0.0
 11
23.116
 21
60.406
 31
0.0
  0
LINE
  5
DDB
330
A35
100
AcDbEntity
  8
0
100
AcDbLine
 10
35.752
 20
63.079
 30
0.0
 11
35.961
 21
63.131
 31
0.0
  0
LINE
  5
DDC
330
A35
100
AcDbEntity
  8
0
100
AcDbLine
 10
35.897
 20
63.004
 30
0.0
 11
35.688
 21
62.941
 31
0.0
  0
LINE
  5
DDD
330
A35
100
AcDbEntity
  8
0
100
AcDbLine
 10
32.304
 20
61.935
 30
0.0
 11
32.349
 21
61.267
 31
0.0
  0
LINE
  5
DDE
330
A35
100
AcDbEntity
  8
0
100
AcDbLine
 10
32.02
 20
61.297
 30
0.0
 11
31.979
 21
61.872
 31
0.0
  0
LINE
  5
DDF
330
A35
100
AcDbEntity
  8
0
100
AcDbLine
 10
23.191
 20
60.888
 30
0.0
 11
23.138
 21
60.888
 31
0.0
  0
LINE
  5
DE0
330
A35
100
AcDbEntity
  8
0
100
AcDbLine
 10
28.7
 20
61.337
 30
0.0
 11
28.7
 21
64.033
 31
0.0
  0
LINE
  5
DE1
330
A35
100
AcDbEntity
  8
0
100
AcDbLine
 10
31.946
 20
61.872
 30
0.0
 11
31.946
 21
61.308
 31
0.0
  0
LINE
  5
DE2
330
A35
100
AcDbEntity
  8
0
100
AcDbLine
 10
31.759
 20
61.319
 30
0.0
 11
31.759
 21
62.221
 31
0.0
  0
LINE
  5
DE3
330
A35
100
AcDbEntity
  8
0
100
AcDbLine
 10
31.464
 20
61.716
 30
0.0
 11
31.464
 21
61.337
 31
0.0
  0
LINE
  5
DE4
330
A35
100
AcDbEntity
  8
0
100
AcDbLine
 10
31.819
 20
61.319
 30
0.0
 11
31.778
 21
61.872
 31
0.0
  0
LINE
  5
DE5
330
A35
100
AcDbEntity
  8
0
100
AcDbLine
 10
27.762
 20
61.79
 30
0.0
 11
27.762
 21
61.267
 31
0.0
  0
LINE
  5
DE6
330
A35
100
AcDbEntity
  8
0
100
AcDbLine
 10
27.762
 20
61.79
 30
0.0
 11
27.773
 21
61.809
 31
0.0
  0
LINE
  5
DE7
330
A35
100
AcDbEntity
  8
0
100
AcDbLine
 10
28.733
 20
61.716
 30
0.0
 11
28.733
 21
61.337
 31
0.0
  0
LINE
  5
DE8
330
A35
100
AcDbEntity
  8
0
100
AcDbLine
 10
28.439
 20
61.319
 30
0.0
 11
28.439
 21
62.221
 31
0.0
  0
LINE
  5
DE9
330
A35
100
AcDbEntity
  8
0
100
AcDbLine
 10
28.416
 20
61.872
 30
0.0
 11
28.375
 21
61.319
 31
0.0
  0
LINE
  5
DEA
330
A35
100
AcDbEntity
  8
0
100
AcDbLine
 10
27.733
 20
61.256
 30
0.0
 11
27.733
 21
61.686
 31
0.0
  0
LINE
  5
DEB
330
A35
100
AcDbEntity
  8
0
100
AcDbLine
 10
27.733
 20
61.686
 30
0.0
 11
27.71
 21
61.256
 31
0.0
  0
LINE
  5
DEC
330
A35
100
AcDbEntity
  8
0
100
AcDbLine
 10
28.248
 20
61.308
 30
0.0
 11
28.237
 21
61.872
 31
0.0
  0
LINE
  5
DED
330
A35
100
AcDbEntity
  8
0
100
AcDbLine
 10
28.218
 20
61.872
 30
0.0
 11
28.173
 21
61.297
 31
0.0
  0
LINE
  5
DEE
330
A35
100
AcDbEntity
  8
0
100
AcDbLine
 10
27.848
 20
61.267
 30
0.0
 11
27.889
 21
61.935
 31
0.0
  0
LINE
  5
DEF
330
A35
100
AcDbEntity
  8
0
100
AcDbLine
 10
23.179
 20
61.015
 30
0.0
 11
23.146
 21
61.003
 31
0.0
  0
LINE
  5
DF0
330
A35
100
AcDbEntity
  8
0
100
AcDbLine
 10
32.409
 20
63.487
 30
0.0
 11
32.316
 21
64.378
 31
0.0
  0
LINE
  5
DF1
330
A35
100
AcDbEntity
  8
0
100
AcDbLine
 10
31.494
 20
64.033
 30
0.0
 11
31.494
 21
61.337
 31
0.0
  0
LINE
  5
DF2
330
A35
100
AcDbEntity
  8
0
100
AcDbLine
 10
28.775
 20
61.716
 30
0.0
 11
28.733
 21
61.716
 31
0.0
  0
LINE
  5
DF3
330
A35
100
AcDbEntity
  8
0
100
AcDbLine
 10
31.998
 20
64.378
 30
0.0
 11
32.316
 21
64.378
 31
0.0
  0
LINE
  5
DF4
330
A35
100
AcDbEntity
  8
0
100
AcDbLine
 10
28.195
 20
64.378
 30
0.0
 11
27.878
 21
64.378
 31
0.0
  0
LINE
  5
DF5
330
A35
100
AcDbEntity
  8
0
100
AcDbLine
 10
32.304
 20
64.233
 30
0.0
 11
32.316
 21
64.378
 31
0.0
  0
LINE
  5
DF6
330
A35
100
AcDbEntity
  8
0
100
AcDbLine
 10
31.482
 20
64.107
 30
0.0
 11
31.494
 21
64.033
 31
0.0
  0
LINE
  5
DF7
330
A35
100
AcDbEntity
  8
0
100
AcDbLine
 10
31.471
 20
64.01
 30
0.0
 11
31.471
 21
63.895
 31
0.0
  0
LINE
  5
DF8
330
A35
100
AcDbEntity
  8
0
100
AcDbLine
 10
31.494
 20
64.033
 30
0.0
 11
31.905
 21
64.033
 31
0.0
  0
LINE
  5
DF9
330
A35
100
AcDbEntity
  8
0
100
AcDbLine
 10
31.968
 20
64.107
 30
0.0
 11
31.482
 21
64.107
 31
0.0
  0
LINE
  5
DFA
330
A35
100
AcDbEntity
  8
0
100
AcDbLine
 10
31.979
 20
64.107
 30
0.0
 11
31.998
 21
64.378
 31
0.0
  0
LINE
  5
DFB
330
A35
100
AcDbEntity
  8
0
100
AcDbLine
 10
31.979
 20
64.107
 30
0.0
 11
31.482
 21
64.107
 31
0.0
  0
LINE
  5
DFC
330
A35
100
AcDbEntity
  8
0
100
AcDbLine
 10
31.968
 20
64.107
 30
0.0
 11
31.979
 21
64.107
 31
0.0
  0
LINE
  5
DFD
330
A35
100
AcDbEntity
  8
0
100
AcDbLine
 10
31.979
 20
61.872
 30
0.0
 11
31.778
 21
61.872
 31
0.0
  0
LINE
  5
DFE
330
A35
100
AcDbEntity
  8
0
100
AcDbLine
 10
31.905
 20
62.221
 30
0.0
 11
31.905
 21
64.033
 31
0.0
  0
LINE
  5
DFF
330
A35
100
AcDbEntity
  8
0
100
AcDbLine
 10
31.759
 20
62.221
 30
0.0
 11
31.778
 21
61.872
 31
0.0
  0
LINE
  5
E00
330
A35
100
AcDbEntity
  8
0
100
AcDbLine
 10
31.905
 20
62.221
 30
0.0
 11
31.759
 21
62.221
 31
0.0
  0
LINE
  5
E01
330
A35
100
AcDbEntity
  8
0
100
AcDbLine
 10
31.471
 20
61.872
 30
0.0
 11
31.471
 21
63.895
 31
0.0
  0
LINE
  5
E02
330
A35
100
AcDbEntity
  8
0
100
AcDbLine
 10
28.289
 20
64.033
 30
0.0
 11
28.289
 21
62.221
 31
0.0
  0
LINE
  5
E03
330
A35
100
AcDbEntity
  8
0
100
AcDbLine
 10
28.722
 20
61.872
 30
0.0
 11
28.722
 21
63.895
 31
0.0
  0
LINE
  5
E04
330
A35
100
AcDbEntity
  8
0
100
AcDbLine
 10
28.439
 20
62.221
 30
0.0
 11
28.289
 21
62.221
 31
0.0
  0
LINE
  5
E05
330
A35
100
AcDbEntity
  8
0
100
AcDbLine
 10
31.408
 20
61.716
 30
0.0
 11
31.464
 21
61.716
 31
0.0
  0
LINE
  5
E06
330
A35
100
AcDbEntity
  8
0
100
AcDbLine
 10
28.733
 20
61.716
 30
0.0
 11
28.722
 21
61.872
 31
0.0
  0
LINE
  5
E07
330
A35
100
AcDbEntity
  8
0
100
AcDbLine
 10
28.416
 20
61.872
 30
0.0
 11
28.218
 21
61.872
 31
0.0
  0
LINE
  5
E08
330
A35
100
AcDbEntity
  8
0
100
AcDbLine
 10
28.416
 20
61.872
 30
0.0
 11
28.439
 21
62.221
 31
0.0
  0
LINE
  5
E09
330
A35
100
AcDbEntity
  8
0
100
AcDbLine
 10
31.471
 20
61.872
 30
0.0
 11
31.464
 21
61.716
 31
0.0
  0
LINE
  5
E0A
330
A35
100
AcDbEntity
  8
0
100
AcDbLine
 10
28.722
 20
63.895
 30
0.0
 11
28.722
 21
64.01
 31
0.0
  0
LINE
  5
E0B
330
A35
100
AcDbEntity
  8
0
100
AcDbLine
 10
28.7
 20
64.033
 30
0.0
 11
28.711
 21
64.107
 31
0.0
  0
LINE
  5
E0C
330
A35
100
AcDbEntity
  8
0
100
AcDbLine
 10
28.711
 20
64.107
 30
0.0
 11
28.226
 21
64.107
 31
0.0
  0
LINE
  5
E0D
330
A35
100
AcDbEntity
  8
0
100
AcDbLine
 10
28.218
 20
64.107
 30
0.0
 11
28.195
 21
64.378
 31
0.0
  0
LINE
  5
E0E
330
A35
100
AcDbEntity
  8
0
100
AcDbLine
 10
28.218
 20
64.107
 30
0.0
 11
28.711
 21
64.107
 31
0.0
  0
LINE
  5
E0F
330
A35
100
AcDbEntity
  8
0
100
AcDbLine
 10
28.7
 20
64.033
 30
0.0
 11
28.289
 21
64.033
 31
0.0
  0
LINE
  5
E10
330
A35
100
AcDbEntity
  8
0
100
AcDbLine
 10
27.878
 20
64.378
 30
0.0
 11
27.773
 21
63.457
 31
0.0
  0
LINE
  5
E11
330
A35
100
AcDbEntity
  8
0
100
AcDbLine
 10
27.889
 20
64.233
 30
0.0
 11
27.878
 21
64.378
 31
0.0
  0
LINE
  5
E12
330
A35
100
AcDbEntity
  8
0
100
AcDbLine
 10
27.889
 20
64.233
 30
0.0
 11
27.889
 21
61.935
 31
0.0
  0
LINE
  5
E13
330
A35
100
AcDbEntity
  8
0
100
AcDbLine
 10
27.785
 20
62.136
 30
0.0
 11
27.71
 21
62.124
 31
0.0
  0
LINE
  5
E14
330
A35
100
AcDbEntity
  8
0
100
AcDbLine
 10
27.71
 20
63.654
 30
0.0
 11
27.796
 21
63.665
 31
0.0
  0
LINE
  5
E15
330
A35
100
AcDbEntity
  8
0
100
AcDbLine
 10
26.16
 20
61.527
 30
0.0
 11
25.678
 21
61.256
 31
0.0
  0
LINE
  5
E16
330
A35
100
AcDbEntity
  8
0
100
AcDbLine
 10
26.16
 20
61.527
 30
0.0
 11
26.321
 21
61.653
 31
0.0
  0
LINE
  5
E17
330
A35
100
AcDbEntity
  8
0
100
AcDbLine
 10
26.298
 20
61.245
 30
0.0
 11
26.507
 21
61.382
 31
0.0
  0
LINE
  5
E18
330
A35
100
AcDbEntity
  8
0
100
AcDbLine
 10
27.762
 20
61.802
 30
0.0
 11
27.733
 21
61.694
 31
0.0
  0
LINE
  5
E19
330
A35
100
AcDbEntity
  8
0
100
AcDbLine
 10
27.773
 20
61.809
 30
0.0
 11
27.184
 21
61.623
 31
0.0
  0
LINE
  5
E1A
330
A35
100
AcDbEntity
  8
0
100
AcDbLine
 10
26.16
 20
63.268
 30
0.0
 11
26.321
 21
63.331
 31
0.0
  0
LINE
  5
E1B
330
A35
100
AcDbEntity
  8
0
100
AcDbLine
 10
26.911
 20
61.56
 30
0.0
 11
27.172
 21
61.631
 31
0.0
  0
LINE
  5
E1C
330
A35
100
AcDbEntity
  8
0
100
AcDbLine
 10
26.866
 20
61.865
 30
0.0
 11
27.068
 21
61.917
 31
0.0
  0
LINE
  5
E1D
330
A35
100
AcDbEntity
  8
0
100
AcDbLine
 10
26.866
 20
63.487
 30
0.0
 11
27.068
 21
63.52
 31
0.0
  0
LINE
  5
E1E
330
A35
100
AcDbEntity
  8
0
100
AcDbLine
 10
26.866
 20
61.865
 30
0.0
 11
26.911
 21
61.56
 31
0.0
  0
LINE
  5
E1F
330
A35
100
AcDbEntity
  8
0
100
AcDbLine
 10
26.563
 20
61.79
 30
0.0
 11
26.321
 21
61.653
 31
0.0
  0
LINE
  5
E20
330
A35
100
AcDbEntity
  8
0
100
AcDbLine
 10
26.866
 20
61.865
 30
0.0
 11
26.563
 21
61.779
 31
0.0
  0
LINE
  5
E21
330
A35
100
AcDbEntity
  8
0
100
AcDbLine
 10
27.71
 20
62.136
 30
0.0
 11
27.068
 21
61.928
 31
0.0
  0
LINE
  5
E22
330
A35
100
AcDbEntity
  8
0
100
AcDbLine
 10
27.721
 20
63.654
 30
0.0
 11
27.068
 21
63.52
 31
0.0
  0
LINE
  5
E23
330
A35
100
AcDbEntity
  8
0
100
AcDbLine
 10
32.465
 20
63.457
 30
0.0
 11
32.409
 21
63.487
 31
0.0
  0
LINE
  5
E24
330
A35
100
AcDbEntity
  8
0
100
AcDbLine
 10
34.403
 20
63.131
 30
0.0
 11
32.472
 21
63.654
 31
0.0
  0
LINE
  5
E25
330
A35
100
AcDbEntity
  8
0
100
AcDbLine
 10
35.89
 20
62.325
 30
0.0
 11
34.403
 21
63.131
 31
0.0
  0
LINE
  5
E26
330
A35
100
AcDbEntity
  8
0
100
AcDbLine
 10
36.88
 20
61.215
 30
0.0
 11
36.364
 21
61.917
 31
0.0
  0
LINE
  5
E27
330
A35
100
AcDbEntity
  8
0
100
AcDbLine
 10
37.078
 20
60.458
 30
0.0
 11
36.88
 21
61.215
 31
0.0
  0
LINE
  5
E28
330
A35
100
AcDbEntity
  8
0
100
AcDbLine
 10
36.353
 20
62.618
 30
0.0
 11
36.364
 21
61.917
 31
0.0
  0
LINE
  5
E29
330
A35
100
AcDbEntity
  8
0
100
AcDbLine
 10
36.226
 20
62.952
 30
0.0
 11
36.353
 21
62.618
 31
0.0
  0
LINE
  5
E2A
330
A35
100
AcDbEntity
  8
0
100
AcDbLine
 10
35.961
 20
63.131
 30
0.0
 11
36.047
 21
63.112
 31
0.0
  0
LINE
  5
E2B
330
A35
100
AcDbEntity
  8
0
100
AcDbLine
 10
40.6
 20
57.692
 30
0.0
 11
40.271
 21
58.082
 31
0.0
  0
LINE
  5
E2C
330
A35
100
AcDbEntity
  8
0
100
AcDbLine
 10
41.074
 20
56.875
 30
0.0
 11
40.6
 21
57.692
 31
0.0
  0
LINE
  5
E2D
330
A35
100
AcDbEntity
  8
0
100
AcDbLine
 10
41.284
 20
56.025
 30
0.0
 11
41.074
 21
56.875
 31
0.0
  0
LINE
  5
E2E
330
A35
100
AcDbEntity
  8
0
100
AcDbLine
 10
41.284
 20
55.598
 30
0.0
 11
41.284
 21
56.025
 31
0.0
  0
LINE
  5
E2F
330
A35
100
AcDbEntity
  8
0
100
AcDbLine
 10
33.235
 20
56.549
 30
0.0
 11
32.304
 21
56.192
 31
0.0
  0
LINE
  5
E30
330
A35
100
AcDbEntity
  8
0
100
AcDbLine
 10
33.929
 20
57.001
 30
0.0
 11
33.235
 21
56.549
 31
0.0
  0
LINE
  5
E31
330
A35
100
AcDbEntity
  8
0
100
AcDbLine
 10
34.37
 20
57.525
 30
0.0
 11
33.929
 21
57.001
 31
0.0
  0
LINE
  5
E32
330
A35
100
AcDbEntity
  8
0
100
AcDbLine
 10
34.53
 20
58.1
 30
0.0
 11
34.37
 21
57.525
 31
0.0
  0
LINE
  5
E33
330
A35
100
AcDbEntity
  8
0
100
AcDbLine
 10
37.048
 20
57.503
 30
0.0
 11
35.961
 21
58.134
 31
0.0
  0
LINE
  5
E34
330
A35
100
AcDbEntity
  8
0
100
AcDbLine
 10
37.806
 20
56.834
 30
0.0
 11
37.048
 21
57.503
 31
0.0
  0
LINE
  5
E35
330
A35
100
AcDbEntity
  8
0
100
AcDbLine
 10
38.281
 20
56.174
 30
0.0
 11
37.806
 21
56.834
 31
0.0
  0
LINE
  5
E36
330
A35
100
AcDbEntity
  8
0
100
AcDbLine
 10
38.535
 20
55.271
 30
0.0
 11
38.281
 21
56.174
 31
0.0
  0
LINE
  5
E37
330
A35
100
AcDbEntity
  8
0
100
AcDbLine
 10
25.148
 20
58.52
 30
0.0
 11
24.233
 21
58.134
 31
0.0
  0
LINE
  5
E38
330
A35
100
AcDbEntity
  8
0
100
AcDbLine
 10
26.246
 20
58.847
 30
0.0
 11
25.148
 21
58.52
 31
0.0
  0
LINE
  5
E39
330
A35
100
AcDbEntity
  8
0
100
AcDbLine
 10
27.31
 20
59.077
 30
0.0
 11
26.246
 21
58.847
 31
0.0
  0
LINE
  5
E3A
330
A35
100
AcDbEntity
  8
0
100
AcDbLine
 10
29.544
 20
59.307
 30
0.0
 11
27.31
 21
59.077
 31
0.0
  0
LINE
  5
E3B
330
A35
100
AcDbEntity
  8
0
100
AcDbLine
 10
34.433
 20
58.479
 30
0.0
 11
34.254
 21
58.761
 31
0.0
  0
LINE
  5
E3C
330
A35
100
AcDbEntity
  8
0
100
AcDbLine
 10
34.53
 20
58.1
 30
0.0
 11
34.433
 21
58.479
 31
0.0
  0
LINE
  5
E3D
330
A35
100
AcDbEntity
  8
0
100
AcDbLine
 10
25.812
 20
57.536
 30
0.0
 11
25.667
 21
58.1
 31
0.0
  0
LINE
  5
E3E
330
A35
100
AcDbEntity
  8
0
100
AcDbLine
 10
26.246
 20
57.02
 30
0.0
 11
25.812
 21
57.536
 31
0.0
  0
LINE
  5
E3F
330
A35
100
AcDbEntity
  8
0
100
AcDbLine
 10
26.918
 20
56.571
 30
0.0
 11
26.246
 21
57.02
 31
0.0
  0
LINE
  5
E40
330
A35
100
AcDbEntity
  8
0
100
AcDbLine
 10
27.826
 20
56.214
 30
0.0
 11
26.918
 21
56.571
 31
0.0
  0
LINE
  5
E41
330
A35
100
AcDbEntity
  8
0
100
AcDbLine
 10
28.543
 20
56.036
 30
0.0
 11
27.826
 21
56.214
 31
0.0
  0
LINE
  5
E42
330
A35
100
AcDbEntity
  8
0
100
AcDbLine
 10
30.059
 20
55.899
 30
0.0
 11
28.543
 21
56.036
 31
0.0
  0
LINE
  5
E43
330
A35
100
AcDbEntity
  8
0
100
AcDbLine
 10
31.587
 20
56.025
 30
0.0
 11
30.059
 21
55.899
 31
0.0
  0
LINE
  5
E44
330
A35
100
AcDbEntity
  8
0
100
AcDbLine
 10
32.304
 20
56.192
 30
0.0
 11
31.587
 21
56.025
 31
0.0
  0
LINE
  5
E45
330
A35
100
AcDbEntity
  8
0
100
AcDbLine
 10
21.913
 20
56.174
 30
0.0
 11
21.663
 21
55.271
 31
0.0
  0
LINE
  5
E46
330
A35
100
AcDbEntity
  8
0
100
AcDbLine
 10
22.313
 20
56.749
 30
0.0
 11
21.913
 21
56.174
 31
0.0
  0
LINE
  5
E47
330
A35
100
AcDbEntity
  8
0
100
AcDbLine
 10
23.03
 20
57.421
 30
0.0
 11
22.313
 21
56.749
 31
0.0
  0
LINE
  5
E48
330
A35
100
AcDbEntity
  8
0
100
AcDbLine
 10
24.233
 20
58.134
 30
0.0
 11
23.03
 21
57.421
 31
0.0
  0
LINE
  5
E49
330
A35
100
AcDbEntity
  8
0
100
AcDbLine
 10
25.719
 20
58.375
 30
0.0
 11
25.94
 21
58.761
 31
0.0
  0
LINE
  5
E4A
330
A35
100
AcDbEntity
  8
0
100
AcDbLine
 10
25.667
 20
58.1
 30
0.0
 11
25.719
 21
58.375
 31
0.0
  0
LINE
  5
E4B
330
A35
100
AcDbEntity
  8
0
100
AcDbLine
 10
25.835
 20
58.75
 30
0.0
 11
25.772
 21
58.731
 31
0.0
  0
LINE
  5
E4C
330
A35
100
AcDbEntity
  8
0
100
AcDbLine
 10
39.536
 20
58.783
 30
0.0
 11
40.271
 21
58.082
 31
0.0
  0
LINE
  5
E4D
330
A35
100
AcDbEntity
  8
0
100
AcDbLine
 10
38.217
 20
59.63
 30
0.0
 11
39.536
 21
58.783
 31
0.0
  0
LINE
  5
E4E
330
A35
100
AcDbEntity
  8
0
100
AcDbLine
 10
36.794
 20
60.272
 30
0.0
 11
38.217
 21
59.63
 31
0.0
  0
LINE
  5
E4F
330
A35
100
AcDbEntity
  8
0
100
AcDbLine
 10
36.006
 20
60.532
 30
0.0
 11
36.794
 21
60.272
 31
0.0
  0
LINE
  5
E50
330
A35
100
AcDbEntity
  8
0
100
AcDbLine
 10
34.056
 20
61.026
 30
0.0
 11
36.006
 21
60.532
 31
0.0
  0
LINE
  5
E51
330
A35
100
AcDbEntity
  8
0
100
AcDbLine
 10
32.969
 20
61.193
 30
0.0
 11
34.056
 21
61.026
 31
0.0
  0
LINE
  5
E52
330
A35
100
AcDbEntity
  8
0
100
AcDbLine
 10
30.093
 20
61.382
 30
0.0
 11
32.969
 21
61.193
 31
0.0
  0
LINE
  5
E53
330
A35
100
AcDbEntity
  8
0
100
AcDbLine
 10
28.786
 20
61.349
 30
0.0
 11
30.093
 21
61.382
 31
0.0
  0
LINE
  5
E54
330
A35
100
AcDbEntity
  8
0
100
AcDbLine
 10
26.223
 20
61.037
 30
0.0
 11
28.786
 21
61.349
 31
0.0
  0
LINE
  5
E55
330
A35
100
AcDbEntity
  8
0
100
AcDbLine
 10
25.024
 20
60.773
 30
0.0
 11
26.223
 21
61.037
 31
0.0
  0
LINE
  5
E56
330
A35
100
AcDbEntity
  8
0
100
AcDbLine
 10
23.399
 20
60.272
 30
0.0
 11
25.024
 21
60.773
 31
0.0
  0
LINE
  5
E57
330
A35
100
AcDbEntity
  8
0
100
AcDbLine
 10
21.345
 20
59.266
 30
0.0
 11
23.399
 21
60.272
 31
0.0
  0
LINE
  5
E58
330
A35
100
AcDbEntity
  8
0
100
AcDbLine
 10
20.524
 20
58.668
 30
0.0
 11
21.345
 21
59.266
 31
0.0
  0
LINE
  5
E59
330
A35
100
AcDbEntity
  8
0
100
AcDbLine
 10
19.657
 20
57.777
 30
0.0
 11
20.524
 21
58.668
 31
0.0
  0
LINE
  5
E5A
330
A35
100
AcDbEntity
  8
0
100
AcDbLine
 10
35.897
 20
63.004
 30
0.0
 11
35.961
 21
63.131
 31
0.0
  0
LINE
  5
E5B
330
A35
100
AcDbEntity
  8
0
100
AcDbLine
 10
35.752
 20
63.079
 30
0.0
 11
35.688
 21
62.941
 31
0.0
  0
LINE
  5
E5C
330
A35
100
AcDbEntity
  8
0
100
AcDbLine
 10
35.666
 20
62.503
 30
0.0
 11
35.666
 21
62.481
 31
0.0
  0
LINE
  5
E5D
330
A35
100
AcDbEntity
  8
0
100
AcDbLine
 10
35.688
 20
62.941
 30
0.0
 11
35.666
 21
62.503
 31
0.0
  0
LINE
  5
E5E
330
A35
100
AcDbEntity
  8
0
100
AcDbLine
 10
35.89
 20
62.325
 30
0.0
 11
35.897
 21
63.004
 31
0.0
  0
LINE
  5
E5F
330
A35
100
AcDbEntity
  8
0
100
AcDbLine
 10
23.138
 20
60.888
 30
0.0
 11
23.127
 21
60.625
 31
0.0
  0
LINE
  5
E60
330
A35
100
AcDbEntity
  8
0
100
AcDbLine
 10
25.678
 20
61.256
 30
0.0
 11
25.678
 21
60.929
 31
0.0
  0
LINE
  5
E61
330
A35
100
AcDbEntity
  8
0
100
AcDbLine
 10
25.678
 20
61.256
 30
0.0
 11
26.078
 21
61.119
 31
0.0
  0
LINE
  5
E62
330
A35
100
AcDbEntity
  8
0
100
AcDbLine
 10
23.146
 20
61.003
 30
0.0
 11
23.138
 21
60.888
 31
0.0
  0
LINE
  5
E63
330
A35
100
AcDbEntity
  8
0
100
AcDbLine
 10
23.284
 20
61.159
 30
0.0
 11
23.116
 21
60.406
 31
0.0
  0
LINE
  5
E64
330
A35
100
AcDbEntity
  8
0
100
AcDbLine
 10
23.485
 20
61.516
 30
0.0
 11
23.284
 21
61.159
 31
0.0
  0
LINE
  5
E65
330
A35
100
AcDbEntity
  8
0
100
AcDbLine
 10
24.117
 20
62.188
 30
0.0
 11
23.485
 21
61.516
 31
0.0
  0
LINE
  5
E66
330
A35
100
AcDbEntity
  8
0
100
AcDbLine
 10
25.013
 20
62.774
 30
0.0
 11
24.117
 21
62.188
 31
0.0
  0
LINE
  5
E67
330
A35
100
AcDbEntity
  8
0
100
AcDbLine
 10
26.16
 20
63.257
 30
0.0
 11
25.013
 21
62.774
 31
0.0
  0
LINE
  5
E68
330
A35
100
AcDbEntity
  8
0
100
AcDbLine
 10
18.91
 20
56.047
 30
0.0
 11
18.899
 21
55.598
 31
0.0
  0
LINE
  5
E69
330
A35
100
AcDbEntity
  8
0
100
AcDbLine
 10
19.141
 20
56.927
 30
0.0
 11
18.91
 21
56.047
 31
0.0
  0
LINE
  5
E6A
330
A35
100
AcDbEntity
  8
0
100
AcDbLine
 10
19.657
 20
57.777
 30
0.0
 11
19.141
 21
56.927
 31
0.0
  0
LINE
  5
E6B
330
A35
100
AcDbEntity
  8
0
100
AcDbLine
 10
20.427
 20
58.572
 30
0.0
 11
19.657
 21
57.777
 31
0.0
  0
LINE
  5
E6C
330
A35
100
AcDbEntity
  8
0
100
AcDbLine
 10
20.912
 20
58.95
 30
0.0
 11
20.427
 21
58.572
 31
0.0
  0
LINE
  5
E6D
330
A35
100
AcDbEntity
  8
0
100
AcDbLine
 10
22.062
 20
59.641
 30
0.0
 11
20.912
 21
58.95
 31
0.0
  0
LINE
  5
E6E
330
A35
100
AcDbEntity
  8
0
100
AcDbLine
 10
23.78
 20
60.365
 30
0.0
 11
22.062
 21
59.641
 31
0.0
  0
LINE
  5
E6F
330
A35
100
AcDbEntity
  8
0
100
AcDbLine
 10
25.73
 20
60.888
 30
0.0
 11
23.78
 21
60.365
 31
0.0
  0
LINE
  5
E70
330
A35
100
AcDbEntity
  8
0
100
AcDbLine
 10
27.859
 20
61.222
 30
0.0
 11
25.73
 21
60.888
 31
0.0
  0
LINE
  5
E71
330
A35
100
AcDbEntity
  8
0
100
AcDbLine
 10
28.965
 20
61.308
 30
0.0
 11
27.859
 21
61.222
 31
0.0
  0
LINE
  5
E72
330
A35
100
AcDbEntity
  8
0
100
AcDbLine
 10
31.199
 20
61.297
 30
0.0
 11
28.965
 21
61.308
 31
0.0
  0
LINE
  5
E73
330
A35
100
AcDbEntity
  8
0
100
AcDbLine
 10
24.453
 20
58.26
 30
0.0
 11
25.76
 21
58.739
 31
0.0
  0
LINE
  5
E74
330
A35
100
AcDbEntity
  8
0
100
AcDbLine
 10
23.359
 20
57.681
 30
0.0
 11
24.453
 21
58.26
 31
0.0
  0
LINE
  5
E75
330
A35
100
AcDbEntity
  8
0
100
AcDbLine
 10
22.503
 20
57.013
 30
0.0
 11
23.359
 21
57.681
 31
0.0
  0
LINE
  5
E76
330
A35
100
AcDbEntity
  8
0
100
AcDbLine
 10
21.913
 20
56.278
 30
0.0
 11
22.503
 21
57.013
 31
0.0
  0
LINE
  5
E77
330
A35
100
AcDbEntity
  8
0
100
AcDbLine
 10
21.607
 20
55.491
 30
0.0
 11
21.913
 21
56.278
 31
0.0
  0
LINE
  5
E78
330
A35
100
AcDbEntity
  8
0
100
AcDbLine
 10
21.607
 20
54.674
 30
0.0
 11
21.607
 21
55.491
 31
0.0
  0
LINE
  5
E79
330
A35
100
AcDbEntity
  8
0
100
AcDbLine
 10
21.924
 20
53.879
 30
0.0
 11
21.607
 21
54.674
 31
0.0
  0
LINE
  5
E7A
330
A35
100
AcDbEntity
  8
0
100
AcDbLine
 10
22.514
 20
53.133
 30
0.0
 11
21.924
 21
53.879
 31
0.0
  0
LINE
  5
E7B
330
A35
100
AcDbEntity
  8
0
100
AcDbLine
 10
23.388
 20
52.465
 30
0.0
 11
22.514
 21
53.133
 31
0.0
  0
LINE
  5
E7C
330
A35
100
AcDbEntity
  8
0
100
AcDbLine
 10
24.498
 20
51.886
 30
0.0
 11
23.388
 21
52.465
 31
0.0
  0
LINE
  5
E7D
330
A35
100
AcDbEntity
  8
0
100
AcDbLine
 10
25.835
 20
51.414
 30
0.0
 11
24.498
 21
51.886
 31
0.0
  0
LINE
  5
E7E
330
A35
100
AcDbEntity
  8
0
100
AcDbLine
 10
27.912
 20
50.984
 30
0.0
 11
25.835
 21
51.414
 31
0.0
  0
LINE
  5
E7F
330
A35
100
AcDbEntity
  8
0
100
AcDbLine
 10
30.093
 20
50.839
 30
0.0
 11
27.912
 21
50.984
 31
0.0
  0
LINE
  5
E80
330
A35
100
AcDbEntity
  8
0
100
AcDbLine
 10
31.199
 20
50.88
 30
0.0
 11
30.093
 21
50.839
 31
0.0
  0
LINE
  5
E81
330
A35
100
AcDbEntity
  8
0
100
AcDbLine
 10
33.35
 20
51.162
 30
0.0
 11
31.199
 21
50.88
 31
0.0
  0
LINE
  5
E82
330
A35
100
AcDbEntity
  8
0
100
AcDbLine
 10
34.359
 20
51.414
 30
0.0
 11
33.35
 21
51.162
 31
0.0
  0
LINE
  5
E83
330
A35
100
AcDbEntity
  8
0
100
AcDbLine
 10
21.808
 20
54.536
 30
0.0
 11
21.663
 21
55.357
 31
0.0
  0
LINE
  5
E84
330
A35
100
AcDbEntity
  8
0
100
AcDbLine
 10
22.26
 20
53.753
 30
0.0
 11
21.808
 21
54.536
 31
0.0
  0
LINE
  5
E85
330
A35
100
AcDbEntity
  8
0
100
AcDbLine
 10
23.022
 20
53.04
 30
0.0
 11
22.26
 21
53.753
 31
0.0
  0
LINE
  5
E86
330
A35
100
AcDbEntity
  8
0
100
AcDbLine
 10
24.042
 20
52.391
 30
0.0
 11
23.022
 21
53.04
 31
0.0
  0
LINE
  5
E87
330
A35
100
AcDbEntity
  8
0
100
AcDbLine
 10
25.54
 20
51.782
 30
0.0
 11
24.042
 21
52.391
 31
0.0
  0
LINE
  5
E88
330
A35
100
AcDbEntity
  8
0
100
AcDbLine
 10
27.258
 20
51.362
 30
0.0
 11
25.54
 21
51.782
 31
0.0
  0
LINE
  5
E89
330
A35
100
AcDbEntity
  8
0
100
AcDbLine
 10
29.122
 20
51.143
 30
0.0
 11
27.258
 21
51.362
 31
0.0
  0
LINE
  5
E8A
330
A35
100
AcDbEntity
  8
0
100
AcDbLine
 10
30.093
 20
51.121
 30
0.0
 11
29.122
 21
51.143
 31
0.0
  0
LINE
  5
E8B
330
A35
100
AcDbEntity
  8
0
100
AcDbLine
 10
31.06
 20
51.143
 30
0.0
 11
30.093
 21
51.121
 31
0.0
  0
LINE
  5
E8C
330
A35
100
AcDbEntity
  8
0
100
AcDbLine
 10
32.939
 20
51.362
 30
0.0
 11
31.06
 21
51.143
 31
0.0
  0
LINE
  5
E8D
330
A35
100
AcDbEntity
  8
0
100
AcDbLine
 10
34.654
 20
51.782
 30
0.0
 11
32.939
 21
51.362
 31
0.0
  0
LINE
  5
E8E
330
A35
100
AcDbEntity
  8
0
100
AcDbLine
 10
36.152
 20
52.391
 30
0.0
 11
34.654
 21
51.782
 31
0.0
  0
LINE
  5
E8F
330
A35
100
AcDbEntity
  8
0
100
AcDbLine
 10
37.175
 20
53.04
 30
0.0
 11
36.152
 21
52.391
 31
0.0
  0
LINE
  5
E90
330
A35
100
AcDbEntity
  8
0
100
AcDbLine
 10
37.922
 20
53.753
 30
0.0
 11
37.175
 21
53.04
 31
0.0
  0
LINE
  5
E91
330
A35
100
AcDbEntity
  8
0
100
AcDbLine
 10
38.385
 20
54.536
 30
0.0
 11
37.922
 21
53.753
 31
0.0
  0
LINE
  5
E92
330
A35
100
AcDbEntity
  8
0
100
AcDbLine
 10
38.523
 20
55.357
 30
0.0
 11
38.385
 21
54.536
 31
0.0
  0
LINE
  5
E93
330
A35
100
AcDbEntity
  8
0
100
AcDbLine
 10
19.227
 20
54.288
 30
0.0
 11
18.91
 21
55.45
 31
0.0
  0
LINE
  5
E94
330
A35
100
AcDbEntity
  8
0
100
AcDbLine
 10
19.795
 20
53.426
 30
0.0
 11
19.227
 21
54.288
 31
0.0
  0
LINE
  5
E95
330
A35
100
AcDbEntity
  8
0
100
AcDbLine
 10
20.976
 20
52.357
 30
0.0
 11
19.795
 21
53.426
 31
0.0
  0
LINE
  5
E96
330
A35
100
AcDbEntity
  8
0
100
AcDbLine
 10
22.231
 20
51.615
 30
0.0
 11
20.976
 21
52.357
 31
0.0
  0
LINE
  5
E97
330
A35
100
AcDbEntity
  8
0
100
AcDbLine
 10
23.695
 20
51.006
 30
0.0
 11
22.231
 21
51.615
 31
0.0
  0
LINE
  5
E98
330
A35
100
AcDbEntity
  8
0
100
AcDbLine
 10
25.738
 20
50.442
 30
0.0
 11
23.695
 21
51.006
 31
0.0
  0
LINE
  5
E99
330
A35
100
AcDbEntity
  8
0
100
AcDbLine
 10
27.751
 20
50.126
 30
0.0
 11
25.738
 21
50.442
 31
0.0
  0
LINE
  5
E9A
330
A35
100
AcDbEntity
  8
0
100
AcDbLine
 10
30.093
 20
50.0
 30
0.0
 11
27.751
 21
50.126
 31
0.0
  0
LINE
  5
E9B
330
A35
100
AcDbEntity
  8
0
100
AcDbLine
 10
32.338
 20
50.115
 30
0.0
 11
30.093
 21
50.0
 31
0.0
  0
LINE
  5
E9C
330
A35
100
AcDbEntity
  8
0
100
AcDbLine
 10
34.508
 20
50.453
 30
0.0
 11
32.338
 21
50.115
 31
0.0
  0
LINE
  5
E9D
330
A35
100
AcDbEntity
  8
0
100
AcDbLine
 10
36.488
 20
51.006
 30
0.0
 11
34.508
 21
50.453
 31
0.0
  0
LINE
  5
E9E
330
A35
100
AcDbEntity
  8
0
100
AcDbLine
 10
37.956
 20
51.615
 30
0.0
 11
36.488
 21
51.006
 31
0.0
  0
LINE
  5
E9F
330
A35
100
AcDbEntity
  8
0
100
AcDbLine
 10
38.859
 20
52.116
 30
0.0
 11
37.956
 21
51.615
 31
0.0
  0
LINE
  5
EA0
330
A35
100
AcDbEntity
  8
0
100
AcDbLine
 10
39.61
 20
52.651
 30
0.0
 11
38.859
 21
52.116
 31
0.0
  0
LINE
  5
EA1
330
A35
100
AcDbEntity
  8
0
100
AcDbLine
 10
40.399
 20
53.426
 30
0.0
 11
39.61
 21
52.651
 31
0.0
  0
LINE
  5
EA2
330
A35
100
AcDbEntity
  8
0
100
AcDbLine
 10
40.959
 20
54.265
 30
0.0
 11
40.399
 21
53.426
 31
0.0
  0
LINE
  5
EA3
330
A35
100
AcDbEntity
  8
0
100
AcDbLine
 10
41.201
 20
54.915
 30
0.0
 11
40.959
 21
54.265
 31
0.0
  0
LINE
  5
EA4
330
A35
100
AcDbEntity
  8
0
100
AcDbLine
 10
41.284
 20
55.45
 30
0.0
 11
41.201
 21
54.915
 31
0.0
  0
LINE
  5
EA5
330
A35
100
AcDbEntity
  8
0
100
AcDbLine
 10
35.7
 20
51.886
 30
0.0
 11
34.359
 21
51.414
 31
0.0
  0
LINE
  5
EA6
330
A35
100
AcDbEntity
  8
0
100
AcDbLine
 10
36.805
 20
52.465
 30
0.0
 11
35.7
 21
51.886
 31
0.0
  0
LINE
  5
EA7
330
A35
100
AcDbEntity
  8
0
100
AcDbLine
 10
37.268
 20
52.788
 30
0.0
 11
36.805
 21
52.465
 31
0.0
  0
LINE
  5
EA8
330
A35
100
AcDbEntity
  8
0
100
AcDbLine
 10
38.008
 20
53.501
 30
0.0
 11
37.268
 21
52.788
 31
0.0
  0
LINE
  5
EA9
330
A35
100
AcDbEntity
  8
0
100
AcDbLine
 10
38.471
 20
54.277
 30
0.0
 11
38.008
 21
53.501
 31
0.0
  0
LINE
  5
EAA
330
A35
100
AcDbEntity
  8
0
100
AcDbLine
 10
38.628
 20
55.082
 30
0.0
 11
38.471
 21
54.277
 31
0.0
  0
LINE
  5
EAB
330
A35
100
AcDbEntity
  8
0
100
AcDbLine
 10
38.471
 20
55.892
 30
0.0
 11
38.628
 21
55.082
 31
0.0
  0
LINE
  5
EAC
330
A35
100
AcDbEntity
  8
0
100
AcDbLine
 10
38.008
 20
56.664
 30
0.0
 11
38.471
 21
55.892
 31
0.0
  0
LINE
  5
EAD
330
A35
100
AcDbEntity
  8
0
100
AcDbLine
 10
37.268
 20
57.376
 30
0.0
 11
38.008
 21
56.664
 31
0.0
  0
LINE
  5
EAE
330
A35
100
AcDbEntity
  8
0
100
AcDbLine
 10
36.278
 20
58.008
 30
0.0
 11
37.268
 21
57.376
 31
0.0
  0
LINE
  5
EAF
330
A35
100
AcDbEntity
  8
0
100
AcDbLine
 10
35.057
 20
58.531
 30
0.0
 11
36.278
 21
58.008
 31
0.0
  0
LINE
  5
EB0
330
A35
100
AcDbEntity
  8
0
100
AcDbLine
 10
33.35
 20
59.002
 30
0.0
 11
35.057
 21
58.531
 31
0.0
  0
LINE
  5
EB1
330
A35
100
AcDbEntity
  8
0
100
AcDbLine
 10
32.285
 20
59.181
 30
0.0
 11
33.35
 21
59.002
 31
0.0
  0
LINE
  5
EB2
330
A35
100
AcDbEntity
  8
0
100
AcDbLine
 10
30.093
 20
59.325
 30
0.0
 11
32.285
 21
59.181
 31
0.0
  0
LINE
  5
EB3
330
A35
100
AcDbEntity
  8
0
100
AcDbLine
 10
28.995
 20
59.284
 30
0.0
 11
30.093
 21
59.325
 31
0.0
  0
LINE
  5
EB4
330
A35
100
AcDbEntity
  8
0
100
AcDbLine
 10
26.847
 20
59.002
 30
0.0
 11
28.995
 21
59.284
 31
0.0
  0
LINE
  5
EB5
330
A35
100
AcDbEntity
  8
0
100
AcDbLine
 10
25.76
 20
58.739
 30
0.0
 11
26.847
 21
59.002
 31
0.0
  0
LINE
  5
EB6
330
A35
100
AcDbEntity
  8
0
100
AcDbLine
 10
31.169
 20
59.273
 30
0.0
 11
29.544
 21
59.307
 31
0.0
  0
LINE
  5
EB7
330
A35
100
AcDbEntity
  8
0
100
AcDbLine
 10
33.328
 20
58.991
 30
0.0
 11
31.169
 21
59.273
 31
0.0
  0
LINE
  5
EB8
330
A35
100
AcDbEntity
  8
0
100
AcDbLine
 10
34.56
 20
58.676
 30
0.0
 11
33.328
 21
58.991
 31
0.0
  0
LINE
  5
EB9
330
A35
100
AcDbEntity
  8
0
100
AcDbLine
 10
35.961
 20
58.134
 30
0.0
 11
34.56
 21
58.676
 31
0.0
  0
LINE
  5
EBA
330
A35
100
AcDbEntity
  8
0
100
AcDbLine
 10
33.403
 20
61.089
 30
0.0
 11
31.199
 21
61.297
 31
0.0
  0
LINE
  5
EBB
330
A35
100
AcDbEntity
  8
0
100
AcDbLine
 10
36.406
 20
60.365
 30
0.0
 11
33.403
 21
61.089
 31
0.0
  0
LINE
  5
EBC
330
A35
100
AcDbEntity
  8
0
100
AcDbLine
 10
37.302
 20
60.031
 30
0.0
 11
36.406
 21
60.365
 31
0.0
  0
LINE
  5
EBD
330
A35
100
AcDbEntity
  8
0
100
AcDbLine
 10
38.777
 20
59.284
 30
0.0
 11
37.302
 21
60.031
 31
0.0
  0
LINE
  5
EBE
330
A35
100
AcDbEntity
  8
0
100
AcDbLine
 10
39.345
 20
58.91
 30
0.0
 11
38.777
 21
59.284
 31
0.0
  0
LINE
  5
EBF
330
A35
100
AcDbEntity
  8
0
100
AcDbLine
 10
40.271
 20
58.082
 30
0.0
 11
39.345
 21
58.91
 31
0.0
  0
LINE
  5
EC0
330
A35
100
AcDbEntity
  8
0
100
AcDbLine
 10
33.634
 20
60.744
 30
0.0
 11
31.505
 21
60.981
 31
0.0
  0
LINE
  5
EC1
330
A35
100
AcDbEntity
  8
0
100
AcDbLine
 10
34.654
 20
60.543
 30
0.0
 11
33.634
 21
60.744
 31
0.0
  0
LINE
  5
EC2
330
A35
100
AcDbEntity
  8
0
100
AcDbLine
 10
36.551
 20
59.997
 30
0.0
 11
34.654
 21
60.543
 31
0.0
  0
LINE
  5
EC3
330
A35
100
AcDbEntity
  8
0
100
AcDbLine
 10
37.418
 20
59.652
 30
0.0
 11
36.551
 21
59.997
 31
0.0
  0
LINE
  5
EC4
330
A35
100
AcDbEntity
  8
0
100
AcDbLine
 10
38.819
 20
58.917
 30
0.0
 11
37.418
 21
59.652
 31
0.0
  0
LINE
  5
EC5
330
A35
100
AcDbEntity
  8
0
100
AcDbLine
 10
39.808
 20
58.163
 30
0.0
 11
38.819
 21
58.917
 31
0.0
  0
LINE
  5
EC6
330
A35
100
AcDbEntity
  8
0
100
AcDbLine
 10
40.548
 20
57.358
 30
0.0
 11
39.808
 21
58.163
 31
0.0
  0
LINE
  5
EC7
330
A35
100
AcDbEntity
  8
0
100
AcDbLine
 10
41.0
 20
56.485
 30
0.0
 11
40.548
 21
57.358
 31
0.0
  0
LINE
  5
EC8
330
A35
100
AcDbEntity
  8
0
100
AcDbLine
 10
41.179
 20
55.598
 30
0.0
 11
41.0
 21
56.485
 31
0.0
  0
LINE
  5
EC9
330
A35
100
AcDbEntity
  8
0
100
AcDbLine
 10
41.052
 20
54.696
 30
0.0
 11
41.179
 21
55.598
 31
0.0
  0
LINE
  5
ECA
330
A35
100
AcDbEntity
  8
0
100
AcDbLine
 10
40.641
 20
53.816
 30
0.0
 11
41.052
 21
54.696
 31
0.0
  0
LINE
  5
ECB
330
A35
100
AcDbEntity
  8
0
100
AcDbLine
 10
39.946
 20
52.988
 30
0.0
 11
40.641
 21
53.816
 31
0.0
  0
LINE
  5
ECC
330
A35
100
AcDbEntity
  8
0
100
AcDbLine
 10
38.998
 20
52.231
 30
0.0
 11
39.946
 21
52.988
 31
0.0
  0
LINE
  5
ECD
330
A35
100
AcDbEntity
  8
0
100
AcDbLine
 10
38.43
 20
51.886
 30
0.0
 11
38.998
 21
52.231
 31
0.0
  0
LINE
  5
ECE
330
A35
100
AcDbEntity
  8
0
100
AcDbLine
 10
37.134
 20
51.258
 30
0.0
 11
38.43
 21
51.886
 31
0.0
  0
LINE
  5
ECF
330
A35
100
AcDbEntity
  8
0
100
AcDbLine
 10
35.636
 20
50.746
 30
0.0
 11
37.134
 21
51.258
 31
0.0
  0
LINE
  5
ED0
330
A35
100
AcDbEntity
  8
0
100
AcDbLine
 10
26.212
 20
61.037
 30
0.0
 11
26.078
 21
61.119
 31
0.0
  0
LINE
  5
ED1
330
A35
100
AcDbEntity
  8
0
100
AcDbLine
 10
26.309
 20
61.642
 30
0.0
 11
26.507
 21
61.382
 31
0.0
  0
LINE
  5
ED2
330
A35
100
AcDbEntity
  8
0
100
AcDbLine
 10
26.078
 20
61.119
 30
0.0
 11
26.298
 21
61.234
 31
0.0
  0
LINE
  5
ED3
330
A35
100
AcDbEntity
  8
0
100
AcDbLine
 10
27.773
 20
61.894
 30
0.0
 11
27.773
 21
61.809
 31
0.0
  0
LINE
  5
ED4
330
A35
100
AcDbEntity
  8
0
100
AcDbLine
 10
26.507
 20
61.382
 30
0.0
 11
26.911
 21
61.56
 31
0.0
  0
LINE
  5
ED5
330
A35
100
AcDbEntity
  8
0
100
AcDbLine
 10
27.027
 20
61.267
 30
0.0
 11
27.269
 21
61.204
 31
0.0
  0
LINE
  5
ED6
330
A35
100
AcDbEntity
  8
0
100
AcDbLine
 10
26.698
 20
61.119
 30
0.0
 11
27.027
 21
61.267
 31
0.0
  0
LINE
  5
ED7
330
A35
100
AcDbEntity
  8
0
100
AcDbLine
 10
32.465
 20
61.256
 30
0.0
 11
32.465
 21
63.457
 31
0.0
  0
LINE
  5
ED8
330
A35
100
AcDbEntity
  8
0
100
AcDbLine
 10
31.471
 20
64.01
 30
0.0
 11
31.482
 21
64.107
 31
0.0
  0
LINE
  5
ED9
330
A35
100
AcDbEntity
  8
0
100
AcDbLine
 10
32.177
 20
64.085
 30
0.0
 11
32.304
 21
64.233
 31
0.0
  0
LINE
  5
EDA
330
A35
100
AcDbEntity
  8
0
100
AcDbLine
 10
31.905
 20
64.033
 30
0.0
 11
32.177
 21
64.085
 31
0.0
  0
LINE
  5
EDB
330
A35
100
AcDbEntity
  8
0
100
AcDbLine
 10
32.177
 20
62.136
 30
0.0
 11
32.304
 21
61.935
 31
0.0
  0
LINE
  5
EDC
330
A35
100
AcDbEntity
  8
0
100
AcDbLine
 10
31.905
 20
62.221
 30
0.0
 11
32.177
 21
62.136
 31
0.0
  0
LINE
  5
EDD
330
A35
100
AcDbEntity
  8
0
100
AcDbLine
 10
28.016
 20
62.136
 30
0.0
 11
27.889
 21
61.935
 31
0.0
  0
LINE
  5
EDE
330
A35
100
AcDbEntity
  8
0
100
AcDbLine
 10
28.289
 20
62.221
 30
0.0
 11
28.016
 21
62.136
 31
0.0
  0
LINE
  5
EDF
330
A35
100
AcDbEntity
  8
0
100
AcDbLine
 10
28.711
 20
64.107
 30
0.0
 11
28.722
 21
64.01
 31
0.0
  0
LINE
  5
EE0
330
A35
100
AcDbEntity
  8
0
100
AcDbLine
 10
28.711
 20
64.114
 30
0.0
 11
28.711
 21
64.107
 31
0.0
  0
LINE
  5
EE1
330
A35
100
AcDbEntity
  8
0
100
AcDbLine
 10
28.016
 20
64.085
 30
0.0
 11
28.289
 21
64.033
 31
0.0
  0
LINE
  5
EE2
330
A35
100
AcDbEntity
  8
0
100
AcDbLine
 10
27.889
 20
64.233
 30
0.0
 11
28.016
 21
64.085
 31
0.0
  0
LINE
  5
EE3
330
A35
100
AcDbEntity
  8
0
100
AcDbLine
 10
27.785
 20
62.136
 30
0.0
 11
27.785
 21
63.09
 31
0.0
  0
LINE
  5
EE4
330
A35
100
AcDbEntity
  8
0
100
AcDbLine
 10
26.321
 20
63.331
 30
0.0
 11
26.309
 21
61.642
 31
0.0
  0
LINE
  5
EE5
330
A35
100
AcDbEntity
  8
0
100
AcDbLine
 10
26.858
 20
61.865
 30
0.0
 11
26.866
 21
63.487
 31
0.0
  0
LINE
  5
EE6
330
A35
100
AcDbEntity
  8
0
100
AcDbLine
 10
27.785
 20
62.136
 30
0.0
 11
27.773
 21
61.894
 31
0.0
  0
LINE
  5
EE7
330
A35
100
AcDbEntity
  8
0
100
AcDbLine
 10
26.866
 20
63.487
 30
0.0
 11
26.321
 21
63.331
 31
0.0
  0
LINE
  5
EE8
330
A35
100
AcDbEntity
  8
0
100
AcDbLine
 10
33.35
 20
50.252
 30
0.0
 11
35.636
 21
50.746
 31
0.0
  0
LINE
  5
EE9
330
A35
100
AcDbEntity
  8
0
100
AcDbLine
 10
30.926
 20
50.022
 30
0.0
 11
33.35
 21
50.252
 31
0.0
  0
LINE
  5
EEA
330
A35
100
AcDbEntity
  8
0
100
AcDbLine
 10
28.457
 20
50.063
 30
0.0
 11
30.926
 21
50.022
 31
0.0
  0
LINE
  5
EEB
330
A35
100
AcDbEntity
  8
0
100
AcDbLine
 10
26.044
 20
50.39
 30
0.0
 11
28.457
 21
50.063
 31
0.0
  0
LINE
  5
EEC
330
A35
100
AcDbEntity
  8
0
100
AcDbLine
 10
23.654
 20
51.039
 30
0.0
 11
26.044
 21
50.39
 31
0.0
  0
LINE
  5
EED
330
A35
100
AcDbEntity
  8
0
100
AcDbLine
 10
21.67
 20
51.938
 30
0.0
 11
23.654
 21
51.039
 31
0.0
  0
LINE
  5
EEE
330
A35
100
AcDbEntity
  8
0
100
AcDbLine
 10
20.188
 20
53.052
 30
0.0
 11
21.67
 21
51.938
 31
0.0
  0
LINE
  5
EEF
330
A35
100
AcDbEntity
  8
0
100
AcDbLine
 10
19.511
 20
53.887
 30
0.0
 11
20.188
 21
53.052
 31
0.0
  0
LINE
  5
EF0
330
A35
100
AcDbEntity
  8
0
100
AcDbLine
 10
19.269
 20
54.328
 30
0.0
 11
19.511
 21
53.887
 31
0.0
  0
LINE
  5
EF1
330
A35
100
AcDbEntity
  8
0
100
AcDbLine
 10
19.026
 20
55.231
 30
0.0
 11
19.269
 21
54.328
 31
0.0
  0
LINE
  5
EF2
330
A35
100
AcDbEntity
  8
0
100
AcDbLine
 10
19.015
 20
55.669
 30
0.0
 11
19.026
 21
55.231
 31
0.0
  0
LINE
  5
EF3
330
A35
100
AcDbEntity
  8
0
100
AcDbLine
 10
19.078
 20
56.122
 30
0.0
 11
19.015
 21
55.669
 31
0.0
  0
LINE
  5
EF4
330
A35
100
AcDbEntity
  8
0
100
AcDbLine
 10
19.418
 20
56.99
 30
0.0
 11
19.078
 21
56.122
 31
0.0
  0
LINE
  5
EF5
330
A35
100
AcDbEntity
  8
0
100
AcDbLine
 10
19.69
 20
57.421
 30
0.0
 11
19.418
 21
56.99
 31
0.0
  0
LINE
  5
EF6
330
A35
100
AcDbEntity
  8
0
100
AcDbLine
 10
20.46
 20
58.238
 30
0.0
 11
19.69
 21
57.421
 31
0.0
  0
LINE
  5
EF7
330
A35
100
AcDbEntity
  8
0
100
AcDbLine
 10
21.547
 20
59.025
 30
0.0
 11
20.46
 21
58.238
 31
0.0
  0
LINE
  5
EF8
330
A35
100
AcDbEntity
  8
0
100
AcDbLine
 10
22.208
 20
59.389
 30
0.0
 11
21.547
 21
59.025
 31
0.0
  0
LINE
  5
EF9
330
A35
100
AcDbEntity
  8
0
100
AcDbLine
 10
23.728
 20
60.031
 30
0.0
 11
22.208
 21
59.389
 31
0.0
  0
LINE
  5
EFA
330
A35
100
AcDbEntity
  8
0
100
AcDbLine
 10
26.339
 20
60.699
 30
0.0
 11
23.728
 21
60.031
 31
0.0
  0
LINE
  5
EFB
330
A35
100
AcDbEntity
  8
0
100
AcDbLine
 10
29.271
 20
61.015
 30
0.0
 11
26.339
 21
60.699
 31
0.0
  0
LINE
  5
EFC
330
A35
100
AcDbEntity
  8
0
100
AcDbLine
 10
31.505
 20
60.981
 30
0.0
 11
29.271
 21
61.015
 31
0.0
  0
TEXT
  5
EFD
330
A35
100
AcDbEntity
  8
0
100
AcDbText
 10
0.0
 20
95.0
 30
0.0
 40
3.0
  1
ｸﾗｽ060 35K 一般形MC DLφ75
 11
0.0
 21
95.0
 31
0.0
100
AcDbText
  0
TEXT
  5
EFE
330
A35
100
AcDbEntity
  8
0
100
AcDbText
 10
0.0
 20
10.0
 30
0.0
 40
3.0
  1
三菱 EL-DA0/0(0604WWM) AHN
 11
0.0
 21
10.0
 31
0.0
100
AcDbText
  0
TEXT
  5
EFF
330
A35
100
AcDbEntity
  8
0
100
AcDbText
 10
50.0
 20
35.0
 30
0.0
 40
1.5
  1
ダウンライト 温白色（3500K） Ra85
 11
50.0
 21
35.0
 31
0.0
100
AcDbText
  0
TEXT
  5
F00
330
A35
100
AcDbEntity
  8
0
100
AcDbText
 10
50.0
 20
32.0
 30
0.0
 40
1.5
  1
100V～242V共用タイプ
 11
50.0
 21
32.0
 31
0.0
100
AcDbText
  0
TEXT
  5
F01
330
A35
100
AcDbEntity
  8
0
100
AcDbText
 10
50.0
 20
29.0
 30
0.0
 40
1.5
  1
固定出力
 11
50.0
 21
29.0
 31
0.0
100
AcDbText
  0
TEXT
  5
F02
330
A35
100
AcDbEntity
  8
0
100
AcDbText
 10
50.0
 20
26.0
 30
0.0
 40
1.5
  1
光源寿命：40,000時間（光束維持率85%）
 11
50.0
 21
26.0
 31
0.0
100
AcDbText
  0
TEXT
  5
F03
330
A35
100
AcDbEntity
  8
0
100
AcDbText
 10
50.0
 20
23.0
 30
0.0
 40
1.5
  1
光束：580lm 消費電力：4.4W 消費効率：131.8lm/W
 11
50.0
 21
23.0
 31
0.0
100
AcDbText
  0
TEXT
  5
F04
330
A35
100
AcDbEntity
  8
0
100
AcDbText
 10
50.0
 20
20.0
 30
0.0
 40
1.5
  1
埋込穴：75
 11
50.0
 21
20.0
 31
0.0
100
AcDbText
  0
VIEWPORT
  5
45B
102
{ACAD_XDICTIONARY
360
A5E
102
}
330
A31
100
AcDbEntity
 67
1
  8
0
100
AcDbViewport
 10
128.5
 20
97.5
 30
0.0
 40
314.226
 41
222.18
 68
1
 69
1
 12
0.0
 22
0.0
 13
0.0
 23
0.0
 14
10.0
 24
10.0
 15
10.0
 25
10.0
 16
0.0
 26
0.0
 36
0.0
 17
0.0
 27
0.0
 37
0.0
 42
50.0
 43
0.0
 44
0.0
 45
1.0
 50
0.0
 51
0.0
 72
100
 90
32768
  1

281
0
 71
0
 74
0
110
0.0
120
0.0
130
0.0
111
1.0
121
0.0
131
0.0
112
0.0
122
1.0
132
0.0
 79
0
146
0.0
  0
ENDSEC
  0
SECTION
  2
OBJECTS
  0
DICTIONARY
  5
9D2
330
0
100
AcDbDictionary
281
1
  3
ACAD_CIP_PREVIOUS_PRODUCT_INFO
350
A48
  3
ACAD_COLOR
350
A28
  3
ACAD_DETAILVIEWSTYLE
350
A2F
  3
ACAD_GROUP
350
9D3
  3
ACAD_LAYOUT
350
A27
  3
ACAD_MATERIAL
350
9D6
  3
ACAD_MLEADERSTYLE
350
A2B
  3
ACAD_MLINESTYLE
350
A24
  3
ACAD_PLOTSETTINGS
350
A26
  3
ACAD_PLOTSTYLENAME
350
9D4
  3
ACAD_SCALELIST
350
A08
  3
ACAD_SECTIONVIEWSTYLE
350
A2D
  3
ACAD_TABLESTYLE
350
A29
  3
ACAD_VISUALSTYLE
350
9EF
  3
ACDB_RECOMPOSE_DATA
350
A5C
  3
AcDbVariableDictionary
350
A4F
  3
DWGPROPS
350
A5D
  3
EZDXF_META
350
F07
  0
DICTIONARY
  5
A49
330
A1A
100
AcDbDictionary
280
1
281
1
  3
ADSK_XREC_LAYER_RECONCILED
360
A4A
  0
DICTIONARY
  5
A4B
330
A39
100
AcDbDictionary
280
1
281
1
  3
ADSK_XREC_LAYER_RECONCILED
360
A4C
  0
DICTIONARY
  5
A4D
330
A3D
100
AcDbDictionary
280
1
281
1
  3
ADSK_XREC_LAYER_RECONCILED
360
A4E
  0
DICTIONARY
  5
A5E
330
45B
100
AcDbDictionary
280
1
281
1
  3
ACAD_XREC_ROUNDTRIP
360
A5F
  0
XRECORD
  5
A48
102
{ACAD_REACTORS
330
9D2
102
}
330
9D2
100
AcDbXrecord
280
1
300
ACDLT
300
2019
300
87085ACDLT_2019_0F
  0
DICTIONARY
  5
A28
102
{ACAD_REACTORS
330
9D2
102
}
330
9D2
100
AcDbDictionary
281
1
  0
DICTIONARY
  5
A2F
102
{ACAD_REACTORS
330
9D2
102
}
330
9D2
100
AcDbDictionary
281
1
  3
Imperial24
350
A30
  0
DICTIONARY
  5
9D3
102
{ACAD_REACTORS
330
9D2
102
}
330
9D2
100
AcDbDictionary
281
1
  0
DICTIONARY
  5
A27
102
{ACAD_REACTORS
330
9D2
102
}
330
9D2
100
AcDbDictionary
281
1
  3
Model
350
A38
  3
レイアウト1
350
A34
  0
DICTIONARY
  5
9D6
102
{ACAD_REACTORS
330
9D2
102
}
330
9D2
100
AcDbDictionary
281
1
  3
ByBlock
350
9DF
  3
ByLayer
350
9D7
  3
Global
350
9E7
  0
DICTIONARY
  5
A2B
102
{ACAD_REACTORS
330
9D2
102
}
330
9D2
100
AcDbDictionary
281
1
  3
Standard
350
A2C
  0
DICTIONARY
  5
A24
102
{ACAD_REACTORS
330
9D2
102
}
330
9D2
100
AcDbDictionary
281
1
  3
Standard
350
A25
  0
DICTIONARY
  5
A26
102
{ACAD_REACTORS
330
9D2
102
}
330
9D2
100
AcDbDictionary
281
1
  0
ACDBDICTIONARYWDFLT
  5
9D4
102
{ACAD_REACTORS
330
9D2
102
}
330
9D2
100
AcDbDictionary
281
1
  3
Normal
350
9D5
100
AcDbDictionaryWithDefault
340
9D5
  0
DICTIONARY
  5
A08
102
{ACAD_REACTORS
330
9D2
102
}
330
9D2
100
AcDbDictionary
281
1
  3
A0
350
A09
  3
A1
350
A0A
  3
A2
350
A0B
  3
A3
350
A0C
  3
A4
350
A0D
  3
A5
350
A0E
  3
A6
350
A0F
  3
A7
350
A10
  3
A8
350
A11
  3
A9
350
A12
  3
B0
350
A13
  3
B1
350
A14
  3
B2
350
A15
  3
B3
350
A16
  3
B4
350
A17
  3
B5
350
A18
  3
B6
350
A19
  0
DICTIONARY
  5
A2D
102
{ACAD_REACTORS
330
9D2
102
}
330
9D2
100
AcDbDictionary
281
1
  3
Imperial24
350
A2E
  0
DICTIONARY
  5
A29
102
{ACAD_REACTORS
330
9D2
102
}
330
9D2
100
AcDbDictionary
281
1
  3
Standard
350
A2A
  0
DICTIONARY
  5
9EF
102
{ACAD_REACTORS
330
9D2
102
}
330
9D2
100
AcDbDictionary
281
1
  3
2dWireframe
350
9F5
  3
Basic
350
9F4
  3
Brighten
350
9FB
  3
ColorChange
350
9FF
  3
Conceptual
350
9F8
  3
Dim
350
9FA
  3
EdgeColorOff
350
A07
  3
Facepattern
350
9FE
  3
Flat
350
9F0
  3
FlatWithEdges
350
9F1
  3
Gouraud
350
9F2
  3
GouraudWithEdges
350
9F3
  3
Hidden
350
9F7
  3
JitterOff
350
A05
  3
Linepattern
350
9FD
  3
OverhangOff
350
A06
  3
Realistic
350
9F9
  3
Shaded
350
A04
  3
Shaded with edges
350
A03
  3
Shades of Gray
350
A00
  3
Sketchy
350
A01
  3
Thicken
350
9FC
  3
Wireframe
350
9F6
  3
X-Ray
350
A02
  0
XRECORD
  5
A5C
102
{ACAD_REACTORS
330
9D2
102
}
330
9D2
100
AcDbXrecord
280
1
 90
1
330
A2A
  0
DICTIONARY
  5
A4F
102
{ACAD_REACTORS
330
9D2
102
}
330
9D2
100
AcDbDictionary
281
1
  3
CANNOSCALE
350
A54
  3
CMLEADERSTYLE
350
A51
  3
CTABLESTYLE
350
A50
  3
CVIEWDETAILSTYLE
350
A52
  3
CVIEWSECTIONSTYLE
350
A53
  3
DIMASSOC
350
A57
  3
INDEXCTL
350
A56
  3
SORTENTS
350
A55
  3
XCLIPFRAME
350
A58
  0
XRECORD
  5
A5D
102
{ACAD_REACTORS
330
9D2
102
}
330
9D2
100
AcDbXrecord
280
1
  1
DWGPROPS COOKIE
  2

  3

  4

  6

  7

  8
1992517
  9

300
=
301
=
302
=
303
=
304
=
305
=
306
=
307
=
308
=
309
=
 40
0.0010069560185185
 41
2459044.788842593
 42
2459045.376064815
  1

 90
0
  0
XRECORD
  5
A4A
102
{ACAD_REACTORS
330
A49
102
}
330
A49
100
AcDbXrecord
280
1
290
1
  0
XRECORD
  5
A4C
102
{ACAD_REACTORS
330
A4B
102
}
330
A4B
100
AcDbXrecord
280
1
290
1
  0
XRECORD
  5
A4E
102
{ACAD_REACTORS
330
A4D
102
}
330
A4D
100
AcDbXrecord
280
1
290
1
  0
XRECORD
  5
A5F
102
{ACAD_REACTORS
330
A5E
102
}
330
A5E
100
AcDbXrecord
280
1
102
SHADEPLOT
 70
0
  0
ACDBDETAILVIEWSTYLE
  5
A30
102
{ACAD_XDICTIONARY
360
A97
102
}
102
{ACAD_REACTORS
330
A2F
102
}
330
A2F
100
AcDbModelDocViewStyle
 70
0
  3
Imperial24
290
0
100
AcDbDetailViewStyle
 70
0
 71
0
 90
3
 71
1
340
A1B
 40
0.24
340
0
 40
0.24
300

 40
0.36
280
3
 71
2
340
A22
 90
25
 71
3
340
A1B
 40
0.24
 90
1
 40
0.75
 90
1
300
%<\AcVar ViewType \f "%tc1">% %<\AcVar ViewDetailId>%\PSCALE %<\AcVar ViewScale \f "%sn">%
 71
4
340
A22
 90
25
340
A22
 90
25
280
0
  0
LAYOUT
  5
A38
102
{ACAD_XDICTIONARY
360
A9B
102
}
102
{ACAD_REACTORS
330
A27
102
}
330
A27
100
AcDbPlotSettings
  1

  2
LBP8720
  4

  6

 40
0.0
 41
0.0
 42
0.0
 43
0.0
 44
0.0
 45
0.0
 46
0.0
 47
0.0
 48
0.0
 49
0.0
140
0.0
141
0.0
142
1.0
143
1.0
 70
1712
 72
0
 73
0
 74
0
  7

 75
0
 76
0
 77
2
 78
300
147
1.0
148
0.0
149
0.0
100
AcDbLayout
  1
Model
 70
1
 71
0
 10
0.0
 20
0.0
 11
12.0
 21
9.0
 12
0.0
 22
0.0
 32
0.0
 14
0.0
 24
0.0
 34
0.0
 15
0.0
 25
0.0
 35
0.0
146
0.0
 13
0.0
 23
0.0
 33
0.0
 16
1.0
 26
0.0
 36
0.0
 17
0.0
 27
1.0
 37
0.0
 76
0
330
A35
331
A3A
  0
LAYOUT
  5
A34
102
{ACAD_XDICTIONARY
360
A99
102
}
102
{ACAD_REACTORS
330
A27
102
}
330
A27
100
AcDbPlotSettings
  1

  2
LBP8720
  4

  6

 40
0.0
 41
0.0
 42
0.0
 43
0.0
 44
0.0
 45
0.0
 46
0.0
 47
0.0
 48
0.0
 49
0.0
140
0.0
141
0.0
142
1.0
143
1.0
 70
688
 72
0
 73
0
 74
5
  7

 75
16
 76
0
 77
2
 78
300
147
1.0
148
0.0
149
0.0
100
AcDbLayout
  1
レイアウト1
 70
1
 71
1
 10
-20.0
 20
-7.5
 11
277.0
 21
202.5
 12
0.0
 22
0.0
 32
0.0
 14
1e+20
 24
1e+20
 34
1e+20
 15
-1e+20
 25
-1e+20
 35
-1e+20
146
0.0
 13
0.0
 23
0.0
 33
0.0
 16
1.0
 26
0.0
 36
0.0
 17
0.0
 27
1.0
 37
0.0
 76
0
330
A31
331
45B
  0
MATERIAL
  5
9DF
102
{ACAD_XDICTIONARY
360
9E0
102
}
102
{ACAD_REACTORS
330
9D6
102
}
330
9D6
100
AcDbMaterial
  1
ByBlock
  2

 70
0
 40
1.0
 71
0
 41
1.0
 91
-1023410177
 42
1.0
 72
0
  3

 73
1
 74
1
 75
1
 43
0.0208333333333333
 43
0.0
 43
0.0
 43
0.0
 43
0.0
 43
0.0208333333333333
 43
0.0
 43
0.0
 43
0.0
 43
0.0
 43
1.0
 43
0.0
 43
0.0
 43
0.0
 43
0.0
 43
1.0
 44
0.5
 73
0
 45
1.0
 46
1.0
 77
0
  4

 78
1
 79
1
170
1
 47
0.0208333333333333
 47
0.0
 47
0.0
 47
0.0
 47
0.0
 47
0.0208333333333333
 47
0.0
 47
0.0
 47
0.0
 47
0.0
 47
1.0
 47
0.0
 47
0.0
 47
0.0
 47
0.0
 47
1.0
 48
1.0
171
0
  6

172
1
173
1
174
1
 49
0.0208333333333333
 49
0.0
 49
0.0
 49
0.0
 49
0.0
 49
0.0208333333333333
 49
0.0
 49
0.0
 49
0.0
 49
0.0
 49
1.0
 49
0.0
 49
0.0
 49
0.0
 49
0.0
 49
1.0
140
1.0
141
1.0
175
0
  7

176
1
177
1
178
1
142
0.0208333333333333
142
0.0
142
0.0
142
0.0
142
0.0
142
0.0208333333333333
142
0.0
142
0.0
142
0.0
142
0.0
142
1.0
142
0.0
142
0.0
142
0.0
142
0.0
142
1.0
143
1.0
179
0
  8

270
1
271
1
272
1
144
0.0208333333333333
144
0.0
144
0.0
144
0.0
144
0.0
144
0.0208333333333333
144
0.0
144
0.0
144
0.0
144
0.0
144
1.0
144
0.0
144
0.0
144
0.0
144
0.0
144
1.0
145
1.0
146
1.0
273
1
  9

274
1
275
1
276
1
147
0.0208333333333333
147
0.0
147
0.0
147
0.0
147
0.0
147
0.0208333333333333
147
0.0
147
0.0
147
0.0
147
0.0
147
1.0
147
0.0
147
0.0
147
0.0
147
0.0
147
1.0
 42
1.0
 72
1
  3

 73
1
 74
1
 75
1
 94
63
  0
MATERIAL
  5
9D7
102
{ACAD_XDICTIONARY
360
9D8
102
}
102
{ACAD_REACTORS
330
9D6
102
}
330
9D6
100
AcDbMaterial
  1
ByLayer
  2

 70
0
 40
1.0
 71
0
 41
1.0
 91
-1023410177
 42
1.0
 72
0
  3

 73
1
 74
1
 75
1
 43
0.0208333333333333
 43
0.0
 43
0.0
 43
0.0
 43
0.0
 43
0.0208333333333333
 43
0.0
 43
0.0
 43
0.0
 43
0.0
 43
1.0
 43
0.0
 43
0.0
 43
0.0
 43
0.0
 43
1.0
 44
0.5
 73
0
 45
1.0
 46
1.0
 77
0
  4

 78
1
 79
1
170
1
 47
0.0208333333333333
 47
0.0
 47
0.0
 47
0.0
 47
0.0
 47
0.0208333333333333
 47
0.0
 47
0.0
 47
0.0
 47
0.0
 47
1.0
 47
0.0
 47
0.0
 47
0.0
 47
0.0
 47
1.0
 48
1.0
171
0
  6

172
1
173
1
174
1
 49
0.0208333333333333
 49
0.0
 49
0.0
 49
0.0
 49
0.0
 49
0.0208333333333333
 49
0.0
 49
0.0
 49
0.0
 49
0.0
 49
1.0
 49
0.0
 49
0.0
 49
0.0
 49
0.0
 49
1.0
140
1.0
141
1.0
175
0
  7

176
1
177
1
178
1
142
0.0208333333333333
142
0.0
142
0.0
142
0.0
142
0.0
142
0.0208333333333333
142
0.0
142
0.0
142
0.0
142
0.0
142
1.0
142
0.0
142
0.0
142
0.0
142
0.0
142
1.0
143
1.0
179
0
  8

270
1
271
1
272
1
144
0.0208333333333333
144
0.0
144
0.0
144
0.0
144
0.0
144
0.0208333333333333
144
0.0
144
0.0
144
0.0
144
0.0
144
1.0
144
0.0
144
0.0
144
0.0
144
0.0
144
1.0
145
1.0
146
1.0
273
1
  9

274
1
275
1
276
1
147
0.0208333333333333
147
0.0
147
0.0
147
0.0
147
0.0
147
0.0208333333333333
147
0.0
147
0.0
147
0.0
147
0.0
147
1.0
147
0.0
147
0.0
147
0.0
147
0.0
147
1.0
 42
1.0
 72
1
  3

 73
1
 74
1
 75
1
 94
63
  0
MATERIAL
  5
9E7
102
{ACAD_XDICTIONARY
360
9E8
102
}
102
{ACAD_REACTORS
330
9D6
102
}
330
9D6
100
AcDbMaterial
  1
Global
  2

 70
0
 40
1.0
 71
0
 41
1.0
 91
-1023410177
 42
1.0
 72
0
  3

 73
1
 74
1
 75
1
 43
0.0208333333333333
 43
0.0
 43
0.0
 43
0.0
 43
0.0
 43
0.0208333333333333
 43
0.0
 43
0.0
 43
0.0
 43
0.0
 43
1.0
 43
0.0
 43
0.0
 43
0.0
 43
0.0
 43
1.0
 44
0.5
 73
0
 45
1.0
 46
1.0
 77
0
  4

 78
1
 79
1
170
1
 47
0.0208333333333333
 47
0.0
 47
0.0
 47
0.0
 47
0.0
 47
0.0208333333333333
 47
0.0
 47
0.0
 47
0.0
 47
0.0
 47
1.0
 47
0.0
 47
0.0
 47
0.0
 47
0.0
 47
1.0
 48
1.0
171
0
  6

172
1
173
1
174
1
 49
0.0208333333333333
 49
0.0
 49
0.0
 49
0.0
 49
0.0
 49
0.0208333333333333
 49
0.0
 49
0.0
 49
0.0
 49
0.0
 49
1.0
 49
0.0
 49
0.0
 49
0.0
 49
0.0
 49
1.0
140
1.0
141
1.0
175
0
  7

176
1
177
1
178
1
142
0.0208333333333333
142
0.0
142
0.0
142
0.0
142
0.0
142
0.0208333333333333
142
0.0
142
0.0
142
0.0
142
0.0
142
1.0
142
0.0
142
0.0
142
0.0
142
0.0
142
1.0
143
1.0
179
0
  8

270
1
271
1
272
1
144
0.0208333333333333
144
0.0
144
0.0
144
0.0
144
0.0
144
0.0208333333333333
144
0.0
144
0.0
144
0.0
144
0.0
144
1.0
144
0.0
144
0.0
144
0.0
144
0.0
144
1.0
145
1.0
146
1.0
273
1
  9

274
1
275
1
276
1
147
0.0208333333333333
147
0.0
147
0.0
147
0.0
147
0.0
147
0.0208333333333333
147
0.0
147
0.0
147
0.0
147
0.0
147
1.0
147
0.0
147
0.0
147
0.0
147
0.0
147
1.0
 42
1.0
 72
1
  3

 73
1
 74
1
 75
1
 94
63
  0
MLEADERSTYLE
  5
A2C
102
{ACAD_REACTORS
330
A2B
102
}
330
A2B
100
AcDbMLeaderStyle
179
2
170
2
171
1
172
0
 90
2
 40
0.0
 41
0.0
173
1
 91
-1056964608
340
A20
 92
-2
290
1
 42
0.09
291
1
 43
0.36
  3
Standard
 44
0.18
300

342
A1B
174
1
175
1
176
0
178
6
 93
-1056964608
 45
0.18
292
0
297
0
 46
0.18
293
1
 94
-1056964608
 47
1.0
 49
1.0
140
1.0
294
1
141
0.0
177
0
142
1.0
295
0
296
0
143
0.125
271
0
272
9
273
9
1001
ACAD_MLEADERVER
1070
2
  0
MLINESTYLE
  5
A25
102
{ACAD_REACTORS
330
A24
102
}
330
A24
100
AcDbMlineStyle
  2
STANDARD
 70
0
  3

 62
256
 51
90.0
 52
90.0
 71
2
 49
0.5
 62
256
  6
BYLAYER
 49
-0.5
 62
256
  6
BYLAYER
  0
ACDBPLACEHOLDER
  5
9D5
102
{ACAD_REACTORS
330
9D4
102
}
330
9D4
  0
SCALE
  5
A09
102
{ACAD_REACTORS
330
A08
102
}
330
A08
100
AcDbScale
 70
0
300
1:1
140
1.0
141
1.0
290
1
  0
SCALE
  5
A0A
102
{ACAD_REACTORS
330
A08
102
}
330
A08
100
AcDbScale
 70
0
300
1/128" = 1'-0"
140
0.0078125
141
12.0
290
0
  0
SCALE
  5
A0B
102
{ACAD_REACTORS
330
A08
102
}
330
A08
100
AcDbScale
 70
0
300
1/64" = 1'-0"
140
0.015625
141
12.0
290
0
  0
SCALE
  5
A0C
102
{ACAD_REACTORS
330
A08
102
}
330
A08
100
AcDbScale
 70
0
300
1/32" = 1'-0"
140
0.03125
141
12.0
290
0
  0
SCALE
  5
A0D
102
{ACAD_REACTORS
330
A08
102
}
330
A08
100
AcDbScale
 70
0
300
1/16" = 1'-0"
140
0.0625
141
12.0
290
0
  0
SCALE
  5
A0E
102
{ACAD_REACTORS
330
A08
102
}
330
A08
100
AcDbScale
 70
0
300
3/32" = 1'-0"
140
0.09375
141
12.0
290
0
  0
SCALE
  5
A0F
102
{ACAD_REACTORS
330
A08
102
}
330
A08
100
AcDbScale
 70
0
300
1/8" = 1'-0"
140
0.125
141
12.0
290
0
  0
SCALE
  5
A10
102
{ACAD_REACTORS
330
A08
102
}
330
A08
100
AcDbScale
 70
0
300
3/16" = 1'-0"
140
0.1875
141
12.0
290
0
  0
SCALE
  5
A11
102
{ACAD_REACTORS
330
A08
102
}
330
A08
100
AcDbScale
 70
0
300
1/4" = 1'-0"
140
0.25
141
12.0
290
0
  0
SCALE
  5
A12
102
{ACAD_REACTORS
330
A08
102
}
330
A08
100
AcDbScale
 70
0
300
3/8" = 1'-0"
140
0.375
141
12.0
290
0
  0
SCALE
  5
A13
102
{ACAD_REACTORS
330
A08
102
}
330
A08
100
AcDbScale
 70
0
300
1/2" = 1'-0"
140
0.5
141
12.0
290
0
  0
SCALE
  5
A14
102
{ACAD_REACTORS
330
A08
102
}
330
A08
100
AcDbScale
 70
0
300
3/4" = 1'-0"
140
0.75
141
12.0
290
0
  0
SCALE
  5
A15
102
{ACAD_REACTORS
330
A08
102
}
330
A08
100
AcDbScale
 70
0
300
1" = 1'-0"
140
1.0
141
12.0
290
0
  0
SCALE
  5
A16
102
{ACAD_REACTORS
330
A08
102
}
330
A08
100
AcDbScale
 70
0
300
1-1/2" = 1'-0"
140
1.5
141
12.0
290
0
  0
SCALE
  5
A17
102
{ACAD_REACTORS
330
A08
102
}
330
A08
100
AcDbScale
 70
0
300
3" = 1'-0"
140
3.0
141
12.0
290
0
  0
SCALE
  5
A18
102
{ACAD_REACTORS
330
A08
102
}
330
A08
100
AcDbScale
 70
0
300
6" = 1'-0"
140
6.0
141
12.0
290
0
  0
SCALE
  5
A19
102
{ACAD_REACTORS
330
A08
102
}
330
A08
100
AcDbScale
 70
0
300
1'-0" = 1'-0"
140
12.0
141
12.0
290
0
  0
ACDBSECTIONVIEWSTYLE
  5
A2E
102
{ACAD_XDICTIONARY
360
A95
102
}
102
{ACAD_REACTORS
330
A2D
102
}
330
A2D
100
AcDbModelDocViewStyle
 70
0
  3
Imperial24
290
0
100
AcDbSectionViewStyle
 70
0
 71
0
 90
78
 71
1
340
A1B
 40
0.24
340
0
340
0
 40
0.24
300
I, O, Q, S, X, Z
 40
0.48
 90
3
 40
0.18
 90
1
 71
2
340
A22
 90
25
340
A22
 90
50
 40
0.24
 40
0.0
 40
0.24
 71
3
340
A1B
 40
0.24
 90
1
 40
0.75
 90
1
300
%<\AcVar ViewType \f "%tc1">% %<\AcVar ViewSectionStartId>%-%<\AcVar ViewSectionEndId>%\PSCALE %<\AcVar ViewScale \f "%sn">%
 71
4
300
ANSI31
 40
1.0
 90
0
290
0
290
0
 90
6
 40
0.0
 40
1.570796326794896
 40
0.2617993877991494
 40
1.308996938995747
 40
-0.2617993877991494
 40
1.832595714594046
  0
TABLESTYLE
  5
A2A
102
{ACAD_XDICTIONARY
360
A5A
102
}
102
{ACAD_REACTORS
330
A29
102
}
330
A29
100
AcDbTableStyle
  3
Standard
 70
0
 71
0
 40
0.06
 41
0.06
280
0
281
0
  7
STANDARD
140
0.18
170
2
 62
0
 63
7
283
0
274
-2
284
1
 64
0
275
-2
285
1
 65
0
276
-2
286
1
 66
0
277
-2
287
1
 67
0
278
-2
288
1
 68
0
279
-2
289
1
 69
0
  7
STANDARD
140
0.25
170
5
 62
0
 63
7
283
0
274
-2
284
1
 64
0
275
-2
285
1
 65
0
276
-2
286
1
 66
0
277
-2
287
1
 67
0
278
-2
288
1
 68
0
279
-2
289
1
 69
0
  7
STANDARD
140
0.18
170
5
 62
0
 63
7
283
0
274
-2
284
1
 64
0
275
-2
285
1
 65
0
276
-2
286
1
 66
0
277
-2
287
1
 67
0
278
-2
288
1
 68
0
279
-2
289
1
 69
0
  0
VISUALSTYLE
  5
9F5
102
{ACAD_XDICTIONARY
360
A6D
102
}
102
{ACAD_REACTORS
330
9EF
102
}
330
9EF
100
AcDbVisualStyle
  2
2dWireframe
 70
4
 71
0
 72
2
 73
0
 90
0
 40
-0.6
 41
-30.0
 62
5
 63
7
 74
1
 91
4
 64
7
 65
257
 75
1
175
1
 42
1.0
 92
0
 66
257
 43
1.0
 76
1
 77
6
 78
2
 67
7
 79
5
170
0
171
0
290
0
174
0
 93
1
 44
0.0
173
0
291
0
 45
0.0
1001
ACAD
1000
AcDbSavedByObjectVersion
1070
0
  0
VISUALSTYLE
  5
9F4
102
{ACAD_XDICTIONARY
360
A6B
102
}
102
{ACAD_REACTORS
330
9EF
102
}
330
9EF
100
AcDbVisualStyle
  2
Basic
 70
7
 71
1
 72
0
 73
1
 90
0
 40
-0.6
 41
-30.0
 62
5
 63
7
 74
0
 91
4
 64
7
 65
257
 75
1
175
1
 42
1.0
 92
8
 66
7
 43
1.0
 76
1
 77
6
 78
2
 67
7
 79
5
170
0
171
0
290
0
174
0
 93
1
 44
0.0
173
0
291
1
 45
0.0
1001
ACAD
1000
AcDbSavedByObjectVersion
1070
0
  0
VISUALSTYLE
  5
9FB
102
{ACAD_XDICTIONARY
360
A79
102
}
102
{ACAD_REACTORS
330
9EF
102
}
330
9EF
100
AcDbVisualStyle
  2
Brighten
 70
12
 71
2
 72
2
 73
0
 90
0
 40
-0.6
 41
-30.0
 62
5
 63
7
 74
1
 91
4
 64
7
 65
257
 75
1
175
1
 42
1.0
 92
8
 66
7
 43
1.0
 76
1
 77
6
 78
2
 67
7
 79
5
170
0
171
0
290
0
174
0
 93
1
 44
50.0
173
0
291
1
 45
0.0
1001
ACAD
1000
AcDbSavedByObjectVersion
1070
0
  0
VISUALSTYLE
  5
9FF
102
{ACAD_XDICTIONARY
360
A81
102
}
102
{ACAD_REACTORS
330
9EF
102
}
330
9EF
100
AcDbVisualStyle
  2
ColorChange
 70
16
 71
2
 72
2
 73
3
 90
0
 40
-0.6
 41
-30.0
 62
5
 63
8
 74
1
 91
4
 64
7
 65
257
 75
1
175
1
 42
1.0
 92
8
 66
8
 43
1.0
 76
1
 77
6
 78
2
 67
7
 79
5
170
0
171
0
290
0
174
0
 93
1
 44
0.0
173
0
291
1
 45
0.0
1001
ACAD
1000
AcDbSavedByObjectVersion
1070
0
  0
VISUALSTYLE
  5
9F8
102
{ACAD_XDICTIONARY
360
A73
102
}
102
{ACAD_REACTORS
330
9EF
102
}
330
9EF
100
AcDbVisualStyle
  2
Conceptual
 70
9
 71
3
 72
2
 73
0
 90
0
 40
-0.6
 41
-30.0
 62
5
 63
7
 74
2
 91
2
 64
7
 65
257
 75
1
175
1
 42
179.0
 92
8
 66
7
 43
1.0
 76
1
 77
6
 78
2
 67
7
 79
3
170
0
171
0
290
0
174
0
 93
1
 44
0.0
173
0
291
0
 45
0.0
1001
ACAD
1000
AcDbSavedByObjectVersion
1070
0
  0
VISUALSTYLE
  5
9FA
102
{ACAD_XDICTIONARY
360
A77
102
}
102
{ACAD_REACTORS
330
9EF
102
}
330
9EF
100
AcDbVisualStyle
  2
Dim
 70
11
 71
2
 72
2
 73
0
 90
0
 40
-0.6
 41
-30.0
 62
5
 63
7
 74
1
 91
4
 64
7
 65
257
 75
1
175
1
 42
1.0
 92
8
 66
7
 43
1.0
 76
1
 77
6
 78
2
 67
7
 79
5
170
0
171
0
290
0
174
0
 93
1
 44
-50.0
173
0
291
1
 45
0.0
1001
ACAD
1000
AcDbSavedByObjectVersion
1070
0
  0
VISUALSTYLE
  5
A07
102
{ACAD_XDICTIONARY
360
A91
102
}
102
{ACAD_REACTORS
330
9EF
102
}
330
9EF
100
AcDbVisualStyle
  2
EdgeColorOff
 70
22
 71
2
 72
2
 73
0
 90
0
 40
-0.6
 41
-30.0
 62
5
 63
7
 74
1
 91
4
 64
7
 65
257
 75
1
175
1
 42
1.0
 92
8
 66
7
 43
1.0
 76
1
 77
6
 78
2
 67
7
 79
5
170
0
171
0
290
0
174
0
 93
1
 44
0.0
173
0
291
1
 45
0.0
1001
ACAD
1000
AcDbSavedByObjectVersion
1070
0
  0
VISUALSTYLE
  5
9FE
102
{ACAD_XDICTIONARY
360
A7F
102
}
102
{ACAD_REACTORS
330
9EF
102
}
330
9EF
100
AcDbVisualStyle
  2
Facepattern
 70
15
 71
2
 72
2
 73
0
 90
0
 40
-0.6
 41
-30.0
 62
5
 63
7
 74
1
 91
4
 64
7
 65
257
 75
1
175
1
 42
1.0
 92
8
 66
7
 43
1.0
 76
1
 77
6
 78
2
 67
7
 79
5
170
0
171
0
290
0
174
0
 93
1
 44
0.0
173
0
291
1
 45
0.0
1001
ACAD
1000
AcDbSavedByObjectVersion
1070
0
  0
VISUALSTYLE
  5
9F0
102
{ACAD_XDICTIONARY
360
A63
102
}
102
{ACAD_REACTORS
330
9EF
102
}
330
9EF
100
AcDbVisualStyle
  2
Flat
 70
0
 71
2
 72
1
 73
1
 90
2
 40
-0.6
 41
30.0
 62
5
 63
7
 74
0
 91
0
 64
7
 65
257
 75
1
175
1
 42
1.0
 92
8
 66
7
 43
1.0
 76
1
 77
6
 78
2
 67
7
 79
5
170
0
171
0
290
0
174
0
 93
13
 44
0.0
173
0
291
1
 45
0.0
1001
ACAD
1000
AcDbSavedByObjectVersion
1070
0
  0
VISUALSTYLE
  5
9F1
102
{ACAD_XDICTIONARY
360
A65
102
}
102
{ACAD_REACTORS
330
9EF
102
}
330
9EF
100
AcDbVisualStyle
  2
FlatWithEdges
 70
1
 71
2
 72
1
 73
1
 90
2
 40
-0.6
 41
30.0
 62
5
 63
7
 74
1
 91
0
 64
7
 65
257
 75
1
175
1
 42
1.0
 92
0
 66
257
 43
1.0
 76
1
 77
6
 78
2
 67
7
 79
5
170
0
171
0
290
0
174
0
 93
13
 44
0.0
173
0
291
1
 45
0.0
1001
ACAD
1000
AcDbSavedByObjectVersion
1070
0
  0
VISUALSTYLE
  5
9F2
102
{ACAD_XDICTIONARY
360
A67
102
}
102
{ACAD_REACTORS
330
9EF
102
}
330
9EF
100
AcDbVisualStyle
  2
Gouraud
 70
2
 71
2
 72
2
 73
1
 90
2
 40
-0.6
 41
30.0
 62
5
 63
7
 74
0
 91
0
 64
7
 65
257
 75
1
175
1
 42
1.0
 92
0
 66
7
 43
1.0
 76
1
 77
6
 78
2
 67
7
 79
5
170
0
171
0
290
0
174
0
 93
13
 44
0.0
173
0
291
1
 45
0.0
1001
ACAD
1000
AcDbSavedByObjectVersion
1070
0
  0
VISUALSTYLE
  5
9F3
102
{ACAD_XDICTIONARY
360
A69
102
}
102
{ACAD_REACTORS
330
9EF
102
}
330
9EF
100
AcDbVisualStyle
  2
GouraudWithEdges
 70
3
 71
2
 72
2
 73
1
 90
2
 40
-0.6
 41
30.0
 62
5
 63
7
 74
1
 91
0
 64
7
 65
257
 75
1
175
1
 42
1.0
 92
0
 66
257
 43
1.0
 76
1
 77
6
 78
2
 67
7
 79
5
170
0
171
0
290
0
174
0
 93
13
 44
0.0
173
0
291
1
 45
0.0
1001
ACAD
1000
AcDbSavedByObjectVersion
1070
0
  0
VISUALSTYLE
  5
9F7
102
{ACAD_XDICTIONARY
360
A71
102
}
102
{ACAD_REACTORS
330
9EF
102
}
330
9EF
100
AcDbVisualStyle
  2
Hidden
 70
6
 71
1
 72
2
 73
2
 90
0
 40
-0.6
 41
-30.0
 62
5
 63
7
 74
2
 91
2
 64
7
 65
257
 75
2
175
1
 42
40.0
 92
0
 66
257
 43
1.0
 76
1
 77
6
 78
2
 67
7
 79
3
170
0
171
0
290
0
174
0
 93
1
 44
0.0
173
0
291
0
 45
0.0
1001
ACAD
1000
AcDbSavedByObjectVersion
1070
0
  0
VISUALSTYLE
  5
A05
102
{ACAD_XDICTIONARY
360
A8D
102
}
102
{ACAD_REACTORS
330
9EF
102
}
330
9EF
100
AcDbVisualStyle
  2
JitterOff
 70
20
 71
2
 72
2
 73
0
 90
0
 40
-0.6
 41
-30.0
 62
5
 63
7
 74
1
 91
4
 64
7
 65
257
 75
1
175
1
 42
1.0
 92
10
 66
7
 43
1.0
 76
1
 77
6
 78
2
 67
7
 79
5
170
0
171
0
290
0
174
0
 93
1
 44
0.0
173
0
291
1
 45
0.0
1001
ACAD
1000
AcDbSavedByObjectVersion
1070
0
  0
VISUALSTYLE
  5
9FD
102
{ACAD_XDICTIONARY
360
A7D
102
}
102
{ACAD_REACTORS
330
9EF
102
}
330
9EF
100
AcDbVisualStyle
  2
Linepattern
 70
14
 71
2
 72
2
 73
0
 90
0
 40
-0.6
 41
-30.0
 62
5
 63
7
 74
1
 91
4
 64
7
 65
257
 75
7
175
7
 42
1.0
 92
8
 66
7
 43
1.0
 76
1
 77
6
 78
2
 67
7
 79
5
170
0
171
0
290
0
174
0
 93
1
 44
0.0
173
0
291
1
 45
0.0
1001
ACAD
1000
AcDbSavedByObjectVersion
1070
0
  0
VISUALSTYLE
  5
A06
102
{ACAD_XDICTIONARY
360
A8F
102
}
102
{ACAD_REACTORS
330
9EF
102
}
330
9EF
100
AcDbVisualStyle
  2
OverhangOff
 70
21
 71
2
 72
2
 73
0
 90
0
 40
-0.6
 41
-30.0
 62
5
 63
7
 74
1
 91
4
 64
7
 65
257
 75
1
175
1
 42
1.0
 92
9
 66
7
 43
1.0
 76
1
 77
6
 78
2
 67
7
 79
5
170
0
171
0
290
0
174
0
 93
1
 44
0.0
173
0
291
1
 45
0.0
1001
ACAD
1000
AcDbSavedByObjectVersion
1070
0
  0
VISUALSTYLE
  5
9F9
102
{ACAD_XDICTIONARY
360
A75
102
}
102
{ACAD_REACTORS
330
9EF
102
}
330
9EF
100
AcDbVisualStyle
  2
Realistic
 70
8
 71
2
 72
3
 73
0
 90
2
 40
-0.6
 41
30.0
 62
5
 63
7
 74
0
 91
0
 64
7
 65
257
 75
1
175
1
 42
1.0
 92
8
 66
257
 43
1.0
 76
1
 77
6
 78
2
 67
7
 79
3
170
0
171
0
290
0
174
0
 93
13
 44
0.0
173
0
291
0
 45
0.0
1001
ACAD
1000
AcDbSavedByObjectVersion
1070
0
  0
VISUALSTYLE
  5
A04
102
{ACAD_XDICTIONARY
360
A8B
102
}
102
{ACAD_REACTORS
330
9EF
102
}
330
9EF
100
AcDbVisualStyle
  2
Shaded
 70
27
 71
2
 72
2
 73
1
 90
2
 40
-0.6
 41
30.0
 62
5
 63
7
 74
0
 91
4
 64
7
 65
257
 75
1
175
1
 42
1.0
 92
8
 66
257
 43
1.0
 76
1
 77
6
 78
2
 67
8
 79
3
170
0
171
0
290
0
174
0
 93
5
 44
0.0
173
0
291
0
 45
0.0
1001
ACAD
1000
AcDbSavedByObjectVersion
1070
0
  0
VISUALSTYLE
  5
A03
102
{ACAD_XDICTIONARY
360
A89
102
}
102
{ACAD_REACTORS
330
9EF
102
}
330
9EF
100
AcDbVisualStyle
  2
Shaded with edges
 70
26
 71
2
 72
2
 73
1
 90
2
 40
-0.6
 41
30.0
 62
5
 63
7
 74
1
 91
2
 64
7
 65
257
 75
2
175
1
 42
1.0
 92
8
 66
257
 43
1.0
 76
1
 77
6
 78
2
 67
7
 79
3
170
0
171
0
290
0
174
0
 93
5
 44
0.0
173
0
291
0
 45
0.0
1001
ACAD
1000
AcDbSavedByObjectVersion
1070
0
  0
VISUALSTYLE
  5
A00
102
{ACAD_XDICTIONARY
360
A83
102
}
102
{ACAD_REACTORS
330
9EF
102
}
330
9EF
100
AcDbVisualStyle
  2
Shades of Gray
 70
23
 71
2
 72
2
 73
3
 90
0
 40
-0.6
 41
-30.0
 62
5
 63
7
 74
2
 91
2
 64
7
 65
7
 75
1
175
1
 42
40.0
 92
8
 66
7
 43
1.0
 76
1
 77
6
 78
2
 67
7
 79
3
170
0
171
0
290
0
174
0
 93
1
 44
0.0
173
0
291
0
 45
0.0
1001
ACAD
1000
AcDbSavedByObjectVersion
1070
0
  0
VISUALSTYLE
  5
A01
102
{ACAD_XDICTIONARY
360
A85
102
}
102
{ACAD_REACTORS
330
9EF
102
}
330
9EF
100
AcDbVisualStyle
  2
Sketchy
 70
24
 71
1
 72
2
 73
2
 90
0
 40
-0.6
 41
-30.0
 62
5
 63
7
 74
2
 91
2
 64
7
 65
7
 75
1
175
1
 42
40.0
 92
11
 66
7
 43
1.0
 76
1
 77
6
 78
2
 67
7
 79
6
170
0
171
0
290
0
174
0
 93
1
 44
0.0
173
0
291
0
 45
0.0
1001
ACAD
1000
AcDbSavedByObjectVersion
1070
0
  0
VISUALSTYLE
  5
9FC
102
{ACAD_XDICTIONARY
360
A7B
102
}
102
{ACAD_REACTORS
330
9EF
102
}
330
9EF
100
AcDbVisualStyle
  2
Thicken
 70
13
 71
2
 72
2
 73
0
 90
0
 40
-0.6
 41
-30.0
 62
5
 63
7
 74
1
 91
4
 64
7
 65
257
 75
1
175
1
 42
1.0
 92
12
 66
7
 43
1.0
 76
1
 77
6
 78
2
 67
7
 79
5
170
0
171
0
290
0
174
0
 93
1
 44
0.0
173
0
291
1
 45
0.0
1001
ACAD
1000
AcDbSavedByObjectVersion
1070
0
  0
VISUALSTYLE
  5
9F6
102
{ACAD_XDICTIONARY
360
A6F
102
}
102
{ACAD_REACTORS
330
9EF
102
}
330
9EF
100
AcDbVisualStyle
  2
Wireframe
 70
5
 71
0
 72
2
 73
0
 90
0
 40
-0.6
 41
-30.0
 62
5
 63
7
 74
1
 91
4
 64
7
 65
257
 75
1
175
1
 42
1.0
 92
0
 66
257
 43
1.0
 76
1
 77
6
 78
2
 67
7
 79
3
170
0
171
0
290
0
174
0
 93
1
 44
0.0
173
0
291
0
 45
0.0
1001
ACAD
1000
AcDbSavedByObjectVersion
1070
0
  0
VISUALSTYLE
  5
A02
102
{ACAD_XDICTIONARY
360
A87
102
}
102
{ACAD_REACTORS
330
9EF
102
}
330
9EF
100
AcDbVisualStyle
  2
X-Ray
 70
25
 71
2
 72
2
 73
1
 90
1
 40
0.5
 41
-30.0
 62
5
 63
7
 74
1
 91
0
 64
7
 65
257
 75
1
175
1
 42
1.0
 92
8
 66
7
 43
1.0
 76
1
 77
6
 78
2
 67
7
 79
3
170
0
171
0
290
0
174
0
 93
13
 44
0.0
173
0
291
0
 45
0.0
1001
ACAD
1000
AcDbSavedByObjectVersion
1070
0
  0
DICTIONARYVAR
  5
A54
102
{ACAD_REACTORS
330
A4F
102
}
330
A4F
100
DictionaryVariables
280
0
  1
1:1
  0
DICTIONARYVAR
  5
A51
102
{ACAD_REACTORS
330
A4F
102
}
330
A4F
100
DictionaryVariables
280
0
  1
STANDARD
  0
DICTIONARYVAR
  5
A50
102
{ACAD_REACTORS
330
A4F
102
}
330
A4F
100
DictionaryVariables
280
0
  1
STANDARD
  0
DICTIONARYVAR
  5
A52
102
{ACAD_REACTORS
330
A4F
102
}
330
A4F
100
DictionaryVariables
280
0
  1
Imperial24
  0
DICTIONARYVAR
  5
A53
102
{ACAD_REACTORS
330
A4F
102
}
330
A4F
100
DictionaryVariables
280
0
  1
Imperial24
  0
DICTIONARYVAR
  5
A57
102
{ACAD_REACTORS
330
A4F
102
}
330
A4F
100
DictionaryVariables
280
0
  1
1
  0
DICTIONARYVAR
  5
A56
102
{ACAD_REACTORS
330
A4F
102
}
330
A4F
100
DictionaryVariables
280
0
  1
0
  0
DICTIONARYVAR
  5
A55
102
{ACAD_REACTORS
330
A4F
102
}
330
A4F
100
DictionaryVariables
280
0
  1
127
  0
DICTIONARYVAR
  5
A58
102
{ACAD_REACTORS
330
A4F
102
}
330
A4F
100
DictionaryVariables
280
0
  1
2
  0
DICTIONARY
  5
A97
330
A30
100
AcDbDictionary
280
1
281
1
  3
ACAD_XREC_ROUNDTRIP
360
A98
  0
DICTIONARY
  5
A9B
330
A38
100
AcDbDictionary
280
1
281
1
  3
ACAD_XREC_ROUNDTRIP
360
A9C
  0
DICTIONARY
  5
A99
330
A34
100
AcDbDictionary
280
1
281
1
  3
ACAD_XREC_ROUNDTRIP
360
A9A
  0
DICTIONARY
  5
9E0
330
9DF
100
AcDbDictionary
280
1
281
1
  3
ACAD_XREC_ROUNDTRIP
360
A61
  3
BUMPTILE
360
9E2
  3
DIFFUSETILE
360
9E1
  3
OPACITYTILE
360
9E5
  3
REFLECTIONTILE
360
9E4
  3
REFRACTIONTILE
360
9E6
  3
SPECULARTILE
360
9E3
  0
DICTIONARY
  5
9D8
330
9D7
100
AcDbDictionary
280
1
281
1
  3
ACAD_XREC_ROUNDTRIP
360
A60
  3
BUMPTILE
360
9DA
  3
DIFFUSETILE
360
9D9
  3
OPACITYTILE
360
9DD
  3
REFLECTIONTILE
360
9DC
  3
REFRACTIONTILE
360
9DE
  3
SPECULARTILE
360
9DB
  0
DICTIONARY
  5
9E8
330
9E7
100
AcDbDictionary
280
1
281
1
  3
ACAD_XREC_ROUNDTRIP
360
A62
  3
BUMPTILE
360
9EA
  3
DIFFUSETILE
360
9E9
  3
OPACITYTILE
360
9ED
  3
REFLECTIONTILE
360
9EC
  3
REFRACTIONTILE
360
9EE
  3
SPECULARTILE
360
9EB
  0
DICTIONARY
  5
A95
330
A2E
100
AcDbDictionary
280
1
281
1
  3
ACAD_XREC_ROUNDTRIP
360
A96
  0
DICTIONARY
  5
A5A
330
A2A
100
AcDbDictionary
280
1
281
1
  3
ACAD_ROUNDTRIP_2008_TABLESTYLE_CELLSTYLEMAP
360
A5B
  3
ACAD_XREC_ROUNDTRIP
360
A93
  0
DICTIONARY
  5
A6D
330
9F5
100
AcDbDictionary
280
1
281
1
  3
ACAD_XREC_ROUNDTRIP
360
A6E
  0
DICTIONARY
  5
A6B
330
9F4
100
AcDbDictionary
280
1
281
1
  3
ACAD_XREC_ROUNDTRIP
360
A6C
  0
DICTIONARY
  5
A79
330
9FB
100
AcDbDictionary
280
1
281
1
  3
ACAD_XREC_ROUNDTRIP
360
A7A
  0
DICTIONARY
  5
A81
330
9FF
100
AcDbDictionary
280
1
281
1
  3
ACAD_XREC_ROUNDTRIP
360
A82
  0
DICTIONARY
  5
A73
330
9F8
100
AcDbDictionary
280
1
281
1
  3
ACAD_XREC_ROUNDTRIP
360
A74
  0
DICTIONARY
  5
A77
330
9FA
100
AcDbDictionary
280
1
281
1
  3
ACAD_XREC_ROUNDTRIP
360
A78
  0
DICTIONARY
  5
A91
330
A07
100
AcDbDictionary
280
1
281
1
  3
ACAD_XREC_ROUNDTRIP
360
A92
  0
DICTIONARY
  5
A7F
330
9FE
100
AcDbDictionary
280
1
281
1
  3
ACAD_XREC_ROUNDTRIP
360
A80
  0
DICTIONARY
  5
A63
330
9F0
100
AcDbDictionary
280
1
281
1
  3
ACAD_XREC_ROUNDTRIP
360
A64
  0
DICTIONARY
  5
A65
330
9F1
100
AcDbDictionary
280
1
281
1
  3
ACAD_XREC_ROUNDTRIP
360
A66
  0
DICTIONARY
  5
A67
330
9F2
100
AcDbDictionary
280
1
281
1
  3
ACAD_XREC_ROUNDTRIP
360
A68
  0
DICTIONARY
  5
A69
330
9F3
100
AcDbDictionary
280
1
281
1
  3
ACAD_XREC_ROUNDTRIP
360
A6A
  0
DICTIONARY
  5
A71
330
9F7
100
AcDbDictionary
280
1
281
1
  3
ACAD_XREC_ROUNDTRIP
360
A72
  0
DICTIONARY
  5
A8D
330
A05
100
AcDbDictionary
280
1
281
1
  3
ACAD_XREC_ROUNDTRIP
360
A8E
  0
DICTIONARY
  5
A7D
330
9FD
100
AcDbDictionary
280
1
281
1
  3
ACAD_XREC_ROUNDTRIP
360
A7E
  0
DICTIONARY
  5
A8F
330
A06
100
AcDbDictionary
280
1
281
1
  3
ACAD_XREC_ROUNDTRIP
360
A90
  0
DICTIONARY
  5
A75
330
9F9
100
AcDbDictionary
280
1
281
1
  3
ACAD_XREC_ROUNDTRIP
360
A76
  0
DICTIONARY
  5
A8B
330
A04
100
AcDbDictionary
280
1
281
1
  3
ACAD_XREC_ROUNDTRIP
360
A8C
  0
DICTIONARY
  5
A89
330
A03
100
AcDbDictionary
280
1
281
1
  3
ACAD_XREC_ROUNDTRIP
360
A8A
  0
DICTIONARY
  5
A83
330
A00
100
AcDbDictionary
280
1
281
1
  3
ACAD_XREC_ROUNDTRIP
360
A84
  0
DICTIONARY
  5
A85
330
A01
100
AcDbDictionary
280
1
281
1
  3
ACAD_XREC_ROUNDTRIP
360
A86
  0
DICTIONARY
  5
A7B
330
9FC
100
AcDbDictionary
280
1
281
1
  3
ACAD_XREC_ROUNDTRIP
360
A7C
  0
DICTIONARY
  5
A6F
330
9F6
100
AcDbDictionary
280
1
281
1
  3
ACAD_XREC_ROUNDTRIP
360
A70
  0
DICTIONARY
  5
A87
330
A02
100
AcDbDictionary
280
1
281
1
  3
ACAD_XREC_ROUNDTRIP
360
A88
  0
XRECORD
  5
A98
102
{ACAD_REACTORS
330
A97
102
}
330
A97
100
AcDbXrecord
280
1
102
DISPLAYNAME
  1
Imperial24
102
FLAGS
 90
0
  0
XRECORD
  5
A9C
102
{ACAD_REACTORS
330
A9B
102
}
330
A9B
100
AcDbXrecord
280
1
102
SHADEPLOT
 70
0
102
SHADEPLOTRESLEVEL
 70
2
102
SHADEPLOTCUSTOMDPI
 70
300
  0
XRECORD
  5
A9A
102
{ACAD_REACTORS
330
A99
102
}
330
A99
100
AcDbXrecord
280
1
102
SHADEPLOT
 70
0
102
SHADEPLOTRESLEVEL
 70
2
102
SHADEPLOTCUSTOMDPI
 70
300
  0
XRECORD
  5
A61
102
{ACAD_REACTORS
330
9E0
102
}
330
9E0
100
AcDbXrecord
280
1
102
MATERIAL
148
0.0
149
0.0
149
0.0
 93
0
 94
127
282
0
 72
0
 77
0
171
0
175
0
179
0
273
0
  0
XRECORD
  5
9E2
102
{ACAD_REACTORS
330
9E0
102
}
330
9E0
100
AcDbXrecord
280
1
270
1
271
1
  0
XRECORD
  5
9E1
102
{ACAD_REACTORS
330
9E0
102
}
330
9E0
100
AcDbXrecord
280
1
270
1
271
1
  0
XRECORD
  5
9E5
102
{ACAD_REACTORS
330
9E0
102
}
330
9E0
100
AcDbXrecord
280
1
270
1
271
1
  0
XRECORD
  5
9E4
102
{ACAD_REACTORS
330
9E0
102
}
330
9E0
100
AcDbXrecord
280
1
270
1
271
1
  0
XRECORD
  5
9E6
102
{ACAD_REACTORS
330
9E0
102
}
330
9E0
100
AcDbXrecord
280
1
270
1
271
1
  0
XRECORD
  5
9E3
102
{ACAD_REACTORS
330
9E0
102
}
330
9E0
100
AcDbXrecord
280
1
270
1
271
1
  0
XRECORD
  5
A60
102
{ACAD_REACTORS
330
9D8
102
}
330
9D8
100
AcDbXrecord
280
1
102
MATERIAL
148
0.0
149
0.0
149
0.0
 93
0
 94
127
282
0
 72
0
 77
0
171
0
175
0
179
0
273
0
  0
XRECORD
  5
9DA
102
{ACAD_REACTORS
330
9D8
102
}
330
9D8
100
AcDbXrecord
280
1
270
1
271
1
  0
XRECORD
  5
9D9
102
{ACAD_REACTORS
330
9D8
102
}
330
9D8
100
AcDbXrecord
280
1
270
1
271
1
  0
XRECORD
  5
9DD
102
{ACAD_REACTORS
330
9D8
102
}
330
9D8
100
AcDbXrecord
280
1
270
1
271
1
  0
XRECORD
  5
9DC
102
{ACAD_REACTORS
330
9D8
102
}
330
9D8
100
AcDbXrecord
280
1
270
1
271
1
  0
XRECORD
  5
9DE
102
{ACAD_REACTORS
330
9D8
102
}
330
9D8
100
AcDbXrecord
280
1
270
1
271
1
  0
XRECORD
  5
9DB
102
{ACAD_REACTORS
330
9D8
102
}
330
9D8
100
AcDbXrecord
280
1
270
1
271
1
  0
XRECORD
  5
A62
102
{ACAD_REACTORS
330
9E8
102
}
330
9E8
100
AcDbXrecord
280
1
102
MATERIAL
148
0.0
149
0.0
149
0.0
 93
0
 94
127
282
0
 72
0
 77
0
171
0
175
0
179
0
273
0
  0
XRECORD
  5
9EA
102
{ACAD_REACTORS
330
9E8
102
}
330
9E8
100
AcDbXrecord
280
1
270
1
271
1
  0
XRECORD
  5
9E9
102
{ACAD_REACTORS
330
9E8
102
}
330
9E8
100
AcDbXrecord
280
1
270
1
271
1
  0
XRECORD
  5
9ED
102
{ACAD_REACTORS
330
9E8
102
}
330
9E8
100
AcDbXrecord
280
1
270
1
271
1
  0
XRECORD
  5
9EC
102
{ACAD_REACTORS
330
9E8
102
}
330
9E8
100
AcDbXrecord
280
1
270
1
271
1
  0
XRECORD
  5
9EE
102
{ACAD_REACTORS
330
9E8
102
}
330
9E8
100
AcDbXrecord
280
1
270
1
271
1
  0
XRECORD
  5
9EB
102
{ACAD_REACTORS
330
9E8
102
}
330
9E8
100
AcDbXrecord
280
1
270
1
271
1
  0
XRECORD
  5
A96
102
{ACAD_REACTORS
330
A95
102
}
330
A95
100
AcDbXrecord
280
1
102
DISPLAYNAME
  1
Imperial24
102
FLAGS
 90
0
  0
CELLSTYLEMAP
  5
A5B
102
{ACAD_REACTORS
330
A5A
102
}
330
A5A
100
AcDbCellStyleMap
 90
3
300
CELLSTYLE
  1
TABLEFORMAT_BEGIN
 90
5
170
1
 91
0
 92
32768
 62
257
 93
1
300
CONTENTFORMAT
  1
CONTENTFORMAT_BEGIN
 90
0
 91
0
 92
512
 93
0
300

 40
0.0
140
1.0
 94
5
 62
0
340
A1B
144
0.25
309
CONTENTFORMAT_END
171
0
 94
0
309
TABLEFORMAT_END
  1
CELLSTYLE_BEGIN
 90
1
 91
1
300
_TITLE
309
CELLSTYLE_END
300
CELLSTYLE
  1
TABLEFORMAT_BEGIN
 90
5
170
1
 91
0
 92
0
 62
257
 93
1
300
CONTENTFORMAT
  1
CONTENTFORMAT_BEGIN
 90
0
 91
0
 92
512
 93
0
300

 40
0.0
140
1.0
 94
5
 62
0
340
A1B
144
0.18
309
CONTENTFORMAT_END
171
0
 94
0
309
TABLEFORMAT_END
  1
CELLSTYLE_BEGIN
 90
2
 91
1
300
_HEADER
309
CELLSTYLE_END
300
CELLSTYLE
  1
TABLEFORMAT_BEGIN
 90
5
170
1
 91
0
 92
0
 62
257
 93
1
300
CONTENTFORMAT
  1
CONTENTFORMAT_BEGIN
 90
0
 91
0
 92
512
 93
0
300

 40
0.0
140
1.0
 94
2
 62
0
340
A1B
144
0.18
309
CONTENTFORMAT_END
171
0
 94
0
309
TABLEFORMAT_END
  1
CELLSTYLE_BEGIN
 90
3
 91
2
300
_DATA
309
CELLSTYLE_END
  0
XRECORD
  5
A93
102
{ACAD_REACTORS
330
A5A
102
}
330
A5A
100
AcDbXrecord
280
1
102
ACAD_ROUNDTRIP_PRE2007_TABLESTYLE
 90
512
 91
0
  1

 92
512
 93
0
  2

 94
512
 95
0
  3

  0
XRECORD
  5
A6E
102
{ACAD_REACTORS
330
A6D
102
}
330
A6D
100
AcDbXrecord
280
1
102
RTVSPost2010Prop28
280
1
102
RTVSPost2010PropOp28
 70
1
102
RTVSPost2010Prop29
280
1
102
RTVSPost2010PropOp29
 70
1
102
RTVSPost2010Prop30
280
0
102
RTVSPost2010PropOp30
 70
1
102
RTVSPost2010Prop31
280
0
102
RTVSPost2010PropOp31
 70
1
102
RTVSPost2010Prop32
280
0
102
RTVSPost2010PropOp32
 70
1
102
RTVSPost2010Prop33
280
0
102
RTVSPost2010PropOp33
 70
1
102
RTVSPost2010Prop34
280
0
102
RTVSPost2010PropOp34
 70
1
102
RTVSPost2010Prop35
280
0
102
RTVSPost2010PropOp35
 70
1
102
RTVSPost2010Prop36
280
0
102
RTVSPost2010PropOp36
 70
1
102
RTVSPost2010Prop37
 90
50
102
RTVSPost2010PropOp37
 70
1
102
RTVSPost2010Prop38
140
0.0
102
RTVSPost2010PropOp38
 70
1
102
RTVSPost2010Prop39
140
1.0
102
RTVSPost2010PropOp39
 70
1
102
RTVSPost2010Prop40
 90
0
102
RTVSPost2010PropOp40
 70
1
102
RTVSPost2010Prop41ColorIndex
 90
18
102
RTVSPost2010Prop41ColorRGB
 90
0
102
RTVSPost2010PropOp41
 70
1
102
RTVSPost2010Prop42
 90
50
102
RTVSPost2010PropOp42
 70
1
102
RTVSPost2010Prop43
 90
3
102
RTVSPost2010PropOp43
 70
1
102
RTVSPost2010Prop44ColorIndex
 90
5
102
RTVSPost2010Prop44ColorRGB
 90
255
102
RTVSPost2010PropOp44
 70
1
102
RTVSPost2010Prop45
280
0
102
RTVSPost2010PropOp45
 70
1
102
RTVSPost2010Prop46
 90
50
102
RTVSPost2010PropOp46
 70
1
102
RTVSPost2010Prop47
 90
50
102
RTVSPost2010PropOp47
 70
1
102
RTVSPost2010Prop48
 90
50
102
RTVSPost2010PropOp48
 70
1
102
RTVSPost2010Prop49
280
0
102
RTVSPost2010PropOp49
 70
1
102
RTVSPost2010Prop50
 90
50
102
RTVSPost2010PropOp50
 70
1
102
RTVSPost2010Prop51ColorIndex
 90
256
102
RTVSPost2010Prop51ColorRGB
 90
-16777216
102
RTVSPost2010PropOp51
 70
0
102
RTVSPost2010Prop52
140
1.0
102
RTVSPost2010PropOp52
 70
0
102
RTVSPost2010Prop53
 90
2
102
RTVSPost2010PropOp53
 70
1
102
RTVSPost2010Prop54
  1
strokes_ogs.tif
102
RTVSPost2010PropOp54
 70
1
102
RTVSPost2010Prop55
280
0
102
RTVSPost2010PropOp55
 70
1
102
RTVSPost2010Prop56
140
1.0
102
RTVSPost2010PropOp56
 70
1
102
RTVSPost2010Prop57
140
1.0
102
RTVSPost2010PropOp57
 70
1
102
RTVSPropertyOp0
 70
1
102
RTVSPropertyOp1
 70
1
102
RTVSPropertyOp2
 70
1
102
RTVSPropertyOp3
 70
1
102
RTVSPropertyOp4
 70
1
102
RTVSPropertyOp5
 70
1
102
RTVSPropertyOp6
 70
1
102
RTVSPropertyOp7
 70
1
102
RTVSPropertyOp8
 70
1
102
RTVSPropertyOp9
 70
1
102
RTVSPropertyOp10
 70
1
102
RTVSPropertyOp11
 70
1
102
RTVSPropertyOp12
 70
1
102
RTVSPropertyOp13
 70
1
102
RTVSPropertyOp14
 70
1
102
RTVSPropertyOp15
 70
1
102
RTVSPropertyOp16
 70
1
102
RTVSPropertyOp17
 70
1
102
RTVSPropertyOp18
 70
1
102
RTVSPropertyOp19
 70
1
102
RTVSPropertyOp20
 70
1
102
RTVSPropertyOp21
 70
1
102
RTVSPropertyOp22
 70
1
102
RTVSPropertyOp23
 70
1
102
RTVSPropertyOp24
 70
1
102
RTVSPropertyOp25
 70
1
102
RTVSPropertyOp26
 70
1
102
RTVSPropertyOp27
 70
1
102
RTVSPropertyOp28
 70
1
102
RTVSPropertyOp29
 70
1
102
RTVSPropertyOp30
 70
1
102
RTVSPropertyOp31
 70
1
102
RTVSPropertyOp32
 70
1
102
RTVSPropertyOp33
 70
1
102
RTVSPropertyOp34
 70
1
102
RTVSPropertyOp35
 70
1
102
RTVSPropertyOp36
 70
1
102
RTVSPropertyOp37
 70
1
102
RTVSPropertyOp38
 70
1
102
RTVSPropertyOp39
 70
1
102
RTVSPropertyOp40
 70
1
102
RTVSPropertyOp41
 70
1
102
RTVSPropertyOp42
 70
1
102
RTVSPropertyOp43
 70
1
102
RTVSPropertyOp44
 70
1
102
RTVSPropertyOp45
 70
1
102
RTVSPropertyOp46
 70
1
102
RTVSPropertyOp47
 70
1
102
RTVSPropertyOp48
 70
1
102
RTVSPropertyOp49
 70
1
102
RTVSPropertyOp50
 70
1
102
RTVSPropertyOp51
 70
0
102
RTVSPropertyOp52
 70
0
102
RTVSPropertyOp53
 70
1
102
RTVSPropertyOp54
 70
1
102
RTVSPropertyOp55
 70
1
102
RTVSPropertyOp56
 70
1
102
RTVSPropertyOp57
 70
1
102
RTVSPropertyOp58
 70
1
102
RTVSPropertyOp59
 70
1
102
RTVSPropertyOp60
 70
1
102
RTVSPropertyOp61
 70
1
102
RTVSPropertyOp62
 70
1
  0
XRECORD
  5
A6C
102
{ACAD_REACTORS
330
A6B
102
}
330
A6B
100
AcDbXrecord
280
1
102
RTVSPost2010Prop28
280
0
102
RTVSPost2010PropOp28
 70
1
102
RTVSPost2010Prop29
280
1
102
RTVSPost2010PropOp29
 70
1
102
RTVSPost2010Prop30
280
1
102
RTVSPost2010PropOp30
 70
1
102
RTVSPost2010Prop31
280
0
102
RTVSPost2010PropOp31
 70
1
102
RTVSPost2010Prop32
280
0
102
RTVSPost2010PropOp32
 70
1
102
RTVSPost2010Prop33
280
0
102
RTVSPost2010PropOp33
 70
1
102
RTVSPost2010Prop34
280
0
102
RTVSPost2010PropOp34
 70
1
102
RTVSPost2010Prop35
280
0
102
RTVSPost2010PropOp35
 70
1
102
RTVSPost2010Prop36
280
0
102
RTVSPost2010PropOp36
 70
1
102
RTVSPost2010Prop37
 90
50
102
RTVSPost2010PropOp37
 70
1
102
RTVSPost2010Prop38
140
0.0
102
RTVSPost2010PropOp38
 70
1
102
RTVSPost2010Prop39
140
1.0
102
RTVSPost2010PropOp39
 70
1
102
RTVSPost2010Prop40
 90
0
102
RTVSPost2010PropOp40
 70
1
102
RTVSPost2010Prop41ColorIndex
 90
18
102
RTVSPost2010Prop41ColorRGB
 90
0
102
RTVSPost2010PropOp41
 70
1
102
RTVSPost2010Prop42
 90
50
102
RTVSPost2010PropOp42
 70
1
102
RTVSPost2010Prop43
 90
3
102
RTVSPost2010PropOp43
 70
1
102
RTVSPost2010Prop44ColorIndex
 90
5
102
RTVSPost2010Prop44ColorRGB
 90
255
102
RTVSPost2010PropOp44
 70
1
102
RTVSPost2010Prop45
280
0
102
RTVSPost2010PropOp45
 70
1
102
RTVSPost2010Prop46
 90
50
102
RTVSPost2010PropOp46
 70
1
102
RTVSPost2010Prop47
 90
50
102
RTVSPost2010PropOp47
 70
1
102
RTVSPost2010Prop48
 90
50
102
RTVSPost2010PropOp48
 70
1
102
RTVSPost2010Prop49
280
0
102
RTVSPost2010PropOp49
 70
1
102
RTVSPost2010Prop50
 90
50
102
RTVSPost2010PropOp50
 70
1
102
RTVSPost2010Prop51ColorIndex
 90
256
102
RTVSPost2010Prop51ColorRGB
 90
-16777216
102
RTVSPost2010PropOp51
 70
0
102
RTVSPost2010Prop52
140
1.0
102
RTVSPost2010PropOp52
 70
0
102
RTVSPost2010Prop53
 90
2
102
RTVSPost2010PropOp53
 70
1
102
RTVSPost2010Prop54
  1
strokes_ogs.tif
102
RTVSPost2010PropOp54
 70
1
102
RTVSPost2010Prop55
280
0
102
RTVSPost2010PropOp55
 70
1
102
RTVSPost2010Prop56
140
1.0
102
RTVSPost2010PropOp56
 70
1
102
RTVSPost2010Prop57
140
1.0
102
RTVSPost2010PropOp57
 70
1
102
RTVSPropertyOp0
 70
1
102
RTVSPropertyOp1
 70
1
102
RTVSPropertyOp2
 70
1
102
RTVSPropertyOp3
 70
1
102
RTVSPropertyOp4
 70
1
102
RTVSPropertyOp5
 70
1
102
RTVSPropertyOp6
 70
1
102
RTVSPropertyOp7
 70
1
102
RTVSPropertyOp8
 70
1
102
RTVSPropertyOp9
 70
1
102
RTVSPropertyOp10
 70
1
102
RTVSPropertyOp11
 70
1
102
RTVSPropertyOp12
 70
1
102
RTVSPropertyOp13
 70
1
102
RTVSPropertyOp14
 70
1
102
RTVSPropertyOp15
 70
1
102
RTVSPropertyOp16
 70
1
102
RTVSPropertyOp17
 70
1
102
RTVSPropertyOp18
 70
1
102
RTVSPropertyOp19
 70
1
102
RTVSPropertyOp20
 70
1
102
RTVSPropertyOp21
 70
1
102
RTVSPropertyOp22
 70
1
102
RTVSPropertyOp23
 70
1
102
RTVSPropertyOp24
 70
1
102
RTVSPropertyOp25
 70
1
102
RTVSPropertyOp26
 70
1
102
RTVSPropertyOp27
 70
1
102
RTVSPropertyOp28
 70
1
102
RTVSPropertyOp29
 70
1
102
RTVSPropertyOp30
 70
1
102
RTVSPropertyOp31
 70
1
102
RTVSPropertyOp32
 70
1
102
RTVSPropertyOp33
 70
1
102
RTVSPropertyOp34
 70
1
102
RTVSPropertyOp35
 70
1
102
RTVSPropertyOp36
 70
1
102
RTVSPropertyOp37
 70
1
102
RTVSPropertyOp38
 70
1
102
RTVSPropertyOp39
 70
1
102
RTVSPropertyOp40
 70
1
102
RTVSPropertyOp41
 70
1
102
RTVSPropertyOp42
 70
1
102
RTVSPropertyOp43
 70
1
102
RTVSPropertyOp44
 70
1
102
RTVSPropertyOp45
 70
1
102
RTVSPropertyOp46
 70
1
102
RTVSPropertyOp47
 70
1
102
RTVSPropertyOp48
 70
1
102
RTVSPropertyOp49
 70
1
102
RTVSPropertyOp50
 70
1
102
RTVSPropertyOp51
 70
0
102
RTVSPropertyOp52
 70
0
102
RTVSPropertyOp53
 70
1
102
RTVSPropertyOp54
 70
1
102
RTVSPropertyOp55
 70
1
102
RTVSPropertyOp56
 70
1
102
RTVSPropertyOp57
 70
1
102
RTVSPropertyOp58
 70
1
102
RTVSPropertyOp59
 70
1
102
RTVSPropertyOp60
 70
1
102
RTVSPropertyOp61
 70
1
102
RTVSPropertyOp62
 70
1
  0
XRECORD
  5
A7A
102
{ACAD_REACTORS
330
A79
102
}
330
A79
100
AcDbXrecord
280
1
102
RTVSPost2010Prop28
280
0
102
RTVSPost2010PropOp28
 70
1
102
RTVSPost2010Prop29
280
1
102
RTVSPost2010PropOp29
 70
1
102
RTVSPost2010Prop30
280
1
102
RTVSPost2010PropOp30
 70
1
102
RTVSPost2010Prop31
280
0
102
RTVSPost2010PropOp31
 70
1
102
RTVSPost2010Prop32
280
0
102
RTVSPost2010PropOp32
 70
1
102
RTVSPost2010Prop33
280
0
102
RTVSPost2010PropOp33
 70
1
102
RTVSPost2010Prop34
280
0
102
RTVSPost2010PropOp34
 70
1
102
RTVSPost2010Prop35
280
0
102
RTVSPost2010PropOp35
 70
1
102
RTVSPost2010Prop36
280
0
102
RTVSPost2010PropOp36
 70
1
102
RTVSPost2010Prop37
 90
50
102
RTVSPost2010PropOp37
 70
1
102
RTVSPost2010Prop38
140
0.0
102
RTVSPost2010PropOp38
 70
1
102
RTVSPost2010Prop39
140
1.0
102
RTVSPost2010PropOp39
 70
1
102
RTVSPost2010Prop40
 90
0
102
RTVSPost2010PropOp40
 70
1
102
RTVSPost2010Prop41ColorIndex
 90
18
102
RTVSPost2010Prop41ColorRGB
 90
0
102
RTVSPost2010PropOp41
 70
1
102
RTVSPost2010Prop42
 90
50
102
RTVSPost2010PropOp42
 70
1
102
RTVSPost2010Prop43
 90
3
102
RTVSPost2010PropOp43
 70
1
102
RTVSPost2010Prop44ColorIndex
 90
5
102
RTVSPost2010Prop44ColorRGB
 90
255
102
RTVSPost2010PropOp44
 70
1
102
RTVSPost2010Prop45
280
0
102
RTVSPost2010PropOp45
 70
1
102
RTVSPost2010Prop46
 90
50
102
RTVSPost2010PropOp46
 70
1
102
RTVSPost2010Prop47
 90
50
102
RTVSPost2010PropOp47
 70
1
102
RTVSPost2010Prop48
 90
50
102
RTVSPost2010PropOp48
 70
1
102
RTVSPost2010Prop49
280
0
102
RTVSPost2010PropOp49
 70
1
102
RTVSPost2010Prop50
 90
50
102
RTVSPost2010PropOp50
 70
1
102
RTVSPost2010Prop51ColorIndex
 90
256
102
RTVSPost2010Prop51ColorRGB
 90
-16777216
102
RTVSPost2010PropOp51
 70
0
102
RTVSPost2010Prop52
140
1.0
102
RTVSPost2010PropOp52
 70
0
102
RTVSPost2010Prop53
 90
2
102
RTVSPost2010PropOp53
 70
1
102
RTVSPost2010Prop54
  1
strokes_ogs.tif
102
RTVSPost2010PropOp54
 70
1
102
RTVSPost2010Prop55
280
0
102
RTVSPost2010PropOp55
 70
1
102
RTVSPost2010Prop56
140
1.0
102
RTVSPost2010PropOp56
 70
1
102
RTVSPost2010Prop57
140
1.0
102
RTVSPost2010PropOp57
 70
1
102
RTVSPropertyOp0
 70
1
102
RTVSPropertyOp1
 70
1
102
RTVSPropertyOp2
 70
1
102
RTVSPropertyOp3
 70
1
102
RTVSPropertyOp4
 70
1
102
RTVSPropertyOp5
 70
1
102
RTVSPropertyOp6
 70
1
102
RTVSPropertyOp7
 70
1
102
RTVSPropertyOp8
 70
1
102
RTVSPropertyOp9
 70
1
102
RTVSPropertyOp10
 70
1
102
RTVSPropertyOp11
 70
1
102
RTVSPropertyOp12
 70
1
102
RTVSPropertyOp13
 70
1
102
RTVSPropertyOp14
 70
1
102
RTVSPropertyOp15
 70
1
102
RTVSPropertyOp16
 70
1
102
RTVSPropertyOp17
 70
1
102
RTVSPropertyOp18
 70
1
102
RTVSPropertyOp19
 70
1
102
RTVSPropertyOp20
 70
1
102
RTVSPropertyOp21
 70
1
102
RTVSPropertyOp22
 70
1
102
RTVSPropertyOp23
 70
1
102
RTVSPropertyOp24
 70
1
102
RTVSPropertyOp25
 70
1
102
RTVSPropertyOp26
 70
1
102
RTVSPropertyOp27
 70
1
102
RTVSPropertyOp28
 70
1
102
RTVSPropertyOp29
 70
1
102
RTVSPropertyOp30
 70
1
102
RTVSPropertyOp31
 70
1
102
RTVSPropertyOp32
 70
1
102
RTVSPropertyOp33
 70
1
102
RTVSPropertyOp34
 70
1
102
RTVSPropertyOp35
 70
1
102
RTVSPropertyOp36
 70
1
102
RTVSPropertyOp37
 70
1
102
RTVSPropertyOp38
 70
1
102
RTVSPropertyOp39
 70
1
102
RTVSPropertyOp40
 70
1
102
RTVSPropertyOp41
 70
1
102
RTVSPropertyOp42
 70
1
102
RTVSPropertyOp43
 70
1
102
RTVSPropertyOp44
 70
1
102
RTVSPropertyOp45
 70
1
102
RTVSPropertyOp46
 70
1
102
RTVSPropertyOp47
 70
1
102
RTVSPropertyOp48
 70
1
102
RTVSPropertyOp49
 70
1
102
RTVSPropertyOp50
 70
1
102
RTVSPropertyOp51
 70
0
102
RTVSPropertyOp52
 70
0
102
RTVSPropertyOp53
 70
1
102
RTVSPropertyOp54
 70
1
102
RTVSPropertyOp55
 70
1
102
RTVSPropertyOp56
 70
1
102
RTVSPropertyOp57
 70
1
102
RTVSPropertyOp58
 70
1
102
RTVSPropertyOp59
 70
1
102
RTVSPropertyOp60
 70
1
102
RTVSPropertyOp61
 70
1
102
RTVSPropertyOp62
 70
1
  0
XRECORD
  5
A82
102
{ACAD_REACTORS
330
A81
102
}
330
A81
100
AcDbXrecord
280
1
102
RTVSPost2010Prop28
280
0
102
RTVSPost2010PropOp28
 70
1
102
RTVSPost2010Prop29
280
1
102
RTVSPost2010PropOp29
 70
1
102
RTVSPost2010Prop30
280
1
102
RTVSPost2010PropOp30
 70
1
102
RTVSPost2010Prop31
280
0
102
RTVSPost2010PropOp31
 70
1
102
RTVSPost2010Prop32
280
0
102
RTVSPost2010PropOp32
 70
1
102
RTVSPost2010Prop33
280
0
102
RTVSPost2010PropOp33
 70
1
102
RTVSPost2010Prop34
280
0
102
RTVSPost2010PropOp34
 70
1
102
RTVSPost2010Prop35
280
0
102
RTVSPost2010PropOp35
 70
1
102
RTVSPost2010Prop36
280
0
102
RTVSPost2010PropOp36
 70
1
102
RTVSPost2010Prop37
 90
50
102
RTVSPost2010PropOp37
 70
1
102
RTVSPost2010Prop38
140
0.0
102
RTVSPost2010PropOp38
 70
1
102
RTVSPost2010Prop39
140
1.0
102
RTVSPost2010PropOp39
 70
1
102
RTVSPost2010Prop40
 90
0
102
RTVSPost2010PropOp40
 70
1
102
RTVSPost2010Prop41ColorIndex
 90
18
102
RTVSPost2010Prop41ColorRGB
 90
0
102
RTVSPost2010PropOp41
 70
1
102
RTVSPost2010Prop42
 90
50
102
RTVSPost2010PropOp42
 70
1
102
RTVSPost2010Prop43
 90
3
102
RTVSPost2010PropOp43
 70
1
102
RTVSPost2010Prop44ColorIndex
 90
5
102
RTVSPost2010Prop44ColorRGB
 90
255
102
RTVSPost2010PropOp44
 70
1
102
RTVSPost2010Prop45
280
0
102
RTVSPost2010PropOp45
 70
1
102
RTVSPost2010Prop46
 90
50
102
RTVSPost2010PropOp46
 70
1
102
RTVSPost2010Prop47
 90
50
102
RTVSPost2010PropOp47
 70
1
102
RTVSPost2010Prop48
 90
50
102
RTVSPost2010PropOp48
 70
1
102
RTVSPost2010Prop49
280
0
102
RTVSPost2010PropOp49
 70
1
102
RTVSPost2010Prop50
 90
50
102
RTVSPost2010PropOp50
 70
1
102
RTVSPost2010Prop51ColorIndex
 90
256
102
RTVSPost2010Prop51ColorRGB
 90
-16777216
102
RTVSPost2010PropOp51
 70
0
102
RTVSPost2010Prop52
140
1.0
102
RTVSPost2010PropOp52
 70
0
102
RTVSPost2010Prop53
 90
2
102
RTVSPost2010PropOp53
 70
1
102
RTVSPost2010Prop54
  1
strokes_ogs.tif
102
RTVSPost2010PropOp54
 70
1
102
RTVSPost2010Prop55
280
0
102
RTVSPost2010PropOp55
 70
1
102
RTVSPost2010Prop56
140
1.0
102
RTVSPost2010PropOp56
 70
1
102
RTVSPost2010Prop57
140
1.0
102
RTVSPost2010PropOp57
 70
1
102
RTVSPropertyOp0
 70
1
102
RTVSPropertyOp1
 70
1
102
RTVSPropertyOp2
 70
1
102
RTVSPropertyOp3
 70
1
102
RTVSPropertyOp4
 70
1
102
RTVSPropertyOp5
 70
1
102
RTVSPropertyOp6
 70
1
102
RTVSPropertyOp7
 70
1
102
RTVSPropertyOp8
 70
1
102
RTVSPropertyOp9
 70
1
102
RTVSPropertyOp10
 70
1
102
RTVSPropertyOp11
 70
1
102
RTVSPropertyOp12
 70
1
102
RTVSPropertyOp13
 70
1
102
RTVSPropertyOp14
 70
1
102
RTVSPropertyOp15
 70
1
102
RTVSPropertyOp16
 70
1
102
RTVSPropertyOp17
 70
1
102
RTVSPropertyOp18
 70
1
102
RTVSPropertyOp19
 70
1
102
RTVSPropertyOp20
 70
1
102
RTVSPropertyOp21
 70
1
102
RTVSPropertyOp22
 70
1
102
RTVSPropertyOp23
 70
1
102
RTVSPropertyOp24
 70
1
102
RTVSPropertyOp25
 70
1
102
RTVSPropertyOp26
 70
1
102
RTVSPropertyOp27
 70
1
102
RTVSPropertyOp28
 70
1
102
RTVSPropertyOp29
 70
1
102
RTVSPropertyOp30
 70
1
102
RTVSPropertyOp31
 70
1
102
RTVSPropertyOp32
 70
1
102
RTVSPropertyOp33
 70
1
102
RTVSPropertyOp34
 70
1
102
RTVSPropertyOp35
 70
1
102
RTVSPropertyOp36
 70
1
102
RTVSPropertyOp37
 70
1
102
RTVSPropertyOp38
 70
1
102
RTVSPropertyOp39
 70
1
102
RTVSPropertyOp40
 70
1
102
RTVSPropertyOp41
 70
1
102
RTVSPropertyOp42
 70
1
102
RTVSPropertyOp43
 70
1
102
RTVSPropertyOp44
 70
1
102
RTVSPropertyOp45
 70
1
102
RTVSPropertyOp46
 70
1
102
RTVSPropertyOp47
 70
1
102
RTVSPropertyOp48
 70
1
102
RTVSPropertyOp49
 70
1
102
RTVSPropertyOp50
 70
1
102
RTVSPropertyOp51
 70
0
102
RTVSPropertyOp52
 70
0
102
RTVSPropertyOp53
 70
1
102
RTVSPropertyOp54
 70
1
102
RTVSPropertyOp55
 70
1
102
RTVSPropertyOp56
 70
1
102
RTVSPropertyOp57
 70
1
102
RTVSPropertyOp58
 70
1
102
RTVSPropertyOp59
 70
1
102
RTVSPropertyOp60
 70
1
102
RTVSPropertyOp61
 70
1
102
RTVSPropertyOp62
 70
1
  0
XRECORD
  5
A74
102
{ACAD_REACTORS
330
A73
102
}
330
A73
100
AcDbXrecord
280
1
102
RTVSPost2010Prop28
280
0
102
RTVSPost2010PropOp28
 70
1
102
RTVSPost2010Prop29
280
1
102
RTVSPost2010PropOp29
 70
1
102
RTVSPost2010Prop30
280
1
102
RTVSPost2010PropOp30
 70
1
102
RTVSPost2010Prop31
280
0
102
RTVSPost2010PropOp31
 70
1
102
RTVSPost2010Prop32
280
0
102
RTVSPost2010PropOp32
 70
1
102
RTVSPost2010Prop33
280
0
102
RTVSPost2010PropOp33
 70
1
102
RTVSPost2010Prop34
280
0
102
RTVSPost2010PropOp34
 70
1
102
RTVSPost2010Prop35
280
0
102
RTVSPost2010PropOp35
 70
1
102
RTVSPost2010Prop36
280
0
102
RTVSPost2010PropOp36
 70
1
102
RTVSPost2010Prop37
 90
50
102
RTVSPost2010PropOp37
 70
1
102
RTVSPost2010Prop38
140
0.0
102
RTVSPost2010PropOp38
 70
1
102
RTVSPost2010Prop39
140
1.0
102
RTVSPost2010PropOp39
 70
1
102
RTVSPost2010Prop40
 90
0
102
RTVSPost2010PropOp40
 70
1
102
RTVSPost2010Prop41ColorIndex
 90
18
102
RTVSPost2010Prop41ColorRGB
 90
0
102
RTVSPost2010PropOp41
 70
1
102
RTVSPost2010Prop42
 90
50
102
RTVSPost2010PropOp42
 70
1
102
RTVSPost2010Prop43
 90
3
102
RTVSPost2010PropOp43
 70
1
102
RTVSPost2010Prop44ColorIndex
 90
5
102
RTVSPost2010Prop44ColorRGB
 90
255
102
RTVSPost2010PropOp44
 70
1
102
RTVSPost2010Prop45
280
0
102
RTVSPost2010PropOp45
 70
1
102
RTVSPost2010Prop46
 90
50
102
RTVSPost2010PropOp46
 70
1
102
RTVSPost2010Prop47
 90
50
102
RTVSPost2010PropOp47
 70
1
102
RTVSPost2010Prop48
 90
50
102
RTVSPost2010PropOp48
 70
1
102
RTVSPost2010Prop49
280
0
102
RTVSPost2010PropOp49
 70
1
102
RTVSPost2010Prop50
 90
50
102
RTVSPost2010PropOp50
 70
1
102
RTVSPost2010Prop51ColorIndex
 90
256
102
RTVSPost2010Prop51ColorRGB
 90
-16777216
102
RTVSPost2010PropOp51
 70
0
102
RTVSPost2010Prop52
140
1.0
102
RTVSPost2010PropOp52
 70
0
102
RTVSPost2010Prop53
 90
2
102
RTVSPost2010PropOp53
 70
1
102
RTVSPost2010Prop54
  1
strokes_ogs.tif
102
RTVSPost2010PropOp54
 70
1
102
RTVSPost2010Prop55
280
0
102
RTVSPost2010PropOp55
 70
1
102
RTVSPost2010Prop56
140
1.0
102
RTVSPost2010PropOp56
 70
1
102
RTVSPost2010Prop57
140
1.0
102
RTVSPost2010PropOp57
 70
1
102
RTVSPropertyOp0
 70
1
102
RTVSPropertyOp1
 70
1
102
RTVSPropertyOp2
 70
1
102
RTVSPropertyOp3
 70
1
102
RTVSPropertyOp4
 70
1
102
RTVSPropertyOp5
 70
1
102
RTVSPropertyOp6
 70
1
102
RTVSPropertyOp7
 70
1
102
RTVSPropertyOp8
 70
1
102
RTVSPropertyOp9
 70
1
102
RTVSPropertyOp10
 70
1
102
RTVSPropertyOp11
 70
1
102
RTVSPropertyOp12
 70
1
102
RTVSPropertyOp13
 70
1
102
RTVSPropertyOp14
 70
1
102
RTVSPropertyOp15
 70
1
102
RTVSPropertyOp16
 70
1
102
RTVSPropertyOp17
 70
1
102
RTVSPropertyOp18
 70
1
102
RTVSPropertyOp19
 70
1
102
RTVSPropertyOp20
 70
1
102
RTVSPropertyOp21
 70
1
102
RTVSPropertyOp22
 70
1
102
RTVSPropertyOp23
 70
1
102
RTVSPropertyOp24
 70
1
102
RTVSPropertyOp25
 70
1
102
RTVSPropertyOp26
 70
1
102
RTVSPropertyOp27
 70
1
102
RTVSPropertyOp28
 70
1
102
RTVSPropertyOp29
 70
1
102
RTVSPropertyOp30
 70
1
102
RTVSPropertyOp31
 70
1
102
RTVSPropertyOp32
 70
1
102
RTVSPropertyOp33
 70
1
102
RTVSPropertyOp34
 70
1
102
RTVSPropertyOp35
 70
1
102
RTVSPropertyOp36
 70
1
102
RTVSPropertyOp37
 70
1
102
RTVSPropertyOp38
 70
1
102
RTVSPropertyOp39
 70
1
102
RTVSPropertyOp40
 70
1
102
RTVSPropertyOp41
 70
1
102
RTVSPropertyOp42
 70
1
102
RTVSPropertyOp43
 70
1
102
RTVSPropertyOp44
 70
1
102
RTVSPropertyOp45
 70
1
102
RTVSPropertyOp46
 70
1
102
RTVSPropertyOp47
 70
1
102
RTVSPropertyOp48
 70
1
102
RTVSPropertyOp49
 70
1
102
RTVSPropertyOp50
 70
1
102
RTVSPropertyOp51
 70
0
102
RTVSPropertyOp52
 70
0
102
RTVSPropertyOp53
 70
1
102
RTVSPropertyOp54
 70
1
102
RTVSPropertyOp55
 70
1
102
RTVSPropertyOp56
 70
1
102
RTVSPropertyOp57
 70
1
102
RTVSPropertyOp58
 70
1
102
RTVSPropertyOp59
 70
1
102
RTVSPropertyOp60
 70
1
102
RTVSPropertyOp61
 70
1
102
RTVSPropertyOp62
 70
1
  0
XRECORD
  5
A78
102
{ACAD_REACTORS
330
A77
102
}
330
A77
100
AcDbXrecord
280
1
102
RTVSPost2010Prop28
280
0
102
RTVSPost2010PropOp28
 70
1
102
RTVSPost2010Prop29
280
1
102
RTVSPost2010PropOp29
 70
1
102
RTVSPost2010Prop30
280
1
102
RTVSPost2010PropOp30
 70
1
102
RTVSPost2010Prop31
280
0
102
RTVSPost2010PropOp31
 70
1
102
RTVSPost2010Prop32
280
0
102
RTVSPost2010PropOp32
 70
1
102
RTVSPost2010Prop33
280
0
102
RTVSPost2010PropOp33
 70
1
102
RTVSPost2010Prop34
280
0
102
RTVSPost2010PropOp34
 70
1
102
RTVSPost2010Prop35
280
0
102
RTVSPost2010PropOp35
 70
1
102
RTVSPost2010Prop36
280
0
102
RTVSPost2010PropOp36
 70
1
102
RTVSPost2010Prop37
 90
50
102
RTVSPost2010PropOp37
 70
1
102
RTVSPost2010Prop38
140
0.0
102
RTVSPost2010PropOp38
 70
1
102
RTVSPost2010Prop39
140
1.0
102
RTVSPost2010PropOp39
 70
1
102
RTVSPost2010Prop40
 90
0
102
RTVSPost2010PropOp40
 70
1
102
RTVSPost2010Prop41ColorIndex
 90
18
102
RTVSPost2010Prop41ColorRGB
 90
0
102
RTVSPost2010PropOp41
 70
1
102
RTVSPost2010Prop42
 90
50
102
RTVSPost2010PropOp42
 70
1
102
RTVSPost2010Prop43
 90
3
102
RTVSPost2010PropOp43
 70
1
102
RTVSPost2010Prop44ColorIndex
 90
5
102
RTVSPost2010Prop44ColorRGB
 90
255
102
RTVSPost2010PropOp44
 70
1
102
RTVSPost2010Prop45
280
0
102
RTVSPost2010PropOp45
 70
1
102
RTVSPost2010Prop46
 90
50
102
RTVSPost2010PropOp46
 70
1
102
RTVSPost2010Prop47
 90
50
102
RTVSPost2010PropOp47
 70
1
102
RTVSPost2010Prop48
 90
50
102
RTVSPost2010PropOp48
 70
1
102
RTVSPost2010Prop49
280
0
102
RTVSPost2010PropOp49
 70
1
102
RTVSPost2010Prop50
 90
50
102
RTVSPost2010PropOp50
 70
1
102
RTVSPost2010Prop51ColorIndex
 90
256
102
RTVSPost2010Prop51ColorRGB
 90
-16777216
102
RTVSPost2010PropOp51
 70
0
102
RTVSPost2010Prop52
140
1.0
102
RTVSPost2010PropOp52
 70
0
102
RTVSPost2010Prop53
 90
2
102
RTVSPost2010PropOp53
 70
1
102
RTVSPost2010Prop54
  1
strokes_ogs.tif
102
RTVSPost2010PropOp54
 70
1
102
RTVSPost2010Prop55
280
0
102
RTVSPost2010PropOp55
 70
1
102
RTVSPost2010Prop56
140
1.0
102
RTVSPost2010PropOp56
 70
1
102
RTVSPost2010Prop57
140
1.0
102
RTVSPost2010PropOp57
 70
1
102
RTVSPropertyOp0
 70
1
102
RTVSPropertyOp1
 70
1
102
RTVSPropertyOp2
 70
1
102
RTVSPropertyOp3
 70
1
102
RTVSPropertyOp4
 70
1
102
RTVSPropertyOp5
 70
1
102
RTVSPropertyOp6
 70
1
102
RTVSPropertyOp7
 70
1
102
RTVSPropertyOp8
 70
1
102
RTVSPropertyOp9
 70
1
102
RTVSPropertyOp10
 70
1
102
RTVSPropertyOp11
 70
1
102
RTVSPropertyOp12
 70
1
102
RTVSPropertyOp13
 70
1
102
RTVSPropertyOp14
 70
1
102
RTVSPropertyOp15
 70
1
102
RTVSPropertyOp16
 70
1
102
RTVSPropertyOp17
 70
1
102
RTVSPropertyOp18
 70
1
102
RTVSPropertyOp19
 70
1
102
RTVSPropertyOp20
 70
1
102
RTVSPropertyOp21
 70
1
102
RTVSPropertyOp22
 70
1
102
RTVSPropertyOp23
 70
1
102
RTVSPropertyOp24
 70
1
102
RTVSPropertyOp25
 70
1
102
RTVSPropertyOp26
 70
1
102
RTVSPropertyOp27
 70
1
102
RTVSPropertyOp28
 70
1
102
RTVSPropertyOp29
 70
1
102
RTVSPropertyOp30
 70
1
102
RTVSPropertyOp31
 70
1
102
RTVSPropertyOp32
 70
1
102
RTVSPropertyOp33
 70
1
102
RTVSPropertyOp34
 70
1
102
RTVSPropertyOp35
 70
1
102
RTVSPropertyOp36
 70
1
102
RTVSPropertyOp37
 70
1
102
RTVSPropertyOp38
 70
1
102
RTVSPropertyOp39
 70
1
102
RTVSPropertyOp40
 70
1
102
RTVSPropertyOp41
 70
1
102
RTVSPropertyOp42
 70
1
102
RTVSPropertyOp43
 70
1
102
RTVSPropertyOp44
 70
1
102
RTVSPropertyOp45
 70
1
102
RTVSPropertyOp46
 70
1
102
RTVSPropertyOp47
 70
1
102
RTVSPropertyOp48
 70
1
102
RTVSPropertyOp49
 70
1
102
RTVSPropertyOp50
 70
1
102
RTVSPropertyOp51
 70
0
102
RTVSPropertyOp52
 70
0
102
RTVSPropertyOp53
 70
1
102
RTVSPropertyOp54
 70
1
102
RTVSPropertyOp55
 70
1
102
RTVSPropertyOp56
 70
1
102
RTVSPropertyOp57
 70
1
102
RTVSPropertyOp58
 70
1
102
RTVSPropertyOp59
 70
1
102
RTVSPropertyOp60
 70
1
102
RTVSPropertyOp61
 70
1
102
RTVSPropertyOp62
 70
1
  0
XRECORD
  5
A92
102
{ACAD_REACTORS
330
A91
102
}
330
A91
100
AcDbXrecord
280
1
102
RTVSPost2010Prop28
280
0
102
RTVSPost2010PropOp28
 70
1
102
RTVSPost2010Prop29
280
1
102
RTVSPost2010PropOp29
 70
1
102
RTVSPost2010Prop30
280
1
102
RTVSPost2010PropOp30
 70
1
102
RTVSPost2010Prop31
280
0
102
RTVSPost2010PropOp31
 70
1
102
RTVSPost2010Prop32
280
0
102
RTVSPost2010PropOp32
 70
1
102
RTVSPost2010Prop33
280
0
102
RTVSPost2010PropOp33
 70
1
102
RTVSPost2010Prop34
280
0
102
RTVSPost2010PropOp34
 70
1
102
RTVSPost2010Prop35
280
0
102
RTVSPost2010PropOp35
 70
1
102
RTVSPost2010Prop36
280
0
102
RTVSPost2010PropOp36
 70
1
102
RTVSPost2010Prop37
 90
50
102
RTVSPost2010PropOp37
 70
0
102
RTVSPost2010Prop38
140
0.0
102
RTVSPost2010PropOp38
 70
0
102
RTVSPost2010Prop39
140
1.0
102
RTVSPost2010PropOp39
 70
0
102
RTVSPost2010Prop40
 90
0
102
RTVSPost2010PropOp40
 70
0
102
RTVSPost2010Prop41ColorIndex
 90
18
102
RTVSPost2010Prop41ColorRGB
 90
0
102
RTVSPost2010PropOp41
 70
0
102
RTVSPost2010Prop42
 90
50
102
RTVSPost2010PropOp42
 70
0
102
RTVSPost2010Prop43
 90
3
102
RTVSPost2010PropOp43
 70
0
102
RTVSPost2010Prop44ColorIndex
 90
5
102
RTVSPost2010Prop44ColorRGB
 90
255
102
RTVSPost2010PropOp44
 70
0
102
RTVSPost2010Prop45
280
0
102
RTVSPost2010PropOp45
 70
1
102
RTVSPost2010Prop46
 90
50
102
RTVSPost2010PropOp46
 70
0
102
RTVSPost2010Prop47
 90
50
102
RTVSPost2010PropOp47
 70
0
102
RTVSPost2010Prop48
 90
50
102
RTVSPost2010PropOp48
 70
0
102
RTVSPost2010Prop49
280
0
102
RTVSPost2010PropOp49
 70
1
102
RTVSPost2010Prop50
 90
50
102
RTVSPost2010PropOp50
 70
0
102
RTVSPost2010Prop51ColorIndex
 90
256
102
RTVSPost2010Prop51ColorRGB
 90
-16777216
102
RTVSPost2010PropOp51
 70
0
102
RTVSPost2010Prop52
140
1.0
102
RTVSPost2010PropOp52
 70
0
102
RTVSPost2010Prop53
 90
2
102
RTVSPost2010PropOp53
 70
0
102
RTVSPost2010Prop54
  1
strokes_ogs.tif
102
RTVSPost2010PropOp54
 70
0
102
RTVSPost2010Prop55
280
0
102
RTVSPost2010PropOp55
 70
1
102
RTVSPost2010Prop56
140
1.0
102
RTVSPost2010PropOp56
 70
0
102
RTVSPost2010Prop57
140
1.0
102
RTVSPost2010PropOp57
 70
0
102
RTVSPropertyOp0
 70
0
102
RTVSPropertyOp1
 70
0
102
RTVSPropertyOp2
 70
0
102
RTVSPropertyOp3
 70
0
102
RTVSPropertyOp4
 70
0
102
RTVSPropertyOp5
 70
0
102
RTVSPropertyOp6
 70
0
102
RTVSPropertyOp7
 70
0
102
RTVSPropertyOp8
 70
0
102
RTVSPropertyOp9
 70
0
102
RTVSPropertyOp10
 70
0
102
RTVSPropertyOp11
 70
0
102
RTVSPropertyOp12
 70
0
102
RTVSPropertyOp13
 70
0
102
RTVSPropertyOp14
 70
2
102
RTVSPropertyOp15
 70
0
102
RTVSPropertyOp16
 70
0
102
RTVSPropertyOp17
 70
0
102
RTVSPropertyOp18
 70
0
102
RTVSPropertyOp19
 70
0
102
RTVSPropertyOp20
 70
0
102
RTVSPropertyOp21
 70
0
102
RTVSPropertyOp22
 70
0
102
RTVSPropertyOp23
 70
0
102
RTVSPropertyOp24
 70
0
102
RTVSPropertyOp25
 70
0
102
RTVSPropertyOp26
 70
0
102
RTVSPropertyOp27
 70
0
102
RTVSPropertyOp28
 70
1
102
RTVSPropertyOp29
 70
1
102
RTVSPropertyOp30
 70
1
102
RTVSPropertyOp31
 70
1
102
RTVSPropertyOp32
 70
1
102
RTVSPropertyOp33
 70
1
102
RTVSPropertyOp34
 70
1
102
RTVSPropertyOp35
 70
1
102
RTVSPropertyOp36
 70
1
102
RTVSPropertyOp37
 70
0
102
RTVSPropertyOp38
 70
0
102
RTVSPropertyOp39
 70
0
102
RTVSPropertyOp40
 70
0
102
RTVSPropertyOp41
 70
0
102
RTVSPropertyOp42
 70
0
102
RTVSPropertyOp43
 70
0
102
RTVSPropertyOp44
 70
0
102
RTVSPropertyOp45
 70
1
102
RTVSPropertyOp46
 70
0
102
RTVSPropertyOp47
 70
0
102
RTVSPropertyOp48
 70
0
102
RTVSPropertyOp49
 70
1
102
RTVSPropertyOp50
 70
0
102
RTVSPropertyOp51
 70
0
102
RTVSPropertyOp52
 70
0
102
RTVSPropertyOp53
 70
0
102
RTVSPropertyOp54
 70
0
102
RTVSPropertyOp55
 70
1
102
RTVSPropertyOp56
 70
0
102
RTVSPropertyOp57
 70
0
102
RTVSPropertyOp58
 70
0
102
RTVSPropertyOp59
 70
0
102
RTVSPropertyOp60
 70
0
102
RTVSPropertyOp61
 70
0
102
RTVSPropertyOp62
 70
0
  0
XRECORD
  5
A80
102
{ACAD_REACTORS
330
A7F
102
}
330
A7F
100
AcDbXrecord
280
1
102
RTVSPost2010Prop28
280
0
102
RTVSPost2010PropOp28
 70
1
102
RTVSPost2010Prop29
280
1
102
RTVSPost2010PropOp29
 70
1
102
RTVSPost2010Prop30
280
1
102
RTVSPost2010PropOp30
 70
1
102
RTVSPost2010Prop31
280
0
102
RTVSPost2010PropOp31
 70
1
102
RTVSPost2010Prop32
280
0
102
RTVSPost2010PropOp32
 70
1
102
RTVSPost2010Prop33
280
0
102
RTVSPost2010PropOp33
 70
1
102
RTVSPost2010Prop34
280
0
102
RTVSPost2010PropOp34
 70
1
102
RTVSPost2010Prop35
280
0
102
RTVSPost2010PropOp35
 70
1
102
RTVSPost2010Prop36
280
0
102
RTVSPost2010PropOp36
 70
1
102
RTVSPost2010Prop37
 90
50
102
RTVSPost2010PropOp37
 70
1
102
RTVSPost2010Prop38
140
0.0
102
RTVSPost2010PropOp38
 70
1
102
RTVSPost2010Prop39
140
1.0
102
RTVSPost2010PropOp39
 70
1
102
RTVSPost2010Prop40
 90
0
102
RTVSPost2010PropOp40
 70
1
102
RTVSPost2010Prop41ColorIndex
 90
18
102
RTVSPost2010Prop41ColorRGB
 90
0
102
RTVSPost2010PropOp41
 70
1
102
RTVSPost2010Prop42
 90
50
102
RTVSPost2010PropOp42
 70
1
102
RTVSPost2010Prop43
 90
3
102
RTVSPost2010PropOp43
 70
1
102
RTVSPost2010Prop44ColorIndex
 90
5
102
RTVSPost2010Prop44ColorRGB
 90
255
102
RTVSPost2010PropOp44
 70
1
102
RTVSPost2010Prop45
280
0
102
RTVSPost2010PropOp45
 70
1
102
RTVSPost2010Prop46
 90
50
102
RTVSPost2010PropOp46
 70
1
102
RTVSPost2010Prop47
 90
50
102
RTVSPost2010PropOp47
 70
1
102
RTVSPost2010Prop48
 90
50
102
RTVSPost2010PropOp48
 70
1
102
RTVSPost2010Prop49
280
0
102
RTVSPost2010PropOp49
 70
1
102
RTVSPost2010Prop50
 90
50
102
RTVSPost2010PropOp50
 70
1
102
RTVSPost2010Prop51ColorIndex
 90
256
102
RTVSPost2010Prop51ColorRGB
 90
-16777216
102
RTVSPost2010PropOp51
 70
0
102
RTVSPost2010Prop52
140
1.0
102
RTVSPost2010PropOp52
 70
0
102
RTVSPost2010Prop53
 90
2
102
RTVSPost2010PropOp53
 70
1
102
RTVSPost2010Prop54
  1
strokes_ogs.tif
102
RTVSPost2010PropOp54
 70
1
102
RTVSPost2010Prop55
280
0
102
RTVSPost2010PropOp55
 70
1
102
RTVSPost2010Prop56
140
1.0
102
RTVSPost2010PropOp56
 70
1
102
RTVSPost2010Prop57
140
1.0
102
RTVSPost2010PropOp57
 70
1
102
RTVSPropertyOp0
 70
1
102
RTVSPropertyOp1
 70
1
102
RTVSPropertyOp2
 70
1
102
RTVSPropertyOp3
 70
1
102
RTVSPropertyOp4
 70
1
102
RTVSPropertyOp5
 70
1
102
RTVSPropertyOp6
 70
1
102
RTVSPropertyOp7
 70
1
102
RTVSPropertyOp8
 70
1
102
RTVSPropertyOp9
 70
1
102
RTVSPropertyOp10
 70
1
102
RTVSPropertyOp11
 70
1
102
RTVSPropertyOp12
 70
1
102
RTVSPropertyOp13
 70
1
102
RTVSPropertyOp14
 70
1
102
RTVSPropertyOp15
 70
1
102
RTVSPropertyOp16
 70
1
102
RTVSPropertyOp17
 70
1
102
RTVSPropertyOp18
 70
1
102
RTVSPropertyOp19
 70
1
102
RTVSPropertyOp20
 70
1
102
RTVSPropertyOp21
 70
1
102
RTVSPropertyOp22
 70
1
102
RTVSPropertyOp23
 70
1
102
RTVSPropertyOp24
 70
1
102
RTVSPropertyOp25
 70
1
102
RTVSPropertyOp26
 70
1
102
RTVSPropertyOp27
 70
1
102
RTVSPropertyOp28
 70
1
102
RTVSPropertyOp29
 70
1
102
RTVSPropertyOp30
 70
1
102
RTVSPropertyOp31
 70
1
102
RTVSPropertyOp32
 70
1
102
RTVSPropertyOp33
 70
1
102
RTVSPropertyOp34
 70
1
102
RTVSPropertyOp35
 70
1
102
RTVSPropertyOp36
 70
1
102
RTVSPropertyOp37
 70
1
102
RTVSPropertyOp38
 70
1
102
RTVSPropertyOp39
 70
1
102
RTVSPropertyOp40
 70
1
102
RTVSPropertyOp41
 70
1
102
RTVSPropertyOp42
 70
1
102
RTVSPropertyOp43
 70
1
102
RTVSPropertyOp44
 70
1
102
RTVSPropertyOp45
 70
1
102
RTVSPropertyOp46
 70
1
102
RTVSPropertyOp47
 70
1
102
RTVSPropertyOp48
 70
1
102
RTVSPropertyOp49
 70
1
102
RTVSPropertyOp50
 70
1
102
RTVSPropertyOp51
 70
0
102
RTVSPropertyOp52
 70
0
102
RTVSPropertyOp53
 70
1
102
RTVSPropertyOp54
 70
1
102
RTVSPropertyOp55
 70
1
102
RTVSPropertyOp56
 70
1
102
RTVSPropertyOp57
 70
1
102
RTVSPropertyOp58
 70
1
102
RTVSPropertyOp59
 70
1
102
RTVSPropertyOp60
 70
1
102
RTVSPropertyOp61
 70
1
102
RTVSPropertyOp62
 70
1
  0
XRECORD
  5
A64
102
{ACAD_REACTORS
330
A63
102
}
330
A63
100
AcDbXrecord
280
1
102
RTVSPost2010Prop28
280
0
102
RTVSPost2010PropOp28
 70
1
102
RTVSPost2010Prop29
280
1
102
RTVSPost2010PropOp29
 70
1
102
RTVSPost2010Prop30
280
1
102
RTVSPost2010PropOp30
 70
1
102
RTVSPost2010Prop31
280
0
102
RTVSPost2010PropOp31
 70
1
102
RTVSPost2010Prop32
280
0
102
RTVSPost2010PropOp32
 70
1
102
RTVSPost2010Prop33
280
0
102
RTVSPost2010PropOp33
 70
1
102
RTVSPost2010Prop34
280
0
102
RTVSPost2010PropOp34
 70
1
102
RTVSPost2010Prop35
280
0
102
RTVSPost2010PropOp35
 70
1
102
RTVSPost2010Prop36
280
0
102
RTVSPost2010PropOp36
 70
1
102
RTVSPost2010Prop37
 90
50
102
RTVSPost2010PropOp37
 70
1
102
RTVSPost2010Prop38
140
0.0
102
RTVSPost2010PropOp38
 70
1
102
RTVSPost2010Prop39
140
1.0
102
RTVSPost2010PropOp39
 70
1
102
RTVSPost2010Prop40
 90
0
102
RTVSPost2010PropOp40
 70
1
102
RTVSPost2010Prop41ColorIndex
 90
18
102
RTVSPost2010Prop41ColorRGB
 90
0
102
RTVSPost2010PropOp41
 70
1
102
RTVSPost2010Prop42
 90
50
102
RTVSPost2010PropOp42
 70
1
102
RTVSPost2010Prop43
 90
3
102
RTVSPost2010PropOp43
 70
1
102
RTVSPost2010Prop44ColorIndex
 90
5
102
RTVSPost2010Prop44ColorRGB
 90
255
102
RTVSPost2010PropOp44
 70
1
102
RTVSPost2010Prop45
280
0
102
RTVSPost2010PropOp45
 70
1
102
RTVSPost2010Prop46
 90
50
102
RTVSPost2010PropOp46
 70
1
102
RTVSPost2010Prop47
 90
50
102
RTVSPost2010PropOp47
 70
1
102
RTVSPost2010Prop48
 90
50
102
RTVSPost2010PropOp48
 70
1
102
RTVSPost2010Prop49
280
0
102
RTVSPost2010PropOp49
 70
1
102
RTVSPost2010Prop50
 90
50
102
RTVSPost2010PropOp50
 70
1
102
RTVSPost2010Prop51ColorIndex
 90
256
102
RTVSPost2010Prop51ColorRGB
 90
-16777216
102
RTVSPost2010PropOp51
 70
0
102
RTVSPost2010Prop52
140
1.0
102
RTVSPost2010PropOp52
 70
0
102
RTVSPost2010Prop53
 90
2
102
RTVSPost2010PropOp53
 70
1
102
RTVSPost2010Prop54
  1
strokes_ogs.tif
102
RTVSPost2010PropOp54
 70
1
102
RTVSPost2010Prop55
280
0
102
RTVSPost2010PropOp55
 70
1
102
RTVSPost2010Prop56
140
1.0
102
RTVSPost2010PropOp56
 70
1
102
RTVSPost2010Prop57
140
1.0
102
RTVSPost2010PropOp57
 70
1
102
RTVSPropertyOp0
 70
1
102
RTVSPropertyOp1
 70
1
102
RTVSPropertyOp2
 70
1
102
RTVSPropertyOp3
 70
1
102
RTVSPropertyOp4
 70
1
102
RTVSPropertyOp5
 70
1
102
RTVSPropertyOp6
 70
1
102
RTVSPropertyOp7
 70
1
102
RTVSPropertyOp8
 70
1
102
RTVSPropertyOp9
 70
1
102
RTVSPropertyOp10
 70
1
102
RTVSPropertyOp11
 70
1
102
RTVSPropertyOp12
 70
1
102
RTVSPropertyOp13
 70
1
102
RTVSPropertyOp14
 70
1
102
RTVSPropertyOp15
 70
1
102
RTVSPropertyOp16
 70
1
102
RTVSPropertyOp17
 70
1
102
RTVSPropertyOp18
 70
1
102
RTVSPropertyOp19
 70
1
102
RTVSPropertyOp20
 70
1
102
RTVSPropertyOp21
 70
1
102
RTVSPropertyOp22
 70
1
102
RTVSPropertyOp23
 70
1
102
RTVSPropertyOp24
 70
1
102
RTVSPropertyOp25
 70
1
102
RTVSPropertyOp26
 70
1
102
RTVSPropertyOp27
 70
1
102
RTVSPropertyOp28
 70
1
102
RTVSPropertyOp29
 70
1
102
RTVSPropertyOp30
 70
1
102
RTVSPropertyOp31
 70
1
102
RTVSPropertyOp32
 70
1
102
RTVSPropertyOp33
 70
1
102
RTVSPropertyOp34
 70
1
102
RTVSPropertyOp35
 70
1
102
RTVSPropertyOp36
 70
1
102
RTVSPropertyOp37
 70
1
102
RTVSPropertyOp38
 70
1
102
RTVSPropertyOp39
 70
1
102
RTVSPropertyOp40
 70
1
102
RTVSPropertyOp41
 70
1
102
RTVSPropertyOp42
 70
1
102
RTVSPropertyOp43
 70
1
102
RTVSPropertyOp44
 70
1
102
RTVSPropertyOp45
 70
1
102
RTVSPropertyOp46
 70
1
102
RTVSPropertyOp47
 70
1
102
RTVSPropertyOp48
 70
1
102
RTVSPropertyOp49
 70
1
102
RTVSPropertyOp50
 70
1
102
RTVSPropertyOp51
 70
0
102
RTVSPropertyOp52
 70
0
102
RTVSPropertyOp53
 70
1
102
RTVSPropertyOp54
 70
1
102
RTVSPropertyOp55
 70
1
102
RTVSPropertyOp56
 70
1
102
RTVSPropertyOp57
 70
1
102
RTVSPropertyOp58
 70
1
102
RTVSPropertyOp59
 70
1
102
RTVSPropertyOp60
 70
1
102
RTVSPropertyOp61
 70
1
102
RTVSPropertyOp62
 70
1
  0
XRECORD
  5
A66
102
{ACAD_REACTORS
330
A65
102
}
330
A65
100
AcDbXrecord
280
1
102
RTVSPost2010Prop28
280
0
102
RTVSPost2010PropOp28
 70
1
102
RTVSPost2010Prop29
280
1
102
RTVSPost2010PropOp29
 70
1
102
RTVSPost2010Prop30
280
1
102
RTVSPost2010PropOp30
 70
1
102
RTVSPost2010Prop31
280
0
102
RTVSPost2010PropOp31
 70
1
102
RTVSPost2010Prop32
280
0
102
RTVSPost2010PropOp32
 70
1
102
RTVSPost2010Prop33
280
0
102
RTVSPost2010PropOp33
 70
1
102
RTVSPost2010Prop34
280
0
102
RTVSPost2010PropOp34
 70
1
102
RTVSPost2010Prop35
280
0
102
RTVSPost2010PropOp35
 70
1
102
RTVSPost2010Prop36
280
0
102
RTVSPost2010PropOp36
 70
1
102
RTVSPost2010Prop37
 90
50
102
RTVSPost2010PropOp37
 70
1
102
RTVSPost2010Prop38
140
0.0
102
RTVSPost2010PropOp38
 70
1
102
RTVSPost2010Prop39
140
1.0
102
RTVSPost2010PropOp39
 70
1
102
RTVSPost2010Prop40
 90
0
102
RTVSPost2010PropOp40
 70
1
102
RTVSPost2010Prop41ColorIndex
 90
18
102
RTVSPost2010Prop41ColorRGB
 90
0
102
RTVSPost2010PropOp41
 70
1
102
RTVSPost2010Prop42
 90
50
102
RTVSPost2010PropOp42
 70
1
102
RTVSPost2010Prop43
 90
3
102
RTVSPost2010PropOp43
 70
1
102
RTVSPost2010Prop44ColorIndex
 90
5
102
RTVSPost2010Prop44ColorRGB
 90
255
102
RTVSPost2010PropOp44
 70
1
102
RTVSPost2010Prop45
280
0
102
RTVSPost2010PropOp45
 70
1
102
RTVSPost2010Prop46
 90
50
102
RTVSPost2010PropOp46
 70
1
102
RTVSPost2010Prop47
 90
50
102
RTVSPost2010PropOp47
 70
1
102
RTVSPost2010Prop48
 90
50
102
RTVSPost2010PropOp48
 70
1
102
RTVSPost2010Prop49
280
0
102
RTVSPost2010PropOp49
 70
1
102
RTVSPost2010Prop50
 90
50
102
RTVSPost2010PropOp50
 70
1
102
RTVSPost2010Prop51ColorIndex
 90
256
102
RTVSPost2010Prop51ColorRGB
 90
-16777216
102
RTVSPost2010PropOp51
 70
0
102
RTVSPost2010Prop52
140
1.0
102
RTVSPost2010PropOp52
 70
0
102
RTVSPost2010Prop53
 90
2
102
RTVSPost2010PropOp53
 70
1
102
RTVSPost2010Prop54
  1
strokes_ogs.tif
102
RTVSPost2010PropOp54
 70
1
102
RTVSPost2010Prop55
280
0
102
RTVSPost2010PropOp55
 70
1
102
RTVSPost2010Prop56
140
1.0
102
RTVSPost2010PropOp56
 70
1
102
RTVSPost2010Prop57
140
1.0
102
RTVSPost2010PropOp57
 70
1
102
RTVSPropertyOp0
 70
1
102
RTVSPropertyOp1
 70
1
102
RTVSPropertyOp2
 70
1
102
RTVSPropertyOp3
 70
1
102
RTVSPropertyOp4
 70
1
102
RTVSPropertyOp5
 70
1
102
RTVSPropertyOp6
 70
1
102
RTVSPropertyOp7
 70
1
102
RTVSPropertyOp8
 70
1
102
RTVSPropertyOp9
 70
1
102
RTVSPropertyOp10
 70
1
102
RTVSPropertyOp11
 70
1
102
RTVSPropertyOp12
 70
1
102
RTVSPropertyOp13
 70
1
102
RTVSPropertyOp14
 70
1
102
RTVSPropertyOp15
 70
1
102
RTVSPropertyOp16
 70
1
102
RTVSPropertyOp17
 70
1
102
RTVSPropertyOp18
 70
1
102
RTVSPropertyOp19
 70
1
102
RTVSPropertyOp20
 70
1
102
RTVSPropertyOp21
 70
1
102
RTVSPropertyOp22
 70
1
102
RTVSPropertyOp23
 70
1
102
RTVSPropertyOp24
 70
1
102
RTVSPropertyOp25
 70
1
102
RTVSPropertyOp26
 70
1
102
RTVSPropertyOp27
 70
1
102
RTVSPropertyOp28
 70
1
102
RTVSPropertyOp29
 70
1
102
RTVSPropertyOp30
 70
1
102
RTVSPropertyOp31
 70
1
102
RTVSPropertyOp32
 70
1
102
RTVSPropertyOp33
 70
1
102
RTVSPropertyOp34
 70
1
102
RTVSPropertyOp35
 70
1
102
RTVSPropertyOp36
 70
1
102
RTVSPropertyOp37
 70
1
102
RTVSPropertyOp38
 70
1
102
RTVSPropertyOp39
 70
1
102
RTVSPropertyOp40
 70
1
102
RTVSPropertyOp41
 70
1
102
RTVSPropertyOp42
 70
1
102
RTVSPropertyOp43
 70
1
102
RTVSPropertyOp44
 70
1
102
RTVSPropertyOp45
 70
1
102
RTVSPropertyOp46
 70
1
102
RTVSPropertyOp47
 70
1
102
RTVSPropertyOp48
 70
1
102
RTVSPropertyOp49
 70
1
102
RTVSPropertyOp50
 70
1
102
RTVSPropertyOp51
 70
0
102
RTVSPropertyOp52
 70
0
102
RTVSPropertyOp53
 70
1
102
RTVSPropertyOp54
 70
1
102
RTVSPropertyOp55
 70
1
102
RTVSPropertyOp56
 70
1
102
RTVSPropertyOp57
 70
1
102
RTVSPropertyOp58
 70
1
102
RTVSPropertyOp59
 70
1
102
RTVSPropertyOp60
 70
1
102
RTVSPropertyOp61
 70
1
102
RTVSPropertyOp62
 70
1
  0
XRECORD
  5
A68
102
{ACAD_REACTORS
330
A67
102
}
330
A67
100
AcDbXrecord
280
1
102
RTVSPost2010Prop28
280
0
102
RTVSPost2010PropOp28
 70
1
102
RTVSPost2010Prop29
280
1
102
RTVSPost2010PropOp29
 70
1
102
RTVSPost2010Prop30
280
1
102
RTVSPost2010PropOp30
 70
1
102
RTVSPost2010Prop31
280
0
102
RTVSPost2010PropOp31
 70
1
102
RTVSPost2010Prop32
280
0
102
RTVSPost2010PropOp32
 70
1
102
RTVSPost2010Prop33
280
0
102
RTVSPost2010PropOp33
 70
1
102
RTVSPost2010Prop34
280
0
102
RTVSPost2010PropOp34
 70
1
102
RTVSPost2010Prop35
280
0
102
RTVSPost2010PropOp35
 70
1
102
RTVSPost2010Prop36
280
0
102
RTVSPost2010PropOp36
 70
1
102
RTVSPost2010Prop37
 90
50
102
RTVSPost2010PropOp37
 70
1
102
RTVSPost2010Prop38
140
0.0
102
RTVSPost2010PropOp38
 70
1
102
RTVSPost2010Prop39
140
1.0
102
RTVSPost2010PropOp39
 70
1
102
RTVSPost2010Prop40
 90
0
102
RTVSPost2010PropOp40
 70
1
102
RTVSPost2010Prop41ColorIndex
 90
18
102
RTVSPost2010Prop41ColorRGB
 90
0
102
RTVSPost2010PropOp41
 70
1
102
RTVSPost2010Prop42
 90
50
102
RTVSPost2010PropOp42
 70
1
102
RTVSPost2010Prop43
 90
3
102
RTVSPost2010PropOp43
 70
1
102
RTVSPost2010Prop44ColorIndex
 90
5
102
RTVSPost2010Prop44ColorRGB
 90
255
102
RTVSPost2010PropOp44
 70
1
102
RTVSPost2010Prop45
280
0
102
RTVSPost2010PropOp45
 70
1
102
RTVSPost2010Prop46
 90
50
102
RTVSPost2010PropOp46
 70
1
102
RTVSPost2010Prop47
 90
50
102
RTVSPost2010PropOp47
 70
1
102
RTVSPost2010Prop48
 90
50
102
RTVSPost2010PropOp48
 70
1
102
RTVSPost2010Prop49
280
0
102
RTVSPost2010PropOp49
 70
1
102
RTVSPost2010Prop50
 90
50
102
RTVSPost2010PropOp50
 70
1
102
RTVSPost2010Prop51ColorIndex
 90
256
102
RTVSPost2010Prop51ColorRGB
 90
-16777216
102
RTVSPost2010PropOp51
 70
0
102
RTVSPost2010Prop52
140
1.0
102
RTVSPost2010PropOp52
 70
0
102
RTVSPost2010Prop53
 90
2
102
RTVSPost2010PropOp53
 70
1
102
RTVSPost2010Prop54
  1
strokes_ogs.tif
102
RTVSPost2010PropOp54
 70
1
102
RTVSPost2010Prop55
280
0
102
RTVSPost2010PropOp55
 70
1
102
RTVSPost2010Prop56
140
1.0
102
RTVSPost2010PropOp56
 70
1
102
RTVSPost2010Prop57
140
1.0
102
RTVSPost2010PropOp57
 70
1
102
RTVSPropertyOp0
 70
1
102
RTVSPropertyOp1
 70
1
102
RTVSPropertyOp2
 70
1
102
RTVSPropertyOp3
 70
1
102
RTVSPropertyOp4
 70
1
102
RTVSPropertyOp5
 70
1
102
RTVSPropertyOp6
 70
1
102
RTVSPropertyOp7
 70
1
102
RTVSPropertyOp8
 70
1
102
RTVSPropertyOp9
 70
1
102
RTVSPropertyOp10
 70
1
102
RTVSPropertyOp11
 70
1
102
RTVSPropertyOp12
 70
1
102
RTVSPropertyOp13
 70
1
102
RTVSPropertyOp14
 70
1
102
RTVSPropertyOp15
 70
1
102
RTVSPropertyOp16
 70
1
102
RTVSPropertyOp17
 70
1
102
RTVSPropertyOp18
 70
1
102
RTVSPropertyOp19
 70
1
102
RTVSPropertyOp20
 70
1
102
RTVSPropertyOp21
 70
1
102
RTVSPropertyOp22
 70
1
102
RTVSPropertyOp23
 70
1
102
RTVSPropertyOp24
 70
1
102
RTVSPropertyOp25
 70
1
102
RTVSPropertyOp26
 70
1
102
RTVSPropertyOp27
 70
1
102
RTVSPropertyOp28
 70
1
102
RTVSPropertyOp29
 70
1
102
RTVSPropertyOp30
 70
1
102
RTVSPropertyOp31
 70
1
102
RTVSPropertyOp32
 70
1
102
RTVSPropertyOp33
 70
1
102
RTVSPropertyOp34
 70
1
102
RTVSPropertyOp35
 70
1
102
RTVSPropertyOp36
 70
1
102
RTVSPropertyOp37
 70
1
102
RTVSPropertyOp38
 70
1
102
RTVSPropertyOp39
 70
1
102
RTVSPropertyOp40
 70
1
102
RTVSPropertyOp41
 70
1
102
RTVSPropertyOp42
 70
1
102
RTVSPropertyOp43
 70
1
102
RTVSPropertyOp44
 70
1
102
RTVSPropertyOp45
 70
1
102
RTVSPropertyOp46
 70
1
102
RTVSPropertyOp47
 70
1
102
RTVSPropertyOp48
 70
1
102
RTVSPropertyOp49
 70
1
102
RTVSPropertyOp50
 70
1
102
RTVSPropertyOp51
 70
0
102
RTVSPropertyOp52
 70
0
102
RTVSPropertyOp53
 70
1
102
RTVSPropertyOp54
 70
1
102
RTVSPropertyOp55
 70
1
102
RTVSPropertyOp56
 70
1
102
RTVSPropertyOp57
 70
1
102
RTVSPropertyOp58
 70
1
102
RTVSPropertyOp59
 70
1
102
RTVSPropertyOp60
 70
1
102
RTVSPropertyOp61
 70
1
102
RTVSPropertyOp62
 70
1
  0
XRECORD
  5
A6A
102
{ACAD_REACTORS
330
A69
102
}
330
A69
100
AcDbXrecord
280
1
102
RTVSPost2010Prop28
280
0
102
RTVSPost2010PropOp28
 70
1
102
RTVSPost2010Prop29
280
1
102
RTVSPost2010PropOp29
 70
1
102
RTVSPost2010Prop30
280
1
102
RTVSPost2010PropOp30
 70
1
102
RTVSPost2010Prop31
280
0
102
RTVSPost2010PropOp31
 70
1
102
RTVSPost2010Prop32
280
0
102
RTVSPost2010PropOp32
 70
1
102
RTVSPost2010Prop33
280
0
102
RTVSPost2010PropOp33
 70
1
102
RTVSPost2010Prop34
280
0
102
RTVSPost2010PropOp34
 70
1
102
RTVSPost2010Prop35
280
0
102
RTVSPost2010PropOp35
 70
1
102
RTVSPost2010Prop36
280
0
102
RTVSPost2010PropOp36
 70
1
102
RTVSPost2010Prop37
 90
50
102
RTVSPost2010PropOp37
 70
1
102
RTVSPost2010Prop38
140
0.0
102
RTVSPost2010PropOp38
 70
1
102
RTVSPost2010Prop39
140
1.0
102
RTVSPost2010PropOp39
 70
1
102
RTVSPost2010Prop40
 90
0
102
RTVSPost2010PropOp40
 70
1
102
RTVSPost2010Prop41ColorIndex
 90
18
102
RTVSPost2010Prop41ColorRGB
 90
0
102
RTVSPost2010PropOp41
 70
1
102
RTVSPost2010Prop42
 90
50
102
RTVSPost2010PropOp42
 70
1
102
RTVSPost2010Prop43
 90
3
102
RTVSPost2010PropOp43
 70
1
102
RTVSPost2010Prop44ColorIndex
 90
5
102
RTVSPost2010Prop44ColorRGB
 90
255
102
RTVSPost2010PropOp44
 70
1
102
RTVSPost2010Prop45
280
0
102
RTVSPost2010PropOp45
 70
1
102
RTVSPost2010Prop46
 90
50
102
RTVSPost2010PropOp46
 70
1
102
RTVSPost2010Prop47
 90
50
102
RTVSPost2010PropOp47
 70
1
102
RTVSPost2010Prop48
 90
50
102
RTVSPost2010PropOp48
 70
1
102
RTVSPost2010Prop49
280
0
102
RTVSPost2010PropOp49
 70
1
102
RTVSPost2010Prop50
 90
50
102
RTVSPost2010PropOp50
 70
1
102
RTVSPost2010Prop51ColorIndex
 90
256
102
RTVSPost2010Prop51ColorRGB
 90
-16777216
102
RTVSPost2010PropOp51
 70
0
102
RTVSPost2010Prop52
140
1.0
102
RTVSPost2010PropOp52
 70
0
102
RTVSPost2010Prop53
 90
2
102
RTVSPost2010PropOp53
 70
1
102
RTVSPost2010Prop54
  1
strokes_ogs.tif
102
RTVSPost2010PropOp54
 70
1
102
RTVSPost2010Prop55
280
0
102
RTVSPost2010PropOp55
 70
1
102
RTVSPost2010Prop56
140
1.0
102
RTVSPost2010PropOp56
 70
1
102
RTVSPost2010Prop57
140
1.0
102
RTVSPost2010PropOp57
 70
1
102
RTVSPropertyOp0
 70
1
102
RTVSPropertyOp1
 70
1
102
RTVSPropertyOp2
 70
1
102
RTVSPropertyOp3
 70
1
102
RTVSPropertyOp4
 70
1
102
RTVSPropertyOp5
 70
1
102
RTVSPropertyOp6
 70
1
102
RTVSPropertyOp7
 70
1
102
RTVSPropertyOp8
 70
1
102
RTVSPropertyOp9
 70
1
102
RTVSPropertyOp10
 70
1
102
RTVSPropertyOp11
 70
1
102
RTVSPropertyOp12
 70
1
102
RTVSPropertyOp13
 70
1
102
RTVSPropertyOp14
 70
1
102
RTVSPropertyOp15
 70
1
102
RTVSPropertyOp16
 70
1
102
RTVSPropertyOp17
 70
1
102
RTVSPropertyOp18
 70
1
102
RTVSPropertyOp19
 70
1
102
RTVSPropertyOp20
 70
1
102
RTVSPropertyOp21
 70
1
102
RTVSPropertyOp22
 70
1
102
RTVSPropertyOp23
 70
1
102
RTVSPropertyOp24
 70
1
102
RTVSPropertyOp25
 70
1
102
RTVSPropertyOp26
 70
1
102
RTVSPropertyOp27
 70
1
102
RTVSPropertyOp28
 70
1
102
RTVSPropertyOp29
 70
1
102
RTVSPropertyOp30
 70
1
102
RTVSPropertyOp31
 70
1
102
RTVSPropertyOp32
 70
1
102
RTVSPropertyOp33
 70
1
102
RTVSPropertyOp34
 70
1
102
RTVSPropertyOp35
 70
1
102
RTVSPropertyOp36
 70
1
102
RTVSPropertyOp37
 70
1
102
RTVSPropertyOp38
 70
1
102
RTVSPropertyOp39
 70
1
102
RTVSPropertyOp40
 70
1
102
RTVSPropertyOp41
 70
1
102
RTVSPropertyOp42
 70
1
102
RTVSPropertyOp43
 70
1
102
RTVSPropertyOp44
 70
1
102
RTVSPropertyOp45
 70
1
102
RTVSPropertyOp46
 70
1
102
RTVSPropertyOp47
 70
1
102
RTVSPropertyOp48
 70
1
102
RTVSPropertyOp49
 70
1
102
RTVSPropertyOp50
 70
1
102
RTVSPropertyOp51
 70
0
102
RTVSPropertyOp52
 70
0
102
RTVSPropertyOp53
 70
1
102
RTVSPropertyOp54
 70
1
102
RTVSPropertyOp55
 70
1
102
RTVSPropertyOp56
 70
1
102
RTVSPropertyOp57
 70
1
102
RTVSPropertyOp58
 70
1
102
RTVSPropertyOp59
 70
1
102
RTVSPropertyOp60
 70
1
102
RTVSPropertyOp61
 70
1
102
RTVSPropertyOp62
 70
1
  0
XRECORD
  5
A72
102
{ACAD_REACTORS
330
A71
102
}
330
A71
100
AcDbXrecord
280
1
102
RTVSPost2010Prop28
280
0
102
RTVSPost2010PropOp28
 70
1
102
RTVSPost2010Prop29
280
1
102
RTVSPost2010PropOp29
 70
1
102
RTVSPost2010Prop30
280
1
102
RTVSPost2010PropOp30
 70
1
102
RTVSPost2010Prop31
280
0
102
RTVSPost2010PropOp31
 70
1
102
RTVSPost2010Prop32
280
0
102
RTVSPost2010PropOp32
 70
1
102
RTVSPost2010Prop33
280
0
102
RTVSPost2010PropOp33
 70
1
102
RTVSPost2010Prop34
280
0
102
RTVSPost2010PropOp34
 70
1
102
RTVSPost2010Prop35
280
0
102
RTVSPost2010PropOp35
 70
1
102
RTVSPost2010Prop36
280
0
102
RTVSPost2010PropOp36
 70
1
102
RTVSPost2010Prop37
 90
50
102
RTVSPost2010PropOp37
 70
1
102
RTVSPost2010Prop38
140
0.0
102
RTVSPost2010PropOp38
 70
1
102
RTVSPost2010Prop39
140
1.0
102
RTVSPost2010PropOp39
 70
1
102
RTVSPost2010Prop40
 90
0
102
RTVSPost2010PropOp40
 70
1
102
RTVSPost2010Prop41ColorIndex
 90
18
102
RTVSPost2010Prop41ColorRGB
 90
0
102
RTVSPost2010PropOp41
 70
1
102
RTVSPost2010Prop42
 90
50
102
RTVSPost2010PropOp42
 70
1
102
RTVSPost2010Prop43
 90
3
102
RTVSPost2010PropOp43
 70
1
102
RTVSPost2010Prop44ColorIndex
 90
5
102
RTVSPost2010Prop44ColorRGB
 90
255
102
RTVSPost2010PropOp44
 70
1
102
RTVSPost2010Prop45
280
0
102
RTVSPost2010PropOp45
 70
1
102
RTVSPost2010Prop46
 90
50
102
RTVSPost2010PropOp46
 70
1
102
RTVSPost2010Prop47
 90
50
102
RTVSPost2010PropOp47
 70
1
102
RTVSPost2010Prop48
 90
50
102
RTVSPost2010PropOp48
 70
1
102
RTVSPost2010Prop49
280
0
102
RTVSPost2010PropOp49
 70
1
102
RTVSPost2010Prop50
 90
50
102
RTVSPost2010PropOp50
 70
1
102
RTVSPost2010Prop51ColorIndex
 90
256
102
RTVSPost2010Prop51ColorRGB
 90
-16777216
102
RTVSPost2010PropOp51
 70
0
102
RTVSPost2010Prop52
140
1.0
102
RTVSPost2010PropOp52
 70
0
102
RTVSPost2010Prop53
 90
2
102
RTVSPost2010PropOp53
 70
1
102
RTVSPost2010Prop54
  1
strokes_ogs.tif
102
RTVSPost2010PropOp54
 70
1
102
RTVSPost2010Prop55
280
0
102
RTVSPost2010PropOp55
 70
1
102
RTVSPost2010Prop56
140
1.0
102
RTVSPost2010PropOp56
 70
1
102
RTVSPost2010Prop57
140
1.0
102
RTVSPost2010PropOp57
 70
1
102
RTVSPropertyOp0
 70
1
102
RTVSPropertyOp1
 70
1
102
RTVSPropertyOp2
 70
1
102
RTVSPropertyOp3
 70
1
102
RTVSPropertyOp4
 70
1
102
RTVSPropertyOp5
 70
1
102
RTVSPropertyOp6
 70
1
102
RTVSPropertyOp7
 70
1
102
RTVSPropertyOp8
 70
1
102
RTVSPropertyOp9
 70
1
102
RTVSPropertyOp10
 70
1
102
RTVSPropertyOp11
 70
1
102
RTVSPropertyOp12
 70
1
102
RTVSPropertyOp13
 70
1
102
RTVSPropertyOp14
 70
1
102
RTVSPropertyOp15
 70
1
102
RTVSPropertyOp16
 70
1
102
RTVSPropertyOp17
 70
1
102
RTVSPropertyOp18
 70
1
102
RTVSPropertyOp19
 70
1
102
RTVSPropertyOp20
 70
1
102
RTVSPropertyOp21
 70
1
102
RTVSPropertyOp22
 70
1
102
RTVSPropertyOp23
 70
1
102
RTVSPropertyOp24
 70
1
102
RTVSPropertyOp25
 70
1
102
RTVSPropertyOp26
 70
1
102
RTVSPropertyOp27
 70
1
102
RTVSPropertyOp28
 70
1
102
RTVSPropertyOp29
 70
1
102
RTVSPropertyOp30
 70
1
102
RTVSPropertyOp31
 70
1
102
RTVSPropertyOp32
 70
1
102
RTVSPropertyOp33
 70
1
102
RTVSPropertyOp34
 70
1
102
RTVSPropertyOp35
 70
1
102
RTVSPropertyOp36
 70
1
102
RTVSPropertyOp37
 70
1
102
RTVSPropertyOp38
 70
1
102
RTVSPropertyOp39
 70
1
102
RTVSPropertyOp40
 70
1
102
RTVSPropertyOp41
 70
1
102
RTVSPropertyOp42
 70
1
102
RTVSPropertyOp43
 70
1
102
RTVSPropertyOp44
 70
1
102
RTVSPropertyOp45
 70
1
102
RTVSPropertyOp46
 70
1
102
RTVSPropertyOp47
 70
1
102
RTVSPropertyOp48
 70
1
102
RTVSPropertyOp49
 70
1
102
RTVSPropertyOp50
 70
1
102
RTVSPropertyOp51
 70
0
102
RTVSPropertyOp52
 70
0
102
RTVSPropertyOp53
 70
1
102
RTVSPropertyOp54
 70
1
102
RTVSPropertyOp55
 70
1
102
RTVSPropertyOp56
 70
1
102
RTVSPropertyOp57
 70
1
102
RTVSPropertyOp58
 70
1
102
RTVSPropertyOp59
 70
1
102
RTVSPropertyOp60
 70
1
102
RTVSPropertyOp61
 70
1
102
RTVSPropertyOp62
 70
1
  0
XRECORD
  5
A8E
102
{ACAD_REACTORS
330
A8D
102
}
330
A8D
100
AcDbXrecord
280
1
102
RTVSPost2010Prop28
280
0
102
RTVSPost2010PropOp28
 70
1
102
RTVSPost2010Prop29
280
1
102
RTVSPost2010PropOp29
 70
1
102
RTVSPost2010Prop30
280
1
102
RTVSPost2010PropOp30
 70
1
102
RTVSPost2010Prop31
280
0
102
RTVSPost2010PropOp31
 70
1
102
RTVSPost2010Prop32
280
0
102
RTVSPost2010PropOp32
 70
1
102
RTVSPost2010Prop33
280
0
102
RTVSPost2010PropOp33
 70
1
102
RTVSPost2010Prop34
280
0
102
RTVSPost2010PropOp34
 70
1
102
RTVSPost2010Prop35
280
0
102
RTVSPost2010PropOp35
 70
1
102
RTVSPost2010Prop36
280
0
102
RTVSPost2010PropOp36
 70
1
102
RTVSPost2010Prop37
 90
50
102
RTVSPost2010PropOp37
 70
0
102
RTVSPost2010Prop38
140
0.0
102
RTVSPost2010PropOp38
 70
0
102
RTVSPost2010Prop39
140
1.0
102
RTVSPost2010PropOp39
 70
0
102
RTVSPost2010Prop40
 90
0
102
RTVSPost2010PropOp40
 70
0
102
RTVSPost2010Prop41ColorIndex
 90
18
102
RTVSPost2010Prop41ColorRGB
 90
0
102
RTVSPost2010PropOp41
 70
0
102
RTVSPost2010Prop42
 90
50
102
RTVSPost2010PropOp42
 70
0
102
RTVSPost2010Prop43
 90
3
102
RTVSPost2010PropOp43
 70
0
102
RTVSPost2010Prop44ColorIndex
 90
5
102
RTVSPost2010Prop44ColorRGB
 90
255
102
RTVSPost2010PropOp44
 70
0
102
RTVSPost2010Prop45
280
0
102
RTVSPost2010PropOp45
 70
1
102
RTVSPost2010Prop46
 90
50
102
RTVSPost2010PropOp46
 70
0
102
RTVSPost2010Prop47
 90
50
102
RTVSPost2010PropOp47
 70
0
102
RTVSPost2010Prop48
 90
50
102
RTVSPost2010PropOp48
 70
0
102
RTVSPost2010Prop49
280
0
102
RTVSPost2010PropOp49
 70
1
102
RTVSPost2010Prop50
 90
50
102
RTVSPost2010PropOp50
 70
0
102
RTVSPost2010Prop51ColorIndex
 90
256
102
RTVSPost2010Prop51ColorRGB
 90
-16777216
102
RTVSPost2010PropOp51
 70
0
102
RTVSPost2010Prop52
140
1.0
102
RTVSPost2010PropOp52
 70
0
102
RTVSPost2010Prop53
 90
2
102
RTVSPost2010PropOp53
 70
0
102
RTVSPost2010Prop54
  1
strokes_ogs.tif
102
RTVSPost2010PropOp54
 70
0
102
RTVSPost2010Prop55
280
0
102
RTVSPost2010PropOp55
 70
1
102
RTVSPost2010Prop56
140
1.0
102
RTVSPost2010PropOp56
 70
0
102
RTVSPost2010Prop57
140
1.0
102
RTVSPost2010PropOp57
 70
0
102
RTVSPropertyOp0
 70
0
102
RTVSPropertyOp1
 70
0
102
RTVSPropertyOp2
 70
0
102
RTVSPropertyOp3
 70
0
102
RTVSPropertyOp4
 70
0
102
RTVSPropertyOp5
 70
0
102
RTVSPropertyOp6
 70
0
102
RTVSPropertyOp7
 70
0
102
RTVSPropertyOp8
 70
0
102
RTVSPropertyOp9
 70
0
102
RTVSPropertyOp10
 70
0
102
RTVSPropertyOp11
 70
0
102
RTVSPropertyOp12
 70
0
102
RTVSPropertyOp13
 70
0
102
RTVSPropertyOp14
 70
2
102
RTVSPropertyOp15
 70
0
102
RTVSPropertyOp16
 70
0
102
RTVSPropertyOp17
 70
0
102
RTVSPropertyOp18
 70
0
102
RTVSPropertyOp19
 70
0
102
RTVSPropertyOp20
 70
0
102
RTVSPropertyOp21
 70
0
102
RTVSPropertyOp22
 70
0
102
RTVSPropertyOp23
 70
0
102
RTVSPropertyOp24
 70
0
102
RTVSPropertyOp25
 70
0
102
RTVSPropertyOp26
 70
0
102
RTVSPropertyOp27
 70
0
102
RTVSPropertyOp28
 70
1
102
RTVSPropertyOp29
 70
1
102
RTVSPropertyOp30
 70
1
102
RTVSPropertyOp31
 70
1
102
RTVSPropertyOp32
 70
1
102
RTVSPropertyOp33
 70
1
102
RTVSPropertyOp34
 70
1
102
RTVSPropertyOp35
 70
1
102
RTVSPropertyOp36
 70
1
102
RTVSPropertyOp37
 70
0
102
RTVSPropertyOp38
 70
0
102
RTVSPropertyOp39
 70
0
102
RTVSPropertyOp40
 70
0
102
RTVSPropertyOp41
 70
0
102
RTVSPropertyOp42
 70
0
102
RTVSPropertyOp43
 70
0
102
RTVSPropertyOp44
 70
0
102
RTVSPropertyOp45
 70
1
102
RTVSPropertyOp46
 70
0
102
RTVSPropertyOp47
 70
0
102
RTVSPropertyOp48
 70
0
102
RTVSPropertyOp49
 70
1
102
RTVSPropertyOp50
 70
0
102
RTVSPropertyOp51
 70
0
102
RTVSPropertyOp52
 70
0
102
RTVSPropertyOp53
 70
0
102
RTVSPropertyOp54
 70
0
102
RTVSPropertyOp55
 70
1
102
RTVSPropertyOp56
 70
0
102
RTVSPropertyOp57
 70
0
102
RTVSPropertyOp58
 70
0
102
RTVSPropertyOp59
 70
0
102
RTVSPropertyOp60
 70
0
102
RTVSPropertyOp61
 70
0
102
RTVSPropertyOp62
 70
0
  0
XRECORD
  5
A7E
102
{ACAD_REACTORS
330
A7D
102
}
330
A7D
100
AcDbXrecord
280
1
102
RTVSPost2010Prop28
280
0
102
RTVSPost2010PropOp28
 70
1
102
RTVSPost2010Prop29
280
1
102
RTVSPost2010PropOp29
 70
1
102
RTVSPost2010Prop30
280
1
102
RTVSPost2010PropOp30
 70
1
102
RTVSPost2010Prop31
280
0
102
RTVSPost2010PropOp31
 70
1
102
RTVSPost2010Prop32
280
0
102
RTVSPost2010PropOp32
 70
1
102
RTVSPost2010Prop33
280
0
102
RTVSPost2010PropOp33
 70
1
102
RTVSPost2010Prop34
280
0
102
RTVSPost2010PropOp34
 70
1
102
RTVSPost2010Prop35
280
0
102
RTVSPost2010PropOp35
 70
1
102
RTVSPost2010Prop36
280
0
102
RTVSPost2010PropOp36
 70
1
102
RTVSPost2010Prop37
 90
50
102
RTVSPost2010PropOp37
 70
1
102
RTVSPost2010Prop38
140
0.0
102
RTVSPost2010PropOp38
 70
1
102
RTVSPost2010Prop39
140
1.0
102
RTVSPost2010PropOp39
 70
1
102
RTVSPost2010Prop40
 90
0
102
RTVSPost2010PropOp40
 70
1
102
RTVSPost2010Prop41ColorIndex
 90
18
102
RTVSPost2010Prop41ColorRGB
 90
0
102
RTVSPost2010PropOp41
 70
1
102
RTVSPost2010Prop42
 90
50
102
RTVSPost2010PropOp42
 70
1
102
RTVSPost2010Prop43
 90
3
102
RTVSPost2010PropOp43
 70
1
102
RTVSPost2010Prop44ColorIndex
 90
5
102
RTVSPost2010Prop44ColorRGB
 90
255
102
RTVSPost2010PropOp44
 70
1
102
RTVSPost2010Prop45
280
0
102
RTVSPost2010PropOp45
 70
1
102
RTVSPost2010Prop46
 90
50
102
RTVSPost2010PropOp46
 70
1
102
RTVSPost2010Prop47
 90
50
102
RTVSPost2010PropOp47
 70
1
102
RTVSPost2010Prop48
 90
50
102
RTVSPost2010PropOp48
 70
1
102
RTVSPost2010Prop49
280
0
102
RTVSPost2010PropOp49
 70
1
102
RTVSPost2010Prop50
 90
50
102
RTVSPost2010PropOp50
 70
1
102
RTVSPost2010Prop51ColorIndex
 90
256
102
RTVSPost2010Prop51ColorRGB
 90
-16777216
102
RTVSPost2010PropOp51
 70
0
102
RTVSPost2010Prop52
140
1.0
102
RTVSPost2010PropOp52
 70
0
102
RTVSPost2010Prop53
 90
2
102
RTVSPost2010PropOp53
 70
1
102
RTVSPost2010Prop54
  1
strokes_ogs.tif
102
RTVSPost2010PropOp54
 70
1
102
RTVSPost2010Prop55
280
0
102
RTVSPost2010PropOp55
 70
1
102
RTVSPost2010Prop56
140
1.0
102
RTVSPost2010PropOp56
 70
1
102
RTVSPost2010Prop57
140
1.0
102
RTVSPost2010PropOp57
 70
1
102
RTVSPropertyOp0
 70
1
102
RTVSPropertyOp1
 70
1
102
RTVSPropertyOp2
 70
1
102
RTVSPropertyOp3
 70
1
102
RTVSPropertyOp4
 70
1
102
RTVSPropertyOp5
 70
1
102
RTVSPropertyOp6
 70
1
102
RTVSPropertyOp7
 70
1
102
RTVSPropertyOp8
 70
1
102
RTVSPropertyOp9
 70
1
102
RTVSPropertyOp10
 70
1
102
RTVSPropertyOp11
 70
1
102
RTVSPropertyOp12
 70
1
102
RTVSPropertyOp13
 70
1
102
RTVSPropertyOp14
 70
1
102
RTVSPropertyOp15
 70
1
102
RTVSPropertyOp16
 70
1
102
RTVSPropertyOp17
 70
1
102
RTVSPropertyOp18
 70
1
102
RTVSPropertyOp19
 70
1
102
RTVSPropertyOp20
 70
1
102
RTVSPropertyOp21
 70
1
102
RTVSPropertyOp22
 70
1
102
RTVSPropertyOp23
 70
1
102
RTVSPropertyOp24
 70
1
102
RTVSPropertyOp25
 70
1
102
RTVSPropertyOp26
 70
1
102
RTVSPropertyOp27
 70
1
102
RTVSPropertyOp28
 70
1
102
RTVSPropertyOp29
 70
1
102
RTVSPropertyOp30
 70
1
102
RTVSPropertyOp31
 70
1
102
RTVSPropertyOp32
 70
1
102
RTVSPropertyOp33
 70
1
102
RTVSPropertyOp34
 70
1
102
RTVSPropertyOp35
 70
1
102
RTVSPropertyOp36
 70
1
102
RTVSPropertyOp37
 70
1
102
RTVSPropertyOp38
 70
1
102
RTVSPropertyOp39
 70
1
102
RTVSPropertyOp40
 70
1
102
RTVSPropertyOp41
 70
1
102
RTVSPropertyOp42
 70
1
102
RTVSPropertyOp43
 70
1
102
RTVSPropertyOp44
 70
1
102
RTVSPropertyOp45
 70
1
102
RTVSPropertyOp46
 70
1
102
RTVSPropertyOp47
 70
1
102
RTVSPropertyOp48
 70
1
102
RTVSPropertyOp49
 70
1
102
RTVSPropertyOp50
 70
1
102
RTVSPropertyOp51
 70
0
102
RTVSPropertyOp52
 70
0
102
RTVSPropertyOp53
 70
1
102
RTVSPropertyOp54
 70
1
102
RTVSPropertyOp55
 70
1
102
RTVSPropertyOp56
 70
1
102
RTVSPropertyOp57
 70
1
102
RTVSPropertyOp58
 70
1
102
RTVSPropertyOp59
 70
1
102
RTVSPropertyOp60
 70
1
102
RTVSPropertyOp61
 70
1
102
RTVSPropertyOp62
 70
1
  0
XRECORD
  5
A90
102
{ACAD_REACTORS
330
A8F
102
}
330
A8F
100
AcDbXrecord
280
1
102
RTVSPost2010Prop28
280
0
102
RTVSPost2010PropOp28
 70
1
102
RTVSPost2010Prop29
280
1
102
RTVSPost2010PropOp29
 70
1
102
RTVSPost2010Prop30
280
1
102
RTVSPost2010PropOp30
 70
1
102
RTVSPost2010Prop31
280
0
102
RTVSPost2010PropOp31
 70
1
102
RTVSPost2010Prop32
280
0
102
RTVSPost2010PropOp32
 70
1
102
RTVSPost2010Prop33
280
0
102
RTVSPost2010PropOp33
 70
1
102
RTVSPost2010Prop34
280
0
102
RTVSPost2010PropOp34
 70
1
102
RTVSPost2010Prop35
280
0
102
RTVSPost2010PropOp35
 70
1
102
RTVSPost2010Prop36
280
0
102
RTVSPost2010PropOp36
 70
1
102
RTVSPost2010Prop37
 90
50
102
RTVSPost2010PropOp37
 70
0
102
RTVSPost2010Prop38
140
0.0
102
RTVSPost2010PropOp38
 70
0
102
RTVSPost2010Prop39
140
1.0
102
RTVSPost2010PropOp39
 70
0
102
RTVSPost2010Prop40
 90
0
102
RTVSPost2010PropOp40
 70
0
102
RTVSPost2010Prop41ColorIndex
 90
18
102
RTVSPost2010Prop41ColorRGB
 90
0
102
RTVSPost2010PropOp41
 70
0
102
RTVSPost2010Prop42
 90
50
102
RTVSPost2010PropOp42
 70
0
102
RTVSPost2010Prop43
 90
3
102
RTVSPost2010PropOp43
 70
0
102
RTVSPost2010Prop44ColorIndex
 90
5
102
RTVSPost2010Prop44ColorRGB
 90
255
102
RTVSPost2010PropOp44
 70
0
102
RTVSPost2010Prop45
280
0
102
RTVSPost2010PropOp45
 70
1
102
RTVSPost2010Prop46
 90
50
102
RTVSPost2010PropOp46
 70
0
102
RTVSPost2010Prop47
 90
50
102
RTVSPost2010PropOp47
 70
0
102
RTVSPost2010Prop48
 90
50
102
RTVSPost2010PropOp48
 70
0
102
RTVSPost2010Prop49
280
0
102
RTVSPost2010PropOp49
 70
1
102
RTVSPost2010Prop50
 90
50
102
RTVSPost2010PropOp50
 70
0
102
RTVSPost2010Prop51ColorIndex
 90
256
102
RTVSPost2010Prop51ColorRGB
 90
-16777216
102
RTVSPost2010PropOp51
 70
0
102
RTVSPost2010Prop52
140
1.0
102
RTVSPost2010PropOp52
 70
0
102
RTVSPost2010Prop53
 90
2
102
RTVSPost2010PropOp53
 70
0
102
RTVSPost2010Prop54
  1
strokes_ogs.tif
102
RTVSPost2010PropOp54
 70
0
102
RTVSPost2010Prop55
280
0
102
RTVSPost2010PropOp55
 70
1
102
RTVSPost2010Prop56
140
1.0
102
RTVSPost2010PropOp56
 70
0
102
RTVSPost2010Prop57
140
1.0
102
RTVSPost2010PropOp57
 70
0
102
RTVSPropertyOp0
 70
0
102
RTVSPropertyOp1
 70
0
102
RTVSPropertyOp2
 70
0
102
RTVSPropertyOp3
 70
0
102
RTVSPropertyOp4
 70
0
102
RTVSPropertyOp5
 70
0
102
RTVSPropertyOp6
 70
0
102
RTVSPropertyOp7
 70
0
102
RTVSPropertyOp8
 70
0
102
RTVSPropertyOp9
 70
0
102
RTVSPropertyOp10
 70
0
102
RTVSPropertyOp11
 70
0
102
RTVSPropertyOp12
 70
0
102
RTVSPropertyOp13
 70
0
102
RTVSPropertyOp14
 70
2
102
RTVSPropertyOp15
 70
0
102
RTVSPropertyOp16
 70
0
102
RTVSPropertyOp17
 70
0
102
RTVSPropertyOp18
 70
0
102
RTVSPropertyOp19
 70
0
102
RTVSPropertyOp20
 70
0
102
RTVSPropertyOp21
 70
0
102
RTVSPropertyOp22
 70
0
102
RTVSPropertyOp23
 70
0
102
RTVSPropertyOp24
 70
0
102
RTVSPropertyOp25
 70
0
102
RTVSPropertyOp26
 70
0
102
RTVSPropertyOp27
 70
0
102
RTVSPropertyOp28
 70
1
102
RTVSPropertyOp29
 70
1
102
RTVSPropertyOp30
 70
1
102
RTVSPropertyOp31
 70
1
102
RTVSPropertyOp32
 70
1
102
RTVSPropertyOp33
 70
1
102
RTVSPropertyOp34
 70
1
102
RTVSPropertyOp35
 70
1
102
RTVSPropertyOp36
 70
1
102
RTVSPropertyOp37
 70
0
102
RTVSPropertyOp38
 70
0
102
RTVSPropertyOp39
 70
0
102
RTVSPropertyOp40
 70
0
102
RTVSPropertyOp41
 70
0
102
RTVSPropertyOp42
 70
0
102
RTVSPropertyOp43
 70
0
102
RTVSPropertyOp44
 70
0
102
RTVSPropertyOp45
 70
1
102
RTVSPropertyOp46
 70
0
102
RTVSPropertyOp47
 70
0
102
RTVSPropertyOp48
 70
0
102
RTVSPropertyOp49
 70
1
102
RTVSPropertyOp50
 70
0
102
RTVSPropertyOp51
 70
0
102
RTVSPropertyOp52
 70
0
102
RTVSPropertyOp53
 70
0
102
RTVSPropertyOp54
 70
0
102
RTVSPropertyOp55
 70
1
102
RTVSPropertyOp56
 70
0
102
RTVSPropertyOp57
 70
0
102
RTVSPropertyOp58
 70
0
102
RTVSPropertyOp59
 70
0
102
RTVSPropertyOp60
 70
0
102
RTVSPropertyOp61
 70
0
102
RTVSPropertyOp62
 70
0
  0
XRECORD
  5
A76
102
{ACAD_REACTORS
330
A75
102
}
330
A75
100
AcDbXrecord
280
1
102
RTVSPost2010Prop28
280
0
102
RTVSPost2010PropOp28
 70
1
102
RTVSPost2010Prop29
280
1
102
RTVSPost2010PropOp29
 70
1
102
RTVSPost2010Prop30
280
1
102
RTVSPost2010PropOp30
 70
1
102
RTVSPost2010Prop31
280
0
102
RTVSPost2010PropOp31
 70
1
102
RTVSPost2010Prop32
280
0
102
RTVSPost2010PropOp32
 70
1
102
RTVSPost2010Prop33
280
0
102
RTVSPost2010PropOp33
 70
1
102
RTVSPost2010Prop34
280
0
102
RTVSPost2010PropOp34
 70
1
102
RTVSPost2010Prop35
280
0
102
RTVSPost2010PropOp35
 70
1
102
RTVSPost2010Prop36
280
0
102
RTVSPost2010PropOp36
 70
1
102
RTVSPost2010Prop37
 90
50
102
RTVSPost2010PropOp37
 70
1
102
RTVSPost2010Prop38
140
0.0
102
RTVSPost2010PropOp38
 70
1
102
RTVSPost2010Prop39
140
1.0
102
RTVSPost2010PropOp39
 70
1
102
RTVSPost2010Prop40
 90
0
102
RTVSPost2010PropOp40
 70
1
102
RTVSPost2010Prop41ColorIndex
 90
18
102
RTVSPost2010Prop41ColorRGB
 90
0
102
RTVSPost2010PropOp41
 70
1
102
RTVSPost2010Prop42
 90
50
102
RTVSPost2010PropOp42
 70
1
102
RTVSPost2010Prop43
 90
3
102
RTVSPost2010PropOp43
 70
1
102
RTVSPost2010Prop44ColorIndex
 90
5
102
RTVSPost2010Prop44ColorRGB
 90
255
102
RTVSPost2010PropOp44
 70
1
102
RTVSPost2010Prop45
280
0
102
RTVSPost2010PropOp45
 70
1
102
RTVSPost2010Prop46
 90
50
102
RTVSPost2010PropOp46
 70
1
102
RTVSPost2010Prop47
 90
50
102
RTVSPost2010PropOp47
 70
1
102
RTVSPost2010Prop48
 90
50
102
RTVSPost2010PropOp48
 70
1
102
RTVSPost2010Prop49
280
0
102
RTVSPost2010PropOp49
 70
1
102
RTVSPost2010Prop50
 90
50
102
RTVSPost2010PropOp50
 70
1
102
RTVSPost2010Prop51ColorIndex
 90
256
102
RTVSPost2010Prop51ColorRGB
 90
-16777216
102
RTVSPost2010PropOp51
 70
0
102
RTVSPost2010Prop52
140
1.0
102
RTVSPost2010PropOp52
 70
0
102
RTVSPost2010Prop53
 90
2
102
RTVSPost2010PropOp53
 70
1
102
RTVSPost2010Prop54
  1
strokes_ogs.tif
102
RTVSPost2010PropOp54
 70
1
102
RTVSPost2010Prop55
280
0
102
RTVSPost2010PropOp55
 70
1
102
RTVSPost2010Prop56
140
1.0
102
RTVSPost2010PropOp56
 70
1
102
RTVSPost2010Prop57
140
1.0
102
RTVSPost2010PropOp57
 70
1
102
RTVSPropertyOp0
 70
1
102
RTVSPropertyOp1
 70
1
102
RTVSPropertyOp2
 70
1
102
RTVSPropertyOp3
 70
1
102
RTVSPropertyOp4
 70
1
102
RTVSPropertyOp5
 70
1
102
RTVSPropertyOp6
 70
1
102
RTVSPropertyOp7
 70
1
102
RTVSPropertyOp8
 70
1
102
RTVSPropertyOp9
 70
1
102
RTVSPropertyOp10
 70
1
102
RTVSPropertyOp11
 70
1
102
RTVSPropertyOp12
 70
1
102
RTVSPropertyOp13
 70
1
102
RTVSPropertyOp14
 70
1
102
RTVSPropertyOp15
 70
1
102
RTVSPropertyOp16
 70
1
102
RTVSPropertyOp17
 70
1
102
RTVSPropertyOp18
 70
1
102
RTVSPropertyOp19
 70
1
102
RTVSPropertyOp20
 70
1
102
RTVSPropertyOp21
 70
1
102
RTVSPropertyOp22
 70
1
102
RTVSPropertyOp23
 70
1
102
RTVSPropertyOp24
 70
1
102
RTVSPropertyOp25
 70
1
102
RTVSPropertyOp26
 70
1
102
RTVSPropertyOp27
 70
1
102
RTVSPropertyOp28
 70
1
102
RTVSPropertyOp29
 70
1
102
RTVSPropertyOp30
 70
1
102
RTVSPropertyOp31
 70
1
102
RTVSPropertyOp32
 70
1
102
RTVSPropertyOp33
 70
1
102
RTVSPropertyOp34
 70
1
102
RTVSPropertyOp35
 70
1
102
RTVSPropertyOp36
 70
1
102
RTVSPropertyOp37
 70
1
102
RTVSPropertyOp38
 70
1
102
RTVSPropertyOp39
 70
1
102
RTVSPropertyOp40
 70
1
102
RTVSPropertyOp41
 70
1
102
RTVSPropertyOp42
 70
1
102
RTVSPropertyOp43
 70
1
102
RTVSPropertyOp44
 70
1
102
RTVSPropertyOp45
 70
1
102
RTVSPropertyOp46
 70
1
102
RTVSPropertyOp47
 70
1
102
RTVSPropertyOp48
 70
1
102
RTVSPropertyOp49
 70
1
102
RTVSPropertyOp50
 70
1
102
RTVSPropertyOp51
 70
0
102
RTVSPropertyOp52
 70
0
102
RTVSPropertyOp53
 70
1
102
RTVSPropertyOp54
 70
1
102
RTVSPropertyOp55
 70
1
102
RTVSPropertyOp56
 70
1
102
RTVSPropertyOp57
 70
1
102
RTVSPropertyOp58
 70
1
102
RTVSPropertyOp59
 70
1
102
RTVSPropertyOp60
 70
1
102
RTVSPropertyOp61
 70
1
102
RTVSPropertyOp62
 70
1
  0
XRECORD
  5
A8C
102
{ACAD_REACTORS
330
A8B
102
}
330
A8B
100
AcDbXrecord
280
1
102
RTVSPost2010Prop28
280
0
102
RTVSPost2010PropOp28
 70
1
102
RTVSPost2010Prop29
280
1
102
RTVSPost2010PropOp29
 70
1
102
RTVSPost2010Prop30
280
1
102
RTVSPost2010PropOp30
 70
1
102
RTVSPost2010Prop31
280
0
102
RTVSPost2010PropOp31
 70
1
102
RTVSPost2010Prop32
280
0
102
RTVSPost2010PropOp32
 70
1
102
RTVSPost2010Prop33
280
0
102
RTVSPost2010PropOp33
 70
1
102
RTVSPost2010Prop34
280
0
102
RTVSPost2010PropOp34
 70
1
102
RTVSPost2010Prop35
280
0
102
RTVSPost2010PropOp35
 70
1
102
RTVSPost2010Prop36
280
0
102
RTVSPost2010PropOp36
 70
1
102
RTVSPost2010Prop37
 90
50
102
RTVSPost2010PropOp37
 70
1
102
RTVSPost2010Prop38
140
0.0
102
RTVSPost2010PropOp38
 70
1
102
RTVSPost2010Prop39
140
1.0
102
RTVSPost2010PropOp39
 70
1
102
RTVSPost2010Prop40
 90
0
102
RTVSPost2010PropOp40
 70
1
102
RTVSPost2010Prop41ColorIndex
 90
18
102
RTVSPost2010Prop41ColorRGB
 90
0
102
RTVSPost2010PropOp41
 70
1
102
RTVSPost2010Prop42
 90
50
102
RTVSPost2010PropOp42
 70
1
102
RTVSPost2010Prop43
 90
3
102
RTVSPost2010PropOp43
 70
1
102
RTVSPost2010Prop44ColorIndex
 90
5
102
RTVSPost2010Prop44ColorRGB
 90
255
102
RTVSPost2010PropOp44
 70
1
102
RTVSPost2010Prop45
280
0
102
RTVSPost2010PropOp45
 70
1
102
RTVSPost2010Prop46
 90
50
102
RTVSPost2010PropOp46
 70
1
102
RTVSPost2010Prop47
 90
50
102
RTVSPost2010PropOp47
 70
1
102
RTVSPost2010Prop48
 90
50
102
RTVSPost2010PropOp48
 70
1
102
RTVSPost2010Prop49
280
0
102
RTVSPost2010PropOp49
 70
1
102
RTVSPost2010Prop50
 90
50
102
RTVSPost2010PropOp50
 70
1
102
RTVSPost2010Prop51ColorIndex
 90
256
102
RTVSPost2010Prop51ColorRGB
 90
-16777216
102
RTVSPost2010PropOp51
 70
0
102
RTVSPost2010Prop52
140
1.0
102
RTVSPost2010PropOp52
 70
0
102
RTVSPost2010Prop53
 90
2
102
RTVSPost2010PropOp53
 70
1
102
RTVSPost2010Prop54
  1
strokes_ogs.tif
102
RTVSPost2010PropOp54
 70
1
102
RTVSPost2010Prop55
280
0
102
RTVSPost2010PropOp55
 70
1
102
RTVSPost2010Prop56
140
1.0
102
RTVSPost2010PropOp56
 70
1
102
RTVSPost2010Prop57
140
1.0
102
RTVSPost2010PropOp57
 70
1
102
RTVSPropertyOp0
 70
1
102
RTVSPropertyOp1
 70
1
102
RTVSPropertyOp2
 70
1
102
RTVSPropertyOp3
 70
1
102
RTVSPropertyOp4
 70
1
102
RTVSPropertyOp5
 70
1
102
RTVSPropertyOp6
 70
1
102
RTVSPropertyOp7
 70
1
102
RTVSPropertyOp8
 70
1
102
RTVSPropertyOp9
 70
1
102
RTVSPropertyOp10
 70
1
102
RTVSPropertyOp11
 70
1
102
RTVSPropertyOp12
 70
1
102
RTVSPropertyOp13
 70
1
102
RTVSPropertyOp14
 70
1
102
RTVSPropertyOp15
 70
1
102
RTVSPropertyOp16
 70
1
102
RTVSPropertyOp17
 70
1
102
RTVSPropertyOp18
 70
1
102
RTVSPropertyOp19
 70
1
102
RTVSPropertyOp20
 70
1
102
RTVSPropertyOp21
 70
1
102
RTVSPropertyOp22
 70
1
102
RTVSPropertyOp23
 70
1
102
RTVSPropertyOp24
 70
1
102
RTVSPropertyOp25
 70
1
102
RTVSPropertyOp26
 70
1
102
RTVSPropertyOp27
 70
1
102
RTVSPropertyOp28
 70
1
102
RTVSPropertyOp29
 70
1
102
RTVSPropertyOp30
 70
1
102
RTVSPropertyOp31
 70
1
102
RTVSPropertyOp32
 70
1
102
RTVSPropertyOp33
 70
1
102
RTVSPropertyOp34
 70
1
102
RTVSPropertyOp35
 70
1
102
RTVSPropertyOp36
 70
1
102
RTVSPropertyOp37
 70
1
102
RTVSPropertyOp38
 70
1
102
RTVSPropertyOp39
 70
1
102
RTVSPropertyOp40
 70
1
102
RTVSPropertyOp41
 70
1
102
RTVSPropertyOp42
 70
1
102
RTVSPropertyOp43
 70
1
102
RTVSPropertyOp44
 70
1
102
RTVSPropertyOp45
 70
1
102
RTVSPropertyOp46
 70
1
102
RTVSPropertyOp47
 70
1
102
RTVSPropertyOp48
 70
1
102
RTVSPropertyOp49
 70
1
102
RTVSPropertyOp50
 70
1
102
RTVSPropertyOp51
 70
0
102
RTVSPropertyOp52
 70
0
102
RTVSPropertyOp53
 70
1
102
RTVSPropertyOp54
 70
1
102
RTVSPropertyOp55
 70
1
102
RTVSPropertyOp56
 70
1
102
RTVSPropertyOp57
 70
1
102
RTVSPropertyOp58
 70
1
102
RTVSPropertyOp59
 70
1
102
RTVSPropertyOp60
 70
1
102
RTVSPropertyOp61
 70
1
102
RTVSPropertyOp62
 70
1
  0
XRECORD
  5
A8A
102
{ACAD_REACTORS
330
A89
102
}
330
A89
100
AcDbXrecord
280
1
102
RTVSPost2010Prop28
280
0
102
RTVSPost2010PropOp28
 70
1
102
RTVSPost2010Prop29
280
1
102
RTVSPost2010PropOp29
 70
1
102
RTVSPost2010Prop30
280
1
102
RTVSPost2010PropOp30
 70
1
102
RTVSPost2010Prop31
280
0
102
RTVSPost2010PropOp31
 70
1
102
RTVSPost2010Prop32
280
0
102
RTVSPost2010PropOp32
 70
1
102
RTVSPost2010Prop33
280
0
102
RTVSPost2010PropOp33
 70
1
102
RTVSPost2010Prop34
280
0
102
RTVSPost2010PropOp34
 70
1
102
RTVSPost2010Prop35
280
0
102
RTVSPost2010PropOp35
 70
1
102
RTVSPost2010Prop36
280
0
102
RTVSPost2010PropOp36
 70
1
102
RTVSPost2010Prop37
 90
50
102
RTVSPost2010PropOp37
 70
1
102
RTVSPost2010Prop38
140
0.0
102
RTVSPost2010PropOp38
 70
1
102
RTVSPost2010Prop39
140
1.0
102
RTVSPost2010PropOp39
 70
1
102
RTVSPost2010Prop40
 90
0
102
RTVSPost2010PropOp40
 70
1
102
RTVSPost2010Prop41ColorIndex
 90
18
102
RTVSPost2010Prop41ColorRGB
 90
0
102
RTVSPost2010PropOp41
 70
1
102
RTVSPost2010Prop42
 90
50
102
RTVSPost2010PropOp42
 70
1
102
RTVSPost2010Prop43
 90
3
102
RTVSPost2010PropOp43
 70
1
102
RTVSPost2010Prop44ColorIndex
 90
5
102
RTVSPost2010Prop44ColorRGB
 90
255
102
RTVSPost2010PropOp44
 70
1
102
RTVSPost2010Prop45
280
0
102
RTVSPost2010PropOp45
 70
1
102
RTVSPost2010Prop46
 90
50
102
RTVSPost2010PropOp46
 70
1
102
RTVSPost2010Prop47
 90
50
102
RTVSPost2010PropOp47
 70
1
102
RTVSPost2010Prop48
 90
50
102
RTVSPost2010PropOp48
 70
1
102
RTVSPost2010Prop49
280
0
102
RTVSPost2010PropOp49
 70
1
102
RTVSPost2010Prop50
 90
50
102
RTVSPost2010PropOp50
 70
1
102
RTVSPost2010Prop51ColorIndex
 90
256
102
RTVSPost2010Prop51ColorRGB
 90
-16777216
102
RTVSPost2010PropOp51
 70
0
102
RTVSPost2010Prop52
140
1.0
102
RTVSPost2010PropOp52
 70
0
102
RTVSPost2010Prop53
 90
2
102
RTVSPost2010PropOp53
 70
1
102
RTVSPost2010Prop54
  1
strokes_ogs.tif
102
RTVSPost2010PropOp54
 70
1
102
RTVSPost2010Prop55
280
0
102
RTVSPost2010PropOp55
 70
1
102
RTVSPost2010Prop56
140
1.0
102
RTVSPost2010PropOp56
 70
1
102
RTVSPost2010Prop57
140
1.0
102
RTVSPost2010PropOp57
 70
1
102
RTVSPropertyOp0
 70
1
102
RTVSPropertyOp1
 70
1
102
RTVSPropertyOp2
 70
1
102
RTVSPropertyOp3
 70
1
102
RTVSPropertyOp4
 70
1
102
RTVSPropertyOp5
 70
1
102
RTVSPropertyOp6
 70
1
102
RTVSPropertyOp7
 70
1
102
RTVSPropertyOp8
 70
1
102
RTVSPropertyOp9
 70
1
102
RTVSPropertyOp10
 70
1
102
RTVSPropertyOp11
 70
1
102
RTVSPropertyOp12
 70
1
102
RTVSPropertyOp13
 70
1
102
RTVSPropertyOp14
 70
1
102
RTVSPropertyOp15
 70
1
102
RTVSPropertyOp16
 70
1
102
RTVSPropertyOp17
 70
1
102
RTVSPropertyOp18
 70
1
102
RTVSPropertyOp19
 70
1
102
RTVSPropertyOp20
 70
1
102
RTVSPropertyOp21
 70
1
102
RTVSPropertyOp22
 70
1
102
RTVSPropertyOp23
 70
1
102
RTVSPropertyOp24
 70
1
102
RTVSPropertyOp25
 70
1
102
RTVSPropertyOp26
 70
1
102
RTVSPropertyOp27
 70
1
102
RTVSPropertyOp28
 70
1
102
RTVSPropertyOp29
 70
1
102
RTVSPropertyOp30
 70
1
102
RTVSPropertyOp31
 70
1
102
RTVSPropertyOp32
 70
1
102
RTVSPropertyOp33
 70
1
102
RTVSPropertyOp34
 70
1
102
RTVSPropertyOp35
 70
1
102
RTVSPropertyOp36
 70
1
102
RTVSPropertyOp37
 70
1
102
RTVSPropertyOp38
 70
1
102
RTVSPropertyOp39
 70
1
102
RTVSPropertyOp40
 70
1
102
RTVSPropertyOp41
 70
1
102
RTVSPropertyOp42
 70
1
102
RTVSPropertyOp43
 70
1
102
RTVSPropertyOp44
 70
1
102
RTVSPropertyOp45
 70
1
102
RTVSPropertyOp46
 70
1
102
RTVSPropertyOp47
 70
1
102
RTVSPropertyOp48
 70
1
102
RTVSPropertyOp49
 70
1
102
RTVSPropertyOp50
 70
1
102
RTVSPropertyOp51
 70
0
102
RTVSPropertyOp52
 70
0
102
RTVSPropertyOp53
 70
1
102
RTVSPropertyOp54
 70
1
102
RTVSPropertyOp55
 70
1
102
RTVSPropertyOp56
 70
1
102
RTVSPropertyOp57
 70
1
102
RTVSPropertyOp58
 70
1
102
RTVSPropertyOp59
 70
1
102
RTVSPropertyOp60
 70
1
102
RTVSPropertyOp61
 70
1
102
RTVSPropertyOp62
 70
1
  0
XRECORD
  5
A84
102
{ACAD_REACTORS
330
A83
102
}
330
A83
100
AcDbXrecord
280
1
102
RTVSPost2010Prop28
280
0
102
RTVSPost2010PropOp28
 70
1
102
RTVSPost2010Prop29
280
1
102
RTVSPost2010PropOp29
 70
1
102
RTVSPost2010Prop30
280
1
102
RTVSPost2010PropOp30
 70
1
102
RTVSPost2010Prop31
280
0
102
RTVSPost2010PropOp31
 70
1
102
RTVSPost2010Prop32
280
0
102
RTVSPost2010PropOp32
 70
1
102
RTVSPost2010Prop33
280
0
102
RTVSPost2010PropOp33
 70
1
102
RTVSPost2010Prop34
280
0
102
RTVSPost2010PropOp34
 70
1
102
RTVSPost2010Prop35
280
0
102
RTVSPost2010PropOp35
 70
1
102
RTVSPost2010Prop36
280
0
102
RTVSPost2010PropOp36
 70
1
102
RTVSPost2010Prop37
 90
50
102
RTVSPost2010PropOp37
 70
1
102
RTVSPost2010Prop38
140
0.0
102
RTVSPost2010PropOp38
 70
1
102
RTVSPost2010Prop39
140
1.0
102
RTVSPost2010PropOp39
 70
1
102
RTVSPost2010Prop40
 90
0
102
RTVSPost2010PropOp40
 70
1
102
RTVSPost2010Prop41ColorIndex
 90
18
102
RTVSPost2010Prop41ColorRGB
 90
0
102
RTVSPost2010PropOp41
 70
1
102
RTVSPost2010Prop42
 90
50
102
RTVSPost2010PropOp42
 70
1
102
RTVSPost2010Prop43
 90
3
102
RTVSPost2010PropOp43
 70
1
102
RTVSPost2010Prop44ColorIndex
 90
5
102
RTVSPost2010Prop44ColorRGB
 90
255
102
RTVSPost2010PropOp44
 70
1
102
RTVSPost2010Prop45
280
0
102
RTVSPost2010PropOp45
 70
1
102
RTVSPost2010Prop46
 90
50
102
RTVSPost2010PropOp46
 70
1
102
RTVSPost2010Prop47
 90
50
102
RTVSPost2010PropOp47
 70
1
102
RTVSPost2010Prop48
 90
50
102
RTVSPost2010PropOp48
 70
1
102
RTVSPost2010Prop49
280
0
102
RTVSPost2010PropOp49
 70
1
102
RTVSPost2010Prop50
 90
50
102
RTVSPost2010PropOp50
 70
1
102
RTVSPost2010Prop51ColorIndex
 90
256
102
RTVSPost2010Prop51ColorRGB
 90
-16777216
102
RTVSPost2010PropOp51
 70
0
102
RTVSPost2010Prop52
140
1.0
102
RTVSPost2010PropOp52
 70
0
102
RTVSPost2010Prop53
 90
2
102
RTVSPost2010PropOp53
 70
1
102
RTVSPost2010Prop54
  1
strokes_ogs.tif
102
RTVSPost2010PropOp54
 70
1
102
RTVSPost2010Prop55
280
0
102
RTVSPost2010PropOp55
 70
1
102
RTVSPost2010Prop56
140
1.0
102
RTVSPost2010PropOp56
 70
1
102
RTVSPost2010Prop57
140
1.0
102
RTVSPost2010PropOp57
 70
1
102
RTVSPropertyOp0
 70
1
102
RTVSPropertyOp1
 70
1
102
RTVSPropertyOp2
 70
1
102
RTVSPropertyOp3
 70
1
102
RTVSPropertyOp4
 70
1
102
RTVSPropertyOp5
 70
1
102
RTVSPropertyOp6
 70
1
102
RTVSPropertyOp7
 70
1
102
RTVSPropertyOp8
 70
1
102
RTVSPropertyOp9
 70
1
102
RTVSPropertyOp10
 70
1
102
RTVSPropertyOp11
 70
1
102
RTVSPropertyOp12
 70
1
102
RTVSPropertyOp13
 70
1
102
RTVSPropertyOp14
 70
1
102
RTVSPropertyOp15
 70
1
102
RTVSPropertyOp16
 70
1
102
RTVSPropertyOp17
 70
1
102
RTVSPropertyOp18
 70
1
102
RTVSPropertyOp19
 70
1
102
RTVSPropertyOp20
 70
1
102
RTVSPropertyOp21
 70
1
102
RTVSPropertyOp22
 70
1
102
RTVSPropertyOp23
 70
1
102
RTVSPropertyOp24
 70
1
102
RTVSPropertyOp25
 70
1
102
RTVSPropertyOp26
 70
1
102
RTVSPropertyOp27
 70
1
102
RTVSPropertyOp28
 70
1
102
RTVSPropertyOp29
 70
1
102
RTVSPropertyOp30
 70
1
102
RTVSPropertyOp31
 70
1
102
RTVSPropertyOp32
 70
1
102
RTVSPropertyOp33
 70
1
102
RTVSPropertyOp34
 70
1
102
RTVSPropertyOp35
 70
1
102
RTVSPropertyOp36
 70
1
102
RTVSPropertyOp37
 70
1
102
RTVSPropertyOp38
 70
1
102
RTVSPropertyOp39
 70
1
102
RTVSPropertyOp40
 70
1
102
RTVSPropertyOp41
 70
1
102
RTVSPropertyOp42
 70
1
102
RTVSPropertyOp43
 70
1
102
RTVSPropertyOp44
 70
1
102
RTVSPropertyOp45
 70
1
102
RTVSPropertyOp46
 70
1
102
RTVSPropertyOp47
 70
1
102
RTVSPropertyOp48
 70
1
102
RTVSPropertyOp49
 70
1
102
RTVSPropertyOp50
 70
1
102
RTVSPropertyOp51
 70
0
102
RTVSPropertyOp52
 70
0
102
RTVSPropertyOp53
 70
1
102
RTVSPropertyOp54
 70
1
102
RTVSPropertyOp55
 70
1
102
RTVSPropertyOp56
 70
1
102
RTVSPropertyOp57
 70
1
102
RTVSPropertyOp58
 70
1
102
RTVSPropertyOp59
 70
1
102
RTVSPropertyOp60
 70
1
102
RTVSPropertyOp61
 70
1
102
RTVSPropertyOp62
 70
1
  0
XRECORD
  5
A86
102
{ACAD_REACTORS
330
A85
102
}
330
A85
100
AcDbXrecord
280
1
102
RTVSPost2010Prop28
280
0
102
RTVSPost2010PropOp28
 70
1
102
RTVSPost2010Prop29
280
1
102
RTVSPost2010PropOp29
 70
1
102
RTVSPost2010Prop30
280
1
102
RTVSPost2010PropOp30
 70
1
102
RTVSPost2010Prop31
280
0
102
RTVSPost2010PropOp31
 70
1
102
RTVSPost2010Prop32
280
0
102
RTVSPost2010PropOp32
 70
1
102
RTVSPost2010Prop33
280
0
102
RTVSPost2010PropOp33
 70
1
102
RTVSPost2010Prop34
280
0
102
RTVSPost2010PropOp34
 70
1
102
RTVSPost2010Prop35
280
0
102
RTVSPost2010PropOp35
 70
1
102
RTVSPost2010Prop36
280
0
102
RTVSPost2010PropOp36
 70
1
102
RTVSPost2010Prop37
 90
50
102
RTVSPost2010PropOp37
 70
1
102
RTVSPost2010Prop38
140
0.0
102
RTVSPost2010PropOp38
 70
1
102
RTVSPost2010Prop39
140
1.0
102
RTVSPost2010PropOp39
 70
1
102
RTVSPost2010Prop40
 90
0
102
RTVSPost2010PropOp40
 70
1
102
RTVSPost2010Prop41ColorIndex
 90
18
102
RTVSPost2010Prop41ColorRGB
 90
0
102
RTVSPost2010PropOp41
 70
1
102
RTVSPost2010Prop42
 90
50
102
RTVSPost2010PropOp42
 70
1
102
RTVSPost2010Prop43
 90
3
102
RTVSPost2010PropOp43
 70
1
102
RTVSPost2010Prop44ColorIndex
 90
5
102
RTVSPost2010Prop44ColorRGB
 90
255
102
RTVSPost2010PropOp44
 70
1
102
RTVSPost2010Prop45
280
0
102
RTVSPost2010PropOp45
 70
1
102
RTVSPost2010Prop46
 90
50
102
RTVSPost2010PropOp46
 70
1
102
RTVSPost2010Prop47
 90
50
102
RTVSPost2010PropOp47
 70
1
102
RTVSPost2010Prop48
 90
50
102
RTVSPost2010PropOp48
 70
1
102
RTVSPost2010Prop49
280
0
102
RTVSPost2010PropOp49
 70
1
102
RTVSPost2010Prop50
 90
50
102
RTVSPost2010PropOp50
 70
1
102
RTVSPost2010Prop51ColorIndex
 90
256
102
RTVSPost2010Prop51ColorRGB
 90
-16777216
102
RTVSPost2010PropOp51
 70
0
102
RTVSPost2010Prop52
140
1.0
102
RTVSPost2010PropOp52
 70
0
102
RTVSPost2010Prop53
 90
2
102
RTVSPost2010PropOp53
 70
1
102
RTVSPost2010Prop54
  1
strokes_ogs.tif
102
RTVSPost2010PropOp54
 70
1
102
RTVSPost2010Prop55
280
0
102
RTVSPost2010PropOp55
 70
1
102
RTVSPost2010Prop56
140
1.0
102
RTVSPost2010PropOp56
 70
1
102
RTVSPost2010Prop57
140
1.0
102
RTVSPost2010PropOp57
 70
1
102
RTVSPropertyOp0
 70
1
102
RTVSPropertyOp1
 70
1
102
RTVSPropertyOp2
 70
1
102
RTVSPropertyOp3
 70
1
102
RTVSPropertyOp4
 70
1
102
RTVSPropertyOp5
 70
1
102
RTVSPropertyOp6
 70
1
102
RTVSPropertyOp7
 70
1
102
RTVSPropertyOp8
 70
1
102
RTVSPropertyOp9
 70
1
102
RTVSPropertyOp10
 70
1
102
RTVSPropertyOp11
 70
1
102
RTVSPropertyOp12
 70
1
102
RTVSPropertyOp13
 70
1
102
RTVSPropertyOp14
 70
1
102
RTVSPropertyOp15
 70
1
102
RTVSPropertyOp16
 70
1
102
RTVSPropertyOp17
 70
1
102
RTVSPropertyOp18
 70
1
102
RTVSPropertyOp19
 70
1
102
RTVSPropertyOp20
 70
1
102
RTVSPropertyOp21
 70
1
102
RTVSPropertyOp22
 70
1
102
RTVSPropertyOp23
 70
1
102
RTVSPropertyOp24
 70
1
102
RTVSPropertyOp25
 70
1
102
RTVSPropertyOp26
 70
1
102
RTVSPropertyOp27
 70
1
102
RTVSPropertyOp28
 70
1
102
RTVSPropertyOp29
 70
1
102
RTVSPropertyOp30
 70
1
102
RTVSPropertyOp31
 70
1
102
RTVSPropertyOp32
 70
1
102
RTVSPropertyOp33
 70
1
102
RTVSPropertyOp34
 70
1
102
RTVSPropertyOp35
 70
1
102
RTVSPropertyOp36
 70
1
102
RTVSPropertyOp37
 70
1
102
RTVSPropertyOp38
 70
1
102
RTVSPropertyOp39
 70
1
102
RTVSPropertyOp40
 70
1
102
RTVSPropertyOp41
 70
1
102
RTVSPropertyOp42
 70
1
102
RTVSPropertyOp43
 70
1
102
RTVSPropertyOp44
 70
1
102
RTVSPropertyOp45
 70
1
102
RTVSPropertyOp46
 70
1
102
RTVSPropertyOp47
 70
1
102
RTVSPropertyOp48
 70
1
102
RTVSPropertyOp49
 70
1
102
RTVSPropertyOp50
 70
1
102
RTVSPropertyOp51
 70
0
102
RTVSPropertyOp52
 70
0
102
RTVSPropertyOp53
 70
1
102
RTVSPropertyOp54
 70
1
102
RTVSPropertyOp55
 70
1
102
RTVSPropertyOp56
 70
1
102
RTVSPropertyOp57
 70
1
102
RTVSPropertyOp58
 70
1
102
RTVSPropertyOp59
 70
1
102
RTVSPropertyOp60
 70
1
102
RTVSPropertyOp61
 70
1
102
RTVSPropertyOp62
 70
1
  0
XRECORD
  5
A7C
102
{ACAD_REACTORS
330
A7B
102
}
330
A7B
100
AcDbXrecord
280
1
102
RTVSPost2010Prop28
280
0
102
RTVSPost2010PropOp28
 70
1
102
RTVSPost2010Prop29
280
1
102
RTVSPost2010PropOp29
 70
1
102
RTVSPost2010Prop30
280
1
102
RTVSPost2010PropOp30
 70
1
102
RTVSPost2010Prop31
280
0
102
RTVSPost2010PropOp31
 70
1
102
RTVSPost2010Prop32
280
0
102
RTVSPost2010PropOp32
 70
1
102
RTVSPost2010Prop33
280
0
102
RTVSPost2010PropOp33
 70
1
102
RTVSPost2010Prop34
280
0
102
RTVSPost2010PropOp34
 70
1
102
RTVSPost2010Prop35
280
0
102
RTVSPost2010PropOp35
 70
1
102
RTVSPost2010Prop36
280
0
102
RTVSPost2010PropOp36
 70
1
102
RTVSPost2010Prop37
 90
50
102
RTVSPost2010PropOp37
 70
1
102
RTVSPost2010Prop38
140
0.0
102
RTVSPost2010PropOp38
 70
1
102
RTVSPost2010Prop39
140
1.0
102
RTVSPost2010PropOp39
 70
1
102
RTVSPost2010Prop40
 90
0
102
RTVSPost2010PropOp40
 70
1
102
RTVSPost2010Prop41ColorIndex
 90
18
102
RTVSPost2010Prop41ColorRGB
 90
0
102
RTVSPost2010PropOp41
 70
1
102
RTVSPost2010Prop42
 90
50
102
RTVSPost2010PropOp42
 70
1
102
RTVSPost2010Prop43
 90
3
102
RTVSPost2010PropOp43
 70
1
102
RTVSPost2010Prop44ColorIndex
 90
5
102
RTVSPost2010Prop44ColorRGB
 90
255
102
RTVSPost2010PropOp44
 70
1
102
RTVSPost2010Prop45
280
0
102
RTVSPost2010PropOp45
 70
1
102
RTVSPost2010Prop46
 90
50
102
RTVSPost2010PropOp46
 70
1
102
RTVSPost2010Prop47
 90
50
102
RTVSPost2010PropOp47
 70
1
102
RTVSPost2010Prop48
 90
50
102
RTVSPost2010PropOp48
 70
1
102
RTVSPost2010Prop49
280
0
102
RTVSPost2010PropOp49
 70
1
102
RTVSPost2010Prop50
 90
50
102
RTVSPost2010PropOp50
 70
1
102
RTVSPost2010Prop51ColorIndex
 90
256
102
RTVSPost2010Prop51ColorRGB
 90
-16777216
102
RTVSPost2010PropOp51
 70
0
102
RTVSPost2010Prop52
140
1.0
102
RTVSPost2010PropOp52
 70
0
102
RTVSPost2010Prop53
 90
2
102
RTVSPost2010PropOp53
 70
1
102
RTVSPost2010Prop54
  1
strokes_ogs.tif
102
RTVSPost2010PropOp54
 70
1
102
RTVSPost2010Prop55
280
0
102
RTVSPost2010PropOp55
 70
1
102
RTVSPost2010Prop56
140
1.0
102
RTVSPost2010PropOp56
 70
1
102
RTVSPost2010Prop57
140
1.0
102
RTVSPost2010PropOp57
 70
1
102
RTVSPropertyOp0
 70
1
102
RTVSPropertyOp1
 70
1
102
RTVSPropertyOp2
 70
1
102
RTVSPropertyOp3
 70
1
102
RTVSPropertyOp4
 70
1
102
RTVSPropertyOp5
 70
1
102
RTVSPropertyOp6
 70
1
102
RTVSPropertyOp7
 70
1
102
RTVSPropertyOp8
 70
1
102
RTVSPropertyOp9
 70
1
102
RTVSPropertyOp10
 70
1
102
RTVSPropertyOp11
 70
1
102
RTVSPropertyOp12
 70
1
102
RTVSPropertyOp13
 70
1
102
RTVSPropertyOp14
 70
1
102
RTVSPropertyOp15
 70
1
102
RTVSPropertyOp16
 70
1
102
RTVSPropertyOp17
 70
1
102
RTVSPropertyOp18
 70
1
102
RTVSPropertyOp19
 70
1
102
RTVSPropertyOp20
 70
1
102
RTVSPropertyOp21
 70
1
102
RTVSPropertyOp22
 70
1
102
RTVSPropertyOp23
 70
1
102
RTVSPropertyOp24
 70
1
102
RTVSPropertyOp25
 70
1
102
RTVSPropertyOp26
 70
1
102
RTVSPropertyOp27
 70
1
102
RTVSPropertyOp28
 70
1
102
RTVSPropertyOp29
 70
1
102
RTVSPropertyOp30
 70
1
102
RTVSPropertyOp31
 70
1
102
RTVSPropertyOp32
 70
1
102
RTVSPropertyOp33
 70
1
102
RTVSPropertyOp34
 70
1
102
RTVSPropertyOp35
 70
1
102
RTVSPropertyOp36
 70
1
102
RTVSPropertyOp37
 70
1
102
RTVSPropertyOp38
 70
1
102
RTVSPropertyOp39
 70
1
102
RTVSPropertyOp40
 70
1
102
RTVSPropertyOp41
 70
1
102
RTVSPropertyOp42
 70
1
102
RTVSPropertyOp43
 70
1
102
RTVSPropertyOp44
 70
1
102
RTVSPropertyOp45
 70
1
102
RTVSPropertyOp46
 70
1
102
RTVSPropertyOp47
 70
1
102
RTVSPropertyOp48
 70
1
102
RTVSPropertyOp49
 70
1
102
RTVSPropertyOp50
 70
1
102
RTVSPropertyOp51
 70
0
102
RTVSPropertyOp52
 70
0
102
RTVSPropertyOp53
 70
1
102
RTVSPropertyOp54
 70
1
102
RTVSPropertyOp55
 70
1
102
RTVSPropertyOp56
 70
1
102
RTVSPropertyOp57
 70
1
102
RTVSPropertyOp58
 70
1
102
RTVSPropertyOp59
 70
1
102
RTVSPropertyOp60
 70
1
102
RTVSPropertyOp61
 70
1
102
RTVSPropertyOp62
 70
1
  0
XRECORD
  5
A70
102
{ACAD_REACTORS
330
A6F
102
}
330
A6F
100
AcDbXrecord
280
1
102
RTVSPost2010Prop28
280
0
102
RTVSPost2010PropOp28
 70
1
102
RTVSPost2010Prop29
280
1
102
RTVSPost2010PropOp29
 70
1
102
RTVSPost2010Prop30
280
1
102
RTVSPost2010PropOp30
 70
1
102
RTVSPost2010Prop31
280
0
102
RTVSPost2010PropOp31
 70
1
102
RTVSPost2010Prop32
280
0
102
RTVSPost2010PropOp32
 70
1
102
RTVSPost2010Prop33
280
0
102
RTVSPost2010PropOp33
 70
1
102
RTVSPost2010Prop34
280
0
102
RTVSPost2010PropOp34
 70
1
102
RTVSPost2010Prop35
280
0
102
RTVSPost2010PropOp35
 70
1
102
RTVSPost2010Prop36
280
0
102
RTVSPost2010PropOp36
 70
1
102
RTVSPost2010Prop37
 90
50
102
RTVSPost2010PropOp37
 70
1
102
RTVSPost2010Prop38
140
0.0
102
RTVSPost2010PropOp38
 70
1
102
RTVSPost2010Prop39
140
1.0
102
RTVSPost2010PropOp39
 70
1
102
RTVSPost2010Prop40
 90
0
102
RTVSPost2010PropOp40
 70
1
102
RTVSPost2010Prop41ColorIndex
 90
18
102
RTVSPost2010Prop41ColorRGB
 90
0
102
RTVSPost2010PropOp41
 70
1
102
RTVSPost2010Prop42
 90
50
102
RTVSPost2010PropOp42
 70
1
102
RTVSPost2010Prop43
 90
3
102
RTVSPost2010PropOp43
 70
1
102
RTVSPost2010Prop44ColorIndex
 90
5
102
RTVSPost2010Prop44ColorRGB
 90
255
102
RTVSPost2010PropOp44
 70
1
102
RTVSPost2010Prop45
280
0
102
RTVSPost2010PropOp45
 70
1
102
RTVSPost2010Prop46
 90
50
102
RTVSPost2010PropOp46
 70
1
102
RTVSPost2010Prop47
 90
50
102
RTVSPost2010PropOp47
 70
1
102
RTVSPost2010Prop48
 90
50
102
RTVSPost2010PropOp48
 70
1
102
RTVSPost2010Prop49
280
0
102
RTVSPost2010PropOp49
 70
1
102
RTVSPost2010Prop50
 90
50
102
RTVSPost2010PropOp50
 70
1
102
RTVSPost2010Prop51ColorIndex
 90
256
102
RTVSPost2010Prop51ColorRGB
 90
-16777216
102
RTVSPost2010PropOp51
 70
0
102
RTVSPost2010Prop52
140
1.0
102
RTVSPost2010PropOp52
 70
0
102
RTVSPost2010Prop53
 90
2
102
RTVSPost2010PropOp53
 70
1
102
RTVSPost2010Prop54
  1
strokes_ogs.tif
102
RTVSPost2010PropOp54
 70
1
102
RTVSPost2010Prop55
280
0
102
RTVSPost2010PropOp55
 70
1
102
RTVSPost2010Prop56
140
1.0
102
RTVSPost2010PropOp56
 70
1
102
RTVSPost2010Prop57
140
1.0
102
RTVSPost2010PropOp57
 70
1
102
RTVSPropertyOp0
 70
1
102
RTVSPropertyOp1
 70
1
102
RTVSPropertyOp2
 70
1
102
RTVSPropertyOp3
 70
1
102
RTVSPropertyOp4
 70
1
102
RTVSPropertyOp5
 70
1
102
RTVSPropertyOp6
 70
1
102
RTVSPropertyOp7
 70
1
102
RTVSPropertyOp8
 70
1
102
RTVSPropertyOp9
 70
1
102
RTVSPropertyOp10
 70
1
102
RTVSPropertyOp11
 70
1
102
RTVSPropertyOp12
 70
1
102
RTVSPropertyOp13
 70
1
102
RTVSPropertyOp14
 70
1
102
RTVSPropertyOp15
 70
1
102
RTVSPropertyOp16
 70
1
102
RTVSPropertyOp17
 70
1
102
RTVSPropertyOp18
 70
1
102
RTVSPropertyOp19
 70
1
102
RTVSPropertyOp20
 70
1
102
RTVSPropertyOp21
 70
1
102
RTVSPropertyOp22
 70
1
102
RTVSPropertyOp23
 70
1
102
RTVSPropertyOp24
 70
1
102
RTVSPropertyOp25
 70
1
102
RTVSPropertyOp26
 70
1
102
RTVSPropertyOp27
 70
1
102
RTVSPropertyOp28
 70
1
102
RTVSPropertyOp29
 70
1
102
RTVSPropertyOp30
 70
1
102
RTVSPropertyOp31
 70
1
102
RTVSPropertyOp32
 70
1
102
RTVSPropertyOp33
 70
1
102
RTVSPropertyOp34
 70
1
102
RTVSPropertyOp35
 70
1
102
RTVSPropertyOp36
 70
1
102
RTVSPropertyOp37
 70
1
102
RTVSPropertyOp38
 70
1
102
RTVSPropertyOp39
 70
1
102
RTVSPropertyOp40
 70
1
102
RTVSPropertyOp41
 70
1
102
RTVSPropertyOp42
 70
1
102
RTVSPropertyOp43
 70
1
102
RTVSPropertyOp44
 70
1
102
RTVSPropertyOp45
 70
1
102
RTVSPropertyOp46
 70
1
102
RTVSPropertyOp47
 70
1
102
RTVSPropertyOp48
 70
1
102
RTVSPropertyOp49
 70
1
102
RTVSPropertyOp50
 70
1
102
RTVSPropertyOp51
 70
0
102
RTVSPropertyOp52
 70
0
102
RTVSPropertyOp53
 70
1
102
RTVSPropertyOp54
 70
1
102
RTVSPropertyOp55
 70
1
102
RTVSPropertyOp56
 70
1
102
RTVSPropertyOp57
 70
1
102
RTVSPropertyOp58
 70
1
102
RTVSPropertyOp59
 70
1
102
RTVSPropertyOp60
 70
1
102
RTVSPropertyOp61
 70
1
102
RTVSPropertyOp62
 70
1
  0
XRECORD
  5
A88
102
{ACAD_REACTORS
330
A87
102
}
330
A87
100
AcDbXrecord
280
1
102
RTVSPost2010Prop28
280
0
102
RTVSPost2010PropOp28
 70
1
102
RTVSPost2010Prop29
280
1
102
RTVSPost2010PropOp29
 70
1
102
RTVSPost2010Prop30
280
1
102
RTVSPost2010PropOp30
 70
1
102
RTVSPost2010Prop31
280
0
102
RTVSPost2010PropOp31
 70
1
102
RTVSPost2010Prop32
280
0
102
RTVSPost2010PropOp32
 70
1
102
RTVSPost2010Prop33
280
0
102
RTVSPost2010PropOp33
 70
1
102
RTVSPost2010Prop34
280
0
102
RTVSPost2010PropOp34
 70
1
102
RTVSPost2010Prop35
280
0
102
RTVSPost2010PropOp35
 70
1
102
RTVSPost2010Prop36
280
0
102
RTVSPost2010PropOp36
 70
1
102
RTVSPost2010Prop37
 90
50
102
RTVSPost2010PropOp37
 70
1
102
RTVSPost2010Prop38
140
0.0
102
RTVSPost2010PropOp38
 70
1
102
RTVSPost2010Prop39
140
1.0
102
RTVSPost2010PropOp39
 70
1
102
RTVSPost2010Prop40
 90
0
102
RTVSPost2010PropOp40
 70
1
102
RTVSPost2010Prop41ColorIndex
 90
18
102
RTVSPost2010Prop41ColorRGB
 90
0
102
RTVSPost2010PropOp41
 70
1
102
RTVSPost2010Prop42
 90
50
102
RTVSPost2010PropOp42
 70
1
102
RTVSPost2010Prop43
 90
3
102
RTVSPost2010PropOp43
 70
1
102
RTVSPost2010Prop44ColorIndex
 90
5
102
RTVSPost2010Prop44ColorRGB
 90
255
102
RTVSPost2010PropOp44
 70
1
102
RTVSPost2010Prop45
280
0
102
RTVSPost2010PropOp45
 70
1
102
RTVSPost2010Prop46
 90
50
102
RTVSPost2010PropOp46
 70
1
102
RTVSPost2010Prop47
 90
50
102
RTVSPost2010PropOp47
 70
1
102
RTVSPost2010Prop48
 90
50
102
RTVSPost2010PropOp48
 70
1
102
RTVSPost2010Prop49
280
0
102
RTVSPost2010PropOp49
 70
1
102
RTVSPost2010Prop50
 90
50
102
RTVSPost2010PropOp50
 70
1
102
RTVSPost2010Prop51ColorIndex
 90
256
102
RTVSPost2010Prop51ColorRGB
 90
-16777216
102
RTVSPost2010PropOp51
 70
0
102
RTVSPost2010Prop52
140
1.0
102
RTVSPost2010PropOp52
 70
0
102
RTVSPost2010Prop53
 90
2
102
RTVSPost2010PropOp53
 70
1
102
RTVSPost2010Prop54
  1
strokes_ogs.tif
102
RTVSPost2010PropOp54
 70
1
102
RTVSPost2010Prop55
280
0
102
RTVSPost2010PropOp55
 70
1
102
RTVSPost2010Prop56
140
1.0
102
RTVSPost2010PropOp56
 70
1
102
RTVSPost2010Prop57
140
1.0
102
RTVSPost2010PropOp57
 70
1
102
RTVSPropertyOp0
 70
1
102
RTVSPropertyOp1
 70
1
102
RTVSPropertyOp2
 70
1
102
RTVSPropertyOp3
 70
1
102
RTVSPropertyOp4
 70
1
102
RTVSPropertyOp5
 70
1
102
RTVSPropertyOp6
 70
1
102
RTVSPropertyOp7
 70
1
102
RTVSPropertyOp8
 70
1
102
RTVSPropertyOp9
 70
1
102
RTVSPropertyOp10
 70
1
102
RTVSPropertyOp11
 70
1
102
RTVSPropertyOp12
 70
1
102
RTVSPropertyOp13
 70
1
102
RTVSPropertyOp14
 70
1
102
RTVSPropertyOp15
 70
1
102
RTVSPropertyOp16
 70
1
102
RTVSPropertyOp17
 70
1
102
RTVSPropertyOp18
 70
1
102
RTVSPropertyOp19
 70
1
102
RTVSPropertyOp20
 70
1
102
RTVSPropertyOp21
 70
1
102
RTVSPropertyOp22
 70
1
102
RTVSPropertyOp23
 70
1
102
RTVSPropertyOp24
 70
1
102
RTVSPropertyOp25
 70
1
102
RTVSPropertyOp26
 70
1
102
RTVSPropertyOp27
 70
1
102
RTVSPropertyOp28
 70
1
102
RTVSPropertyOp29
 70
1
102
RTVSPropertyOp30
 70
1
102
RTVSPropertyOp31
 70
1
102
RTVSPropertyOp32
 70
1
102
RTVSPropertyOp33
 70
1
102
RTVSPropertyOp34
 70
1
102
RTVSPropertyOp35
 70
1
102
RTVSPropertyOp36
 70
1
102
RTVSPropertyOp37
 70
1
102
RTVSPropertyOp38
 70
1
102
RTVSPropertyOp39
 70
1
102
RTVSPropertyOp40
 70
1
102
RTVSPropertyOp41
 70
1
102
RTVSPropertyOp42
 70
1
102
RTVSPropertyOp43
 70
1
102
RTVSPropertyOp44
 70
1
102
RTVSPropertyOp45
 70
1
102
RTVSPropertyOp46
 70
1
102
RTVSPropertyOp47
 70
1
102
RTVSPropertyOp48
 70
1
102
RTVSPropertyOp49
 70
1
102
RTVSPropertyOp50
 70
1
102
RTVSPropertyOp51
 70
0
102
RTVSPropertyOp52
 70
0
102
RTVSPropertyOp53
 70
1
102
RTVSPropertyOp54
 70
1
102
RTVSPropertyOp55
 70
1
102
RTVSPropertyOp56
 70
1
102
RTVSPropertyOp57
 70
1
102
RTVSPropertyOp58
 70
1
102
RTVSPropertyOp59
 70
1
102
RTVSPropertyOp60
 70
1
102
RTVSPropertyOp61
 70
1
102
RTVSPropertyOp62
 70
1
  0
DICTIONARY
  5
F07
330
9D2
100
AcDbDictionary
281
1
  3
WRITTEN_BY_EZDXF
350
F08
  0
DICTIONARYVAR
  5
F08
330
F07
100
DictionaryVariables
280
0
  1
0.16.4 @ 2022-09-06T04:16:44.101848+00:00
  0
ENDSEC
  0
EOF
